  0
SECTION
  2
HEADER
  9
$ACADVER
  1
AC1006
  9
$DWGCODEPAGE
  3
ansi_932
  9
$INSBASE
 10
0.0
 20
0.0
 30
0.0
  9
$EXTMIN
 10
-320.6
 20
77.35
  9
$EXTMAX
 10
-85.4
 20
186.55
  9
$LIMMIN
 10
0.0
 20
0.0
  9
$LIMMAX
 10
12.0
 20
9.0
  9
$ORTHOMODE
 70
     0
  9
$REGENMODE
 70
     1
  9
$FILLMODE
 70
     1
  9
$QTEXTMODE
 70
     0
  9
$MIRRTEXT
 70
     1
  9
$DRAGMODE
 70
     2
  9
$LTSCALE
 40
1.0
  9
$OSMODE
 70
    37
  9
$ATTMODE
 70
     1
  9
$TEXTSIZE
 40
0.2
  9
$TRACEWID
 40
0.05
  9
$TEXTSTYLE
  7
STANDARD
  9
$CLAYER
  8
0
  9
$CELTYPE
  6
BYLAYER
  9
$CECOLOR
 62
   256
  9
$DIMSCALE
 40
1.0
  9
$DIMASZ
 40
3.0
  9
$DIMEXO
 40
0.0625
  9
$DIMDLI
 40
0.38
  9
$DIMRND
 40
0.0
  9
$DIMDLE
 40
0.0
  9
$DIMEXE
 40
1.5
  9
$DIMTP
 40
0.0
  9
$DIMTM
 40
0.0
  9
$DIMTXT
 40
3.0
  9
$DIMCEN
 40
0.09
  9
$DIMTSZ
 40
0.0
  9
$DIMTOL
 70
     0
  9
$DIMLIM
 70
     0
  9
$DIMTIH
 70
     1
  9
$DIMTOH
 70
     1
  9
$DIMSE1
 70
     0
  9
$DIMSE2
 70
     0
  9
$DIMTAD
 70
     1
  9
$DIMZIN
 70
     0
  9
$DIMBLK
  1

  9
$DIMASO
 70
     1
  9
$DIMSHO
 70
     1
  9
$DIMPOST
  1

  9
$DIMAPOST
  1

  9
$DIMALT
 70
     0
  9
$DIMALTD
 70
     2
  9
$DIMALTF
 40
25.4
  9
$DIMLFAC
 40
1.0
  9
$DIMTOFL
 70
     0
  9
$DIMTVP
 40
0.0
  9
$DIMTIX
 70
     0
  9
$DIMSOXD
 70
     0
  9
$DIMSAH
 70
     0
  9
$DIMBLK1
  1

  9
$DIMBLK2
  1

  9
$LUNITS
 70
     2
  9
$LUPREC
 70
     4
  9
$SKETCHINC
 40
0.1
  9
$FILLETRAD
 40
0.5
  9
$AUNITS
 70
     0
  9
$AUPREC
 70
     0
  9
$MENU
  1
.
  9
$ELEVATION
 40
0.0
  9
$THICKNESS
 40
0.0
  9
$LIMCHECK
 70
     0
  9
$CHAMFERA
 40
0.0
  9
$CHAMFERB
 40
0.0
  9
$SKPOLY
 70
     0
  9
$TDCREATE
 40
2460591.572089236
  9
$TDUPDATE
 40
2460591.572089363
  9
$TDINDWG
 40
0.0000000116
  9
$TDUSRTIMER
 40
0.0000000116
  9
$USRTIMER
 70
     1
  9
$ANGBASE
 50
0.0
  9
$ANGDIR
 70
     0
  9
$PDMODE
 70
     0
  9
$PDSIZE
 40
0.0
  9
$PLINEWID
 40
0.0
  9
$COORDS
 70
     1
  9
$SPLFRAME
 70
     0
  9
$SPLINETYPE
 70
     6
  9
$SPLINESEGS
 70
     8
  9
$ATTDIA
 70
     0
  9
$ATTREQ
 70
     1
  9
$HANDLING
 70
     1
  9
$HANDSEED
  5
93C
  9
$SURFTAB1
 70
     6
  9
$SURFTAB2
 70
     6
  9
$SURFTYPE
 70
     6
  9
$SURFU
 70
     6
  9
$SURFV
 70
     6
  9
$UCSNAME
  2

  9
$UCSORG
 10
0.0
 20
0.0
 30
0.0
  9
$UCSXDIR
 10
1.0
 20
0.0
 30
0.0
  9
$UCSYDIR
 10
0.0
 20
1.0
 30
0.0
  9
$USERI1
 70
     0
  9
$USERI2
 70
     0
  9
$USERI3
 70
     0
  9
$USERI4
 70
     0
  9
$USERI5
 70
     0
  9
$USERR1
 40
0.0
  9
$USERR2
 40
0.0
  9
$USERR3
 40
0.0
  9
$USERR4
 40
0.0
  9
$USERR5
 40
0.0
  9
$WORLDVIEW
 70
     1
  0
ENDSEC
  0
SECTION
  2
TABLES
  0
TABLE
  2
VPORT
 70
     1
  0
VPORT
  2
*ACTIVE
 70
     0
 10
0.0
 20
0.0
 11
1.0
 21
1.0
 12
-203.0
 22
131.95
 13
0.0
 23
0.0
 14
0.5
 24
0.5
 15
0.5
 25
0.5
 16
0.0
 26
0.0
 36
1.0
 17
0.0
 27
0.0
 37
0.0
 40
109.2
 41
1.6
 42
50.0
 43
0.0
 44
0.0
 50
0.0
 51
0.0
 71
     0
 72
   100
 73
     1
 74
     3
 75
     0
 76
     0
 77
     0
 78
     0
  0
ENDTAB
  0
TABLE
  2
LTYPE
 70
     2
  0
LTYPE
  2
CONTINUOUS
 70
     0
  3
Solid line
 72
    65
 73
     0
 40
0.0
  0
LTYPE
  2
CENTER
 70
     0
  3

 72
    65
 73
     0
 40
0.0
  0
ENDTAB
  0
TABLE
  2
LAYER
 70
     2
  0
LAYER
  2
0
 70
     0
 62
     7
  6
CONTINUOUS
  0
LAYER
  2
1
 70
     0
 62
     7
  6
CONTINUOUS
  0
ENDTAB
  0
TABLE
  2
STYLE
 70
     2
  0
STYLE
  2
STANDARD
 70
     0
 40
0.0
 41
1.0
 50
0.0
 71
     0
 42
0.2
  3
txt
  4

  0
STYLE
  2
ＭＳ_ゴシック
 70
     0
 40
0.0
 41
1.0
 50
0.0
 71
     0
 42
0.2
  3
ＭＳ ゴシック.shx
  4

  0
ENDTAB
  0
TABLE
  2
VIEW
 70
     0
  0
ENDTAB
  0
TABLE
  2
UCS
 70
     0
  0
ENDTAB
  0
ENDSEC
  0
SECTION
  2
BLOCKS
  0
BLOCK
  8
0
  2
D_FRAME_VIEW_2744
 70
     0
 10
0.0
 20
0.0
 30
0.0
  0
LINE
  5
7D
  8
1
  6
CONTINUOUS
 62
     7
 10
-103.6587506694135
 20
157.0388597410887
 30
0.0
 11
-103.6580602657328
 21
158.6370402501923
 31
0.0
  0
POLYLINE
  5
7E
  8
1
  6
CONTINUOUS
 62
     7
 66
     1
 10
0.0
 20
0.0
 30
0.0
  0
VERTEX
  5
3A9
  8
1
  6
CONTINUOUS
 62
     7
 10
-102.9578820466013
 20
159.0494394816027
 30
0.0
  0
VERTEX
  5
3AA
  8
1
  6
CONTINUOUS
 62
     7
 10
-102.991569313196
 20
159.0487441464414
 30
0.0
  0
VERTEX
  5
3AB
  8
1
  6
CONTINUOUS
 62
     7
 10
-103.0252080822713
 20
159.0466306378248
 30
0.0
  0
VERTEX
  5
3AC
  8
1
  6
CONTINUOUS
 62
     7
 10
-103.0587721719
 20
159.0430961554092
 30
0.0
  0
VERTEX
  5
3AD
  8
1
  6
CONTINUOUS
 62
     7
 10
-103.0919447637025
 20
159.0381852257825
 30
0.0
  0
VERTEX
  5
3AE
  8
1
  6
CONTINUOUS
 62
     7
 10
-103.1248422306568
 20
159.031896635472
 30
0.0
  0
VERTEX
  5
3AF
  8
1
  6
CONTINUOUS
 62
     7
 10
-103.1574571242846
 20
159.024234763485
 30
0.0
  0
VERTEX
  5
3B0
  8
1
  6
CONTINUOUS
 62
     7
 10
-103.1896590046447
 20
159.0152326271946
 30
0.0
  0
VERTEX
  5
3B1
  8
1
  6
CONTINUOUS
 62
     7
 10
-103.2214650537292
 20
159.0048904578688
 30
0.0
  0
VERTEX
  5
3B2
  8
1
  6
CONTINUOUS
 62
     7
 10
-103.2542663251384
 20
158.9926495519697
 30
0.0
  0
VERTEX
  5
3B3
  8
1
  6
CONTINUOUS
 62
     7
 10
-103.2865702874337
 20
158.9789538513832
 30
0.0
  0
VERTEX
  5
3B4
  8
1
  6
CONTINUOUS
 62
     7
 10
-103.3174191045405
 20
158.9642688697952
 30
0.0
  0
VERTEX
  5
3B5
  8
1
  6
CONTINUOUS
 62
     7
 10
-103.3476188183356
 20
158.9482775284112
 30
0.0
  0
VERTEX
  5
3B6
  8
1
  6
CONTINUOUS
 62
     7
 10
-103.3761211937806
 20
158.9316158547267
 30
0.0
  0
VERTEX
  5
3B7
  8
1
  6
CONTINUOUS
 62
     7
 10
-103.4039160216011
 20
158.9137902676705
 30
0.0
  0
VERTEX
  5
3B8
  8
1
  6
CONTINUOUS
 62
     7
 10
-103.4304779725917
 20
158.8951788069984
 30
0.0
  0
VERTEX
  5
3B9
  8
1
  6
CONTINUOUS
 62
     7
 10
-103.4562663885362
 20
158.8755045739307
 30
0.0
  0
VERTEX
  5
3BA
  8
1
  6
CONTINUOUS
 62
     7
 10
-103.48188452096
 20
158.8542395051161
 30
0.0
  0
VERTEX
  5
3BB
  8
1
  6
CONTINUOUS
 62
     7
 10
-103.5065971543018
 20
158.831926360679
 30
0.0
  0
VERTEX
  5
3BC
  8
1
  6
CONTINUOUS
 62
     7
 10
-103.5304727395362
 20
158.8084878935535
 30
0.0
  0
VERTEX
  5
3BD
  8
1
  6
CONTINUOUS
 62
     7
 10
-103.5533477072922
 20
158.7840722406117
 30
0.0
  0
VERTEX
  5
3BE
  8
1
  6
CONTINUOUS
 62
     7
 10
-103.5752964514422
 20
158.7585815490313
 30
0.0
  0
VERTEX
  5
3BF
  8
1
  6
CONTINUOUS
 62
     7
 10
-103.5961534848392
 20
158.7321927212204
 30
0.0
  0
VERTEX
  5
3C0
  8
1
  6
CONTINUOUS
 62
     7
 10
-103.6159752190495
 20
158.7048158842143
 30
0.0
  0
VERTEX
  5
3C1
  8
1
  6
CONTINUOUS
 62
     7
 10
-103.6346213939572
 20
158.6766297849765
 30
0.0
  0
VERTEX
  5
3C2
  8
1
  6
CONTINUOUS
 62
     7
 10
-103.646621186242
 20
158.6570108106804
 30
0.0
  0
VERTEX
  5
3C3
  8
1
  6
CONTINUOUS
 62
     7
 10
-103.6580602657281
 20
158.6370402501923
 30
0.0
  0
SEQEND
  5
910
  8
1
  6
CONTINUOUS
 62
     7
  0
LINE
  5
7F
  8
1
  6
CONTINUOUS
 62
     7
 10
-102.1527793800665
 20
159.0490916828553
 30
0.0
 11
-102.9578820466012
 21
159.0494394820189
 31
0.0
  0
ARC
  5
80
  8
1
  6
CONTINUOUS
 62
     7
 10
-104.2576659285417
 20
159.5500010265205
 30
0.0
 40
2.163667616094677
 50
346.6140485628358
 51
13.3364486252147
  0
LINE
  5
81
  8
1
  6
CONTINUOUS
 62
     7
 10
-102.9574500530859
 20
160.0494393887097
 30
0.0
 11
-102.1523473865511
 21
160.0490915895461
 31
0.0
  0
POLYLINE
  5
82
  8
1
  6
CONTINUOUS
 62
     7
 66
     1
 10
0.0
 20
0.0
 30
0.0
  0
VERTEX
  5
3C4
  8
1
  6
CONTINUOUS
 62
     7
 10
-103.6572717033263
 20
160.4624434106238
 30
0.0
  0
VERTEX
  5
3C5
  8
1
  6
CONTINUOUS
 62
     7
 10
-103.6405109239435
 20
160.4335654076508
 30
0.0
  0
VERTEX
  5
3C6
  8
1
  6
CONTINUOUS
 62
     7
 10
-103.6225411589063
 20
160.4053830106432
 30
0.0
  0
VERTEX
  5
3C7
  8
1
  6
CONTINUOUS
 62
     7
 10
-103.6034111092364
 20
160.3779701026006
 30
0.0
  0
VERTEX
  5
3C8
  8
1
  6
CONTINUOUS
 62
     7
 10
-103.5831694759552
 20
160.3514005665227
 30
0.0
  0
VERTEX
  5
3C9
  8
1
  6
CONTINUOUS
 62
     7
 10
-103.5620617720949
 20
160.3259678963751
 30
0.0
  0
VERTEX
  5
3CA
  8
1
  6
CONTINUOUS
 62
     7
 10
-103.5399013668072
 20
160.3014064007763
 30
0.0
  0
VERTEX
  5
3CB
  8
1
  6
CONTINUOUS
 62
     7
 10
-103.5167470358564
 20
160.2777786960088
 30
0.0
  0
VERTEX
  5
3CC
  8
1
  6
CONTINUOUS
 62
     7
 10
-103.492657555007
 20
160.2551473983548
 30
0.0
  0
VERTEX
  5
3CD
  8
1
  6
CONTINUOUS
 62
     7
 10
-103.4669086889654
 20
160.2329210218082
 30
0.0
  0
VERTEX
  5
3CE
  8
1
  6
CONTINUOUS
 62
     7
 10
-103.4402154095553
 20
160.2117911380843
 30
0.0
  0
VERTEX
  5
3CF
  8
1
  6
CONTINUOUS
 62
     7
 10
-103.4126524858696
 20
160.1918139251824
 30
0.0
  0
VERTEX
  5
3D0
  8
1
  6
CONTINUOUS
 62
     7
 10
-103.3842946870009
 20
160.1730455611018
 30
0.0
  0
VERTEX
  5
3D1
  8
1
  6
CONTINUOUS
 62
     7
 10
-103.3560495485357
 20
160.1560140795449
 30
0.0
  0
VERTEX
  5
3D2
  8
1
  6
CONTINUOUS
 62
     7
 10
-103.3271060345388
 20
160.1401500522659
 30
0.0
  0
VERTEX
  5
3D3
  8
1
  6
CONTINUOUS
 62
     7
 10
-103.2975398824705
 20
160.1254921741196
 30
0.0
  0
VERTEX
  5
3D4
  8
1
  6
CONTINUOUS
 62
     7
 10
-103.267426829791
 20
160.112079139961
 30
0.0
  0
VERTEX
  5
3D5
  8
1
  6
CONTINUOUS
 62
     7
 10
-103.2358996677417
 20
160.0995936576876
 30
0.0
  0
VERTEX
  5
3D6
  8
1
  6
CONTINUOUS
 62
     7
 10
-103.2038504655977
 20
160.088447851929
 30
0.0
  0
VERTEX
  5
3D7
  8
1
  6
CONTINUOUS
 62
     7
 10
-103.1713671376497
 20
160.0786690635474
 30
0.0
  0
VERTEX
  5
3D8
  8
1
  6
CONTINUOUS
 62
     7
 10
-103.1385375981887
 20
160.0702846334052
 30
0.0
  0
VERTEX
  5
3D9
  8
1
  6
CONTINUOUS
 62
     7
 10
-103.1027898511867
 20
160.0628233981422
 30
0.0
  0
VERTEX
  5
3DA
  8
1
  6
CONTINUOUS
 62
     7
 10
-103.0666934681878
 20
160.0569968318111
 30
0.0
  0
VERTEX
  5
3DB
  8
1
  6
CONTINUOUS
 62
     7
 10
-103.0303622041796
 20
160.0528163586003
 30
0.0
  0
VERTEX
  5
3DC
  8
1
  6
CONTINUOUS
 62
     7
 10
-102.9939098141498
 20
160.0502934026983
 30
0.0
  0
VERTEX
  5
3DD
  8
1
  6
CONTINUOUS
 62
     7
 10
-102.957450053086
 20
160.0494393882935
 30
0.0
  0
SEQEND
  5
911
  8
1
  6
CONTINUOUS
 62
     7
  0
LINE
  5
83
  8
1
  6
CONTINUOUS
 62
     7
 10
-103.6572717033311
 20
160.4624434106239
 30
0.0
 11
-103.6565812996504
 21
162.0606239197377
 31
0.0
  0
LINE
  5
84
  8
1
  6
CONTINUOUS
 62
     7
 10
-104.8565811876794
 20
162.0611423119561
 30
0.0
 11
-104.8572715913601
 21
160.4629618028423
 31
0.0
  0
POLYLINE
  5
85
  8
1
  6
CONTINUOUS
 62
     7
 66
     1
 10
0.0
 20
0.0
 30
0.0
  0
VERTEX
  5
3DE
  8
1
  6
CONTINUOUS
 62
     7
 10
-105.5574498104821
 20
160.0505625714333
 30
0.0
  0
VERTEX
  5
3DF
  8
1
  6
CONTINUOUS
 62
     7
 10
-105.524541050537
 20
160.0512254963432
 30
0.0
  0
VERTEX
  5
3E0
  8
1
  6
CONTINUOUS
 62
     7
 10
-105.4915366044517
 20
160.0532542635299
 30
0.0
  0
VERTEX
  5
3E1
  8
1
  6
CONTINUOUS
 62
     7
 10
-105.4586340457672
 20
160.0566458603311
 30
0.0
  0
VERTEX
  5
3E2
  8
1
  6
CONTINUOUS
 62
     7
 10
-105.4254244065621
 20
160.0614744615485
 30
0.0
  0
VERTEX
  5
3E3
  8
1
  6
CONTINUOUS
 62
     7
 10
-105.3924365660079
 20
160.0676930535482
 30
0.0
  0
VERTEX
  5
3E4
  8
1
  6
CONTINUOUS
 62
     7
 10
-105.359259765939
 20
160.0754128080236
 30
0.0
  0
VERTEX
  5
3E5
  8
1
  6
CONTINUOUS
 62
     7
 10
-105.3264323095427
 20
160.0845399959908
 30
0.0
  0
VERTEX
  5
3E6
  8
1
  6
CONTINUOUS
 62
     7
 10
-105.2938668033542
 20
160.0951115951661
 30
0.0
  0
VERTEX
  5
3E7
  8
1
  6
CONTINUOUS
 62
     7
 10
-105.262920696208
 20
160.1066162239423
 30
0.0
  0
VERTEX
  5
3E8
  8
1
  6
CONTINUOUS
 62
     7
 10
-105.2323375821069
 20
160.1194495436031
 30
0.0
  0
VERTEX
  5
3E9
  8
1
  6
CONTINUOUS
 62
     7
 10
-105.2023062100065
 20
160.1335420122959
 30
0.0
  0
VERTEX
  5
3EA
  8
1
  6
CONTINUOUS
 62
     7
 10
-105.17245858372
 20
160.1491017184837
 30
0.0
  0
VERTEX
  5
3EB
  8
1
  6
CONTINUOUS
 62
     7
 10
-105.1432866821525
 20
160.1659056126793
 30
0.0
  0
VERTEX
  5
3EC
  8
1
  6
CONTINUOUS
 62
     7
 10
-105.1144333984085
 20
160.1841977314062
 30
0.0
  0
VERTEX
  5
3ED
  8
1
  6
CONTINUOUS
 62
     7
 10
-105.0863835619197
 20
160.2037069749466
 30
0.0
  0
VERTEX
  5
3EE
  8
1
  6
CONTINUOUS
 62
     7
 10
-105.0590654685472
 20
160.2244974791036
 30
0.0
  0
VERTEX
  5
3EF
  8
1
  6
CONTINUOUS
 62
     7
 10
-105.0337285044259
 20
160.2455188083791
 30
0.0
  0
VERTEX
  5
3F0
  8
1
  6
CONTINUOUS
 62
     7
 10
-105.0091728385993
 20
160.2676639421867
 30
0.0
  0
VERTEX
  5
3F1
  8
1
  6
CONTINUOUS
 62
     7
 10
-104.9855524188137
 20
160.2908049211235
 30
0.0
  0
VERTEX
  5
3F2
  8
1
  6
CONTINUOUS
 62
     7
 10
-104.9625900280188
 20
160.3152566296768
 30
0.0
  0
VERTEX
  5
3F3
  8
1
  6
CONTINUOUS
 62
     7
 10
-104.9406730670405
 20
160.3406481520178
 30
0.0
  0
VERTEX
  5
3F4
  8
1
  6
CONTINUOUS
 62
     7
 10
-104.9195464675452
 20
160.3673238611649
 30
0.0
  0
VERTEX
  5
3F5
  8
1
  6
CONTINUOUS
 62
     7
 10
-104.8995745229555
 20
160.3948710406452
 30
0.0
  0
VERTEX
  5
3F6
  8
1
  6
CONTINUOUS
 62
     7
 10
-104.8807104631262
 20
160.423372268058
 30
0.0
  0
VERTEX
  5
3F7
  8
1
  6
CONTINUOUS
 62
     7
 10
-104.8687058191888
 20
160.4429995747681
 30
0.0
  0
VERTEX
  5
3F8
  8
1
  6
CONTINUOUS
 62
     7
 10
-104.8572715913553
 20
160.4629618028422
 30
0.0
  0
SEQEND
  5
912
  8
1
  6
CONTINUOUS
 62
     7
  0
LINE
  5
86
  8
1
  6
CONTINUOUS
 62
     7
 10
-106.3625524770167
 20
160.0509103710131
 30
0.0
 11
-105.5574498104819
 21
160.0505625718495
 31
0.0
  0
ARC
  5
87
  8
1
  6
CONTINUOUS
 62
     7
 10
-104.2576659285417
 20
159.5500010265205
 30
0.0
 40
2.16366761609467
 50
166.6140485628358
 51
193.3364486252146
  0
LINE
  5
88
  8
1
  6
CONTINUOUS
 62
     7
 10
-105.5578818039972
 20
159.0505626651587
 30
0.0
 11
-106.362984470532
 21
159.0509104643223
 31
0.0
  0
POLYLINE
  5
89
  8
1
  6
CONTINUOUS
 62
     7
 66
     1
 10
0.0
 20
0.0
 30
0.0
  0
VERTEX
  5
3F9
  8
1
  6
CONTINUOUS
 62
     7
 10
-104.8580601537571
 20
158.6375586424107
 30
0.0
  0
VERTEX
  5
3FA
  8
1
  6
CONTINUOUS
 62
     7
 10
-104.87482093314
 20
158.6664366453837
 30
0.0
  0
VERTEX
  5
3FB
  8
1
  6
CONTINUOUS
 62
     7
 10
-104.8927906981771
 20
158.6946190423913
 30
0.0
  0
VERTEX
  5
3FC
  8
1
  6
CONTINUOUS
 62
     7
 10
-104.911920747847
 20
158.7220319504338
 30
0.0
  0
VERTEX
  5
3FD
  8
1
  6
CONTINUOUS
 62
     7
 10
-104.9321623811282
 20
158.7486014865117
 30
0.0
  0
VERTEX
  5
3FE
  8
1
  6
CONTINUOUS
 62
     7
 10
-104.9532700849885
 20
158.7740341566592
 30
0.0
  0
VERTEX
  5
3FF
  8
1
  6
CONTINUOUS
 62
     7
 10
-104.9754304902763
 20
158.798595652258
 30
0.0
  0
VERTEX
  5
400
  8
1
  6
CONTINUOUS
 62
     7
 10
-104.998584821227
 20
158.8222233570256
 30
0.0
  0
VERTEX
  5
401
  8
1
  6
CONTINUOUS
 62
     7
 10
-105.0226743020764
 20
158.8448546546795
 30
0.0
  0
VERTEX
  5
402
  8
1
  6
CONTINUOUS
 62
     7
 10
-105.048423168118
 20
158.8670810312262
 30
0.0
  0
VERTEX
  5
403
  8
1
  6
CONTINUOUS
 62
     7
 10
-105.0751164475281
 20
158.8882109149501
 30
0.0
  0
VERTEX
  5
404
  8
1
  6
CONTINUOUS
 62
     7
 10
-105.1026793712138
 20
158.908188127852
 30
0.0
  0
VERTEX
  5
405
  8
1
  6
CONTINUOUS
 62
     7
 10
-105.1310371700825
 20
158.9269564919327
 30
0.0
  0
VERTEX
  5
406
  8
1
  6
CONTINUOUS
 62
     7
 10
-105.1592823085477
 20
158.9439879734896
 30
0.0
  0
VERTEX
  5
407
  8
1
  6
CONTINUOUS
 62
     7
 10
-105.1882258225446
 20
158.9598520007687
 30
0.0
  0
VERTEX
  5
408
  8
1
  6
CONTINUOUS
 62
     7
 10
-105.217791974613
 20
158.9745098789151
 30
0.0
  0
VERTEX
  5
409
  8
1
  6
CONTINUOUS
 62
     7
 10
-105.2479050272924
 20
158.9879229130737
 30
0.0
  0
VERTEX
  5
40A
  8
1
  6
CONTINUOUS
 62
     7
 10
-105.2794321893417
 20
159.0004083953472
 30
0.0
  0
VERTEX
  5
40B
  8
1
  6
CONTINUOUS
 62
     7
 10
-105.3114813914857
 20
159.011554201106
 30
0.0
  0
VERTEX
  5
40C
  8
1
  6
CONTINUOUS
 62
     7
 10
-105.3439647194337
 20
159.0213329894877
 30
0.0
  0
VERTEX
  5
40D
  8
1
  6
CONTINUOUS
 62
     7
 10
-105.3767942588947
 20
159.0297174196299
 30
0.0
  0
VERTEX
  5
40E
  8
1
  6
CONTINUOUS
 62
     7
 10
-105.4125420058966
 20
159.0371786548931
 30
0.0
  0
VERTEX
  5
40F
  8
1
  6
CONTINUOUS
 62
     7
 10
-105.4486383888956
 20
159.0430052212244
 30
0.0
  0
VERTEX
  5
410
  8
1
  6
CONTINUOUS
 62
     7
 10
-105.4849696529038
 20
159.0471856944353
 30
0.0
  0
VERTEX
  5
411
  8
1
  6
CONTINUOUS
 62
     7
 10
-105.5214220429336
 20
159.0497086503375
 30
0.0
  0
VERTEX
  5
412
  8
1
  6
CONTINUOUS
 62
     7
 10
-105.5578818039974
 20
159.0505626647425
 30
0.0
  0
SEQEND
  5
913
  8
1
  6
CONTINUOUS
 62
     7
  0
LINE
  5
8A
  8
1
  6
CONTINUOUS
 62
     7
 10
-104.8580601537618
 20
158.6375586424107
 30
0.0
 11
-104.8587505574425
 21
157.0393781333071
 31
0.0
  0
LINE
  5
8B
  8
1
  6
CONTINUOUS
 62
     7
 10
-103.6591141974601
 20
156.1973470698257
 30
0.0
 11
-103.6587506694088
 21
157.0388597410889
 31
0.0
  0
LINE
  5
8C
  8
1
  6
CONTINUOUS
 62
     7
 10
-103.6565812996457
 20
162.0606239197376
 30
0.0
 11
-103.656217771595
 21
162.9021365910508
 31
0.0
  0
LINE
  5
8D
  8
1
  6
CONTINUOUS
 62
     7
 10
-104.8587505574378
 20
157.0393781333072
 30
0.0
 11
-104.859114085489
 21
156.1978654620441
 31
0.0
  0
LINE
  5
8E
  8
1
  6
CONTINUOUS
 62
     7
 10
-104.856217659624
 20
162.9026549832719
 30
0.0
 11
-104.8565811876747
 21
162.061142311956
 31
0.0
  0
ARC
  5
8F
  8
1
  6
CONTINUOUS
 62
     7
 10
-104.2576659285424
 20
159.5500010265775
 30
0.0
 40
3.500000000000022
 50
259.3115405940448
 51
359.9752485940253
  0
ARC
  5
90
  8
1
  6
CONTINUOUS
 62
     7
 10
-104.2576659285424
 20
159.5500010265775
 30
0.0
 40
3.500000000000028
 50
359.9752485940252
 51
259.3115405940448
  0
LINE
  5
91
  8
1
  6
CONTINUOUS
 62
     7
 10
-103.7571043836269
 20
160.8497849085011
 30
0.0
 11
-103.7570806971189
 21
160.9046156059546
 31
0.0
  0
ARC
  5
92
  8
1
  6
CONTINUOUS
 62
     7
 10
-104.2576659285422
 20
159.5500010265608
 30
0.0
 40
1.444148964832067
 50
69.71867643232268
 51
110.2318207557276
  0
LINE
  5
93
  8
1
  6
CONTINUOUS
 62
     7
 10
-104.7570806038097
 20
160.9050475994699
 30
0.0
 11
-104.7571042903177
 21
160.8502169020164
 31
0.0
  0
ARC
  5
94
  8
1
  6
CONTINUOUS
 62
     7
 10
-105.5571042156703
 20
160.8505624968287
 30
0.0
 40
0.7999999999999999
 50
331.0202242221666
 51
359.9752485940253
  0
ARC
  5
95
  8
1
  6
CONTINUOUS
 62
     7
 10
-102.9571044582742
 20
160.8494393136889
 30
0.0
 40
0.7999999999999973
 50
179.9752485940271
 51
208.9302729658859
  0
LINE
  5
96
  8
1
  6
CONTINUOUS
 62
     7
 10
-104.7582274734575
 20
158.2502171446204
 30
0.0
 11
-104.7582511599655
 21
158.1953864471669
 31
0.0
  0
ARC
  5
97
  8
1
  6
CONTINUOUS
 62
     7
 10
-104.2576659285422
 20
159.5500010265608
 30
0.0
 40
1.444148964832036
 50
249.7186764323232
 51
290.2318207557277
  0
LINE
  5
98
  8
1
  6
CONTINUOUS
 62
     7
 10
-103.7582512532747
 20
158.1949544536516
 30
0.0
 11
-103.7582275667667
 21
158.2497851511051
 31
0.0
  0
ARC
  5
99
  8
1
  6
CONTINUOUS
 62
     7
 10
-102.958227641414
 20
158.2494395562928
 30
0.0
 40
0.7999999999999999
 50
151.020224222166
 51
179.9752485940253
  0
ARC
  5
9A
  8
1
  6
CONTINUOUS
 62
     7
 10
-105.5582273988101
 20
158.2505627394327
 30
0.0
 40
0.7999999999999973
 50
359.9752485940253
 51
28.93027296588588
  0
CIRCLE
  5
9B
  8
1
  6
CONTINUOUS
 62
     7
 10
-104.2576659285424
 20
159.5500010265775
 30
0.0
 40
1.021236244656221
  0
ARC
  5
9C
  8
1
  6
CONTINUOUS
 62
     7
 10
-104.2576659285426
 20
159.5500010266005
 30
0.0
 40
4.324999999999989
 50
322.3286741933572
 51
337.6218229946946
  0
LINE
  5
9D
  8
1
  6
CONTINUOUS
 62
     7
 10
-103.6840242335717
 20
155.2632119944938
 30
0.0
 11
-100.8343009356186
 21
156.9068595008356
 31
0.0
  0
ARC
  5
9E
  8
1
  6
CONTINUOUS
 62
     7
 10
-104.2576659285426
 20
159.5500010266005
 30
0.0
 40
4.324999999999981
 50
262.3286741933563
 51
277.6218229946942
  0
LINE
  5
9F
  8
1
  6
CONTINUOUS
 62
     7
 10
-107.6833132835262
 20
156.9098182300323
 30
0.0
 11
-104.8350111391906
 21
155.2637092134196
 31
0.0
  0
ARC
  5
A0
  8
1
  6
CONTINUOUS
 62
     7
 10
-104.2576659285426
 20
159.5500010266005
 30
0.0
 40
4.325000000000001
 50
202.3286741933559
 51
217.6218229946933
  0
LINE
  5
A1
  8
1
  6
CONTINUOUS
 62
     7
 10
-108.2569549784971
 20
161.1966072621391
 30
0.0
 11
-108.2583761321146
 21
157.9068507391844
 31
0.0
  0
ARC
  5
A2
  8
1
  6
CONTINUOUS
 62
     7
 10
-104.2576659285426
 20
159.5500010266005
 30
0.0
 40
4.324999999999999
 50
142.3286741933572
 51
157.6218229946944
  0
LINE
  5
A3
  8
1
  6
CONTINUOUS
 62
     7
 10
-104.8313076235136
 20
163.8367900587072
 30
0.0
 11
-107.6810309214666
 21
162.1931425523653
 31
0.0
  0
ARC
  5
A4
  8
1
  6
CONTINUOUS
 62
     7
 10
-104.2576659285426
 20
159.5500010266005
 30
0.0
 40
4.32500000000001
 50
82.32867419335624
 51
97.62182299469436
  0
LINE
  5
A5
  8
1
  6
CONTINUOUS
 62
     7
 10
-100.8320185735591
 20
162.1901838231686
 30
0.0
 11
-103.6803207178946
 21
163.8362928397814
 31
0.0
  0
ARC
  5
A6
  8
1
  6
CONTINUOUS
 62
     7
 10
-104.2576659285426
 20
159.5500010266005
 30
0.0
 40
4.325000000000001
 50
22.32867419335582
 51
37.62182299469333
  0
LINE
  5
A7
  8
1
  6
CONTINUOUS
 62
     7
 10
-100.2583768785881
 20
157.9033947910619
 30
0.0
 11
-100.2583731182191
 21
157.9120994786767
 31
0.0
  0
LINE
  5
A8
  8
1
  6
CONTINUOUS
 62
     7
 10
-100.2583731182191
 20
157.9120994786767
 30
0.0
 11
-100.2569557249706
 21
161.1931513140165
 31
0.0
  0
LINE
  5
A9
  8
1
  6
CONTINUOUS
 62
     7
 10
-103.664972161978
 20
142.6370417431394
 30
0.0
 11
-103.6656625656586
 21
141.0388612340359
 31
0.0
  0
POLYLINE
  5
AA
  8
1
  6
CONTINUOUS
 62
     7
 66
     1
 10
0.0
 20
0.0
 30
0.0
  0
VERTEX
  5
413
  8
1
  6
CONTINUOUS
 62
     7
 10
-103.6649721619732
 20
142.6370417431395
 30
0.0
  0
VERTEX
  5
414
  8
1
  6
CONTINUOUS
 62
     7
 10
-103.648211647441
 20
142.665868710179
 30
0.0
  0
VERTEX
  5
415
  8
1
  6
CONTINUOUS
 62
     7
 10
-103.6302622519695
 20
142.6939765088707
 30
0.0
  0
VERTEX
  5
416
  8
1
  6
CONTINUOUS
 62
     7
 10
-103.611084288848
 20
142.7214101942552
 30
0.0
  0
VERTEX
  5
417
  8
1
  6
CONTINUOUS
 62
     7
 10
-103.5907740226916
 20
142.7480205224378
 30
0.0
  0
VERTEX
  5
418
  8
1
  6
CONTINUOUS
 62
     7
 10
-103.5684263907225
 20
142.7748408711609
 30
0.0
  0
VERTEX
  5
419
  8
1
  6
CONTINUOUS
 62
     7
 10
-103.544882164054
 20
142.8007109351327
 30
0.0
  0
VERTEX
  5
41A
  8
1
  6
CONTINUOUS
 62
     7
 10
-103.5208961463615
 20
142.8248835317765
 30
0.0
  0
VERTEX
  5
41B
  8
1
  6
CONTINUOUS
 62
     7
 10
-103.4959038755675
 20
142.8480136994271
 30
0.0
  0
VERTEX
  5
41C
  8
1
  6
CONTINUOUS
 62
     7
 10
-103.470849775068
 20
142.8693254618898
 30
0.0
  0
VERTEX
  5
41D
  8
1
  6
CONTINUOUS
 62
     7
 10
-103.4449427886385
 20
142.8895885637188
 30
0.0
  0
VERTEX
  5
41E
  8
1
  6
CONTINUOUS
 62
     7
 10
-103.4187120268895
 20
142.9084338868181
 30
0.0
  0
VERTEX
  5
41F
  8
1
  6
CONTINUOUS
 62
     7
 10
-103.3917452115675
 20
142.9262036360678
 30
0.0
  0
VERTEX
  5
420
  8
1
  6
CONTINUOUS
 62
     7
 10
-103.3629222233511
 20
142.9435364477571
 30
0.0
  0
VERTEX
  5
421
  8
1
  6
CONTINUOUS
 62
     7
 10
-103.3334012481899
 20
142.9596405370565
 30
0.0
  0
VERTEX
  5
422
  8
1
  6
CONTINUOUS
 62
     7
 10
-103.3032037688619
 20
142.9745014436334
 30
0.0
  0
VERTEX
  5
423
  8
1
  6
CONTINUOUS
 62
     7
 10
-103.2726220493154
 20
142.9879899677018
 30
0.0
  0
VERTEX
  5
424
  8
1
  6
CONTINUOUS
 62
     7
 10
-103.2415582951707
 20
143.0001688142197
 30
0.0
  0
VERTEX
  5
425
  8
1
  6
CONTINUOUS
 62
     7
 10
-103.2100215087436
 20
143.0110399070199
 30
0.0
  0
VERTEX
  5
426
  8
1
  6
CONTINUOUS
 62
     7
 10
-103.1781402680622
 20
143.020563739154
 30
0.0
  0
VERTEX
  5
427
  8
1
  6
CONTINUOUS
 62
     7
 10
-103.1458994303804
 20
143.0287521944932
 30
0.0
  0
VERTEX
  5
428
  8
1
  6
CONTINUOUS
 62
     7
 10
-103.116210736014
 20
143.0350474983987
 30
0.0
  0
VERTEX
  5
429
  8
1
  6
CONTINUOUS
 62
     7
 10
-103.086244053915
 20
143.0402212710626
 30
0.0
  0
VERTEX
  5
42A
  8
1
  6
CONTINUOUS
 62
     7
 10
-103.056110697234
 20
143.0442518745671
 30
0.0
  0
VERTEX
  5
42B
  8
1
  6
CONTINUOUS
 62
     7
 10
-103.0257596920863
 20
143.0471407784576
 30
0.0
  0
VERTEX
  5
42C
  8
1
  6
CONTINUOUS
 62
     7
 10
-102.9953293219055
 20
143.0488712068264
 30
0.0
  0
VERTEX
  5
42D
  8
1
  6
CONTINUOUS
 62
     7
 10
-102.9647939428465
 20
143.0494409745498
 30
0.0
  0
SEQEND
  5
914
  8
1
  6
CONTINUOUS
 62
     7
  0
LINE
  5
AB
  8
1
  6
CONTINUOUS
 62
     7
 10
-102.9647939428463
 20
143.049440974966
 30
0.0
 11
-102.1596912763116
 21
143.0490931758025
 31
0.0
  0
ARC
  5
AC
  8
1
  6
CONTINUOUS
 62
     7
 10
-104.2645778247869
 20
143.5500025194677
 30
0.0
 40
2.163667616094677
 50
346.6140485628358
 51
13.33644862521464
  0
LINE
  5
AD
  8
1
  6
CONTINUOUS
 62
     7
 10
-102.1592592827963
 20
144.0490930824932
 30
0.0
 11
-102.964361949331
 21
144.0494408816568
 31
0.0
  0
POLYLINE
  5
AE
  8
1
  6
CONTINUOUS
 62
     7
 66
     1
 10
0.0
 20
0.0
 30
0.0
  0
VERTEX
  5
42E
  8
1
  6
CONTINUOUS
 62
     7
 10
-102.9643619493312
 20
144.0494408812406
 30
0.0
  0
VERTEX
  5
42F
  8
1
  6
CONTINUOUS
 62
     7
 10
-102.99739719948
 20
144.0501401764867
 30
0.0
  0
VERTEX
  5
430
  8
1
  6
CONTINUOUS
 62
     7
 10
-103.030413911052
 20
144.0522056731702
 30
0.0
  0
VERTEX
  5
431
  8
1
  6
CONTINUOUS
 62
     7
 10
-103.0633274132774
 20
144.05563157619
 30
0.0
  0
VERTEX
  5
432
  8
1
  6
CONTINUOUS
 62
     7
 10
-103.0960530353868
 20
144.0604120904451
 30
0.0
  0
VERTEX
  5
433
  8
1
  6
CONTINUOUS
 62
     7
 10
-103.1294964921175
 20
144.0667457665029
 30
0.0
  0
VERTEX
  5
434
  8
1
  6
CONTINUOUS
 62
     7
 10
-103.1626802474441
 20
144.0745058894212
 30
0.0
  0
VERTEX
  5
435
  8
1
  6
CONTINUOUS
 62
     7
 10
-103.1955137299716
 20
144.0836704953963
 30
0.0
  0
VERTEX
  5
436
  8
1
  6
CONTINUOUS
 62
     7
 10
-103.227906368305
 20
144.0942176206245
 30
0.0
  0
VERTEX
  5
437
  8
1
  6
CONTINUOUS
 62
     7
 10
-103.258961964468
 20
144.1057992656778
 30
0.0
  0
VERTEX
  5
438
  8
1
  6
CONTINUOUS
 62
     7
 10
-103.2895446499061
 20
144.1186716219102
 30
0.0
  0
VERTEX
  5
439
  8
1
  6
CONTINUOUS
 62
     7
 10
-103.3195751915309
 20
144.1328003323128
 30
0.0
  0
VERTEX
  5
43A
  8
1
  6
CONTINUOUS
 62
     7
 10
-103.3489743562534
 20
144.1481510398763
 30
0.0
  0
VERTEX
  5
43B
  8
1
  6
CONTINUOUS
 62
     7
 10
-103.3785451079127
 20
144.1652178925715
 30
0.0
  0
VERTEX
  5
43C
  8
1
  6
CONTINUOUS
 62
     7
 10
-103.4073916364383
 20
144.1835507136121
 30
0.0
  0
VERTEX
  5
43D
  8
1
  6
CONTINUOUS
 62
     7
 10
-103.4354348927483
 20
144.2030975182056
 30
0.0
  0
VERTEX
  5
43E
  8
1
  6
CONTINUOUS
 62
     7
 10
-103.4625958277603
 20
144.2238063215596
 30
0.0
  0
VERTEX
  5
43F
  8
1
  6
CONTINUOUS
 62
     7
 10
-103.4880102516347
 20
144.2449359910368
 30
0.0
  0
VERTEX
  5
440
  8
1
  6
CONTINUOUS
 62
     7
 10
-103.5125525917653
 20
144.2671176088652
 30
0.0
  0
VERTEX
  5
441
  8
1
  6
CONTINUOUS
 62
     7
 10
-103.5361602826743
 20
144.2902923452024
 30
0.0
  0
VERTEX
  5
442
  8
1
  6
CONTINUOUS
 62
     7
 10
-103.5587707588843
 20
144.3144013702066
 30
0.0
  0
VERTEX
  5
443
  8
1
  6
CONTINUOUS
 62
     7
 10
-103.5809748804511
 20
144.3401694299371
 30
0.0
  0
VERTEX
  5
444
  8
1
  6
CONTINUOUS
 62
     7
 10
-103.6020816936434
 20
144.366880955328
 30
0.0
  0
VERTEX
  5
445
  8
1
  6
CONTINUOUS
 62
     7
 10
-103.6220350850827
 20
144.3944611287775
 30
0.0
  0
VERTEX
  5
446
  8
1
  6
CONTINUOUS
 62
     7
 10
-103.6407789413902
 20
144.4228351326837
 30
0.0
  0
VERTEX
  5
447
  8
1
  6
CONTINUOUS
 62
     7
 10
-103.6527666231102
 20
144.4424728039239
 30
0.0
  0
VERTEX
  5
448
  8
1
  6
CONTINUOUS
 62
     7
 10
-103.6641835995715
 20
144.462444903571
 30
0.0
  0
SEQEND
  5
915
  8
1
  6
CONTINUOUS
 62
     7
  0
LINE
  5
AF
  8
1
  6
CONTINUOUS
 62
     7
 10
-103.6634931958955
 20
146.0606254126849
 30
0.0
 11
-103.6641835995762
 21
144.4624449035711
 31
0.0
  0
LINE
  5
B0
  8
1
  6
CONTINUOUS
 62
     7
 10
-104.8641834876052
 20
144.4629632957894
 30
0.0
 11
-104.8634930839245
 21
146.0611438049033
 31
0.0
  0
POLYLINE
  5
B1
  8
1
  6
CONTINUOUS
 62
     7
 66
     1
 10
0.0
 20
0.0
 30
0.0
  0
VERTEX
  5
449
  8
1
  6
CONTINUOUS
 62
     7
 10
-104.8641834876005
 20
144.4629632957894
 30
0.0
  0
VERTEX
  5
44A
  8
1
  6
CONTINUOUS
 62
     7
 10
-104.880897695588
 20
144.4342116998684
 30
0.0
  0
VERTEX
  5
44B
  8
1
  6
CONTINUOUS
 62
     7
 10
-104.8988771785951
 20
144.4060533609706
 30
0.0
  0
VERTEX
  5
44C
  8
1
  6
CONTINUOUS
 62
     7
 10
-104.9180185143203
 20
144.3786666450673
 30
0.0
  0
VERTEX
  5
44D
  8
1
  6
CONTINUOUS
 62
     7
 10
-104.9383816268821
 20
144.3519845164909
 30
0.0
  0
VERTEX
  5
44E
  8
1
  6
CONTINUOUS
 62
     7
 10
-104.959424839118
 20
144.3266657239805
 30
0.0
  0
VERTEX
  5
44F
  8
1
  6
CONTINUOUS
 62
     7
 10
-104.9815911804351
 20
144.3021292004255
 30
0.0
  0
VERTEX
  5
450
  8
1
  6
CONTINUOUS
 62
     7
 10
-105.0047525584692
 20
144.2785287829598
 30
0.0
  0
VERTEX
  5
451
  8
1
  6
CONTINUOUS
 62
     7
 10
-105.0292240971023
 20
144.2555875266923
 30
0.0
  0
VERTEX
  5
452
  8
1
  6
CONTINUOUS
 62
     7
 10
-105.0546345459344
 20
144.2336925118382
 30
0.0
  0
VERTEX
  5
453
  8
1
  6
CONTINUOUS
 62
     7
 10
-105.0813284982314
 20
144.2125889676927
 30
0.0
  0
VERTEX
  5
454
  8
1
  6
CONTINUOUS
 62
     7
 10
-105.1088929229296
 20
144.1926408309609
 30
0.0
  0
VERTEX
  5
455
  8
1
  6
CONTINUOUS
 62
     7
 10
-105.1374104380062
 20
144.173801402861
 30
0.0
  0
VERTEX
  5
456
  8
1
  6
CONTINUOUS
 62
     7
 10
-105.1655582271339
 20
144.1568556114813
 30
0.0
  0
VERTEX
  5
457
  8
1
  6
CONTINUOUS
 62
     7
 10
-105.1944993474151
 20
144.1410170309387
 30
0.0
  0
VERTEX
  5
458
  8
1
  6
CONTINUOUS
 62
     7
 10
-105.2240633228648
 20
144.126387145849
 30
0.0
  0
VERTEX
  5
459
  8
1
  6
CONTINUOUS
 62
     7
 10
-105.2546338994197
 20
144.1128091881346
 30
0.0
  0
VERTEX
  5
45A
  8
1
  6
CONTINUOUS
 62
     7
 10
-105.2857382198483
 20
144.1005230476587
 30
0.0
  0
VERTEX
  5
45B
  8
1
  6
CONTINUOUS
 62
     7
 10
-105.3177797419408
 20
144.0894022957363
 30
0.0
  0
VERTEX
  5
45C
  8
1
  6
CONTINUOUS
 62
     7
 10
-105.3502551968241
 20
144.0796513674598
 30
0.0
  0
VERTEX
  5
45D
  8
1
  6
CONTINUOUS
 62
     7
 10
-105.3832562191933
 20
144.0712528444363
 30
0.0
  0
VERTEX
  5
45E
  8
1
  6
CONTINUOUS
 62
     7
 10
-105.4054043506147
 20
144.0664452455608
 30
0.0
  0
VERTEX
  5
45F
  8
1
  6
CONTINUOUS
 62
     7
 10
-105.427675362597
 20
144.0622675987253
 30
0.0
  0
VERTEX
  5
460
  8
1
  6
CONTINUOUS
 62
     7
 10
-105.4577723453736
 20
144.0576510616415
 30
0.0
  0
VERTEX
  5
461
  8
1
  6
CONTINUOUS
 62
     7
 10
-105.4880257629268
 20
144.0541820989601
 30
0.0
  0
VERTEX
  5
462
  8
1
  6
CONTINUOUS
 62
     7
 10
-105.5183696214703
 20
144.0518673026795
 30
0.0
  0
VERTEX
  5
463
  8
1
  6
CONTINUOUS
 62
     7
 10
-105.5413587860617
 20
144.0508849691559
 30
0.0
  0
VERTEX
  5
464
  8
1
  6
CONTINUOUS
 62
     7
 10
-105.5643617067272
 20
144.0505640643804
 30
0.0
  0
SEQEND
  5
916
  8
1
  6
CONTINUOUS
 62
     7
  0
LINE
  5
B2
  8
1
  6
CONTINUOUS
 62
     7
 10
-105.564361706727
 20
144.0505640647966
 30
0.0
 11
-106.3694643732618
 21
144.0509118639602
 31
0.0
  0
ARC
  5
B3
  8
1
  6
CONTINUOUS
 62
     7
 10
-104.2645778247869
 20
143.5500025194677
 30
0.0
 40
2.163667616094677
 50
166.6140485628358
 51
193.3364486252147
  0
LINE
  5
B4
  8
1
  6
CONTINUOUS
 62
     7
 10
-106.3698963667771
 20
143.0509119572694
 30
0.0
 11
-105.5647937002424
 21
143.0505641581059
 31
0.0
  0
LINE
  5
B5
  8
1
  6
CONTINUOUS
 62
     7
 10
-104.8656624536876
 20
141.0393796262543
 30
0.0
 11
-104.8649720500069
 21
142.6375601353578
 31
0.0
  0
POLYLINE
  5
B6
  8
1
  6
CONTINUOUS
 62
     7
 66
     1
 10
0.0
 20
0.0
 30
0.0
  0
VERTEX
  5
465
  8
1
  6
CONTINUOUS
 62
     7
 10
-105.5647937002425
 20
143.0505641576896
 30
0.0
  0
VERTEX
  5
466
  8
1
  6
CONTINUOUS
 62
     7
 10
-105.5317584500936
 20
143.0498648624434
 30
0.0
  0
VERTEX
  5
467
  8
1
  6
CONTINUOUS
 62
     7
 10
-105.4987417385217
 20
143.0477993657597
 30
0.0
  0
VERTEX
  5
468
  8
1
  6
CONTINUOUS
 62
     7
 10
-105.4658282362963
 20
143.0443734627397
 30
0.0
  0
VERTEX
  5
469
  8
1
  6
CONTINUOUS
 62
     7
 10
-105.4331026141869
 20
143.0395929484846
 30
0.0
  0
VERTEX
  5
46A
  8
1
  6
CONTINUOUS
 62
     7
 10
-105.3996591574562
 20
143.0332592724266
 30
0.0
  0
VERTEX
  5
46B
  8
1
  6
CONTINUOUS
 62
     7
 10
-105.3664754021296
 20
143.0254991495082
 30
0.0
  0
VERTEX
  5
46C
  8
1
  6
CONTINUOUS
 62
     7
 10
-105.3336419196021
 20
143.016334543533
 30
0.0
  0
VERTEX
  5
46D
  8
1
  6
CONTINUOUS
 62
     7
 10
-105.3012492812687
 20
143.0057874183047
 30
0.0
  0
VERTEX
  5
46E
  8
1
  6
CONTINUOUS
 62
     7
 10
-105.2701936851057
 20
142.9942057732513
 30
0.0
  0
VERTEX
  5
46F
  8
1
  6
CONTINUOUS
 62
     7
 10
-105.2396109996675
 20
142.9813334170187
 30
0.0
  0
VERTEX
  5
470
  8
1
  6
CONTINUOUS
 62
     7
 10
-105.2095804580428
 20
142.9672047066161
 30
0.0
  0
VERTEX
  5
471
  8
1
  6
CONTINUOUS
 62
     7
 10
-105.1801812933203
 20
142.9518539990526
 30
0.0
  0
VERTEX
  5
472
  8
1
  6
CONTINUOUS
 62
     7
 10
-105.150610541661
 20
142.9347871463573
 30
0.0
  0
VERTEX
  5
473
  8
1
  6
CONTINUOUS
 62
     7
 10
-105.1217640131353
 20
142.9164543253166
 30
0.0
  0
VERTEX
  5
474
  8
1
  6
CONTINUOUS
 62
     7
 10
-105.0937207568254
 20
142.8969075207231
 30
0.0
  0
VERTEX
  5
475
  8
1
  6
CONTINUOUS
 62
     7
 10
-105.0665598218134
 20
142.8761987173691
 30
0.0
  0
VERTEX
  5
476
  8
1
  6
CONTINUOUS
 62
     7
 10
-105.041145397939
 20
142.8550690478918
 30
0.0
  0
VERTEX
  5
477
  8
1
  6
CONTINUOUS
 62
     7
 10
-105.0166030578084
 20
142.8328874300634
 30
0.0
  0
VERTEX
  5
478
  8
1
  6
CONTINUOUS
 62
     7
 10
-104.9929953668994
 20
142.8097126937262
 30
0.0
  0
VERTEX
  5
479
  8
1
  6
CONTINUOUS
 62
     7
 10
-104.9703848906893
 20
142.785603668722
 30
0.0
  0
VERTEX
  5
47A
  8
1
  6
CONTINUOUS
 62
     7
 10
-104.9481807691226
 20
142.7598356089916
 30
0.0
  0
VERTEX
  5
47B
  8
1
  6
CONTINUOUS
 62
     7
 10
-104.9270739559303
 20
142.7331240836006
 30
0.0
  0
VERTEX
  5
47C
  8
1
  6
CONTINUOUS
 62
     7
 10
-104.907120564491
 20
142.7055439101512
 30
0.0
  0
VERTEX
  5
47D
  8
1
  6
CONTINUOUS
 62
     7
 10
-104.8883767081834
 20
142.6771699062451
 30
0.0
  0
VERTEX
  5
47E
  8
1
  6
CONTINUOUS
 62
     7
 10
-104.8763890264634
 20
142.6575322350049
 30
0.0
  0
VERTEX
  5
47F
  8
1
  6
CONTINUOUS
 62
     7
 10
-104.8649720500022
 20
142.6375601353578
 30
0.0
  0
SEQEND
  5
917
  8
1
  6
CONTINUOUS
 62
     7
  0
LINE
  5
B7
  8
1
  6
CONTINUOUS
 62
     7
 10
-103.6656625656539
 20
141.038861234036
 30
0.0
 11
-103.6660260937052
 21
140.1973485627728
 31
0.0
  0
LINE
  5
B8
  8
1
  6
CONTINUOUS
 62
     7
 10
-103.6631296678402
 20
146.9021380839979
 30
0.0
 11
-103.6634931958909
 21
146.0606254126847
 31
0.0
  0
LINE
  5
B9
  8
1
  6
CONTINUOUS
 62
     7
 10
-104.8660259817342
 20
140.1978669549885
 30
0.0
 11
-104.8656624536829
 21
141.0393796262544
 31
0.0
  0
LINE
  5
BA
  8
1
  6
CONTINUOUS
 62
     7
 10
-104.8634930839198
 20
146.0611438049031
 30
0.0
 11
-104.8631295558691
 21
146.9026564762163
 31
0.0
  0
ARC
  5
BB
  8
1
  6
CONTINUOUS
 62
     7
 10
-104.2645778247875
 20
143.5500025195246
 30
0.0
 40
3.500000000000022
 50
359.9752485940252
 51
100.6389565944979
  0
ARC
  5
BC
  8
1
  6
CONTINUOUS
 62
     7
 10
-104.2645778247875
 20
143.5500025195246
 30
0.0
 40
3.499999999999998
 50
100.6389565944979
 51
259.3115405940649
  0
ARC
  5
BD
  8
1
  6
CONTINUOUS
 62
     7
 10
-104.2645778247875
 20
143.5500025195246
 30
0.0
 40
3.500000000000021
 50
259.3115405940649
 51
359.9752485940252
  0
LINE
  5
BE
  8
1
  6
CONTINUOUS
 62
     7
 10
-103.763992593364
 20
144.9046170989018
 30
0.0
 11
-103.764016279872
 21
144.8497864014482
 31
0.0
  0
ARC
  5
BF
  8
1
  6
CONTINUOUS
 62
     7
 10
-104.2645778247873
 20
143.5500025195079
 30
0.0
 40
1.444148964832065
 50
69.71867643232264
 51
110.2318207557276
  0
LINE
  5
C0
  8
1
  6
CONTINUOUS
 62
     7
 10
-104.7640161865628
 20
144.8502183949636
 30
0.0
 11
-104.7639925000549
 21
144.9050490924171
 31
0.0
  0
ARC
  5
C1
  8
1
  6
CONTINUOUS
 62
     7
 10
-102.9640163545193
 20
144.849440806636
 30
0.0
 40
0.7999999999999998
 50
179.9752485940253
 51
208.9302729658849
  0
ARC
  5
C2
  8
1
  6
CONTINUOUS
 62
     7
 10
-105.5640161119154
 20
144.8505639897758
 30
0.0
 40
0.7999999999999974
 50
331.0202242221652
 51
359.9752485940253
  0
LINE
  5
C3
  8
1
  6
CONTINUOUS
 62
     7
 10
-104.7651630562106
 20
142.195387940114
 30
0.0
 11
-104.7651393697026
 21
142.2502186375675
 31
0.0
  0
ARC
  5
C4
  8
1
  6
CONTINUOUS
 62
     7
 10
-104.2645778247873
 20
143.5500025195079
 30
0.0
 40
1.444148964832039
 50
249.7186764323232
 51
290.2318207557275
  0
LINE
  5
C5
  8
1
  6
CONTINUOUS
 62
     7
 10
-103.7651394630118
 20
142.2497866440523
 30
0.0
 11
-103.7651631495198
 21
142.1949559465987
 31
0.0
  0
ARC
  5
C6
  8
1
  6
CONTINUOUS
 62
     7
 10
-102.9651395376592
 20
142.2494410492399
 30
0.0
 40
0.7999999999999974
 50
151.020224222165
 51
179.9752485940232
  0
ARC
  5
C7
  8
1
  6
CONTINUOUS
 62
     7
 10
-105.5651392950553
 20
142.2505642323798
 30
0.0
 40
0.7999999999999999
 50
359.9752485940253
 51
28.9302729658844
  0
CIRCLE
  5
C8
  8
1
  6
CONTINUOUS
 62
     7
 10
-104.2645778247875
 20
143.5500025195246
 30
0.0
 40
1.021236244656221
  0
ARC
  5
C9
  8
1
  6
CONTINUOUS
 62
     7
 10
-104.2645778247878
 20
143.5500025195476
 30
0.0
 40
4.324999999999999
 50
322.3286741933571
 51
337.6218229946946
  0
LINE
  5
CA
  8
1
  6
CONTINUOUS
 62
     7
 10
-100.8412128318637
 20
140.9068609937827
 30
0.0
 11
-103.6909361298168
 21
139.2632134874409
 31
0.0
  0
ARC
  5
CB
  8
1
  6
CONTINUOUS
 62
     7
 10
-104.2645778247878
 20
143.5500025195476
 30
0.0
 40
4.324999999999986
 50
262.3286741933563
 51
277.6218229946942
  0
LINE
  5
CC
  8
1
  6
CONTINUOUS
 62
     7
 10
-104.8419230354358
 20
139.2637107063667
 30
0.0
 11
-107.6902251797713
 21
140.9098197229794
 31
0.0
  0
ARC
  5
CD
  8
1
  6
CONTINUOUS
 62
     7
 10
-104.2645778247878
 20
143.5500025195476
 30
0.0
 40
4.325000000000001
 50
202.328674193356
 51
217.6218229946933
  0
LINE
  5
CE
  8
1
  6
CONTINUOUS
 62
     7
 10
-108.2652880283598
 20
141.9068522321316
 30
0.0
 11
-108.2638668747422
 21
145.1966087550862
 31
0.0
  0
ARC
  5
CF
  8
1
  6
CONTINUOUS
 62
     7
 10
-104.2645778247878
 20
143.5500025195476
 30
0.0
 40
4.324999999999999
 50
142.3286741933572
 51
157.6218229946945
  0
LINE
  5
D0
  8
1
  6
CONTINUOUS
 62
     7
 10
-107.6879428177118
 20
146.1931440453125
 30
0.0
 11
-107.6859928161999
 21
146.1942687563051
 31
0.0
  0
LINE
  5
D1
  8
1
  6
CONTINUOUS
 62
     7
 10
-107.6859928162003
 20
146.1942687563049
 30
0.0
 11
-104.8382195197587
 21
147.8367915516543
 31
0.0
  0
ARC
  5
D2
  8
1
  6
CONTINUOUS
 62
     7
 10
-104.2645778247878
 20
143.5500025195476
 30
0.0
 40
4.325000000000013
 50
82.32867419335625
 51
97.62182299469436
  0
LINE
  5
D3
  8
1
  6
CONTINUOUS
 62
     7
 10
-103.6872326141397
 20
147.8362943327285
 30
0.0
 11
-103.6867457603879
 21
147.8360129670899
 31
0.0
  0
LINE
  5
D4
  8
1
  6
CONTINUOUS
 62
     7
 10
-103.6867457603879
 20
147.8360129670899
 30
0.0
 11
-100.8389304698042
 21
146.1901853161158
 31
0.0
  0
ARC
  5
D5
  8
1
  6
CONTINUOUS
 62
     7
 10
-104.2645778247878
 20
143.5500025195476
 30
0.0
 40
4.325000000000001
 50
22.32867419335589
 51
37.62182299469337
  0
LINE
  5
D6
  8
1
  6
CONTINUOUS
 62
     7
 10
-100.2638676212157
 20
145.1931528069636
 30
0.0
 11
-100.2652887748332
 21
141.903396284009
 31
0.0
  0
LINE
  5
D7
  8
1
  6
CONTINUOUS
 62
     7
 10
-99.80347755452772
 20
126.524314773694
 30
0.0
 11
-99.80347755452772
 21
141.0781878155613
 31
0.0
  0
ARC
  5
D8
  8
1
  6
CONTINUOUS
 62
     7
 10
-104.2354668886281
 20
159.954689244987
 30
0.0
 40
4.890350366219901
 50
25.00480346002541
 51
186.5587855681337
  0
LINE
  5
D9
  8
1
  6
CONTINUOUS
 62
     7
 10
-108.9627316486084
 20
157.6964027433938
 30
0.0
 11
-109.0938108215458
 21
159.3961009047322
 31
0.0
  0
LINE
  5
DA
  8
1
  6
CONTINUOUS
 62
     7
 10
-108.8478344260393
 20
156.3456766216453
 30
0.0
 11
-108.9627316486084
 21
157.6964027433938
 31
0.0
  0
LINE
  5
DB
  8
1
  6
CONTINUOUS
 62
     7
 10
-108.6948883903537
 20
155.1902181489847
 30
0.0
 11
-108.8478344260393
 21
156.3456766216453
 31
0.0
  0
ARC
  5
DC
  8
1
  6
CONTINUOUS
 62
     7
 10
-119.4056591991284
 20
151.55
 30
0.0
 40
11.31246213210444
 50
341.228890763512
 51
18.77110923648797
  0
LINE
  5
DD
  8
1
  6
CONTINUOUS
 62
     7
 10
-108.8478344260393
 20
146.7543233783547
 30
0.0
 11
-108.6948883903537
 21
147.9097818510153
 31
0.0
  0
LINE
  5
DE
  8
1
  6
CONTINUOUS
 62
     7
 10
-108.9627316486084
 20
145.4035972566061
 30
0.0
 11
-108.8478344260393
 21
146.7543233783547
 31
0.0
  0
LINE
  5
DF
  8
1
  6
CONTINUOUS
 62
     7
 10
-109.0938108215458
 20
143.7038990952678
 30
0.0
 11
-108.9627316486084
 21
145.4035972566061
 31
0.0
  0
ARC
  5
E0
  8
1
  6
CONTINUOUS
 62
     7
 10
-104.2368156627898
 20
143.1405385008963
 30
0.0
 40
4.889557968924234
 50
173.383853923499
 51
335.0525570483418
  0
LINE
  5
E1
  8
1
  6
CONTINUOUS
 62
     7
 10
-99.80347755452772
 20
162.0218121844387
 30
0.0
 11
-99.80347755452772
 21
176.575685226306
 31
0.0
  0
LINE
  5
E2
  8
1
  6
CONTINUOUS
 62
     7
 10
-131.7576664955247
 20
147.3413690887566
 30
0.0
 11
-131.7576664955247
 21
155.7586309112433
 31
0.0
  0
LINE
  5
E3
  8
1
  6
CONTINUOUS
 62
     7
 10
-127.4261906212406
 20
148.6397692893294
 30
0.0
 11
-127.4261906212406
 21
154.4602307106705
 31
0.0
  0
LINE
  5
E4
  8
1
  6
CONTINUOUS
 62
     7
 10
-131.7576664955247
 20
126.25
 30
0.0
 11
-131.7576664955247
 21
126.6025066218482
 31
0.0
  0
LINE
  5
E5
  8
1
  6
CONTINUOUS
 62
     7
 10
-131.7576664955247
 20
176.4974933781517
 30
0.0
 11
-131.7576664955247
 21
176.8499999999999
 31
0.0
  0
LINE
  5
E6
  8
1
  6
CONTINUOUS
 62
     7
 10
-132.0463416301195
 20
176.3782467839967
 30
0.0
 11
-131.7576664955247
 21
176.4974933781517
 31
0.0
  0
LINE
  5
E7
  8
1
  6
CONTINUOUS
 62
     7
 10
-132.0463416301194
 20
156.4129375518259
 30
0.0
 11
-132.0463416301191
 21
176.3782467839967
 31
0.0
  0
POLYLINE
  5
E8
  8
1
  6
CONTINUOUS
 62
     7
 66
     1
 10
0.0
 20
0.0
 30
0.0
  0
VERTEX
  5
480
  8
1
  6
CONTINUOUS
 62
     7
 10
-131.7576664955247
 20
155.7586309112433
 30
0.0
  0
VERTEX
  5
481
  8
1
  6
CONTINUOUS
 62
     7
 10
-131.7823055515987
 20
155.783332781693
 30
0.0
  0
VERTEX
  5
482
  8
1
  6
CONTINUOUS
 62
     7
 10
-131.806087195497
 20
155.8088339323883
 30
0.0
  0
VERTEX
  5
483
  8
1
  6
CONTINUOUS
 62
     7
 10
-131.8290502695993
 20
155.8352094738798
 30
0.0
  0
VERTEX
  5
484
  8
1
  6
CONTINUOUS
 62
     7
 10
-131.8510704068243
 20
155.8623496878697
 30
0.0
  0
VERTEX
  5
485
  8
1
  6
CONTINUOUS
 62
     7
 10
-131.8731725352972
 20
155.8917015737171
 30
0.0
  0
VERTEX
  5
486
  8
1
  6
CONTINUOUS
 62
     7
 10
-131.8941484487877
 20
155.9218541530535
 30
0.0
  0
VERTEX
  5
487
  8
1
  6
CONTINUOUS
 62
     7
 10
-131.9139374991305
 20
155.9527528369931
 30
0.0
  0
VERTEX
  5
488
  8
1
  6
CONTINUOUS
 62
     7
 10
-131.9327458190785
 20
155.9848108505233
 30
0.0
  0
VERTEX
  5
489
  8
1
  6
CONTINUOUS
 62
     7
 10
-131.9502508567832
 20
156.0175688158971
 30
0.0
  0
VERTEX
  5
48A
  8
1
  6
CONTINUOUS
 62
     7
 10
-131.9666051188452
 20
156.0514136996616
 30
0.0
  0
VERTEX
  5
48B
  8
1
  6
CONTINUOUS
 62
     7
 10
-131.9815347868163
 20
156.0858816040387
 30
0.0
  0
VERTEX
  5
48C
  8
1
  6
CONTINUOUS
 62
     7
 10
-131.9950525693062
 20
156.1210705202249
 30
0.0
  0
VERTEX
  5
48D
  8
1
  6
CONTINUOUS
 62
     7
 10
-132.006733648127
 20
156.1557534579476
 30
0.0
  0
VERTEX
  5
48E
  8
1
  6
CONTINUOUS
 62
     7
 10
-132.0169932051066
 20
156.19102311526
 30
0.0
  0
VERTEX
  5
48F
  8
1
  6
CONTINUOUS
 62
     7
 10
-132.0257510608483
 20
156.2266723486036
 30
0.0
  0
VERTEX
  5
490
  8
1
  6
CONTINUOUS
 62
     7
 10
-132.0330756779282
 20
156.2631665985205
 30
0.0
  0
VERTEX
  5
491
  8
1
  6
CONTINUOUS
 62
     7
 10
-132.0388100734912
 20
156.2999241991042
 30
0.0
  0
VERTEX
  5
492
  8
1
  6
CONTINUOUS
 62
     7
 10
-132.0429862560335
 20
156.3374273943758
 30
0.0
  0
VERTEX
  5
493
  8
1
  6
CONTINUOUS
 62
     7
 10
-132.0454988455037
 20
156.3750624226406
 30
0.0
  0
VERTEX
  5
494
  8
1
  6
CONTINUOUS
 62
     7
 10
-132.0463416301172
 20
156.4129375518259
 30
0.0
  0
SEQEND
  5
918
  8
1
  6
CONTINUOUS
 62
     7
  0
POLYLINE
  5
E9
  8
1
  6
CONTINUOUS
 62
     7
 66
     1
 10
0.0
 20
0.0
 30
0.0
  0
VERTEX
  5
495
  8
1
  6
CONTINUOUS
 62
     7
 10
-132.0463416301195
 20
146.6870624481742
 30
0.0
  0
VERTEX
  5
496
  8
1
  6
CONTINUOUS
 62
     7
 10
-132.0455612501675
 20
146.7235091594338
 30
0.0
  0
VERTEX
  5
497
  8
1
  6
CONTINUOUS
 62
     7
 10
-132.0432058776531
 20
146.76006431842
 30
0.0
  0
VERTEX
  5
498
  8
1
  6
CONTINUOUS
 62
     7
 10
-132.0392808938584
 20
146.7964996058587
 30
0.0
  0
VERTEX
  5
499
  8
1
  6
CONTINUOUS
 62
     7
 10
-132.0337009599102
 20
146.8332834193075
 30
0.0
  0
VERTEX
  5
49A
  8
1
  6
CONTINUOUS
 62
     7
 10
-132.0265287542309
 20
146.869810218735
 30
0.0
  0
VERTEX
  5
49B
  8
1
  6
CONTINUOUS
 62
     7
 10
-132.0176408307318
 20
146.9065479858174
 30
0.0
  0
VERTEX
  5
49C
  8
1
  6
CONTINUOUS
 62
     7
 10
-132.0071588764494
 20
146.9428876402213
 30
0.0
  0
VERTEX
  5
49D
  8
1
  6
CONTINUOUS
 62
     7
 10
-131.9950525693061
 20
146.9789294797752
 30
0.0
  0
VERTEX
  5
49E
  8
1
  6
CONTINUOUS
 62
     7
 10
-131.9819676987752
 20
147.0130531483944
 30
0.0
  0
VERTEX
  5
49F
  8
1
  6
CONTINUOUS
 62
     7
 10
-131.9674873553185
 20
147.046651751568
 30
0.0
  0
VERTEX
  5
4A0
  8
1
  6
CONTINUOUS
 62
     7
 10
-131.9516604052702
 20
147.0796491821729
 30
0.0
  0
VERTEX
  5
4A1
  8
1
  6
CONTINUOUS
 62
     7
 10
-131.9342607222471
 20
147.1124751013136
 30
0.0
  0
VERTEX
  5
4A2
  8
1
  6
CONTINUOUS
 62
     7
 10
-131.9155531424043
 20
147.1446041685149
 30
0.0
  0
VERTEX
  5
4A3
  8
1
  6
CONTINUOUS
 62
     7
 10
-131.8953189764002
 20
147.1763902308785
 30
0.0
  0
VERTEX
  5
4A4
  8
1
  6
CONTINUOUS
 62
     7
 10
-131.8738381414946
 20
147.2073798818357
 30
0.0
  0
VERTEX
  5
4A5
  8
1
  6
CONTINUOUS
 62
     7
 10
-131.8510704068242
 20
147.2376503121304
 30
0.0
  0
VERTEX
  5
4A6
  8
1
  6
CONTINUOUS
 62
     7
 10
-131.8291292044968
 20
147.2646966256678
 30
0.0
  0
VERTEX
  5
4A7
  8
1
  6
CONTINUOUS
 62
     7
 10
-131.8062515301575
 20
147.2909836972626
 30
0.0
  0
VERTEX
  5
4A8
  8
1
  6
CONTINUOUS
 62
     7
 10
-131.7823908122648
 20
147.3165788188998
 30
0.0
  0
VERTEX
  5
4A9
  8
1
  6
CONTINUOUS
 62
     7
 10
-131.7576664955247
 20
147.3413690887566
 30
0.0
  0
SEQEND
  5
919
  8
1
  6
CONTINUOUS
 62
     7
  0
LINE
  5
EA
  8
1
  6
CONTINUOUS
 62
     7
 10
-132.0463416301173
 20
126.7217532160033
 30
0.0
 11
-132.0463416301191
 21
146.6870624481742
 31
0.0
  0
LINE
  5
EB
  8
1
  6
CONTINUOUS
 62
     7
 10
-131.7576664955247
 20
126.6025066218482
 30
0.0
 11
-132.0463416301172
 21
126.7217532160033
 31
0.0
  0
LINE
  5
EC
  8
1
  6
CONTINUOUS
 62
     7
 10
-99.80347755452772
 20
149.9658186734748
 30
0.0
 11
-99.80347755452772
 21
153.1341813265257
 31
0.0
  0
LINE
  5
ED
  8
1
  6
CONTINUOUS
 62
     7
 10
-99.67640918008509
 20
155.2530778458567
 30
0.0
 11
-99.80347755452772
 21
153.1341813265256
 31
0.0
  0
LINE
  5
EE
  8
1
  6
CONTINUOUS
 62
     7
 10
-99.80347755452772
 20
149.9658186734748
 30
0.0
 11
-99.67640918008507
 21
147.8469221541433
 31
0.0
  0
LINE
  5
EF
  8
1
  6
CONTINUOUS
 62
     7
 10
-117.7576664955247
 20
127.25
 30
0.0
 11
-117.7576664955247
 21
175.85
 31
0.0
  0
LINE
  5
F0
  8
1
  6
CONTINUOUS
 62
     7
 10
-99.67640918008507
 20
147.8469221541433
 30
0.0
 11
-99.6622571239253
 21
147.4710118792812
 31
0.0
  0
LINE
  5
F1
  8
1
  6
CONTINUOUS
 62
     7
 10
-99.6622571239253
 20
155.6289881207188
 30
0.0
 11
-99.67640918008509
 21
155.2530778458567
 31
0.0
  0
LINE
  5
F2
  8
1
  6
CONTINUOUS
 62
     7
 10
-99.47801756703336
 20
159.4039595308163
 30
0.0
 11
-99.6622571239253
 21
155.6289881207188
 31
0.0
  0
LINE
  5
F3
  8
1
  6
CONTINUOUS
 62
     7
 10
-99.6622571239253
 20
147.4710118792812
 30
0.0
 11
-99.47801756703336
 21
143.6960404691837
 31
0.0
  0
ARC
  5
F4
  8
1
  6
CONTINUOUS
 62
     7
 10
-106.4704892908821
 20
143.2362099289488
 30
0.0
 40
7.007574825469689
 50
342.0639296873754
 51
3.762399107389968
  0
ARC
  5
F5
  8
1
  6
CONTINUOUS
 62
     7
 10
-106.4558588557515
 20
159.8656089745055
 30
0.0
 40
6.993095827986179
 50
356.2148646291254
 51
17.958806576109
  0
LINE
  5
F6
  8
1
  6
CONTINUOUS
 62
     7
 10
-131.0309106332612
 20
155.8552663536119
 30
0.0
 11
-129.2111679786257
 21
155.3676677788699
 31
0.0
  0
ARC
  5
F7
  8
1
  6
CONTINUOUS
 62
     7
 10
-130.4390926587342
 20
150.0126893980081
 30
0.0
 40
5.49395963577417
 50
60.53762230915225
 51
77.08504726839874
  0
POLYLINE
  5
F8
  8
1
  6
CONTINUOUS
 62
     7
 66
     1
 10
0.0
 20
0.0
 30
0.0
  0
VERTEX
  5
4AA
  8
1
  6
CONTINUOUS
 62
     7
 10
-127.7368779010244
 20
154.796163855213
 30
0.0
  0
VERTEX
  5
4AB
  8
1
  6
CONTINUOUS
 62
     7
 10
-127.5741278062731
 20
154.6792420664364
 30
0.0
  0
VERTEX
  5
4AC
  8
1
  6
CONTINUOUS
 62
     7
 10
-127.4946240970601
 20
154.6029658936158
 30
0.0
  0
VERTEX
  5
4AD
  8
1
  6
CONTINUOUS
 62
     7
 10
-127.4353328831712
 20
154.5090542092602
 30
0.0
  0
VERTEX
  5
4AE
  8
1
  6
CONTINUOUS
 62
     7
 10
-127.4261906212406
 20
154.4602307106705
 30
0.0
  0
SEQEND
  5
91A
  8
1
  6
CONTINUOUS
 62
     7
  0
POLYLINE
  5
F9
  8
1
  6
CONTINUOUS
 62
     7
 66
     1
 10
0.0
 20
0.0
 30
0.0
  0
VERTEX
  5
4AF
  8
1
  6
CONTINUOUS
 62
     7
 10
-127.4261906212406
 20
148.6397692893294
 30
0.0
  0
VERTEX
  5
4B0
  8
1
  6
CONTINUOUS
 62
     7
 10
-127.4614711892383
 20
148.5400882470968
 30
0.0
  0
VERTEX
  5
4B1
  8
1
  6
CONTINUOUS
 62
     7
 10
-127.5304085715331
 20
148.45919372742
 30
0.0
  0
VERTEX
  5
4B2
  8
1
  6
CONTINUOUS
 62
     7
 10
-127.6222233857998
 20
148.3828356606479
 30
0.0
  0
SEQEND
  5
91B
  8
1
  6
CONTINUOUS
 62
     7
  0
ARC
  5
FA
  8
1
  6
CONTINUOUS
 62
     7
 10
-130.2191182504343
 20
152.4602502755759
 30
0.0
 40
4.834167237487124
 50
282.0347828517672
 51
302.4929554803537
  0
LINE
  5
FB
  8
1
  6
CONTINUOUS
 62
     7
 10
-129.2111679786257
 20
147.7323322211301
 30
0.0
 11
-131.030910633259
 21
147.2447336463887
 31
0.0
  0
POLYLINE
  5
FC
  8
1
  6
CONTINUOUS
 62
     7
 66
     1
 10
0.0
 20
0.0
 30
0.0
  0
VERTEX
  5
4B3
  8
1
  6
CONTINUOUS
 62
     7
 10
-131.180316226335
 20
156.2485729204645
 30
0.0
  0
VERTEX
  5
4B4
  8
1
  6
CONTINUOUS
 62
     7
 10
-131.1799198903391
 20
156.2305341886416
 30
0.0
  0
VERTEX
  5
4B5
  8
1
  6
CONTINUOUS
 62
     7
 10
-131.1787341862756
 20
156.2125094708296
 30
0.0
  0
VERTEX
  5
4B6
  8
1
  6
CONTINUOUS
 62
     7
 10
-131.1767640700316
 20
156.1945483257312
 30
0.0
  0
VERTEX
  5
4B7
  8
1
  6
CONTINUOUS
 62
     7
 10
-131.1740144974938
 20
156.1767003120493
 30
0.0
  0
VERTEX
  5
4B8
  8
1
  6
CONTINUOUS
 62
     7
 10
-131.1703662461524
 20
156.1584398967774
 30
0.0
  0
VERTEX
  5
4B9
  8
1
  6
CONTINUOUS
 62
     7
 10
-131.1659024219924
 20
156.1403340113309
 30
0.0
  0
VERTEX
  5
4BA
  8
1
  6
CONTINUOUS
 62
     7
 10
-131.1606422517403
 20
156.1224324552931
 30
0.0
  0
VERTEX
  5
4BB
  8
1
  6
CONTINUOUS
 62
     7
 10
-131.1546049621227
 20
156.1047850282472
 30
0.0
  0
VERTEX
  5
4BC
  8
1
  6
CONTINUOUS
 62
     7
 10
-131.1480168358477
 20
156.0879282377897
 30
0.0
  0
VERTEX
  5
4BD
  8
1
  6
CONTINUOUS
 62
     7
 10
-131.1407223601759
 20
156.071335856203
 30
0.0
  0
VERTEX
  5
4BE
  8
1
  6
CONTINUOUS
 62
     7
 10
-131.1327481741596
 20
156.0550453424217
 30
0.0
  0
VERTEX
  5
4BF
  8
1
  6
CONTINUOUS
 62
     7
 10
-131.1241209168512
 20
156.0390941553806
 30
0.0
  0
VERTEX
  5
4C0
  8
1
  6
CONTINUOUS
 62
     7
 10
-131.1145975276371
 20
156.0230801714312
 30
0.0
  0
VERTEX
  5
4C1
  8
1
  6
CONTINUOUS
 62
     7
 10
-131.1044187644473
 20
156.0074410483285
 30
0.0
  0
VERTEX
  5
4C2
  8
1
  6
CONTINUOUS
 62
     7
 10
-131.0936184822515
 20
155.9922072484914
 30
0.0
  0
VERTEX
  5
4C3
  8
1
  6
CONTINUOUS
 62
     7
 10
-131.0822305360195
 20
155.9774092343389
 30
0.0
  0
VERTEX
  5
4C4
  8
1
  6
CONTINUOUS
 62
     7
 10
-131.065663328341
 20
155.9578173425061
 30
0.0
  0
VERTEX
  5
4C5
  8
1
  6
CONTINUOUS
 62
     7
 10
-131.0480435490043
 20
155.9390497667085
 30
0.0
  0
VERTEX
  5
4C6
  8
1
  6
CONTINUOUS
 62
     7
 10
-131.029459815542
 20
155.9211506719344
 30
0.0
  0
VERTEX
  5
4C7
  8
1
  6
CONTINUOUS
 62
     7
 10
-131.0100007454861
 20
155.9041642231721
 30
0.0
  0
VERTEX
  5
4C8
  8
1
  6
CONTINUOUS
 62
     7
 10
-130.989754956369
 20
155.8881345854102
 30
0.0
  0
VERTEX
  5
4C9
  8
1
  6
CONTINUOUS
 62
     7
 10
-130.9688110657229
 20
155.8731059236369
 30
0.0
  0
VERTEX
  5
4CA
  8
1
  6
CONTINUOUS
 62
     7
 10
-130.9443247316182
 20
155.8573106940518
 30
0.0
  0
VERTEX
  5
4CB
  8
1
  6
CONTINUOUS
 62
     7
 10
-130.9189881462707
 20
155.8427366628245
 30
0.0
  0
VERTEX
  5
4CC
  8
1
  6
CONTINUOUS
 62
     7
 10
-130.8929089152413
 20
155.8294054325441
 30
0.0
  0
VERTEX
  5
4CD
  8
1
  6
CONTINUOUS
 62
     7
 10
-130.866194644091
 20
155.8173386057998
 30
0.0
  0
VERTEX
  5
4CE
  8
1
  6
CONTINUOUS
 62
     7
 10
-130.8389529383807
 20
155.8065577851807
 30
0.0
  0
VERTEX
  5
4CF
  8
1
  6
CONTINUOUS
 62
     7
 10
-130.8112914036714
 20
155.797084573276
 30
0.0
  0
VERTEX
  5
4D0
  8
1
  6
CONTINUOUS
 62
     7
 10
-130.7836947427873
 20
155.7890250554033
 30
0.0
  0
SEQEND
  5
91C
  8
1
  6
CONTINUOUS
 62
     7
  0
POLYLINE
  5
FD
  8
1
  6
CONTINUOUS
 62
     7
 66
     1
 10
0.0
 20
0.0
 30
0.0
  0
VERTEX
  5
4D1
  8
1
  6
CONTINUOUS
 62
     7
 10
-130.7836947427872
 20
147.3109749445967
 30
0.0
  0
VERTEX
  5
4D2
  8
1
  6
CONTINUOUS
 62
     7
 10
-130.8072200470096
 20
147.3041881391532
 30
0.0
  0
VERTEX
  5
4D3
  8
1
  6
CONTINUOUS
 62
     7
 10
-130.8304777161629
 20
147.2965010497339
 30
0.0
  0
VERTEX
  5
4D4
  8
1
  6
CONTINUOUS
 62
     7
 10
-130.8534097478256
 20
147.2879208807024
 30
0.0
  0
VERTEX
  5
4D5
  8
1
  6
CONTINUOUS
 62
     7
 10
-130.8759581395761
 20
147.2784548364223
 30
0.0
  0
VERTEX
  5
4D6
  8
1
  6
CONTINUOUS
 62
     7
 10
-130.898694929162
 20
147.2678008899699
 30
0.0
  0
VERTEX
  5
4D7
  8
1
  6
CONTINUOUS
 62
     7
 10
-130.9209739911936
 20
147.2561999427434
 30
0.0
  0
VERTEX
  5
4D8
  8
1
  6
CONTINUOUS
 62
     7
 10
-130.9427244488954
 20
147.2436689170748
 30
0.0
  0
VERTEX
  5
4D9
  8
1
  6
CONTINUOUS
 62
     7
 10
-130.9638754254923
 20
147.2302247352965
 30
0.0
  0
VERTEX
  5
4DA
  8
1
  6
CONTINUOUS
 62
     7
 10
-130.9838819224484
 20
147.2162349873724
 30
0.0
  0
VERTEX
  5
4DB
  8
1
  6
CONTINUOUS
 62
     7
 10
-131.003255982203
 20
147.2013698480365
 30
0.0
  0
VERTEX
  5
4DC
  8
1
  6
CONTINUOUS
 62
     7
 10
-131.0219243297561
 20
147.1856595224608
 30
0.0
  0
VERTEX
  5
4DD
  8
1
  6
CONTINUOUS
 62
     7
 10
-131.0398136901078
 20
147.1691342158173
 30
0.0
  0
VERTEX
  5
4DE
  8
1
  6
CONTINUOUS
 62
     7
 10
-131.0575089923647
 20
147.1511249164848
 30
0.0
  0
VERTEX
  5
4DF
  8
1
  6
CONTINUOUS
 62
     7
 10
-131.0742847621114
 20
147.1322428768043
 30
0.0
  0
VERTEX
  5
4E0
  8
1
  6
CONTINUOUS
 62
     7
 10
-131.0900554542708
 20
147.1125471427376
 30
0.0
  0
VERTEX
  5
4E1
  8
1
  6
CONTINUOUS
 62
     7
 10
-131.1047355237655
 20
147.0920967602463
 30
0.0
  0
VERTEX
  5
4E2
  8
1
  6
CONTINUOUS
 62
     7
 10
-131.1162572692265
 20
147.0742302991946
 30
0.0
  0
VERTEX
  5
4E3
  8
1
  6
CONTINUOUS
 62
     7
 10
-131.1269432801145
 20
147.0558451152401
 30
0.0
  0
VERTEX
  5
4E4
  8
1
  6
CONTINUOUS
 62
     7
 10
-131.1367469319596
 20
147.03699515438
 30
0.0
  0
VERTEX
  5
4E5
  8
1
  6
CONTINUOUS
 62
     7
 10
-131.1456216002918
 20
147.0177343626112
 30
0.0
  0
VERTEX
  5
4E6
  8
1
  6
CONTINUOUS
 62
     7
 10
-131.1538266958456
 20
146.9973084064068
 30
0.0
  0
VERTEX
  5
4E7
  8
1
  6
CONTINUOUS
 62
     7
 10
-131.1609816880206
 20
146.9764783356059
 30
0.0
  0
VERTEX
  5
4E8
  8
1
  6
CONTINUOUS
 62
     7
 10
-131.1670505112462
 20
146.9553228380661
 30
0.0
  0
VERTEX
  5
4E9
  8
1
  6
CONTINUOUS
 62
     7
 10
-131.1719970999517
 20
146.9339206016452
 30
0.0
  0
VERTEX
  5
4EA
  8
1
  6
CONTINUOUS
 62
     7
 10
-131.1756231813014
 20
146.9134800287738
 30
0.0
  0
VERTEX
  5
4EB
  8
1
  6
CONTINUOUS
 62
     7
 10
-131.1782244123454
 20
146.8928675829896
 30
0.0
  0
VERTEX
  5
4EC
  8
1
  6
CONTINUOUS
 62
     7
 10
-131.1797917687884
 20
146.8721582660058
 30
0.0
  0
VERTEX
  5
4ED
  8
1
  6
CONTINUOUS
 62
     7
 10
-131.180316226335
 20
146.8514270795354
 30
0.0
  0
SEQEND
  5
91D
  8
1
  6
CONTINUOUS
 62
     7
  0
LINE
  5
FE
  8
1
  6
CONTINUOUS
 62
     7
 10
-131.180316226335
 20
127.7085778001588
 30
0.0
 11
-131.180316226335
 21
146.8514270795354
 31
0.0
  0
LINE
  5
FF
  8
1
  6
CONTINUOUS
 62
     7
 10
-131.180316226335
 20
156.2485729204646
 30
0.0
 11
-131.180316226335
 21
175.3914221998411
 31
0.0
  0
LINE
  5
100
  8
1
  6
CONTINUOUS
 62
     7
 10
-127.4261906212406
 20
127.25
 30
0.0
 11
-127.4261906212406
 21
127.4248977782338
 31
0.0
  0
LINE
  5
101
  8
1
  6
CONTINUOUS
 62
     7
 10
-130.7836947427872
 20
175.4774040919541
 30
0.0
 11
-131.180316226335
 21
175.3914221998411
 31
0.0
  0
LINE
  5
102
  8
1
  6
CONTINUOUS
 62
     7
 10
-129.2111679786259
 20
175.54823770051
 30
0.0
 11
-130.7836947427872
 21
175.4774040919541
 31
0.0
  0
LINE
  5
103
  8
1
  6
CONTINUOUS
 62
     7
 10
-127.4261906212406
 20
175.6751022217662
 30
0.0
 11
-129.2111679786259
 21
175.54823770051
 31
0.0
  0
LINE
  5
104
  8
1
  6
CONTINUOUS
 62
     7
 10
-127.4261906212406
 20
175.6751022217663
 30
0.0
 11
-127.4261906212406
 21
175.85
 31
0.0
  0
LINE
  5
105
  8
1
  6
CONTINUOUS
 62
     7
 10
-129.2111679786265
 20
127.55176229949
 30
0.0
 11
-127.4261906212406
 21
127.4248977782338
 31
0.0
  0
LINE
  5
106
  8
1
  6
CONTINUOUS
 62
     7
 10
-130.7836947427872
 20
127.6225959080458
 30
0.0
 11
-129.2111679786265
 21
127.55176229949
 31
0.0
  0
LINE
  5
107
  8
1
  6
CONTINUOUS
 62
     7
 10
-131.180316226335
 20
127.7085778001589
 30
0.0
 11
-130.7836947427873
 21
127.6225959080459
 31
0.0
  0
LINE
  5
108
  8
1
  6
CONTINUOUS
 62
     7
 10
-97.8649668368243
 20
174.9906205587451
 30
0.0
 11
-97.8649668368243
 21
128.1093794412549
 31
0.0
  0
LINE
  5
109
  8
1
  6
CONTINUOUS
 62
     7
 10
-96.25766649552465
 20
128.25
 30
0.0
 11
-96.25766649552465
 21
174.85
 31
0.0
  0
LINE
  5
10A
  8
1
  6
CONTINUOUS
 62
     7
 10
-134.2576664955247
 20
123.55
 30
0.0
 11
-134.2576664955247
 21
151.55
 31
0.0
  0
LINE
  5
10B
  8
1
  6
CONTINUOUS
 62
     7
 10
-136.4903395075457
 20
179.5200318551026
 30
0.0
 11
-136.4903395075457
 21
123.5799681448974
 31
0.0
  0
LINE
  5
10C
  8
1
  6
CONTINUOUS
 62
     7
 10
-134.2576664955247
 20
151.55
 30
0.0
 11
-134.2576664955247
 21
179.55
 31
0.0
  0
ARC
  5
10D
  8
1
  6
CONTINUOUS
 62
     7
 10
-136.3622165210928
 20
124.6669846758858
 30
0.0
 40
1.130192687383503
 50
194.5292430407605
 51
227.765202918979
  0
POLYLINE
  5
10E
  8
1
  6
CONTINUOUS
 62
     7
 66
     1
 10
0.0
 20
0.0
 30
0.0
  0
VERTEX
  5
4EE
  8
1
  6
CONTINUOUS
 62
     7
 10
-137.1218985619609
 20
123.83019395689
 30
0.0
  0
VERTEX
  5
4EF
  8
1
  6
CONTINUOUS
 62
     7
 10
-137.0183157999252
 20
123.7478770793314
 30
0.0
  0
VERTEX
  5
4F0
  8
1
  6
CONTINUOUS
 62
     7
 10
-136.9227158861823
 20
123.6888916348712
 30
0.0
  0
VERTEX
  5
4F1
  8
1
  6
CONTINUOUS
 62
     7
 10
-136.8124261337713
 20
123.63788035165
 30
0.0
  0
VERTEX
  5
4F2
  8
1
  6
CONTINUOUS
 62
     7
 10
-136.7065351653575
 20
123.604358447643
 30
0.0
  0
VERTEX
  5
4F3
  8
1
  6
CONTINUOUS
 62
     7
 10
-136.6065045002109
 20
123.5858626352624
 30
0.0
  0
VERTEX
  5
4F4
  8
1
  6
CONTINUOUS
 62
     7
 10
-136.4999653084944
 20
123.5798330343524
 30
0.0
  0
VERTEX
  5
4F5
  8
1
  6
CONTINUOUS
 62
     7
 10
-136.4903395075457
 20
123.5799681448974
 30
0.0
  0
SEQEND
  5
91E
  8
1
  6
CONTINUOUS
 62
     7
  0
POLYLINE
  5
10F
  8
1
  6
CONTINUOUS
 62
     7
 66
     1
 10
0.0
 20
0.0
 30
0.0
  0
VERTEX
  5
4F6
  8
1
  6
CONTINUOUS
 62
     7
 10
-136.4903395075457
 20
179.5200318551026
 30
0.0
  0
VERTEX
  5
4F7
  8
1
  6
CONTINUOUS
 62
     7
 10
-136.5984085984284
 20
179.5150856231957
 30
0.0
  0
VERTEX
  5
4F8
  8
1
  6
CONTINUOUS
 62
     7
 10
-136.6999765128538
 20
179.4972416325868
 30
0.0
  0
VERTEX
  5
4F9
  8
1
  6
CONTINUOUS
 62
     7
 10
-136.8081953647551
 20
179.4637413750462
 30
0.0
  0
VERTEX
  5
4FA
  8
1
  6
CONTINUOUS
 62
     7
 10
-136.9201138163124
 20
179.4125130510686
 30
0.0
  0
VERTEX
  5
4FB
  8
1
  6
CONTINUOUS
 62
     7
 10
-137.0170898704624
 20
179.3529753093169
 30
0.0
  0
SEQEND
  5
91F
  8
1
  6
CONTINUOUS
 62
     7
  0
ARC
  5
110
  8
1
  6
CONTINUOUS
 62
     7
 10
-136.3716434138617
 20
178.4378313652601
 30
0.0
 40
1.119861405122186
 50
125.1951259743065
 51
165.5882821368543
  0
LINE
  5
111
  8
1
  6
CONTINUOUS
 62
     7
 10
-138.3641384423097
 20
175.295252712683
 30
0.0
 11
-138.3641384423097
 21
127.804747287317
 31
0.0
  0
LINE
  5
112
  8
1
  6
CONTINUOUS
 62
     7
 10
-137.5365019219172
 20
178.4122812735827
 30
0.0
 11
-138.3641384423097
 21
175.295252712683
 31
0.0
  0
LINE
  5
113
  8
1
  6
CONTINUOUS
 62
     7
 10
-137.4562653338348
 20
178.7165513993376
 30
0.0
 11
-137.5365019219172
 21
178.4122812735827
 31
0.0
  0
LINE
  5
114
  8
1
  6
CONTINUOUS
 62
     7
 10
-137.5365019219187
 20
124.687718726423
 30
0.0
 11
-137.4562653338348
 21
124.3834486006624
 31
0.0
  0
LINE
  5
115
  8
1
  6
CONTINUOUS
 62
     7
 10
-138.3641384423097
 20
127.804747287317
 30
0.0
 11
-137.5365019219187
 21
124.687718726423
 31
0.0
  0
LINE
  5
116
  8
1
  6
CONTINUOUS
 62
     7
 10
-170.0576664955246
 20
125.15
 30
0.0
 11
-170.0576664955246
 21
125.2425115607166
 31
0.0
  0
LINE
  5
117
  8
1
  6
CONTINUOUS
 62
     7
 10
-154.6413299895141
 20
177.8994391810264
 30
0.0
 11
-154.2576664955246
 21
177.9369437752111
 31
0.0
  0
LINE
  5
118
  8
1
  6
CONTINUOUS
 62
     7
 10
-154.6413299895141
 20
125.2005608189736
 30
0.0
 11
-154.6413299895141
 21
177.8994391810264
 31
0.0
  0
LINE
  5
119
  8
1
  6
CONTINUOUS
 62
     7
 10
-154.2576664955246
 20
125.1630562247889
 30
0.0
 11
-154.6413299895141
 21
125.2005608189736
 31
0.0
  0
LINE
  5
11A
  8
1
  6
CONTINUOUS
 62
     7
 10
-154.2576664955246
 20
125.1630562247889
 30
0.0
 11
-154.2576664955246
 21
125.1499999999999
 31
0.0
  0
LINE
  5
11B
  8
1
  6
CONTINUOUS
 62
     7
 10
-154.2576664955246
 20
177.9369437752111
 30
0.0
 11
-154.2576664955246
 21
177.95
 31
0.0
  0
LINE
  5
11C
  8
1
  6
CONTINUOUS
 62
     7
 10
-190.0576664955246
 20
125.2425115607166
 30
0.0
 11
-170.0576664955246
 21
125.2425115607166
 31
0.0
  0
LINE
  5
11D
  8
1
  6
CONTINUOUS
 62
     7
 10
-190.0576664955246
 20
125.2425115607166
 30
0.0
 11
-190.0576664955246
 21
177.8574884392834
 31
0.0
  0
LINE
  5
11E
  8
1
  6
CONTINUOUS
 62
     7
 10
-170.0576664955247
 20
177.8574884392834
 30
0.0
 11
-190.0576664955246
 21
177.8574884392834
 31
0.0
  0
LINE
  5
11F
  8
1
  6
CONTINUOUS
 62
     7
 10
-170.0576664955247
 20
177.8574884392834
 30
0.0
 11
-170.0576664955247
 21
177.95
 31
0.0
  0
LINE
  5
120
  8
1
  6
CONTINUOUS
 62
     7
 10
-154.3379116748734
 20
125.3029510525894
 30
0.0
 11
-154.1583670763696
 21
125.6095383053905
 31
0.0
  0
POLYLINE
  5
121
  8
1
  6
CONTINUOUS
 62
     7
 66
     1
 10
0.0
 20
0.0
 30
0.0
  0
VERTEX
  5
4FC
  8
1
  6
CONTINUOUS
 62
     7
 10
-154.6413299895141
 20
125.2005608189736
 30
0.0
  0
VERTEX
  5
4FD
  8
1
  6
CONTINUOUS
 62
     7
 10
-154.5335046259854
 20
125.2123030049922
 30
0.0
  0
VERTEX
  5
4FE
  8
1
  6
CONTINUOUS
 62
     7
 10
-154.430753402265
 20
125.246976989038
 30
0.0
  0
VERTEX
  5
4FF
  8
1
  6
CONTINUOUS
 62
     7
 10
-154.3379116748734
 20
125.3029510525894
 30
0.0
  0
SEQEND
  5
920
  8
1
  6
CONTINUOUS
 62
     7
  0
POLYLINE
  5
122
  8
1
  6
CONTINUOUS
 62
     7
 66
     1
 10
0.0
 20
0.0
 30
0.0
  0
VERTEX
  5
500
  8
1
  6
CONTINUOUS
 62
     7
 10
-154.3379116748735
 20
177.7970489474107
 30
0.0
  0
VERTEX
  5
501
  8
1
  6
CONTINUOUS
 62
     7
 10
-154.4307534022651
 20
177.853023010962
 30
0.0
  0
VERTEX
  5
502
  8
1
  6
CONTINUOUS
 62
     7
 10
-154.5335046259854
 20
177.8876969950078
 30
0.0
  0
VERTEX
  5
503
  8
1
  6
CONTINUOUS
 62
     7
 10
-154.6413299895141
 20
177.8994391810264
 30
0.0
  0
SEQEND
  5
921
  8
1
  6
CONTINUOUS
 62
     7
  0
LINE
  5
123
  8
1
  6
CONTINUOUS
 62
     7
 10
-154.1583670763696
 20
177.4904616946095
 30
0.0
 11
-154.3379116748735
 21
177.7970489474107
 31
0.0
  0
LINE
  5
124
  8
1
  6
CONTINUOUS
 62
     7
 10
-154.0175827963061
 20
126.1485904221359
 30
0.0
 11
-153.8778115140946
 21
126.6749527471726
 31
0.0
  0
LINE
  5
125
  8
1
  6
CONTINUOUS
 62
     7
 10
-154.1583670763696
 20
125.6095383053905
 30
0.0
 11
-154.0175827963061
 21
126.1485904221359
 31
0.0
  0
LINE
  5
126
  8
1
  6
CONTINUOUS
 62
     7
 10
-154.0175827963061
 20
176.951409577864
 30
0.0
 11
-154.1583670763696
 21
177.4904616946095
 31
0.0
  0
LINE
  5
127
  8
1
  6
CONTINUOUS
 62
     7
 10
-153.8778115140946
 20
176.4250472528274
 30
0.0
 11
-154.0175827963061
 21
176.951409577864
 31
0.0
  0
ARC
  5
128
  8
1
  6
CONTINUOUS
 62
     7
 10
-151.9408918938225
 20
176.9363371823403
 30
0.0
 40
2.003266085026193
 50
194.7871054926805
 51
269.8550499748967
  0
LINE
  5
129
  8
1
  6
CONTINUOUS
 62
     7
 10
-151.9459598615165
 20
174.9330775079296
 30
0.0
 11
-151.9459598615165
 21
128.1669224920703
 31
0.0
  0
ARC
  5
12A
  8
1
  6
CONTINUOUS
 62
     7
 10
-151.9402675174052
 20
126.1628543544735
 30
0.0
 40
2.004076221831921
 50
90.16274217921921
 51
165.195102353203
  0
POLYLINE
  5
12B
  8
1
  6
CONTINUOUS
 62
     7
 66
     1
 10
0.0
 20
0.0
 30
0.0
  0
VERTEX
  5
504
  8
1
  6
CONTINUOUS
 62
     7
 10
-138.8471013554541
 20
174.9266081017234
 30
0.0
  0
VERTEX
  5
505
  8
1
  6
CONTINUOUS
 62
     7
 10
-138.7541455518727
 20
174.935279095831
 30
0.0
  0
VERTEX
  5
506
  8
1
  6
CONTINUOUS
 62
     7
 10
-138.6644308432709
 20
174.960989746138
 30
0.0
  0
VERTEX
  5
507
  8
1
  6
CONTINUOUS
 62
     7
 10
-138.5810853171965
 20
175.0028435980238
 30
0.0
  0
VERTEX
  5
508
  8
1
  6
CONTINUOUS
 62
     7
 10
-138.5070149865687
 20
175.0593813309941
 30
0.0
  0
VERTEX
  5
509
  8
1
  6
CONTINUOUS
 62
     7
 10
-138.4448024655708
 20
175.1286316408868
 30
0.0
  0
VERTEX
  5
50A
  8
1
  6
CONTINUOUS
 62
     7
 10
-138.3966169215029
 20
175.2081799734397
 30
0.0
  0
VERTEX
  5
50B
  8
1
  6
CONTINUOUS
 62
     7
 10
-138.3641384423096
 20
175.295252712683
 30
0.0
  0
SEQEND
  5
922
  8
1
  6
CONTINUOUS
 62
     7
  0
POLYLINE
  5
12C
  8
1
  6
CONTINUOUS
 62
     7
 66
     1
 10
0.0
 20
0.0
 30
0.0
  0
VERTEX
  5
50C
  8
1
  6
CONTINUOUS
 62
     7
 10
-138.3641384423096
 20
127.804747287317
 30
0.0
  0
VERTEX
  5
50D
  8
1
  6
CONTINUOUS
 62
     7
 10
-138.396616921503
 20
127.8918200265604
 30
0.0
  0
VERTEX
  5
50E
  8
1
  6
CONTINUOUS
 62
     7
 10
-138.4448024655709
 20
127.9713683591132
 30
0.0
  0
VERTEX
  5
50F
  8
1
  6
CONTINUOUS
 62
     7
 10
-138.5070149865687
 20
128.0406186690059
 30
0.0
  0
VERTEX
  5
510
  8
1
  6
CONTINUOUS
 62
     7
 10
-138.5810853171965
 20
128.0971564019762
 30
0.0
  0
VERTEX
  5
511
  8
1
  6
CONTINUOUS
 62
     7
 10
-138.664430843271
 20
128.139010253862
 30
0.0
  0
VERTEX
  5
512
  8
1
  6
CONTINUOUS
 62
     7
 10
-138.7541455518727
 20
128.164720904169
 30
0.0
  0
VERTEX
  5
513
  8
1
  6
CONTINUOUS
 62
     7
 10
-138.8471013554542
 20
128.1733918982766
 30
0.0
  0
SEQEND
  5
923
  8
1
  6
CONTINUOUS
 62
     7
  0
LINE
  5
12D
  8
1
  6
CONTINUOUS
 62
     7
 10
-138.8471013554542
 20
174.9266081017234
 30
0.0
 11
-151.9459598615165
 21
174.9330775079297
 31
0.0
  0
LINE
  5
12E
  8
1
  6
CONTINUOUS
 62
     7
 10
-151.9459598615165
 20
128.1669224920703
 30
0.0
 11
-138.8471013554542
 21
128.1733918982766
 31
0.0
  0
LINE
  5
12F
  8
1
  6
CONTINUOUS
 62
     7
 10
-173.1289868390843
 20
180.9693171707419
 30
0.0
 11
-173.1289868390843
 21
181.0213203435596
 31
0.0
  0
LINE
  5
130
  8
1
  6
CONTINUOUS
 62
     7
 10
-190.0576664955246
 20
178.355736326391
 30
0.0
 11
-190.0576664955246
 21
177.8574884392834
 31
0.0
  0
LINE
  5
131
  8
1
  6
CONTINUOUS
 62
     7
 10
-190.0576664955246
 20
125.2425115607166
 30
0.0
 11
-190.0576664955246
 21
124.744263673609
 31
0.0
  0
LINE
  5
132
  8
1
  6
CONTINUOUS
 62
     7
 10
-175.250307182644
 20
181.8495049464508
 30
0.0
 11
-175.250307182644
 21
181.8999999999999
 31
0.0
  0
LINE
  5
133
  8
1
  6
CONTINUOUS
 62
     7
 10
-190.0576664955246
 20
181.8495049464508
 30
0.0
 11
-190.0576664955246
 21
181.8999999999999
 31
0.0
  0
LINE
  5
134
  8
1
  6
CONTINUOUS
 62
     7
 10
-190.0576664955246
 20
121.2
 30
0.0
 11
-190.0576664955246
 21
121.2504950535492
 31
0.0
  0
LINE
  5
135
  8
1
  6
CONTINUOUS
 62
     7
 10
-190.0576664955246
 20
124.744263673609
 30
0.0
 11
-190.0576664955246
 21
121.2504950535491
 31
0.0
  0
LINE
  5
136
  8
1
  6
CONTINUOUS
 62
     7
 10
-190.0576664955246
 20
181.8495049464508
 30
0.0
 11
-190.0576664955246
 21
178.355736326391
 31
0.0
  0
LINE
  5
137
  8
1
  6
CONTINUOUS
 62
     7
 10
-190.4576664955246
 20
152.3
 30
0.0
 11
-190.4576664955246
 21
150.8
 31
0.0
  0
LINE
  5
138
  8
1
  6
CONTINUOUS
 62
     7
 10
-190.4576664955246
 20
124.7419321845084
 30
0.0
 11
-190.4576664955246
 21
150.8
 31
0.0
  0
LINE
  5
139
  8
1
  6
CONTINUOUS
 62
     7
 10
-190.4576664955246
 20
152.3
 30
0.0
 11
-190.4576664955246
 21
178.2318758710852
 31
0.0
  0
LINE
  5
13A
  8
1
  6
CONTINUOUS
 62
     7
 10
-214.4576664955246
 20
124.7
 30
0.0
 11
-214.4576664955246
 21
151.55
 31
0.0
  0
LINE
  5
13B
  8
1
  6
CONTINUOUS
 62
     7
 10
-214.4576664955246
 20
151.55
 30
0.0
 11
-214.4576664955246
 21
178.3999999999999
 31
0.0
  0
LINE
  5
13C
  8
1
  6
CONTINUOUS
 62
     7
 10
-190.4576664955246
 20
179.7408229748619
 30
0.0
 11
-190.4576664955246
 21
178.2318758710852
 31
0.0
  0
LINE
  5
13D
  8
1
  6
CONTINUOUS
 62
     7
 10
-190.4576664955246
 20
179.7408229748619
 30
0.0
 11
-190.4576664955246
 21
181.7968593410952
 31
0.0
  0
LINE
  5
13E
  8
1
  6
CONTINUOUS
 62
     7
 10
-190.4576664955246
 20
181.7968593410952
 30
0.0
 11
-190.4576664955246
 21
181.9
 31
0.0
  0
LINE
  5
13F
  8
1
  6
CONTINUOUS
 62
     7
 10
-190.469688672385
 20
124.5224630461309
 30
0.0
 11
-190.4576664955246
 21
124.7419321845083
 31
0.0
  0
LINE
  5
140
  8
1
  6
CONTINUOUS
 62
     7
 10
-190.4576664955246
 20
124.6402677005005
 30
0.0
 11
-190.4576664955246
 21
123.2397103511815
 31
0.0
  0
LINE
  5
141
  8
1
  6
CONTINUOUS
 62
     7
 10
-211.836346151965
 20
122.0786796564403
 30
0.0
 11
-211.836346151965
 21
122.0956501889328
 31
0.0
  0
LINE
  5
142
  8
1
  6
CONTINUOUS
 62
     7
 10
-190.4576664955246
 20
121.2164789383098
 30
0.0
 11
-190.4576664955246
 21
123.2397103511815
 31
0.0
  0
LINE
  5
143
  8
1
  6
CONTINUOUS
 62
     7
 10
-190.4576664955246
 20
121.2
 30
0.0
 11
-190.4576664955246
 21
121.2164789383099
 31
0.0
  0
LINE
  5
144
  8
1
  6
CONTINUOUS
 62
     7
 10
-115.3745722776895
 20
125.791557374957
 30
0.0
 11
-99.80347755452772
 21
126.524314773694
 31
0.0
  0
LINE
  5
145
  8
1
  6
CONTINUOUS
 62
     7
 10
-99.80347755452772
 20
176.575685226306
 30
0.0
 11
-115.3745722776895
 21
177.308442625043
 31
0.0
  0
ARC
  5
146
  8
1
  6
CONTINUOUS
 62
     7
 10
-115.4685858842057
 20
175.3106534865728
 30
0.0
 40
1.999999999999986
 50
87.30571571014401
 51
134.9999999999999
  0
ARC
  5
147
  8
1
  6
CONTINUOUS
 62
     7
 10
-115.4685858842057
 20
127.7893465134272
 30
0.0
 40
1.999999999999993
 50
225.0000000000001
 51
272.694284289856
  0
LINE
  5
148
  8
1
  6
CONTINUOUS
 62
     7
 10
-134.2576664955247
 20
126.25
 30
0.0
 11
-131.7576664955247
 21
126.25
 31
0.0
  0
LINE
  5
149
  8
1
  6
CONTINUOUS
 62
     7
 10
-131.7576664955247
 20
176.85
 30
0.0
 11
-134.2576664955247
 21
176.85
 31
0.0
  0
LINE
  5
14A
  8
1
  6
CONTINUOUS
 62
     7
 10
-116.8827994465788
 20
176.7248670489458
 30
0.0
 11
-117.7576664955247
 21
175.85
 31
0.0
  0
LINE
  5
14B
  8
1
  6
CONTINUOUS
 62
     7
 10
-117.7576664955247
 20
127.25
 30
0.0
 11
-116.8827994465788
 21
126.3751329510541
 31
0.0
  0
ARC
  5
14C
  8
1
  6
CONTINUOUS
 62
     7
 10
-99.85048435778593
 20
175.5767906570709
 30
0.0
 40
1.000000000000004
 50
29.99999999999974
 51
87.30571571013887
  0
ARC
  5
14D
  8
1
  6
CONTINUOUS
 62
     7
 10
-99.85048435778593
 20
127.5232093429291
 30
0.0
 40
0.9999999999999977
 50
272.6942842898611
 51
330.0000000000002
  0
LINE
  5
14E
  8
1
  6
CONTINUOUS
 62
     7
 10
-98.98445895400148
 20
127.0232093429291
 30
0.0
 11
-98.64383649786109
 21
127.6131847431632
 31
0.0
  0
LINE
  5
14F
  8
1
  6
CONTINUOUS
 62
     7
 10
-98.64383649786109
 20
175.4868152568368
 30
0.0
 11
-98.98445895400148
 21
176.0767906570709
 31
0.0
  0
LINE
  5
150
  8
1
  6
CONTINUOUS
 62
     7
 10
-127.4261906212406
 20
127.25
 30
0.0
 11
-117.7576664955247
 21
127.25
 31
0.0
  0
LINE
  5
151
  8
1
  6
CONTINUOUS
 62
     7
 10
-117.7576664955247
 20
175.85
 30
0.0
 11
-127.4261906212406
 21
175.85
 31
0.0
  0
ARC
  5
152
  8
1
  6
CONTINUOUS
 62
     7
 10
-97.77781109407665
 20
127.1131847431632
 30
0.0
 40
1.000000000000004
 50
94.99999999999936
 51
149.9999999999997
  0
ARC
  5
153
  8
1
  6
CONTINUOUS
 62
     7
 10
-97.77781109407665
 20
175.9868152568368
 30
0.0
 40
0.9999999999999827
 50
210.0000000000003
 51
265.0000000000007
  0
LINE
  5
154
  8
1
  6
CONTINUOUS
 62
     7
 10
-97.8649668368243
 20
128.1093794412549
 30
0.0
 11
-96.25766649552465
 21
128.25
 31
0.0
  0
LINE
  5
155
  8
1
  6
CONTINUOUS
 62
     7
 10
-96.25766649552465
 20
174.85
 30
0.0
 11
-97.8649668368243
 21
174.9906205587451
 31
0.0
  0
LINE
  5
156
  8
1
  6
CONTINUOUS
 62
     7
 10
-127.4261906212406
 20
175.85
 30
0.0
 11
-131.7576664955247
 21
176.85
 31
0.0
  0
LINE
  5
157
  8
1
  6
CONTINUOUS
 62
     7
 10
-131.7576664955247
 20
126.25
 30
0.0
 11
-127.4261906212406
 21
127.25
 31
0.0
  0
LINE
  5
158
  8
1
  6
CONTINUOUS
 62
     7
 10
-137.2576664955246
 20
123.55
 30
0.0
 11
-134.2576664955247
 21
123.55
 31
0.0
  0
LINE
  5
159
  8
1
  6
CONTINUOUS
 62
     7
 10
-134.2576664955247
 20
179.55
 30
0.0
 11
-137.2576664955247
 21
179.55
 31
0.0
  0
LINE
  5
15A
  8
1
  6
CONTINUOUS
 62
     7
 10
-170.0576664955246
 20
125.15
 30
0.0
 11
-154.2576664955246
 21
125.15
 31
0.0
  0
LINE
  5
15B
  8
1
  6
CONTINUOUS
 62
     7
 10
-154.2576664955246
 20
177.95
 30
0.0
 11
-170.0576664955247
 21
177.95
 31
0.0
  0
LINE
  5
15C
  8
1
  6
CONTINUOUS
 62
     7
 10
-190.4576664955246
 20
125.3
 30
0.0
 11
-190.0576664955246
 21
125.3
 31
0.0
  0
LINE
  5
15D
  8
1
  6
CONTINUOUS
 62
     7
 10
-190.0576664955246
 20
177.8
 30
0.0
 11
-190.4576664955246
 21
177.8
 31
0.0
  0
LINE
  5
15E
  8
1
  6
CONTINUOUS
 62
     7
 10
-170.0576664955247
 20
177.95
 30
0.0
 11
-173.1289868390843
 21
181.0213203435596
 31
0.0
  0
LINE
  5
15F
  8
1
  6
CONTINUOUS
 62
     7
 10
-173.1289868390843
 20
122.0786796564403
 30
0.0
 11
-170.0576664955246
 21
125.15
 31
0.0
  0
LINE
  5
160
  8
1
  6
CONTINUOUS
 62
     7
 10
-175.250307182644
 20
181.9
 30
0.0
 11
-190.0576664955246
 21
181.9
 31
0.0
  0
ARC
  5
161
  8
1
  6
CONTINUOUS
 62
     7
 10
-175.2503071826439
 20
124.2
 30
0.0
 40
3.000000000000003
 50
270.0
 51
314.9999999999993
  0
ARC
  5
162
  8
1
  6
CONTINUOUS
 62
     7
 10
-175.2503071826439
 20
178.9
 30
0.0
 40
3.000000000000009
 50
45.00000000000053
 51
90.0000000000003
  0
LINE
  5
163
  8
1
  6
CONTINUOUS
 62
     7
 10
-190.0576664955246
 20
121.2
 30
0.0
 11
-175.2503071826439
 21
121.2
 31
0.0
  0
LINE
  5
164
  8
1
  6
CONTINUOUS
 62
     7
 10
-154.2576664955246
 20
125.15
 30
0.0
 11
-137.2576664955247
 21
123.5499999999999
 31
0.0
  0
LINE
  5
165
  8
1
  6
CONTINUOUS
 62
     7
 10
-137.2576664955247
 20
179.5500000000001
 30
0.0
 11
-154.2576664955246
 21
177.95
 31
0.0
  0
ARC
  5
166
  8
1
  6
CONTINUOUS
 62
     7
 10
-212.4576664955246
 20
124.7
 30
0.0
 40
2.000000000000002
 50
180.0
 51
270.0
  0
ARC
  5
167
  8
1
  6
CONTINUOUS
 62
     7
 10
-212.4576664955246
 20
178.4
 30
0.0
 40
2.000000000000002
 50
90.0
 51
180.0
  0
LINE
  5
168
  8
1
  6
CONTINUOUS
 62
     7
 10
-211.836346151965
 20
181.0213203435596
 30
0.0
 11
-212.4576664955246
 21
180.4
 31
0.0
  0
LINE
  5
169
  8
1
  6
CONTINUOUS
 62
     7
 10
-190.4576664955246
 20
181.9
 30
0.0
 11
-209.7150258084053
 21
181.9
 31
0.0
  0
ARC
  5
16A
  8
1
  6
CONTINUOUS
 62
     7
 10
-209.7150258084053
 20
178.9
 30
0.0
 40
3.000000000000003
 50
90.00000000000006
 51
135.0
  0
LINE
  5
16B
  8
1
  6
CONTINUOUS
 62
     7
 10
-212.4576664955246
 20
122.7
 30
0.0
 11
-211.836346151965
 21
122.0786796564403
 31
0.0
  0
LINE
  5
16C
  8
1
  6
CONTINUOUS
 62
     7
 10
-209.7150258084053
 20
121.2
 30
0.0
 11
-190.4576664955246
 21
121.2
 31
0.0
  0
ARC
  5
16D
  8
1
  6
CONTINUOUS
 62
     7
 10
-209.7150258084053
 20
124.2
 30
0.0
 40
2.999999999999989
 50
225.0
 51
269.9999999999999
  0
ENDBLK
  8
0
  0
BLOCK
  8
0
  2
D_FRAME_VIEW_4650
 70
     0
 10
0.0
 20
0.0
 30
0.0
  0
POLYLINE
  5
173
  8
1
  6
CONTINUOUS
 62
     7
 66
     1
 10
0.0
 20
0.0
 30
0.0
  0
VERTEX
  5
516
  8
1
  6
CONTINUOUS
 62
     7
 10
-251.3189352069939
 20
157.9068507392221
 30
0.0
  0
VERTEX
  5
517
  8
1
  6
CONTINUOUS
 62
     7
 10
-251.4307301654344
 20
157.9269648857466
 30
0.0
  0
VERTEX
  5
518
  8
1
  6
CONTINUOUS
 62
     7
 10
-251.5208195564755
 20
157.9739810982357
 30
0.0
  0
VERTEX
  5
519
  8
1
  6
CONTINUOUS
 62
     7
 10
-251.6029572698195
 20
158.0444347276139
 30
0.0
  0
VERTEX
  5
51A
  8
1
  6
CONTINUOUS
 62
     7
 10
-251.672959814687
 20
158.1299190888734
 30
0.0
  0
SEQEND
  5
924
  8
1
  6
CONTINUOUS
 62
     7
  0
ARC
  5
174
  8
1
  6
CONTINUOUS
 62
     7
 10
-248.4658151277359
 20
159.5639413828704
 30
0.0
 40
3.513146308185752
 50
157.1822813292117
 51
204.0910250843548
  0
POLYLINE
  5
175
  8
1
  6
CONTINUOUS
 62
     7
 66
     1
 10
0.0
 20
0.0
 30
0.0
  0
VERTEX
  5
51B
  8
1
  6
CONTINUOUS
 62
     7
 10
-251.7040340890735
 20
160.9263418163527
 30
0.0
  0
VERTEX
  5
51C
  8
1
  6
CONTINUOUS
 62
     7
 10
-251.6364344837764
 20
161.0214327295426
 30
0.0
  0
VERTEX
  5
51D
  8
1
  6
CONTINUOUS
 62
     7
 10
-251.5563034957369
 20
161.102562323801
 30
0.0
  0
VERTEX
  5
51E
  8
1
  6
CONTINUOUS
 62
     7
 10
-251.4602915377721
 20
161.1642552655821
 30
0.0
  0
VERTEX
  5
51F
  8
1
  6
CONTINUOUS
 62
     7
 10
-251.3594274445818
 20
161.1939902694572
 30
0.0
  0
VERTEX
  5
520
  8
1
  6
CONTINUOUS
 62
     7
 10
-251.3189352069022
 20
161.1966072621767
 30
0.0
  0
SEQEND
  5
925
  8
1
  6
CONTINUOUS
 62
     7
  0
LINE
  5
176
  8
1
  6
CONTINUOUS
 62
     7
 10
-251.3189352069022
 20
161.1966072621767
 30
0.0
 11
-249.9689352069022
 21
161.1966072621391
 31
0.0
  0
POLYLINE
  5
177
  8
1
  6
CONTINUOUS
 62
     7
 66
     1
 10
0.0
 20
0.0
 30
0.0
  0
VERTEX
  5
521
  8
1
  6
CONTINUOUS
 62
     7
 10
-249.9689352069022
 20
161.1966072621391
 30
0.0
  0
VERTEX
  5
522
  8
1
  6
CONTINUOUS
 62
     7
 10
-249.8606987488328
 20
161.1777650072087
 30
0.0
  0
VERTEX
  5
523
  8
1
  6
CONTINUOUS
 62
     7
 10
-249.7666819544236
 20
161.1292228969261
 30
0.0
  0
VERTEX
  5
524
  8
1
  6
CONTINUOUS
 62
     7
 10
-249.6845480180016
 20
161.0586433768052
 30
0.0
  0
VERTEX
  5
525
  8
1
  6
CONTINUOUS
 62
     7
 10
-249.6146374749095
 20
160.9731515176835
 30
0.0
  0
SEQEND
  5
926
  8
1
  6
CONTINUOUS
 62
     7
  0
ARC
  5
178
  8
1
  6
CONTINUOUS
 62
     7
 10
-252.8202593743024
 20
159.5402444696929
 30
0.0
 40
3.511300951221395
 50
337.1103934060635
 51
24.08455480286011
  0
POLYLINE
  5
179
  8
1
  6
CONTINUOUS
 62
     7
 66
     1
 10
0.0
 20
0.0
 30
0.0
  0
VERTEX
  5
526
  8
1
  6
CONTINUOUS
 62
     7
 10
-249.5854523853628
 20
158.1744999422075
 30
0.0
  0
VERTEX
  5
527
  8
1
  6
CONTINUOUS
 62
     7
 10
-249.6558712617212
 20
158.0767152819656
 30
0.0
  0
VERTEX
  5
528
  8
1
  6
CONTINUOUS
 62
     7
 10
-249.7315669181592
 20
158.0008956775602
 30
0.0
  0
VERTEX
  5
529
  8
1
  6
CONTINUOUS
 62
     7
 10
-249.8192031461999
 20
157.9432222568442
 30
0.0
  0
VERTEX
  5
52A
  8
1
  6
CONTINUOUS
 62
     7
 10
-249.9261238137786
 20
157.909776194469
 30
0.0
  0
VERTEX
  5
52B
  8
1
  6
CONTINUOUS
 62
     7
 10
-249.9689352069939
 20
157.9068507391844
 30
0.0
  0
SEQEND
  5
927
  8
1
  6
CONTINUOUS
 62
     7
  0
LINE
  5
17A
  8
1
  6
CONTINUOUS
 62
     7
 10
-249.9689352069939
 20
157.9068507391844
 30
0.0
 11
-251.3189352069939
 21
157.9068507392221
 31
0.0
  0
LINE
  5
17B
  8
1
  6
CONTINUOUS
 62
     7
 10
-252.1439352070468
 20
156.0500010266611
 30
0.0
 11
-252.1439352068518
 21
163.050001026661
 31
0.0
  0
POLYLINE
  5
17C
  8
1
  6
CONTINUOUS
 62
     7
 66
     1
 10
0.0
 20
0.0
 30
0.0
  0
VERTEX
  5
52C
  8
1
  6
CONTINUOUS
 62
     7
 10
-251.3189352068746
 20
162.193142552403
 30
0.0
  0
VERTEX
  5
52D
  8
1
  6
CONTINUOUS
 62
     7
 10
-251.3283307259019
 20
162.1932128675366
 30
0.0
  0
VERTEX
  5
52E
  8
1
  6
CONTINUOUS
 62
     7
 10
-251.3377178409801
 20
162.1934235134072
 30
0.0
  0
VERTEX
  5
52F
  8
1
  6
CONTINUOUS
 62
     7
 10
-251.347121729616
 20
162.1937755237825
 30
0.0
  0
VERTEX
  5
530
  8
1
  6
CONTINUOUS
 62
     7
 10
-251.3565004750855
 20
162.1942673279278
 30
0.0
  0
VERTEX
  5
531
  8
1
  6
CONTINUOUS
 62
     7
 10
-251.3691054864496
 20
162.1951508599101
 30
0.0
  0
VERTEX
  5
532
  8
1
  6
CONTINUOUS
 62
     7
 10
-251.3816358955936
 20
162.196282629171
 30
0.0
  0
VERTEX
  5
533
  8
1
  6
CONTINUOUS
 62
     7
 10
-251.3940641284821
 20
162.1976564630563
 30
0.0
  0
VERTEX
  5
534
  8
1
  6
CONTINUOUS
 62
     7
 10
-251.406544336529
 20
162.1992908253169
 30
0.0
  0
VERTEX
  5
535
  8
1
  6
CONTINUOUS
 62
     7
 10
-251.4188960114643
 20
162.2011613313675
 30
0.0
  0
VERTEX
  5
536
  8
1
  6
CONTINUOUS
 62
     7
 10
-251.4310962861662
 20
162.2032586941733
 30
0.0
  0
VERTEX
  5
537
  8
1
  6
CONTINUOUS
 62
     7
 10
-251.4485743526423
 20
162.2067030208001
 30
0.0
  0
VERTEX
  5
538
  8
1
  6
CONTINUOUS
 62
     7
 10
-251.4657255298937
 20
162.2105952098266
 30
0.0
  0
VERTEX
  5
539
  8
1
  6
CONTINUOUS
 62
     7
 10
-251.4826183686492
 20
162.2149364631807
 30
0.0
  0
VERTEX
  5
53A
  8
1
  6
CONTINUOUS
 62
     7
 10
-251.4990886893431
 20
162.2196663448057
 30
0.0
  0
VERTEX
  5
53B
  8
1
  6
CONTINUOUS
 62
     7
 10
-251.515252163715
 20
162.2247993815292
 30
0.0
  0
VERTEX
  5
53C
  8
1
  6
CONTINUOUS
 62
     7
 10
-251.5309662746872
 20
162.2302701876934
 30
0.0
  0
VERTEX
  5
53D
  8
1
  6
CONTINUOUS
 62
     7
 10
-251.5437726042159
 20
162.2350899967338
 30
0.0
  0
VERTEX
  5
53E
  8
1
  6
CONTINUOUS
 62
     7
 10
-251.5562754440169
 20
162.2401181908801
 30
0.0
  0
VERTEX
  5
53F
  8
1
  6
CONTINUOUS
 62
     7
 10
-251.5685050272045
 20
162.2453541580345
 30
0.0
  0
VERTEX
  5
540
  8
1
  6
CONTINUOUS
 62
     7
 10
-251.5804212789167
 20
162.2507676290335
 30
0.0
  0
VERTEX
  5
541
  8
1
  6
CONTINUOUS
 62
     7
 10
-251.5920657744741
 20
162.2563644947148
 30
0.0
  0
VERTEX
  5
542
  8
1
  6
CONTINUOUS
 62
     7
 10
-251.6034048916942
 20
162.2621158776188
 30
0.0
  0
VERTEX
  5
543
  8
1
  6
CONTINUOUS
 62
     7
 10
-251.6252531300604
 20
162.2740750189721
 30
0.0
  0
VERTEX
  5
544
  8
1
  6
CONTINUOUS
 62
     7
 10
-251.645996680518
 20
162.2865638292109
 30
0.0
  0
VERTEX
  5
545
  8
1
  6
CONTINUOUS
 62
     7
 10
-251.6656803931386
 20
162.299515046526
 30
0.0
  0
VERTEX
  5
546
  8
1
  6
CONTINUOUS
 62
     7
 10
-251.6862774388237
 20
162.3143102601088
 30
0.0
  0
VERTEX
  5
547
  8
1
  6
CONTINUOUS
 62
     7
 10
-251.7069838669806
 20
162.3305832152036
 30
0.0
  0
VERTEX
  5
548
  8
1
  6
CONTINUOUS
 62
     7
 10
-251.7264325806353
 20
162.3472742449141
 30
0.0
  0
VERTEX
  5
549
  8
1
  6
CONTINUOUS
 62
     7
 10
-251.7471947151939
 20
162.3667644475291
 30
0.0
  0
VERTEX
  5
54A
  8
1
  6
CONTINUOUS
 62
     7
 10
-251.7665270997722
 20
162.3866531203961
 30
0.0
  0
VERTEX
  5
54B
  8
1
  6
CONTINUOUS
 62
     7
 10
-251.7864077702653
 20
162.4090947901124
 30
0.0
  0
VERTEX
  5
54C
  8
1
  6
CONTINUOUS
 62
     7
 10
-251.8047787583403
 20
162.4318867291357
 30
0.0
  0
VERTEX
  5
54D
  8
1
  6
CONTINUOUS
 62
     7
 10
-251.8223474949573
 20
162.4558217111853
 30
0.0
  0
VERTEX
  5
54E
  8
1
  6
CONTINUOUS
 62
     7
 10
-251.8387448757678
 20
162.4803608241793
 30
0.0
  0
VERTEX
  5
54F
  8
1
  6
CONTINUOUS
 62
     7
 10
-251.853811207326
 20
162.5051126128595
 30
0.0
  0
VERTEX
  5
550
  8
1
  6
CONTINUOUS
 62
     7
 10
-251.8804072520759
 20
162.5552542843614
 30
0.0
  0
VERTEX
  5
551
  8
1
  6
CONTINUOUS
 62
     7
 10
-251.9050867322154
 20
162.6118514469717
 30
0.0
  0
VERTEX
  5
552
  8
1
  6
CONTINUOUS
 62
     7
 10
-251.9252275155299
 20
162.6689958794987
 30
0.0
  0
VERTEX
  5
553
  8
1
  6
CONTINUOUS
 62
     7
 10
-251.9434236112457
 20
162.7348161150001
 30
0.0
  0
VERTEX
  5
554
  8
1
  6
CONTINUOUS
 62
     7
 10
-251.9570895939802
 20
162.8009926294309
 30
0.0
  0
VERTEX
  5
555
  8
1
  6
CONTINUOUS
 62
     7
 10
-251.9673791019784
 20
162.8732469653931
 30
0.0
  0
VERTEX
  5
556
  8
1
  6
CONTINUOUS
 62
     7
 10
-251.9733179799393
 20
162.9456909013009
 30
0.0
  0
VERTEX
  5
557
  8
1
  6
CONTINUOUS
 62
     7
 10
-251.9750905442257
 20
163.0280077374503
 30
0.0
  0
VERTEX
  5
558
  8
1
  6
CONTINUOUS
 62
     7
 10
-251.9716578170586
 20
163.1103937444681
 30
0.0
  0
VERTEX
  5
559
  8
1
  6
CONTINUOUS
 62
     7
 10
-251.9637803208484
 20
163.1857979926347
 30
0.0
  0
VERTEX
  5
55A
  8
1
  6
CONTINUOUS
 62
     7
 10
-251.9509846438159
 20
163.2611116456032
 30
0.0
  0
VERTEX
  5
55B
  8
1
  6
CONTINUOUS
 62
     7
 10
-251.9361010122329
 20
163.323795016079
 30
0.0
  0
VERTEX
  5
55C
  8
1
  6
CONTINUOUS
 62
     7
 10
-251.9168442204852
 20
163.3862543252641
 30
0.0
  0
VERTEX
  5
55D
  8
1
  6
CONTINUOUS
 62
     7
 10
-251.8971029737403
 20
163.4377144120617
 30
0.0
  0
VERTEX
  5
55E
  8
1
  6
CONTINUOUS
 62
     7
 10
-251.8733909067447
 20
163.488829977526
 30
0.0
  0
VERTEX
  5
55F
  8
1
  6
CONTINUOUS
 62
     7
 10
-251.8552724672311
 20
163.5222931941301
 30
0.0
  0
VERTEX
  5
560
  8
1
  6
CONTINUOUS
 62
     7
 10
-251.8349388406405
 20
163.5554750699491
 30
0.0
  0
VERTEX
  5
561
  8
1
  6
CONTINUOUS
 62
     7
 10
-251.8121317639471
 20
163.5883015571359
 30
0.0
  0
VERTEX
  5
562
  8
1
  6
CONTINUOUS
 62
     7
 10
-251.7865446483197
 20
163.6206756647875
 30
0.0
  0
VERTEX
  5
563
  8
1
  6
CONTINUOUS
 62
     7
 10
-251.7701743407702
 20
163.6393213248963
 30
0.0
  0
VERTEX
  5
564
  8
1
  6
CONTINUOUS
 62
     7
 10
-251.75265914057
 20
163.6577258235856
 30
0.0
  0
VERTEX
  5
565
  8
1
  6
CONTINUOUS
 62
     7
 10
-251.7342425853077
 20
163.6755396864188
 30
0.0
  0
VERTEX
  5
566
  8
1
  6
CONTINUOUS
 62
     7
 10
-251.7145390883411
 20
163.6930350073308
 30
0.0
  0
VERTEX
  5
567
  8
1
  6
CONTINUOUS
 62
     7
 10
-251.6940341881383
 20
163.7096978858292
 30
0.0
  0
VERTEX
  5
568
  8
1
  6
CONTINUOUS
 62
     7
 10
-251.6721066848424
 20
163.7259428442669
 30
0.0
  0
VERTEX
  5
569
  8
1
  6
CONTINUOUS
 62
     7
 10
-251.6492405467404
 20
163.7413104080607
 30
0.0
  0
VERTEX
  5
56A
  8
1
  6
CONTINUOUS
 62
     7
 10
-251.6372147651962
 20
163.7487962140314
 30
0.0
  0
VERTEX
  5
56B
  8
1
  6
CONTINUOUS
 62
     7
 10
-251.6247961196551
 20
163.7561199963642
 30
0.0
  0
VERTEX
  5
56C
  8
1
  6
CONTINUOUS
 62
     7
 10
-251.6120704609047
 20
163.7632145826623
 30
0.0
  0
VERTEX
  5
56D
  8
1
  6
CONTINUOUS
 62
     7
 10
-251.5989236330773
 20
163.770125876227
 30
0.0
  0
VERTEX
  5
56E
  8
1
  6
CONTINUOUS
 62
     7
 10
-251.5827152942451
 20
163.7780866815228
 30
0.0
  0
VERTEX
  5
56F
  8
1
  6
CONTINUOUS
 62
     7
 10
-251.5658677833777
 20
163.785734621937
 30
0.0
  0
VERTEX
  5
570
  8
1
  6
CONTINUOUS
 62
     7
 10
-251.5484929396744
 20
163.7929821650422
 30
0.0
  0
VERTEX
  5
571
  8
1
  6
CONTINUOUS
 62
     7
 10
-251.5304897937751
 20
163.79983542437
 30
0.0
  0
VERTEX
  5
572
  8
1
  6
CONTINUOUS
 62
     7
 10
-251.5116850930815
 20
163.8063084871601
 30
0.0
  0
VERTEX
  5
573
  8
1
  6
CONTINUOUS
 62
     7
 10
-251.4922438115643
 20
163.8122925177216
 30
0.0
  0
VERTEX
  5
574
  8
1
  6
CONTINUOUS
 62
     7
 10
-251.4823121193608
 20
163.8150795416273
 30
0.0
  0
VERTEX
  5
575
  8
1
  6
CONTINUOUS
 62
     7
 10
-251.4722203600873
 20
163.8177286422207
 30
0.0
  0
VERTEX
  5
576
  8
1
  6
CONTINUOUS
 62
     7
 10
-251.4619481207731
 20
163.8202387512457
 30
0.0
  0
VERTEX
  5
577
  8
1
  6
CONTINUOUS
 62
     7
 10
-251.4515311096677
 20
163.8225951107178
 30
0.0
  0
VERTEX
  5
578
  8
1
  6
CONTINUOUS
 62
     7
 10
-251.4409353344366
 20
163.8247991181451
 30
0.0
  0
VERTEX
  5
579
  8
1
  6
CONTINUOUS
 62
     7
 10
-251.4302060896144
 20
163.8268354403544
 30
0.0
  0
VERTEX
  5
57A
  8
1
  6
CONTINUOUS
 62
     7
 10
-251.419301787844
 20
163.8287057459866
 30
0.0
  0
VERTEX
  5
57B
  8
1
  6
CONTINUOUS
 62
     7
 10
-251.4082795539084
 20
163.8303945383616
 30
0.0
  0
VERTEX
  5
57C
  8
1
  6
CONTINUOUS
 62
     7
 10
-251.3970981138433
 20
163.8319023676321
 30
0.0
  0
VERTEX
  5
57D
  8
1
  6
CONTINUOUS
 62
     7
 10
-251.3858189669307
 20
163.8332158571581
 30
0.0
  0
VERTEX
  5
57E
  8
1
  6
CONTINUOUS
 62
     7
 10
-251.3744029334344
 20
163.8343345517783
 30
0.0
  0
VERTEX
  5
57F
  8
1
  6
CONTINUOUS
 62
     7
 10
-251.3628990774334
 20
163.8352488470024
 30
0.0
  0
VERTEX
  5
580
  8
1
  6
CONTINUOUS
 62
     7
 10
-251.3519817925069
 20
163.8359197740498
 30
0.0
  0
VERTEX
  5
581
  8
1
  6
CONTINUOUS
 62
     7
 10
-251.341024588176
 20
163.8364014200252
 30
0.0
  0
VERTEX
  5
582
  8
1
  6
CONTINUOUS
 62
     7
 10
-251.329986729477
 20
163.8366927559036
 30
0.0
  0
VERTEX
  5
583
  8
1
  6
CONTINUOUS
 62
     7
 10
-251.3189352068297
 20
163.8367900587448
 30
0.0
  0
SEQEND
  5
928
  8
1
  6
CONTINUOUS
 62
     7
  0
POLYLINE
  5
17D
  8
1
  6
CONTINUOUS
 62
     7
 66
     1
 10
0.0
 20
0.0
 30
0.0
  0
VERTEX
  5
584
  8
1
  6
CONTINUOUS
 62
     7
 10
-251.3189352070686
 20
155.2637092134572
 30
0.0
  0
VERTEX
  5
585
  8
1
  6
CONTINUOUS
 62
     7
 10
-251.3283307260958
 20
155.263779633894
 30
0.0
  0
VERTEX
  5
586
  8
1
  6
CONTINUOUS
 62
     7
 10
-251.337717841174
 20
155.2639905952257
 30
0.0
  0
VERTEX
  5
587
  8
1
  6
CONTINUOUS
 62
     7
 10
-251.3471217298101
 20
155.2643431327683
 30
0.0
  0
VERTEX
  5
588
  8
1
  6
CONTINUOUS
 62
     7
 10
-251.3565004752795
 20
155.2648356734346
 30
0.0
  0
VERTEX
  5
589
  8
1
  6
CONTINUOUS
 62
     7
 10
-251.3691054866436
 20
155.2657205285857
 30
0.0
  0
VERTEX
  5
58A
  8
1
  6
CONTINUOUS
 62
     7
 10
-251.3816358957876
 20
155.2668539927731
 30
0.0
  0
VERTEX
  5
58B
  8
1
  6
CONTINUOUS
 62
     7
 10
-251.3940641286761
 20
155.2682298840984
 30
0.0
  0
VERTEX
  5
58C
  8
1
  6
CONTINUOUS
 62
     7
 10
-251.4065443367229
 20
155.2698666939638
 30
0.0
  0
VERTEX
  5
58D
  8
1
  6
CONTINUOUS
 62
     7
 10
-251.4188960116582
 20
155.2717400012659
 30
0.0
  0
VERTEX
  5
58E
  8
1
  6
CONTINUOUS
 62
     7
 10
-251.4310962863602
 20
155.2738405050615
 30
0.0
  0
VERTEX
  5
58F
  8
1
  6
CONTINUOUS
 62
     7
 10
-251.4485743528364
 20
155.2772899898778
 30
0.0
  0
VERTEX
  5
590
  8
1
  6
CONTINUOUS
 62
     7
 10
-251.4657255300878
 20
155.2811880078081
 30
0.0
  0
VERTEX
  5
591
  8
1
  6
CONTINUOUS
 62
     7
 10
-251.4826183688433
 20
155.2855357625803
 30
0.0
  0
VERTEX
  5
592
  8
1
  6
CONTINUOUS
 62
     7
 10
-251.4990886895371
 20
155.2902727276293
 30
0.0
  0
VERTEX
  5
593
  8
1
  6
CONTINUOUS
 62
     7
 10
-251.5152521639091
 20
155.295413451538
 30
0.0
  0
VERTEX
  5
594
  8
1
  6
CONTINUOUS
 62
     7
 10
-251.5309662748811
 20
155.3008924507275
 30
0.0
  0
VERTEX
  5
595
  8
1
  6
CONTINUOUS
 62
     7
 10
-251.54377260441
 20
155.3057194778662
 30
0.0
  0
VERTEX
  5
596
  8
1
  6
CONTINUOUS
 62
     7
 10
-251.5562754442109
 20
155.3107552021864
 30
0.0
  0
VERTEX
  5
597
  8
1
  6
CONTINUOUS
 62
     7
 10
-251.5685050273986
 20
155.3159990106736
 30
0.0
  0
VERTEX
  5
598
  8
1
  6
CONTINUOUS
 62
     7
 10
-251.5804212791107
 20
155.3214205888332
 30
0.0
  0
VERTEX
  5
599
  8
1
  6
CONTINUOUS
 62
     7
 10
-251.5920657746682
 20
155.3270258363253
 30
0.0
  0
VERTEX
  5
59A
  8
1
  6
CONTINUOUS
 62
     7
 10
-251.6034048918882
 20
155.3327858324435
 30
0.0
  0
VERTEX
  5
59B
  8
1
  6
CONTINUOUS
 62
     7
 10
-251.6252531302544
 20
155.3447628836888
 30
0.0
  0
VERTEX
  5
59C
  8
1
  6
CONTINUOUS
 62
     7
 10
-251.645996680712
 20
155.3572703970465
 30
0.0
  0
VERTEX
  5
59D
  8
1
  6
CONTINUOUS
 62
     7
 10
-251.6656803933324
 20
155.3702410099767
 30
0.0
  0
VERTEX
  5
59E
  8
1
  6
CONTINUOUS
 62
     7
 10
-251.6862774390176
 20
155.3850583807252
 30
0.0
  0
VERTEX
  5
59F
  8
1
  6
CONTINUOUS
 62
     7
 10
-251.7069838671746
 20
155.4013557060368
 30
0.0
  0
VERTEX
  5
5A0
  8
1
  6
CONTINUOUS
 62
     7
 10
-251.7264325808293
 20
155.4180717320686
 30
0.0
  0
VERTEX
  5
5A1
  8
1
  6
CONTINUOUS
 62
     7
 10
-251.7471947153878
 20
155.4375911230185
 30
0.0
  0
VERTEX
  5
5A2
  8
1
  6
CONTINUOUS
 62
     7
 10
-251.7665270999662
 20
155.4575095809656
 30
0.0
  0
VERTEX
  5
5A3
  8
1
  6
CONTINUOUS
 62
     7
 10
-251.7864077704591
 20
155.4799848591048
 30
0.0
  0
VERTEX
  5
5A4
  8
1
  6
CONTINUOUS
 62
     7
 10
-251.8047787585341
 20
155.5028109311108
 30
0.0
  0
VERTEX
  5
5A5
  8
1
  6
CONTINUOUS
 62
     7
 10
-251.822347495151
 20
155.5267817579532
 30
0.0
  0
VERTEX
  5
5A6
  8
1
  6
CONTINUOUS
 62
     7
 10
-251.8387448759615
 20
155.5513576204804
 30
0.0
  0
VERTEX
  5
5A7
  8
1
  6
CONTINUOUS
 62
     7
 10
-251.8538112075198
 20
155.5761464771949
 30
0.0
  0
VERTEX
  5
5A8
  8
1
  6
CONTINUOUS
 62
     7
 10
-251.8804072522697
 20
155.6263632403688
 30
0.0
  0
VERTEX
  5
5A9
  8
1
  6
CONTINUOUS
 62
     7
 10
-251.905086732409
 20
155.6830451623308
 30
0.0
  0
VERTEX
  5
5AA
  8
1
  6
CONTINUOUS
 62
     7
 10
-251.9252275157234
 20
155.7402751737955
 30
0.0
  0
VERTEX
  5
5AB
  8
1
  6
CONTINUOUS
 62
     7
 10
-251.9434236114391
 20
155.8061939810314
 30
0.0
  0
VERTEX
  5
5AC
  8
1
  6
CONTINUOUS
 62
     7
 10
-251.9570895941736
 20
155.8724696007566
 30
0.0
  0
VERTEX
  5
5AD
  8
1
  6
CONTINUOUS
 62
     7
 10
-251.9673791021717
 20
155.9448321440986
 30
0.0
  0
VERTEX
  5
5AE
  8
1
  6
CONTINUOUS
 62
     7
 10
-251.9733179801325
 20
156.0173845713294
 30
0.0
  0
VERTEX
  5
5AF
  8
1
  6
CONTINUOUS
 62
     7
 10
-251.9750905444189
 20
156.0998246843595
 30
0.0
  0
VERTEX
  5
5B0
  8
1
  6
CONTINUOUS
 62
     7
 10
-251.9716578172517
 20
156.1823340718476
 30
0.0
  0
VERTEX
  5
5B1
  8
1
  6
CONTINUOUS
 62
     7
 10
-251.9637803210414
 20
156.2578512446715
 30
0.0
  0
VERTEX
  5
5B2
  8
1
  6
CONTINUOUS
 62
     7
 10
-251.9509846440088
 20
156.3332776866228
 30
0.0
  0
VERTEX
  5
5B3
  8
1
  6
CONTINUOUS
 62
     7
 10
-251.9361010124256
 20
156.3960549310951
 30
0.0
  0
VERTEX
  5
5B4
  8
1
  6
CONTINUOUS
 62
     7
 10
-251.916844220678
 20
156.4586077787247
 30
0.0
  0
VERTEX
  5
5B5
  8
1
  6
CONTINUOUS
 62
     7
 10
-251.8971029739331
 20
156.5101449316401
 30
0.0
  0
VERTEX
  5
5B6
  8
1
  6
CONTINUOUS
 62
     7
 10
-251.8733909069373
 20
156.5613370472703
 30
0.0
  0
VERTEX
  5
5B7
  8
1
  6
CONTINUOUS
 62
     7
 10
-251.8552724674238
 20
156.5948503780571
 30
0.0
  0
VERTEX
  5
5B8
  8
1
  6
CONTINUOUS
 62
     7
 10
-251.8349388408331
 20
156.6280819467256
 30
0.0
  0
VERTEX
  5
5B9
  8
1
  6
CONTINUOUS
 62
     7
 10
-251.8121317641397
 20
156.6609575945354
 30
0.0
  0
VERTEX
  5
5BA
  8
1
  6
CONTINUOUS
 62
     7
 10
-251.7865446485121
 20
156.6933801853307
 30
0.0
  0
VERTEX
  5
5BB
  8
1
  6
CONTINUOUS
 62
     7
 10
-251.7701743409627
 20
156.7120537689961
 30
0.0
  0
VERTEX
  5
5BC
  8
1
  6
CONTINUOUS
 62
     7
 10
-251.7526591407625
 20
156.7304858300808
 30
0.0
  0
VERTEX
  5
5BD
  8
1
  6
CONTINUOUS
 62
     7
 10
-251.7342425855001
 20
156.748326370779
 30
0.0
  0
VERTEX
  5
5BE
  8
1
  6
CONTINUOUS
 62
     7
 10
-251.7145390885336
 20
156.7658478925108
 30
0.0
  0
VERTEX
  5
5BF
  8
1
  6
CONTINUOUS
 62
     7
 10
-251.6940341883308
 20
156.7825357251715
 30
0.0
  0
VERTEX
  5
5C0
  8
1
  6
CONTINUOUS
 62
     7
 10
-251.6721066850348
 20
156.7988050118985
 30
0.0
  0
VERTEX
  5
5C1
  8
1
  6
CONTINUOUS
 62
     7
 10
-251.6492405469329
 20
156.8141955900041
 30
0.0
  0
VERTEX
  5
5C2
  8
1
  6
CONTINUOUS
 62
     7
 10
-251.6372147653886
 20
156.8216926066439
 30
0.0
  0
VERTEX
  5
5C3
  8
1
  6
CONTINUOUS
 62
     7
 10
-251.6247961198475
 20
156.8290273570007
 30
0.0
  0
VERTEX
  5
5C4
  8
1
  6
CONTINUOUS
 62
     7
 10
-251.6120704610971
 20
156.8361325680812
 30
0.0
  0
VERTEX
  5
5C5
  8
1
  6
CONTINUOUS
 62
     7
 10
-251.5989236332695
 20
156.8430542119309
 30
0.0
  0
VERTEX
  5
5C6
  8
1
  6
CONTINUOUS
 62
     7
 10
-251.5827152944375
 20
156.85102693925
 30
0.0
  0
VERTEX
  5
5C7
  8
1
  6
CONTINUOUS
 62
     7
 10
-251.56586778357
 20
156.8586863331442
 30
0.0
  0
VERTEX
  5
5C8
  8
1
  6
CONTINUOUS
 62
     7
 10
-251.5484929398668
 20
156.8659447300985
 30
0.0
  0
VERTEX
  5
5C9
  8
1
  6
CONTINUOUS
 62
     7
 10
-251.5304897939674
 20
156.8728082527997
 30
0.0
  0
VERTEX
  5
5CA
  8
1
  6
CONTINUOUS
 62
     7
 10
-251.5116850932737
 20
156.8792910095847
 30
0.0
  0
VERTEX
  5
5CB
  8
1
  6
CONTINUOUS
 62
     7
 10
-251.4922438117565
 20
156.8852840017713
 30
0.0
  0
VERTEX
  5
5CC
  8
1
  6
CONTINUOUS
 62
     7
 10
-251.4823121195531
 20
156.8880751994965
 30
0.0
  0
VERTEX
  5
5CD
  8
1
  6
CONTINUOUS
 62
     7
 10
-251.4722203602796
 20
156.8907282673568
 30
0.0
  0
VERTEX
  5
5CE
  8
1
  6
CONTINUOUS
 62
     7
 10
-251.4619481209655
 20
156.8932421354963
 30
0.0
  0
VERTEX
  5
5CF
  8
1
  6
CONTINUOUS
 62
     7
 10
-251.45153110986
 20
156.895602023829
 30
0.0
  0
VERTEX
  5
5D0
  8
1
  6
CONTINUOUS
 62
     7
 10
-251.4409353346288
 20
156.8978093319561
 30
0.0
  0
VERTEX
  5
5D1
  8
1
  6
CONTINUOUS
 62
     7
 10
-251.4302060898066
 20
156.8998487037414
 30
0.0
  0
VERTEX
  5
5D2
  8
1
  6
CONTINUOUS
 62
     7
 10
-251.4193017880363
 20
156.9017218103249
 30
0.0
  0
VERTEX
  5
5D3
  8
1
  6
CONTINUOUS
 62
     7
 10
-251.4082795541006
 20
156.9034131318187
 30
0.0
  0
VERTEX
  5
5D4
  8
1
  6
CONTINUOUS
 62
     7
 10
-251.3970981140356
 20
156.9049232191994
 30
0.0
  0
VERTEX
  5
5D5
  8
1
  6
CONTINUOUS
 62
     7
 10
-251.3858189671229
 20
156.9062386757943
 30
0.0
  0
VERTEX
  5
5D6
  8
1
  6
CONTINUOUS
 62
     7
 10
-251.3744029336267
 20
156.9073590457606
 30
0.0
  0
VERTEX
  5
5D7
  8
1
  6
CONTINUOUS
 62
     7
 10
-251.3628990776255
 20
156.9082747102241
 30
0.0
  0
VERTEX
  5
5D8
  8
1
  6
CONTINUOUS
 62
     7
 10
-251.3519817926991
 20
156.9089466420452
 30
0.0
  0
VERTEX
  5
5D9
  8
1
  6
CONTINUOUS
 62
     7
 10
-251.3410245883683
 20
156.9094290093289
 30
0.0
  0
VERTEX
  5
5DA
  8
1
  6
CONTINUOUS
 62
     7
 10
-251.3299867296692
 20
156.909720781509
 30
0.0
  0
VERTEX
  5
5DB
  8
1
  6
CONTINUOUS
 62
     7
 10
-251.3189352070219
 20
156.9098182300699
 30
0.0
  0
SEQEND
  5
929
  8
1
  6
CONTINUOUS
 62
     7
  0
LINE
  5
17E
  8
1
  6
CONTINUOUS
 62
     7
 10
-249.1439352070469
 20
156.0500010265775
 30
0.0
 11
-249.1439352068518
 21
163.0500010265774
 31
0.0
  0
POLYLINE
  5
17F
  8
1
  6
CONTINUOUS
 62
     7
 66
     1
 10
0.0
 20
0.0
 30
0.0
  0
VERTEX
  5
5DC
  8
1
  6
CONTINUOUS
 62
     7
 10
-249.9689352070218
 20
156.9098182300323
 30
0.0
  0
VERTEX
  5
5DD
  8
1
  6
CONTINUOUS
 62
     7
 10
-249.9563889663417
 20
156.9096923673497
 30
0.0
  0
VERTEX
  5
5DE
  8
1
  6
CONTINUOUS
 62
     7
 10
-249.9438577013279
 20
156.9093161945893
 30
0.0
  0
VERTEX
  5
5DF
  8
1
  6
CONTINUOUS
 62
     7
 10
-249.9313710152219
 20
156.9086918346815
 30
0.0
  0
VERTEX
  5
5E0
  8
1
  6
CONTINUOUS
 62
     7
 10
-249.9187658233083
 20
156.9078069868452
 30
0.0
  0
VERTEX
  5
5E1
  8
1
  6
CONTINUOUS
 62
     7
 10
-249.9062352342806
 20
156.9066735227329
 30
0.0
  0
VERTEX
  5
5E2
  8
1
  6
CONTINUOUS
 62
     7
 10
-249.893806823422
 20
156.9052976244256
 30
0.0
  0
VERTEX
  5
5E3
  8
1
  6
CONTINUOUS
 62
     7
 10
-249.8844482626741
 20
156.904094460866
 30
0.0
  0
VERTEX
  5
5E4
  8
1
  6
CONTINUOUS
 62
     7
 10
-249.8751622455659
 20
156.9027578802988
 30
0.0
  0
VERTEX
  5
5E5
  8
1
  6
CONTINUOUS
 62
     7
 10
-249.8659256840868
 20
156.9012861652915
 30
0.0
  0
VERTEX
  5
5E6
  8
1
  6
CONTINUOUS
 62
     7
 10
-249.8567741277302
 20
156.899686938428
 30
0.0
  0
VERTEX
  5
5E7
  8
1
  6
CONTINUOUS
 62
     7
 10
-249.8392739798107
 20
156.8962325568368
 30
0.0
  0
VERTEX
  5
5E8
  8
1
  6
CONTINUOUS
 62
     7
 10
-249.82214488802
 20
156.892339436655
 30
0.0
  0
VERTEX
  5
5E9
  8
1
  6
CONTINUOUS
 62
     7
 10
-249.8052520482
 20
156.8879916817141
 30
0.0
  0
VERTEX
  5
5EA
  8
1
  6
CONTINUOUS
 62
     7
 10
-249.7887817264878
 20
156.8832547164461
 30
0.0
  0
VERTEX
  5
5EB
  8
1
  6
CONTINUOUS
 62
     7
 10
-249.772632517377
 20
156.8781188260726
 30
0.0
  0
VERTEX
  5
5EC
  8
1
  6
CONTINUOUS
 62
     7
 10
-249.7569041392092
 20
156.872634992762
 30
0.0
  0
VERTEX
  5
5ED
  8
1
  6
CONTINUOUS
 62
     7
 10
-249.7440889580507
 20
156.867804496884
 30
0.0
  0
VERTEX
  5
5EE
  8
1
  6
CONTINUOUS
 62
     7
 10
-249.7315904251186
 20
156.8627703516354
 30
0.0
  0
VERTEX
  5
5EF
  8
1
  6
CONTINUOUS
 62
     7
 10
-249.7193598991931
 20
156.8575260078058
 30
0.0
  0
VERTEX
  5
5F0
  8
1
  6
CONTINUOUS
 62
     7
 10
-249.7074427578016
 20
156.8521038689544
 30
0.0
  0
VERTEX
  5
5F1
  8
1
  6
CONTINUOUS
 62
     7
 10
-249.6957972902024
 20
156.846497971462
 30
0.0
  0
VERTEX
  5
5F2
  8
1
  6
CONTINUOUS
 62
     7
 10
-249.6844572577575
 20
156.8407373018451
 30
0.0
  0
VERTEX
  5
5F3
  8
1
  6
CONTINUOUS
 62
     7
 10
-249.6626115063778
 20
156.8287612341207
 30
0.0
  0
VERTEX
  5
5F4
  8
1
  6
CONTINUOUS
 62
     7
 10
-249.6418699992758
 20
156.8162546902749
 30
0.0
  0
VERTEX
  5
5F5
  8
1
  6
CONTINUOUS
 62
     7
 10
-249.622190020758
 20
156.8032864335128
 30
0.0
  0
VERTEX
  5
5F6
  8
1
  6
CONTINUOUS
 62
     7
 10
-249.6078959840139
 20
156.7931450952357
 30
0.0
  0
VERTEX
  5
5F7
  8
1
  6
CONTINUOUS
 62
     7
 10
-249.5941715281987
 20
156.782796372596
 30
0.0
  0
VERTEX
  5
5F8
  8
1
  6
CONTINUOUS
 62
     7
 10
-249.5682651621166
 20
156.7614880349451
 30
0.0
  0
VERTEX
  5
5F9
  8
1
  6
CONTINUOUS
 62
     7
 10
-249.5443596703323
 20
156.7395347711772
 30
0.0
  0
VERTEX
  5
5FA
  8
1
  6
CONTINUOUS
 62
     7
 10
-249.5222265277056
 20
156.7169675565118
 30
0.0
  0
VERTEX
  5
5FB
  8
1
  6
CONTINUOUS
 62
     7
 10
-249.5018116688212
 20
156.6939561889434
 30
0.0
  0
VERTEX
  5
5FC
  8
1
  6
CONTINUOUS
 62
     7
 10
-249.4829305689346
 20
156.6705067276532
 30
0.0
  0
VERTEX
  5
5FD
  8
1
  6
CONTINUOUS
 62
     7
 10
-249.4655229189394
 20
156.6467456855363
 30
0.0
  0
VERTEX
  5
5FE
  8
1
  6
CONTINUOUS
 62
     7
 10
-249.4401285623477
 20
156.6076443345338
 30
0.0
  0
VERTEX
  5
5FF
  8
1
  6
CONTINUOUS
 62
     7
 10
-249.4160883499137
 20
156.5644856778716
 30
0.0
  0
VERTEX
  5
600
  8
1
  6
CONTINUOUS
 62
     7
 10
-249.3953547302108
 20
156.5208280244661
 30
0.0
  0
VERTEX
  5
601
  8
1
  6
CONTINUOUS
 62
     7
 10
-249.3744703596322
 20
156.4683487551482
 30
0.0
  0
VERTEX
  5
602
  8
1
  6
CONTINUOUS
 62
     7
 10
-249.3572409085398
 20
156.4154687661512
 30
0.0
  0
VERTEX
  5
603
  8
1
  6
CONTINUOUS
 62
     7
 10
-249.3412513111281
 20
156.3535801161327
 30
0.0
  0
VERTEX
  5
604
  8
1
  6
CONTINUOUS
 62
     7
 10
-249.3291411854017
 20
156.2914067652553
 30
0.0
  0
VERTEX
  5
605
  8
1
  6
CONTINUOUS
 62
     7
 10
-249.3199625771842
 20
156.2238528895389
 30
0.0
  0
VERTEX
  5
606
  8
1
  6
CONTINUOUS
 62
     7
 10
-249.3145524339579
 20
156.1561428721602
 30
0.0
  0
VERTEX
  5
607
  8
1
  6
CONTINUOUS
 62
     7
 10
-249.3127149922554
 20
156.0870076320705
 30
0.0
  0
VERTEX
  5
608
  8
1
  6
CONTINUOUS
 62
     7
 10
-249.3145155649487
 20
156.0180817449013
 30
0.0
  0
VERTEX
  5
609
  8
1
  6
CONTINUOUS
 62
     7
 10
-249.3200183045994
 20
155.9491556857249
 30
0.0
  0
VERTEX
  5
60A
  8
1
  6
CONTINUOUS
 62
     7
 10
-249.3293432535064
 20
155.8809036938569
 30
0.0
  0
VERTEX
  5
60B
  8
1
  6
CONTINUOUS
 62
     7
 10
-249.3428954661721
 20
155.8127656024234
 30
0.0
  0
VERTEX
  5
60C
  8
1
  6
CONTINUOUS
 62
     7
 10
-249.3610326094654
 20
155.7454462118561
 30
0.0
  0
VERTEX
  5
60D
  8
1
  6
CONTINUOUS
 62
     7
 10
-249.3846003842161
 20
155.6784431415529
 30
0.0
  0
VERTEX
  5
60E
  8
1
  6
CONTINUOUS
 62
     7
 10
-249.4144795071531
 20
155.6121903962192
 30
0.0
  0
VERTEX
  5
60F
  8
1
  6
CONTINUOUS
 62
     7
 10
-249.4325979481549
 20
155.5786770628429
 30
0.0
  0
VERTEX
  5
610
  8
1
  6
CONTINUOUS
 62
     7
 10
-249.4529315766015
 20
155.5454454916261
 30
0.0
  0
VERTEX
  5
611
  8
1
  6
CONTINUOUS
 62
     7
 10
-249.4757386518259
 20
155.5125698464167
 30
0.0
  0
VERTEX
  5
612
  8
1
  6
CONTINUOUS
 62
     7
 10
-249.5013257655783
 20
155.4801472581588
 30
0.0
  0
VERTEX
  5
613
  8
1
  6
CONTINUOUS
 62
     7
 10
-249.5195272885783
 20
155.459474803742
 30
0.0
  0
VERTEX
  5
614
  8
1
  6
CONTINUOUS
 62
     7
 10
-249.5391475520302
 20
155.4391016418874
 30
0.0
  0
VERTEX
  5
615
  8
1
  6
CONTINUOUS
 62
     7
 10
-249.5600196957534
 20
155.4193478616478
 30
0.0
  0
VERTEX
  5
616
  8
1
  6
CONTINUOUS
 62
     7
 10
-249.5825300820078
 20
155.4000075942518
 30
0.0
  0
VERTEX
  5
617
  8
1
  6
CONTINUOUS
 62
     7
 10
-249.6063484087783
 20
155.3815186111014
 30
0.0
  0
VERTEX
  5
618
  8
1
  6
CONTINUOUS
 62
     7
 10
-249.6189610887347
 20
155.3724770171173
 30
0.0
  0
VERTEX
  5
619
  8
1
  6
CONTINUOUS
 62
     7
 10
-249.6320477341943
 20
155.3636058577874
 30
0.0
  0
VERTEX
  5
61A
  8
1
  6
CONTINUOUS
 62
     7
 10
-249.6454772553126
 20
155.3550145074369
 30
0.0
  0
VERTEX
  5
61B
  8
1
  6
CONTINUOUS
 62
     7
 10
-249.6594059122274
 20
155.346624735142
 30
0.0
  0
VERTEX
  5
61C
  8
1
  6
CONTINUOUS
 62
     7
 10
-249.6739076239125
 20
155.338425758519
 30
0.0
  0
VERTEX
  5
61D
  8
1
  6
CONTINUOUS
 62
     7
 10
-249.6889467808209
 20
155.3304732315586
 30
0.0
  0
VERTEX
  5
61E
  8
1
  6
CONTINUOUS
 62
     7
 10
-249.7083807895024
 20
155.3209853797872
 30
0.0
  0
VERTEX
  5
61F
  8
1
  6
CONTINUOUS
 62
     7
 10
-249.728734299792
 20
155.3119532551131
 30
0.0
  0
VERTEX
  5
620
  8
1
  6
CONTINUOUS
 62
     7
 10
-249.7392762546118
 20
155.3076231164254
 30
0.0
  0
VERTEX
  5
621
  8
1
  6
CONTINUOUS
 62
     7
 10
-249.7500465898039
 20
155.3034361634649
 30
0.0
  0
VERTEX
  5
622
  8
1
  6
CONTINUOUS
 62
     7
 10
-249.7610758311466
 20
155.2993907853493
 30
0.0
  0
VERTEX
  5
623
  8
1
  6
CONTINUOUS
 62
     7
 10
-249.7723354969513
 20
155.2955077244623
 30
0.0
  0
VERTEX
  5
624
  8
1
  6
CONTINUOUS
 62
     7
 10
-249.7838667154255
 20
155.2917837191436
 30
0.0
  0
VERTEX
  5
625
  8
1
  6
CONTINUOUS
 62
     7
 10
-249.7956266023339
 20
155.2882434417182
 30
0.0
  0
VERTEX
  5
626
  8
1
  6
CONTINUOUS
 62
     7
 10
-249.8075472143108
 20
155.284914856402
 30
0.0
  0
VERTEX
  5
627
  8
1
  6
CONTINUOUS
 62
     7
 10
-249.8196991845949
 20
155.2817859217177
 30
0.0
  0
VERTEX
  5
628
  8
1
  6
CONTINUOUS
 62
     7
 10
-249.8321154230471
 20
155.2788595263441
 30
0.0
  0
VERTEX
  5
629
  8
1
  6
CONTINUOUS
 62
     7
 10
-249.8447354342661
 20
155.2761604308562
 30
0.0
  0
VERTEX
  5
62A
  8
1
  6
CONTINUOUS
 62
     7
 10
-249.857620669891
 20
155.2736867142215
 30
0.0
  0
VERTEX
  5
62B
  8
1
  6
CONTINUOUS
 62
     7
 10
-249.870687620532
 20
155.2714647366014
 30
0.0
  0
VERTEX
  5
62C
  8
1
  6
CONTINUOUS
 62
     7
 10
-249.8840051454246
 20
155.2694935950512
 30
0.0
  0
VERTEX
  5
62D
  8
1
  6
CONTINUOUS
 62
     7
 10
-249.8974729661336
 20
155.2677976536796
 30
0.0
  0
VERTEX
  5
62E
  8
1
  6
CONTINUOUS
 62
     7
 10
-249.9111675279337
 20
155.2663772241165
 30
0.0
  0
VERTEX
  5
62F
  8
1
  6
CONTINUOUS
 62
     7
 10
-249.9249713364648
 20
155.2652527332654
 30
0.0
  0
VERTEX
  5
630
  8
1
  6
CONTINUOUS
 62
     7
 10
-249.9358886213913
 20
155.2645808014444
 30
0.0
  0
VERTEX
  5
631
  8
1
  6
CONTINUOUS
 62
     7
 10
-249.9468458257222
 20
155.2640984341607
 30
0.0
  0
VERTEX
  5
632
  8
1
  6
CONTINUOUS
 62
     7
 10
-249.9578836844212
 20
155.2638066619806
 30
0.0
  0
VERTEX
  5
633
  8
1
  6
CONTINUOUS
 62
     7
 10
-249.9689352070686
 20
155.2637092134196
 30
0.0
  0
SEQEND
  5
92A
  8
1
  6
CONTINUOUS
 62
     7
  0
POLYLINE
  5
180
  8
1
  6
CONTINUOUS
 62
     7
 66
     1
 10
0.0
 20
0.0
 30
0.0
  0
VERTEX
  5
634
  8
1
  6
CONTINUOUS
 62
     7
 10
-249.9689352068296
 20
163.8367900587072
 30
0.0
  0
VERTEX
  5
635
  8
1
  6
CONTINUOUS
 62
     7
 10
-249.9595399572661
 20
163.8367197476087
 30
0.0
  0
VERTEX
  5
636
  8
1
  6
CONTINUOUS
 62
     7
 10
-249.9501531109296
 20
163.8365091138089
 30
0.0
  0
VERTEX
  5
637
  8
1
  6
CONTINUOUS
 62
     7
 10
-249.9407494924743
 20
163.8361571236584
 30
0.0
  0
VERTEX
  5
638
  8
1
  6
CONTINUOUS
 62
     7
 10
-249.9313710150297
 20
163.8356653477124
 30
0.0
  0
VERTEX
  5
639
  8
1
  6
CONTINUOUS
 62
     7
 10
-249.9187658231162
 20
163.8347818230338
 30
0.0
  0
VERTEX
  5
63A
  8
1
  6
CONTINUOUS
 62
     7
 10
-249.9062352340885
 20
163.8336500538479
 30
0.0
  0
VERTEX
  5
63B
  8
1
  6
CONTINUOUS
 62
     7
 10
-249.8938068232298
 20
163.8322762129911
 30
0.0
  0
VERTEX
  5
63C
  8
1
  6
CONTINUOUS
 62
     7
 10
-249.8813264323395
 20
163.8306418359286
 30
0.0
  0
VERTEX
  5
63D
  8
1
  6
CONTINUOUS
 62
     7
 10
-249.8689745777262
 20
163.8287713081048
 30
0.0
  0
VERTEX
  5
63E
  8
1
  6
CONTINUOUS
 62
     7
 10
-249.856774127538
 20
163.8266739169369
 30
0.0
  0
VERTEX
  5
63F
  8
1
  6
CONTINUOUS
 62
     7
 10
-249.8392960631086
 20
163.8232295907441
 30
0.0
  0
VERTEX
  5
640
  8
1
  6
CONTINUOUS
 62
     7
 10
-249.8221448878278
 20
163.8193374022557
 30
0.0
  0
VERTEX
  5
641
  8
1
  6
CONTINUOUS
 62
     7
 10
-249.8052520480079
 20
163.8149961487331
 30
0.0
  0
VERTEX
  5
642
  8
1
  6
CONTINUOUS
 62
     7
 10
-249.7887817262957
 20
163.8102662668895
 30
0.0
  0
VERTEX
  5
643
  8
1
  6
CONTINUOUS
 62
     7
 10
-249.7726182509301
 20
163.8051332298942
 30
0.0
  0
VERTEX
  5
644
  8
1
  6
CONTINUOUS
 62
     7
 10
-249.7569041390171
 20
163.7996624234167
 30
0.0
  0
VERTEX
  5
645
  8
1
  6
CONTINUOUS
 62
     7
 10
-249.7440955286712
 20
163.7948417264662
 30
0.0
  0
VERTEX
  5
646
  8
1
  6
CONTINUOUS
 62
     7
 10
-249.7315905151748
 20
163.7898125708568
 30
0.0
  0
VERTEX
  5
647
  8
1
  6
CONTINUOUS
 62
     7
 10
-249.7193599429771
 20
163.7845760510966
 30
0.0
  0
VERTEX
  5
648
  8
1
  6
CONTINUOUS
 62
     7
 10
-249.7074427576095
 20
163.7791620008395
 30
0.0
  0
VERTEX
  5
649
  8
1
  6
CONTINUOUS
 62
     7
 10
-249.6957973742857
 20
163.7735645277596
 30
0.0
  0
VERTEX
  5
64A
  8
1
  6
CONTINUOUS
 62
     7
 10
-249.6844574216804
 20
163.7678125161798
 30
0.0
  0
VERTEX
  5
64B
  8
1
  6
CONTINUOUS
 62
     7
 10
-249.6626115061857
 20
163.7558542714312
 30
0.0
  0
VERTEX
  5
64C
  8
1
  6
CONTINUOUS
 62
     7
 10
-249.6418700732372
 20
163.7433664759747
 30
0.0
  0
VERTEX
  5
64D
  8
1
  6
CONTINUOUS
 62
     7
 10
-249.6221900205657
 20
163.7304175645842
 30
0.0
  0
VERTEX
  5
64E
  8
1
  6
CONTINUOUS
 62
     7
 10
-249.6078902620367
 20
163.720287294052
 30
0.0
  0
VERTEX
  5
64F
  8
1
  6
CONTINUOUS
 62
     7
 10
-249.5941715280065
 20
163.7099581434943
 30
0.0
  0
VERTEX
  5
650
  8
1
  6
CONTINUOUS
 62
     7
 10
-249.5683050652868
 20
163.6887163402304
 30
0.0
  0
VERTEX
  5
651
  8
1
  6
CONTINUOUS
 62
     7
 10
-249.5443596701401
 20
163.6667612333415
 30
0.0
  0
VERTEX
  5
652
  8
1
  6
CONTINUOUS
 62
     7
 10
-249.5222689656154
 20
163.6442732293655
 30
0.0
  0
VERTEX
  5
653
  8
1
  6
CONTINUOUS
 62
     7
 10
-249.5018116686289
 20
163.6212508070725
 30
0.0
  0
VERTEX
  5
654
  8
1
  6
CONTINUOUS
 62
     7
 10
-249.4829466525975
 20
163.5978573336918
 30
0.0
  0
VERTEX
  5
655
  8
1
  6
CONTINUOUS
 62
     7
 10
-249.4655229187469
 20
163.5741108999248
 30
0.0
  0
VERTEX
  5
656
  8
1
  6
CONTINUOUS
 62
     7
 10
-249.4401285621553
 20
163.5350680191549
 30
0.0
  0
VERTEX
  5
657
  8
1
  6
CONTINUOUS
 62
     7
 10
-249.4179002904648
 20
163.4954717707936
 30
0.0
  0
VERTEX
  5
658
  8
1
  6
CONTINUOUS
 62
     7
 10
-249.3953547300183
 20
163.4483815299173
 30
0.0
  0
VERTEX
  5
659
  8
1
  6
CONTINUOUS
 62
     7
 10
-249.3762410344895
 20
163.4008446585726
 30
0.0
  0
VERTEX
  5
65A
  8
1
  6
CONTINUOUS
 62
     7
 10
-249.3572409083472
 20
163.3431798206431
 30
0.0
  0
VERTEX
  5
65B
  8
1
  6
CONTINUOUS
 62
     7
 10
-249.3421105320504
 20
163.2851600747748
 30
0.0
  0
VERTEX
  5
65C
  8
1
  6
CONTINUOUS
 62
     7
 10
-249.3291411852089
 20
163.2193033359471
 30
0.0
  0
VERTEX
  5
65D
  8
1
  6
CONTINUOUS
 62
     7
 10
-249.320110475975
 20
163.1532209842528
 30
0.0
  0
VERTEX
  5
65E
  8
1
  6
CONTINUOUS
 62
     7
 10
-249.3145524337649
 20
163.0842417098092
 30
0.0
  0
VERTEX
  5
65F
  8
1
  6
CONTINUOUS
 62
     7
 10
-249.3127149920624
 20
163.0152098511493
 30
0.0
  0
VERTEX
  5
660
  8
1
  6
CONTINUOUS
 62
     7
 10
-249.3145291620819
 20
162.9461294677993
 30
0.0
  0
VERTEX
  5
661
  8
1
  6
CONTINUOUS
 62
     7
 10
-249.3200183044063
 20
162.8775640418082
 30
0.0
  0
VERTEX
  5
662
  8
1
  6
CONTINUOUS
 62
     7
 10
-249.329404052289
 20
162.8090500637709
 30
0.0
  0
VERTEX
  5
663
  8
1
  6
CONTINUOUS
 62
     7
 10
-249.3428954659788
 20
162.7413779095133
 30
0.0
  0
VERTEX
  5
664
  8
1
  6
CONTINUOUS
 62
     7
 10
-249.3611117552698
 20
162.6739029298411
 30
0.0
  0
VERTEX
  5
665
  8
1
  6
CONTINUOUS
 62
     7
 10
-249.3846003840227
 20
162.6072563078288
 30
0.0
  0
VERTEX
  5
666
  8
1
  6
CONTINUOUS
 62
     7
 10
-249.4144795069595
 20
162.5411026335842
 30
0.0
  0
VERTEX
  5
667
  8
1
  6
CONTINUOUS
 62
     7
 10
-249.4325979479614
 20
162.5076394143944
 30
0.0
  0
VERTEX
  5
668
  8
1
  6
CONTINUOUS
 62
     7
 10
-249.4529315764047
 20
162.4744575360359
 30
0.0
  0
VERTEX
  5
669
  8
1
  6
CONTINUOUS
 62
     7
 10
-249.4757386516323
 20
162.4416310514407
 30
0.0
  0
VERTEX
  5
66A
  8
1
  6
CONTINUOUS
 62
     7
 10
-249.5013257653845
 20
162.4092569463227
 30
0.0
  0
VERTEX
  5
66B
  8
1
  6
CONTINUOUS
 62
     7
 10
-249.5196007904514
 20
162.3885356545953
 30
0.0
  0
VERTEX
  5
66C
  8
1
  6
CONTINUOUS
 62
     7
 10
-249.5391475518365
 20
162.3682727076425
 30
0.0
  0
VERTEX
  5
66D
  8
1
  6
CONTINUOUS
 62
     7
 10
-249.5602263364858
 20
162.348362294134
 30
0.0
  0
VERTEX
  5
66E
  8
1
  6
CONTINUOUS
 62
     7
 10
-249.5825300818141
 20
162.3292371193183
 30
0.0
  0
VERTEX
  5
66F
  8
1
  6
CONTINUOUS
 62
     7
 10
-249.6065894173734
 20
162.3105985922909
 30
0.0
  0
VERTEX
  5
670
  8
1
  6
CONTINUOUS
 62
     7
 10
-249.6190860956411
 20
162.3016606881709
 30
0.0
  0
VERTEX
  5
671
  8
1
  6
CONTINUOUS
 62
     7
 10
-249.6320477340006
 20
162.2928898162161
 30
0.0
  0
VERTEX
  5
672
  8
1
  6
CONTINUOUS
 62
     7
 10
-249.6455334995818
 20
162.2842764374018
 30
0.0
  0
VERTEX
  5
673
  8
1
  6
CONTINUOUS
 62
     7
 10
-249.6595225863858
 20
162.2758660763139
 30
0.0
  0
VERTEX
  5
674
  8
1
  6
CONTINUOUS
 62
     7
 10
-249.6739600486015
 20
162.2677187639635
 30
0.0
  0
VERTEX
  5
675
  8
1
  6
CONTINUOUS
 62
     7
 10
-249.688946780627
 20
162.2598067348831
 30
0.0
  0
VERTEX
  5
676
  8
1
  6
CONTINUOUS
 62
     7
 10
-249.7083807893086
 20
162.2503330707776
 30
0.0
  0
VERTEX
  5
677
  8
1
  6
CONTINUOUS
 62
     7
 10
-249.7287397502172
 20
162.2413121565621
 30
0.0
  0
VERTEX
  5
678
  8
1
  6
CONTINUOUS
 62
     7
 10
-249.7392790391998
 20
162.2369896770606
 30
0.0
  0
VERTEX
  5
679
  8
1
  6
CONTINUOUS
 62
     7
 10
-249.7500465896102
 20
162.2328100966882
 30
0.0
  0
VERTEX
  5
67A
  8
1
  6
CONTINUOUS
 62
     7
 10
-249.7610776429069
 20
162.2287701240192
 30
0.0
  0
VERTEX
  5
67B
  8
1
  6
CONTINUOUS
 62
     7
 10
-249.7723391954434
 20
162.2248922801426
 30
0.0
  0
VERTEX
  5
67C
  8
1
  6
CONTINUOUS
 62
     7
 10
-249.7838627926665
 20
162.2211762733934
 30
0.0
  0
VERTEX
  5
67D
  8
1
  6
CONTINUOUS
 62
     7
 10
-249.7956266021399
 20
162.2176400933886
 30
0.0
  0
VERTEX
  5
67E
  8
1
  6
CONTINUOUS
 62
     7
 10
-249.8075541031896
 20
162.214314676992
 30
0.0
  0
VERTEX
  5
67F
  8
1
  6
CONTINUOUS
 62
     7
 10
-249.819699184401
 20
162.2111922296452
 30
0.0
  0
VERTEX
  5
680
  8
1
  6
CONTINUOUS
 62
     7
 10
-249.8321156225277
 20
162.2082701654406
 30
0.0
  0
VERTEX
  5
681
  8
1
  6
CONTINUOUS
 62
     7
 10
-249.8447358397508
 20
162.2055750686414
 30
0.0
  0
VERTEX
  5
682
  8
1
  6
CONTINUOUS
 62
     7
 10
-249.8576208755258
 20
162.2031050960927
 30
0.0
  0
VERTEX
  5
683
  8
1
  6
CONTINUOUS
 62
     7
 10
-249.8706876203381
 20
162.2008864783203
 30
0.0
  0
VERTEX
  5
684
  8
1
  6
CONTINUOUS
 62
     7
 10
-249.8840052781974
 20
162.1989182661339
 30
0.0
  0
VERTEX
  5
685
  8
1
  6
CONTINUOUS
 62
     7
 10
-249.8974732346587
 20
162.1972248481484
 30
0.0
  0
VERTEX
  5
686
  8
1
  6
CONTINUOUS
 62
     7
 10
-249.9111548829534
 20
162.1958076294747
 30
0.0
  0
VERTEX
  5
687
  8
1
  6
CONTINUOUS
 62
     7
 10
-249.9249713362709
 20
162.1946837641077
 30
0.0
  0
VERTEX
  5
688
  8
1
  6
CONTINUOUS
 62
     7
 10
-249.9358886211974
 20
162.1940128370605
 30
0.0
  0
VERTEX
  5
689
  8
1
  6
CONTINUOUS
 62
     7
 10
-249.9468458255282
 20
162.1935311910851
 30
0.0
  0
VERTEX
  5
68A
  8
1
  6
CONTINUOUS
 62
     7
 10
-249.9578836842272
 20
162.1932398552067
 30
0.0
  0
VERTEX
  5
68B
  8
1
  6
CONTINUOUS
 62
     7
 10
-249.9689352068746
 20
162.1931425523653
 30
0.0
  0
SEQEND
  5
92B
  8
1
  6
CONTINUOUS
 62
     7
  0
LINE
  5
181
  8
1
  6
CONTINUOUS
 62
     7
 10
-251.3189352070219
 20
156.9098182300699
 30
0.0
 11
-249.9689352070218
 21
156.9098182300323
 31
0.0
  0
LINE
  5
182
  8
1
  6
CONTINUOUS
 62
     7
 10
-249.9689352068746
 20
162.1931425523653
 30
0.0
 11
-251.3189352068746
 21
162.193142552403
 31
0.0
  0
LINE
  5
183
  8
1
  6
CONTINUOUS
 62
     7
 10
-249.9689352070686
 20
155.2637092134196
 30
0.0
 11
-251.3189352070686
 21
155.2637092134572
 31
0.0
  0
LINE
  5
184
  8
1
  6
CONTINUOUS
 62
     7
 10
-251.3189352068297
 20
163.8367900587448
 30
0.0
 11
-249.9689352068296
 21
163.8367900587072
 31
0.0
  0
LINE
  5
185
  8
1
  6
CONTINUOUS
 62
     7
 10
-248.5439352068532
 20
162.9975078284451
 30
0.0
 11
-248.5439352068547
 21
162.9451535933379
 31
0.0
  0
LINE
  5
186
  8
1
  6
CONTINUOUS
 62
     7
 10
-248.5439352068545
 20
162.945153593338
 30
0.0
 11
-248.0656789340849
 21
162.9026549832719
 31
0.0
  0
LINE
  5
187
  8
1
  6
CONTINUOUS
 62
     7
 10
-248.0656789342726
 20
156.1978654620441
 30
0.0
 11
-248.5439352070437
 21
156.1553668520019
 31
0.0
  0
LINE
  5
188
  8
1
  6
CONTINUOUS
 62
     7
 10
-248.5439352070439
 20
156.1553668520019
 30
0.0
 11
-248.5439352070454
 21
156.1024942246764
 31
0.0
  0
POLYLINE
  5
189
  8
1
  6
CONTINUOUS
 62
     7
 66
     1
 10
0.0
 20
0.0
 30
0.0
  0
VERTEX
  5
68C
  8
1
  6
CONTINUOUS
 62
     7
 10
-248.0656789340849
 20
162.9026549832719
 30
0.0
  0
VERTEX
  5
68D
  8
1
  6
CONTINUOUS
 62
     7
 10
-248.0172176494303
 20
162.8971351424653
 30
0.0
  0
VERTEX
  5
68E
  8
1
  6
CONTINUOUS
 62
     7
 10
-247.9689709664636
 20
162.8892007605492
 30
0.0
  0
VERTEX
  5
68F
  8
1
  6
CONTINUOUS
 62
     7
 10
-247.9291015963854
 20
162.8807661706322
 30
0.0
  0
VERTEX
  5
690
  8
1
  6
CONTINUOUS
 62
     7
 10
-247.8895474697311
 20
162.870672830288
 30
0.0
  0
VERTEX
  5
691
  8
1
  6
CONTINUOUS
 62
     7
 10
-247.8502430778993
 20
162.8588871629229
 30
0.0
  0
VERTEX
  5
692
  8
1
  6
CONTINUOUS
 62
     7
 10
-247.8113955127266
 20
162.8454543018803
 30
0.0
  0
VERTEX
  5
693
  8
1
  6
CONTINUOUS
 62
     7
 10
-247.7723889521391
 20
162.830104239329
 30
0.0
  0
VERTEX
  5
694
  8
1
  6
CONTINUOUS
 62
     7
 10
-247.7339991492715
 20
162.8130838476397
 30
0.0
  0
VERTEX
  5
695
  8
1
  6
CONTINUOUS
 62
     7
 10
-247.6961621880454
 20
162.794345884864
 30
0.0
  0
VERTEX
  5
696
  8
1
  6
CONTINUOUS
 62
     7
 10
-247.659090395094
 20
162.773976345567
 30
0.0
  0
VERTEX
  5
697
  8
1
  6
CONTINUOUS
 62
     7
 10
-247.6181730896503
 20
162.7490107651214
 30
0.0
  0
VERTEX
  5
698
  8
1
  6
CONTINUOUS
 62
     7
 10
-247.578414456037
 20
162.7220389274583
 30
0.0
  0
VERTEX
  5
699
  8
1
  6
CONTINUOUS
 62
     7
 10
-247.5397347001277
 20
162.6929726153107
 30
0.0
  0
VERTEX
  5
69A
  8
1
  6
CONTINUOUS
 62
     7
 10
-247.5024214623165
 20
162.6619929210212
 30
0.0
  0
VERTEX
  5
69B
  8
1
  6
CONTINUOUS
 62
     7
 10
-247.4713006042891
 20
162.6336821071548
 30
0.0
  0
VERTEX
  5
69C
  8
1
  6
CONTINUOUS
 62
     7
 10
-247.441342092706
 20
162.6040384067418
 30
0.0
  0
VERTEX
  5
69D
  8
1
  6
CONTINUOUS
 62
     7
 10
-247.412502434838
 20
162.5729978177323
 30
0.0
  0
VERTEX
  5
69E
  8
1
  6
CONTINUOUS
 62
     7
 10
-247.3849450502412
 20
162.5407145717318
 30
0.0
  0
VERTEX
  5
69F
  8
1
  6
CONTINUOUS
 62
     7
 10
-247.3582519426899
 20
162.5066145250723
 30
0.0
  0
VERTEX
  5
6A0
  8
1
  6
CONTINUOUS
 62
     7
 10
-247.3329954842443
 20
162.4713394275948
 30
0.0
  0
VERTEX
  5
6A1
  8
1
  6
CONTINUOUS
 62
     7
 10
-247.3091409426769
 20
162.4348142935878
 30
0.0
  0
VERTEX
  5
6A2
  8
1
  6
CONTINUOUS
 62
     7
 10
-247.2868322217762
 20
162.3972316033155
 30
0.0
  0
VERTEX
  5
6A3
  8
1
  6
CONTINUOUS
 62
     7
 10
-247.2668944455034
 20
162.3601848298931
 30
0.0
  0
VERTEX
  5
6A4
  8
1
  6
CONTINUOUS
 62
     7
 10
-247.2484639138314
 20
162.3222864628303
 30
0.0
  0
VERTEX
  5
6A5
  8
1
  6
CONTINUOUS
 62
     7
 10
-247.2315199962606
 20
162.2834659642912
 30
0.0
  0
VERTEX
  5
6A6
  8
1
  6
CONTINUOUS
 62
     7
 10
-247.2161596626016
 20
162.2439151285267
 30
0.0
  0
VERTEX
  5
6A7
  8
1
  6
CONTINUOUS
 62
     7
 10
-247.2021850178299
 20
162.2029881034793
 30
0.0
  0
VERTEX
  5
6A8
  8
1
  6
CONTINUOUS
 62
     7
 10
-247.1899069472964
 20
162.1614419444057
 30
0.0
  0
VERTEX
  5
6A9
  8
1
  6
CONTINUOUS
 62
     7
 10
-247.1793158669598
 20
162.119199531805
 30
0.0
  0
VERTEX
  5
6AA
  8
1
  6
CONTINUOUS
 62
     7
 10
-247.1704791999117
 20
162.0764781119106
 30
0.0
  0
VERTEX
  5
6AB
  8
1
  6
CONTINUOUS
 62
     7
 10
-247.1677560675696
 20
162.061142311956
 30
0.0
  0
SEQEND
  5
92C
  8
1
  6
CONTINUOUS
 62
     7
  0
POLYLINE
  5
18A
  8
1
  6
CONTINUOUS
 62
     7
 66
     1
 10
0.0
 20
0.0
 30
0.0
  0
VERTEX
  5
6AC
  8
1
  6
CONTINUOUS
 62
     7
 10
-247.1677560677095
 20
157.0393781333072
 30
0.0
  0
VERTEX
  5
6AD
  8
1
  6
CONTINUOUS
 62
     7
 10
-247.1740445933533
 20
157.0057070803162
 30
0.0
  0
VERTEX
  5
6AE
  8
1
  6
CONTINUOUS
 62
     7
 10
-247.1814389018816
 20
156.972223930464
 30
0.0
  0
VERTEX
  5
6AF
  8
1
  6
CONTINUOUS
 62
     7
 10
-247.1899573195654
 20
156.9388940744248
 30
0.0
  0
VERTEX
  5
6B0
  8
1
  6
CONTINUOUS
 62
     7
 10
-247.1995825186768
 20
156.9058277381382
 30
0.0
  0
VERTEX
  5
6B1
  8
1
  6
CONTINUOUS
 62
     7
 10
-247.2133485517281
 20
156.8644052961106
 30
0.0
  0
VERTEX
  5
6B2
  8
1
  6
CONTINUOUS
 62
     7
 10
-247.2288772744602
 20
156.823527767475
 30
0.0
  0
VERTEX
  5
6B3
  8
1
  6
CONTINUOUS
 62
     7
 10
-247.2462221007444
 20
156.7831285357693
 30
0.0
  0
VERTEX
  5
6B4
  8
1
  6
CONTINUOUS
 62
     7
 10
-247.2653139642478
 20
156.7434356360731
 30
0.0
  0
VERTEX
  5
6B5
  8
1
  6
CONTINUOUS
 62
     7
 10
-247.2865490851428
 20
156.7037902984984
 30
0.0
  0
VERTEX
  5
6B6
  8
1
  6
CONTINUOUS
 62
     7
 10
-247.3095540824904
 20
156.6650435144827
 30
0.0
  0
VERTEX
  5
6B7
  8
1
  6
CONTINUOUS
 62
     7
 10
-247.3344011058829
 20
156.6271318158862
 30
0.0
  0
VERTEX
  5
6B8
  8
1
  6
CONTINUOUS
 62
     7
 10
-247.3609692488962
 20
156.590294113295
 30
0.0
  0
VERTEX
  5
6B9
  8
1
  6
CONTINUOUS
 62
     7
 10
-247.387262244961
 20
156.5569832325142
 30
0.0
  0
VERTEX
  5
6BA
  8
1
  6
CONTINUOUS
 62
     7
 10
-247.4149810394492
 20
156.5247500260154
 30
0.0
  0
VERTEX
  5
6BB
  8
1
  6
CONTINUOUS
 62
     7
 10
-247.4441945003168
 20
156.4935506481522
 30
0.0
  0
VERTEX
  5
6BC
  8
1
  6
CONTINUOUS
 62
     7
 10
-247.4747639103734
 20
156.463567947273
 30
0.0
  0
VERTEX
  5
6BD
  8
1
  6
CONTINUOUS
 62
     7
 10
-247.5072603226322
 20
156.4343349469258
 30
0.0
  0
VERTEX
  5
6BE
  8
1
  6
CONTINUOUS
 62
     7
 10
-247.5410674946214
 20
156.406496643186
 30
0.0
  0
VERTEX
  5
6BF
  8
1
  6
CONTINUOUS
 62
     7
 10
-247.5762692807903
 20
156.3800178702947
 30
0.0
  0
VERTEX
  5
6C0
  8
1
  6
CONTINUOUS
 62
     7
 10
-247.6126782952673
 20
156.3550724127265
 30
0.0
  0
VERTEX
  5
6C1
  8
1
  6
CONTINUOUS
 62
     7
 10
-247.647916711552
 20
156.3330947217566
 30
0.0
  0
VERTEX
  5
6C2
  8
1
  6
CONTINUOUS
 62
     7
 10
-247.6841065543689
 20
156.3125738914448
 30
0.0
  0
VERTEX
  5
6C3
  8
1
  6
CONTINUOUS
 62
     7
 10
-247.7213237788398
 20
156.2934910087504
 30
0.0
  0
VERTEX
  5
6C4
  8
1
  6
CONTINUOUS
 62
     7
 10
-247.7593814860941
 20
156.2759655422572
 30
0.0
  0
VERTEX
  5
6C5
  8
1
  6
CONTINUOUS
 62
     7
 10
-247.7989479553276
 20
156.2597577248484
 30
0.0
  0
VERTEX
  5
6C6
  8
1
  6
CONTINUOUS
 62
     7
 10
-247.8392541654235
 20
156.2452500800908
 30
0.0
  0
VERTEX
  5
6C7
  8
1
  6
CONTINUOUS
 62
     7
 10
-247.8803861709788
 20
156.2324360285267
 30
0.0
  0
VERTEX
  5
6C8
  8
1
  6
CONTINUOUS
 62
     7
 10
-247.9221182771537
 20
156.2214099330723
 30
0.0
  0
VERTEX
  5
6C9
  8
1
  6
CONTINUOUS
 62
     7
 10
-247.9575360147086
 20
156.2135630039386
 30
0.0
  0
VERTEX
  5
6CA
  8
1
  6
CONTINUOUS
 62
     7
 10
-247.9932671105296
 20
156.2070166711109
 30
0.0
  0
VERTEX
  5
6CB
  8
1
  6
CONTINUOUS
 62
     7
 10
-248.0293633467267
 20
156.2017732127304
 30
0.0
  0
VERTEX
  5
6CC
  8
1
  6
CONTINUOUS
 62
     7
 10
-248.0656789342726
 20
156.1978654620441
 30
0.0
  0
SEQEND
  5
92D
  8
1
  6
CONTINUOUS
 62
     7
  0
LINE
  5
18B
  8
1
  6
CONTINUOUS
 62
     7
 10
-252.6439352068727
 20
162.300001026675
 30
0.0
 11
-252.6439352069493
 21
159.5511890088422
 31
0.0
  0
LINE
  5
18C
  8
1
  6
CONTINUOUS
 62
     7
 10
-252.6439352069493
 20
159.5511890088422
 30
0.0
 11
-252.6439352070259
 21
156.8000010266751
 31
0.0
  0
LINE
  5
18D
  8
1
  6
CONTINUOUS
 62
     7
 10
-253.8939352069075
 20
161.0500010267098
 30
0.0
 11
-253.8939352069492
 21
159.5506490169828
 31
0.0
  0
LINE
  5
18E
  8
1
  6
CONTINUOUS
 62
     7
 10
-253.8939352069492
 20
159.5506490169828
 30
0.0
 11
-253.893935206991
 21
158.0500010267099
 31
0.0
  0
LINE
  5
18F
  8
1
  6
CONTINUOUS
 62
     7
 10
-254.3939352069075
 20
161.0500010267237
 30
0.0
 11
-254.3939352069492
 21
159.5506490169968
 31
0.0
  0
LINE
  5
190
  8
1
  6
CONTINUOUS
 62
     7
 10
-255.1439352068866
 20
161.800000816799
 30
0.0
 11
-255.6439352068736
 21
162.2612721465441
 31
0.0
  0
LINE
  5
191
  8
1
  6
CONTINUOUS
 62
     7
 10
-255.143935207012
 20
157.3000012366904
 30
0.0
 11
-255.6439352070249
 21
156.8387299069732
 31
0.0
  0
LINE
  5
192
  8
1
  6
CONTINUOUS
 62
     7
 10
-255.6439352070247
 20
156.8391282673677
 30
0.0
 11
-255.143935207012
 21
157.3000012366904
 31
0.0
  0
LINE
  5
193
  8
1
  6
CONTINUOUS
 62
     7
 10
-254.3939352069492
 20
159.5506490169968
 30
0.0
 11
-254.393935206991
 21
158.0500010267238
 31
0.0
  0
LINE
  5
194
  8
1
  6
CONTINUOUS
 62
     7
 10
-246.9837555398871
 20
160.4629618028423
 30
0.0
 11
-247.1677560675695
 21
162.061142311956
 31
0.0
  0
LINE
  5
195
  8
1
  6
CONTINUOUS
 62
     7
 10
-247.0087418703893
 20
160.0505625714333
 30
0.0
 11
-246.9837555398872
 21
160.4629618028422
 31
0.0
  0
LINE
  5
196
  8
1
  6
CONTINUOUS
 62
     7
 10
-247.0087418703869
 20
160.0505625714333
 30
0.0
 11
-247.1008040531968
 21
160.0509103705994
 31
0.0
  0
LINE
  5
197
  8
1
  6
CONTINUOUS
 62
     7
 10
-247.1008040532254
 20
159.0509104639087
 30
0.0
 11
-247.1008040531975
 21
160.0509103705994
 31
0.0
  0
LINE
  5
198
  8
1
  6
CONTINUOUS
 62
     7
 10
-247.0087418704157
 20
159.0505626647425
 30
0.0
 11
-247.1008040532242
 21
159.0509104639086
 31
0.0
  0
LINE
  5
199
  8
1
  6
CONTINUOUS
 62
     7
 10
-246.983755539938
 20
158.6375586424107
 30
0.0
 11
-247.0087418704171
 21
159.0505626647425
 31
0.0
  0
LINE
  5
19A
  8
1
  6
CONTINUOUS
 62
     7
 10
-247.1677560677094
 20
157.0393781333072
 30
0.0
 11
-246.9837555399379
 21
158.6375586424107
 31
0.0
  0
LINE
  5
19B
  8
1
  6
CONTINUOUS
 62
     7
 10
-257.6439352068796
 20
162.0500010268143
 30
0.0
 11
-257.6439352068799
 21
162.0386928778425
 31
0.0
  0
LINE
  5
19C
  8
1
  6
CONTINUOUS
 62
     7
 10
-257.6439352068799
 20
162.0386928778425
 30
0.0
 11
-257.6439352068858
 21
161.8249248946041
 31
0.0
  0
LINE
  5
19D
  8
1
  6
CONTINUOUS
 62
     7
 10
-257.6439352068858
 20
161.8249248946041
 30
0.0
 11
-257.6439352068925
 21
161.5865144231209
 31
0.0
  0
LINE
  5
19E
  8
1
  6
CONTINUOUS
 62
     7
 10
-257.6439352068925
 20
161.5865144231209
 30
0.0
 11
-257.643935206901
 21
161.2823268499964
 31
0.0
  0
LINE
  5
19F
  8
1
  6
CONTINUOUS
 62
     7
 10
-247.1008040531981
 20
160.0505625714358
 30
0.0
 11
-247.0087418703893
 21
160.0505625714333
 31
0.0
  0
LINE
  5
1A0
  8
1
  6
CONTINUOUS
 62
     7
 10
-257.6439352068799
 20
162.0386928778425
 30
0.0
 11
-257.1439352068736
 21
162.2612721465859
 31
0.0
  0
LINE
  5
1A1
  8
1
  6
CONTINUOUS
 62
     7
 10
-256.1366673490126
 20
156.8391282673815
 30
0.0
 11
-255.6439352070247
 21
156.8391282673677
 31
0.0
  0
LINE
  5
1A2
  8
1
  6
CONTINUOUS
 62
     7
 10
-255.6439352068736
 20
162.2612721465441
 30
0.0
 11
-257.1439352068736
 21
162.2612721465859
 31
0.0
  0
LINE
  5
1A3
  8
1
  6
CONTINUOUS
 62
     7
 10
-247.100804053198
 20
160.0490915891325
 30
0.0
 11
-247.0087418703904
 21
160.0494393882935
 31
0.0
  0
LINE
  5
1A4
  8
1
  6
CONTINUOUS
 62
     7
 10
-252.1439352072977
 20
147.0500025196082
 30
0.0
 11
-252.1439352074927
 21
140.0500025196083
 31
0.0
  0
POLYLINE
  5
1A5
  8
1
  6
CONTINUOUS
 62
     7
 66
     1
 10
0.0
 20
0.0
 30
0.0
  0
VERTEX
  5
6CD
  8
1
  6
CONTINUOUS
 62
     7
 10
-251.3189352072756
 20
147.836791551692
 30
0.0
  0
VERTEX
  5
6CE
  8
1
  6
CONTINUOUS
 62
     7
 10
-251.3314818088904
 20
147.8366658699681
 30
0.0
  0
VERTEX
  5
6CF
  8
1
  6
CONTINUOUS
 62
     7
 10
-251.3440134335502
 20
147.8362902381279
 30
0.0
  0
VERTEX
  5
6D0
  8
1
  6
CONTINUOUS
 62
     7
 10
-251.3565004754865
 20
147.8356667761693
 30
0.0
  0
VERTEX
  5
6D1
  8
1
  6
CONTINUOUS
 62
     7
 10
-251.3691060333547
 20
147.8347832003019
 30
0.0
  0
VERTEX
  5
6D2
  8
1
  6
CONTINUOUS
 62
     7
 10
-251.3816369819333
 20
147.8336513657792
 30
0.0
  0
VERTEX
  5
6D3
  8
1
  6
CONTINUOUS
 62
     7
 10
-251.3940657436976
 20
147.8322774461332
 30
0.0
  0
VERTEX
  5
6D4
  8
1
  6
CONTINUOUS
 62
     7
 10
-251.4034237569625
 20
147.8310761231599
 30
0.0
  0
VERTEX
  5
6D5
  8
1
  6
CONTINUOUS
 62
     7
 10
-251.412709233735
 20
147.8297415984115
 30
0.0
  0
VERTEX
  5
6D6
  8
1
  6
CONTINUOUS
 62
     7
 10
-251.4219452579965
 20
147.8282721573527
 30
0.0
  0
VERTEX
  5
6D7
  8
1
  6
CONTINUOUS
 62
     7
 10
-251.4310962865677
 20
147.8266754099279
 30
0.0
  0
VERTEX
  5
6D8
  8
1
  6
CONTINUOUS
 62
     7
 10
-251.4485964365416
 20
147.8232261934138
 30
0.0
  0
VERTEX
  5
6D9
  8
1
  6
CONTINUOUS
 62
     7
 10
-251.4657255302957
 20
147.8193388942767
 30
0.0
  0
VERTEX
  5
6DA
  8
1
  6
CONTINUOUS
 62
     7
 10
-251.4826183720331
 20
147.814997640112
 30
0.0
  0
VERTEX
  5
6DB
  8
1
  6
CONTINUOUS
 62
     7
 10
-251.4990886955555
 20
147.8102677575426
 30
0.0
  0
VERTEX
  5
6DC
  8
1
  6
CONTINUOUS
 62
     7
 10
-251.5152379006994
 20
147.8051395482116
 30
0.0
  0
VERTEX
  5
6DD
  8
1
  6
CONTINUOUS
 62
     7
 10
-251.5309662750902
 20
147.7996639164133
 30
0.0
  0
VERTEX
  5
6DE
  8
1
  6
CONTINUOUS
 62
     7
 10
-251.54377912576
 20
147.7948415511114
 30
0.0
  0
VERTEX
  5
6DF
  8
1
  6
CONTINUOUS
 62
     7
 10
-251.5562754444205
 20
147.7898159132282
 30
0.0
  0
VERTEX
  5
6E0
  8
1
  6
CONTINUOUS
 62
     7
 10
-251.5685038470231
 20
147.7845804670062
 30
0.0
  0
VERTEX
  5
6E1
  8
1
  6
CONTINUOUS
 62
     7
 10
-251.5804189789913
 20
147.7791675504242
 30
0.0
  0
VERTEX
  5
6E2
  8
1
  6
CONTINUOUS
 62
     7
 10
-251.59206465475
 20
147.7735701626917
 30
0.0
  0
VERTEX
  5
6E3
  8
1
  6
CONTINUOUS
 62
     7
 10
-251.603404892099
 20
147.7678182264921
 30
0.0
  0
VERTEX
  5
6E4
  8
1
  6
CONTINUOUS
 62
     7
 10
-251.6252510466715
 20
147.7558602828205
 30
0.0
  0
VERTEX
  5
6E5
  8
1
  6
CONTINUOUS
 62
     7
 10
-251.6459966809242
 20
147.7433702749023
 30
0.0
  0
VERTEX
  5
6E6
  8
1
  6
CONTINUOUS
 62
     7
 10
-251.6656803935453
 20
147.7304190575883
 30
0.0
  0
VERTEX
  5
6E7
  8
1
  6
CONTINUOUS
 62
     7
 10
-251.6862774392313
 20
147.7156238440067
 30
0.0
  0
VERTEX
  5
6E8
  8
1
  6
CONTINUOUS
 62
     7
 10
-251.7057013514813
 20
147.7004021313723
 30
0.0
  0
VERTEX
  5
6E9
  8
1
  6
CONTINUOUS
 62
     7
 10
-251.7264325810449
 20
147.6826598592036
 30
0.0
  0
VERTEX
  5
6EA
  8
1
  6
CONTINUOUS
 62
     7
 10
-251.7458280499976
 20
147.6645096443153
 30
0.0
  0
VERTEX
  5
6EB
  8
1
  6
CONTINUOUS
 62
     7
 10
-251.7665271001839
 20
147.6432809837238
 30
0.0
  0
VERTEX
  5
6EC
  8
1
  6
CONTINUOUS
 62
     7
 10
-251.7857093964788
 20
147.6216649573732
 30
0.0
  0
VERTEX
  5
6ED
  8
1
  6
CONTINUOUS
 62
     7
 10
-251.8047787587544
 20
147.5980473749864
 30
0.0
  0
VERTEX
  5
6EE
  8
1
  6
CONTINUOUS
 62
     7
 10
-251.8223474953727
 20
147.5741123929376
 30
0.0
  0
VERTEX
  5
6EF
  8
1
  6
CONTINUOUS
 62
     7
 10
-251.8528322314986
 20
147.5265011608164
 30
0.0
  0
VERTEX
  5
6F0
  8
1
  6
CONTINUOUS
 62
     7
 10
-251.8804072524968
 20
147.4746798197648
 30
0.0
  0
VERTEX
  5
6F1
  8
1
  6
CONTINUOUS
 62
     7
 10
-251.9034609361712
 20
147.4221986058427
 30
0.0
  0
VERTEX
  5
6F2
  8
1
  6
CONTINUOUS
 62
     7
 10
-251.925227515957
 20
147.36093822463
 30
0.0
  0
VERTEX
  5
6F3
  8
1
  6
CONTINUOUS
 62
     7
 10
-251.9424297167097
 20
147.2992243244793
 30
0.0
  0
VERTEX
  5
6F4
  8
1
  6
CONTINUOUS
 62
     7
 10
-251.9570895944144
 20
147.2289414746996
 30
0.0
  0
VERTEX
  5
6F5
  8
1
  6
CONTINUOUS
 62
     7
 10
-251.967189323896
 20
147.1583806219399
 30
0.0
  0
VERTEX
  5
6F6
  8
1
  6
CONTINUOUS
 62
     7
 10
-251.9733179803814
 20
147.0842432028305
 30
0.0
  0
VERTEX
  5
6F7
  8
1
  6
CONTINUOUS
 62
     7
 10
-251.9750727506235
 20
147.0002469568079
 30
0.0
  0
VERTEX
  5
6F8
  8
1
  6
CONTINUOUS
 62
     7
 10
-251.9716578175098
 20
146.9195403596632
 30
0.0
  0
VERTEX
  5
6F9
  8
1
  6
CONTINUOUS
 62
     7
 10
-251.9630489003965
 20
146.8388483315552
 30
0.0
  0
VERTEX
  5
6FA
  8
1
  6
CONTINUOUS
 62
     7
 10
-251.9509846442754
 20
146.768822458527
 30
0.0
  0
VERTEX
  5
6FB
  8
1
  6
CONTINUOUS
 62
     7
 10
-251.9341265304031
 20
146.6989648609063
 30
0.0
  0
VERTEX
  5
6FC
  8
1
  6
CONTINUOUS
 62
     7
 10
-251.9168442209515
 20
146.6436797788642
 30
0.0
  0
VERTEX
  5
6FD
  8
1
  6
CONTINUOUS
 62
     7
 10
-251.8955969590396
 20
146.5886711479718
 30
0.0
  0
VERTEX
  5
6FE
  8
1
  6
CONTINUOUS
 62
     7
 10
-251.8733909072165
 20
146.5411041265998
 30
0.0
  0
VERTEX
  5
6FF
  8
1
  6
CONTINUOUS
 62
     7
 10
-251.8552724691957
 20
146.5076409125847
 30
0.0
  0
VERTEX
  5
700
  8
1
  6
CONTINUOUS
 62
     7
 10
-251.8349388411161
 20
146.4744590341745
 30
0.0
  0
VERTEX
  5
701
  8
1
  6
CONTINUOUS
 62
     7
 10
-251.8121317663028
 20
146.4416325495244
 30
0.0
  0
VERTEX
  5
702
  8
1
  6
CONTINUOUS
 62
     7
 10
-251.7865446487987
 20
146.4092584393335
 30
0.0
  0
VERTEX
  5
703
  8
1
  6
CONTINUOUS
 62
     7
 10
-251.7700924165456
 20
146.3905231159879
 30
0.0
  0
VERTEX
  5
704
  8
1
  6
CONTINUOUS
 62
     7
 10
-251.7526591410512
 20
146.3722082805335
 30
0.0
  0
VERTEX
  5
705
  8
1
  6
CONTINUOUS
 62
     7
 10
-251.734003081635
 20
146.3541723939677
 30
0.0
  0
VERTEX
  5
706
  8
1
  6
CONTINUOUS
 62
     7
 10
-251.7145390888242
 20
146.3368990967861
 30
0.0
  0
VERTEX
  5
707
  8
1
  6
CONTINUOUS
 62
     7
 10
-251.6937186201594
 20
146.3199912673373
 30
0.0
  0
VERTEX
  5
708
  8
1
  6
CONTINUOUS
 62
     7
 10
-251.6721066853273
 20
146.3039912598477
 30
0.0
  0
VERTEX
  5
709
  8
1
  6
CONTINUOUS
 62
     7
 10
-251.6490023230307
 20
146.2884715341645
 30
0.0
  0
VERTEX
  5
70A
  8
1
  6
CONTINUOUS
 62
     7
 10
-251.6370917799681
 20
146.2810633656908
 30
0.0
  0
VERTEX
  5
70B
  8
1
  6
CONTINUOUS
 62
     7
 10
-251.6247961201417
 20
146.2738141077478
 30
0.0
  0
VERTEX
  5
70C
  8
1
  6
CONTINUOUS
 62
     7
 10
-251.6120649351821
 20
146.2667165112846
 30
0.0
  0
VERTEX
  5
70D
  8
1
  6
CONTINUOUS
 62
     7
 10
-251.5989236335645
 20
146.2598082278835
 30
0.0
  0
VERTEX
  5
70E
  8
1
  6
CONTINUOUS
 62
     7
 10
-251.5827025175032
 20
146.251841381641
 30
0.0
  0
VERTEX
  5
70F
  8
1
  6
CONTINUOUS
 62
     7
 10
-251.5658677838659
 20
146.2441994821717
 30
0.0
  0
VERTEX
  5
710
  8
1
  6
CONTINUOUS
 62
     7
 10
-251.5482824962498
 20
146.2368680272724
 30
0.0
  0
VERTEX
  5
711
  8
1
  6
CONTINUOUS
 62
     7
 10
-251.5300538330806
 20
146.2299407845246
 30
0.0
  0
VERTEX
  5
712
  8
1
  6
CONTINUOUS
 62
     7
 10
-251.5114839823837
 20
146.2235599054646
 30
0.0
  0
VERTEX
  5
713
  8
1
  6
CONTINUOUS
 62
     7
 10
-251.4922438120538
 20
146.2176415863829
 30
0.0
  0
VERTEX
  5
714
  8
1
  6
CONTINUOUS
 62
     7
 10
-251.4823081814328
 20
146.2148535105736
 30
0.0
  0
VERTEX
  5
715
  8
1
  6
CONTINUOUS
 62
     7
 10
-251.4722203605772
 20
146.2122054618827
 30
0.0
  0
VERTEX
  5
716
  8
1
  6
CONTINUOUS
 62
     7
 10
-251.461949966516
 20
146.2096957870322
 30
0.0
  0
VERTEX
  5
717
  8
1
  6
CONTINUOUS
 62
     7
 10
-251.4515348513194
 20
146.2073398057619
 30
0.0
  0
VERTEX
  5
718
  8
1
  6
CONTINUOUS
 62
     7
 10
-251.4409372298341
 20
146.2051353629143
 30
0.0
  0
VERTEX
  5
719
  8
1
  6
CONTINUOUS
 62
     7
 10
-251.4302060901047
 20
146.2030986637466
 30
0.0
  0
VERTEX
  5
71A
  8
1
  6
CONTINUOUS
 62
     7
 10
-251.419303752442
 20
146.2012286770313
 30
0.0
  0
VERTEX
  5
71B
  8
1
  6
CONTINUOUS
 62
     7
 10
-251.408283523092
 20
146.1995401375261
 30
0.0
  0
VERTEX
  5
71C
  8
1
  6
CONTINUOUS
 62
     7
 10
-251.3971001171163
 20
146.1980319881862
 30
0.0
  0
VERTEX
  5
71D
  8
1
  6
CONTINUOUS
 62
     7
 10
-251.3858189674214
 20
146.1967182469405
 30
0.0
  0
VERTEX
  5
71E
  8
1
  6
CONTINUOUS
 62
     7
 10
-251.3743955182835
 20
146.1955989492579
 30
0.0
  0
VERTEX
  5
71F
  8
1
  6
CONTINUOUS
 62
     7
 10
-251.3628990779241
 20
146.1946852570949
 30
0.0
  0
VERTEX
  5
720
  8
1
  6
CONTINUOUS
 62
     7
 10
-251.3519817929977
 20
146.194014330047
 30
0.0
  0
VERTEX
  5
721
  8
1
  6
CONTINUOUS
 62
     7
 10
-251.3410245886669
 20
146.1935326840708
 30
0.0
  0
VERTEX
  5
722
  8
1
  6
CONTINUOUS
 62
     7
 10
-251.3299867299679
 20
146.1932413481919
 30
0.0
  0
VERTEX
  5
723
  8
1
  6
CONTINUOUS
 62
     7
 10
-251.3189352073205
 20
146.1931440453501
 30
0.0
  0
SEQEND
  5
92E
  8
1
  6
CONTINUOUS
 62
     7
  0
POLYLINE
  5
1A6
  8
1
  6
CONTINUOUS
 62
     7
 66
     1
 10
0.0
 20
0.0
 30
0.0
  0
VERTEX
  5
724
  8
1
  6
CONTINUOUS
 62
     7
 10
-251.3189352073481
 20
145.1966087551238
 30
0.0
  0
VERTEX
  5
725
  8
1
  6
CONTINUOUS
 62
     7
 10
-251.4307301657897
 20
145.1764946086055
 30
0.0
  0
VERTEX
  5
726
  8
1
  6
CONTINUOUS
 62
     7
 10
-251.5208195568335
 20
145.1294783961214
 30
0.0
  0
VERTEX
  5
727
  8
1
  6
CONTINUOUS
 62
     7
 10
-251.6029572701813
 20
145.0590247667479
 30
0.0
  0
VERTEX
  5
728
  8
1
  6
CONTINUOUS
 62
     7
 10
-251.6729598150537
 20
144.9735404054922
 30
0.0
  0
SEQEND
  5
92F
  8
1
  6
CONTINUOUS
 62
     7
  0
ARC
  5
1A7
  8
1
  6
CONTINUOUS
 62
     7
 10
-248.465815128182
 20
143.5395181113164
 30
0.0
 40
3.513146308186157
 50
155.9089749124543
 51
202.8177186675918
  0
POLYLINE
  5
1A8
  8
1
  6
CONTINUOUS
 62
     7
 66
     1
 10
0.0
 20
0.0
 30
0.0
  0
VERTEX
  5
729
  8
1
  6
CONTINUOUS
 62
     7
 10
-251.7040340895961
 20
142.1771176780147
 30
0.0
  0
VERTEX
  5
72A
  8
1
  6
CONTINUOUS
 62
     7
 10
-251.6364344843042
 20
142.082026764821
 30
0.0
  0
VERTEX
  5
72B
  8
1
  6
CONTINUOUS
 62
     7
 10
-251.5563034962692
 20
142.0008971705582
 30
0.0
  0
VERTEX
  5
72C
  8
1
  6
CONTINUOUS
 62
     7
 10
-251.4602915383078
 20
141.9392042287717
 30
0.0
  0
VERTEX
  5
72D
  8
1
  6
CONTINUOUS
 62
     7
 10
-251.3594274451193
 20
141.9094692248909
 30
0.0
  0
VERTEX
  5
72E
  8
1
  6
CONTINUOUS
 62
     7
 10
-251.3189352074398
 20
141.9068522321692
 30
0.0
  0
SEQEND
  5
930
  8
1
  6
CONTINUOUS
 62
     7
  0
POLYLINE
  5
1A9
  8
1
  6
CONTINUOUS
 62
     7
 66
     1
 10
0.0
 20
0.0
 30
0.0
  0
VERTEX
  5
72F
  8
1
  6
CONTINUOUS
 62
     7
 10
-251.3189352074677
 20
140.9098197230171
 30
0.0
  0
VERTEX
  5
730
  8
1
  6
CONTINUOUS
 62
     7
 10
-251.328330726495
 20
140.9097493025807
 30
0.0
  0
VERTEX
  5
731
  8
1
  6
CONTINUOUS
 62
     7
 10
-251.3377178415732
 20
140.9095383412495
 30
0.0
  0
VERTEX
  5
732
  8
1
  6
CONTINUOUS
 62
     7
 10
-251.3471217302092
 20
140.9091858037074
 30
0.0
  0
VERTEX
  5
733
  8
1
  6
CONTINUOUS
 62
     7
 10
-251.3565004756787
 20
140.9086932630416
 30
0.0
  0
VERTEX
  5
734
  8
1
  6
CONTINUOUS
 62
     7
 10
-251.3691054870429
 20
140.9078084078913
 30
0.0
  0
VERTEX
  5
735
  8
1
  6
CONTINUOUS
 62
     7
 10
-251.3816358961869
 20
140.9066749437046
 30
0.0
  0
VERTEX
  5
736
  8
1
  6
CONTINUOUS
 62
     7
 10
-251.3940641290755
 20
140.9052990523799
 30
0.0
  0
VERTEX
  5
737
  8
1
  6
CONTINUOUS
 62
     7
 10
-251.4065443371225
 20
140.9036622425153
 30
0.0
  0
VERTEX
  5
738
  8
1
  6
CONTINUOUS
 62
     7
 10
-251.4188960120578
 20
140.901788935214
 30
0.0
  0
VERTEX
  5
739
  8
1
  6
CONTINUOUS
 62
     7
 10
-251.4310962867599
 20
140.899688431419
 30
0.0
  0
VERTEX
  5
73A
  8
1
  6
CONTINUOUS
 62
     7
 10
-251.4485743532362
 20
140.8962389466036
 30
0.0
  0
VERTEX
  5
73B
  8
1
  6
CONTINUOUS
 62
     7
 10
-251.4657255304878
 20
140.8923409286743
 30
0.0
  0
VERTEX
  5
73C
  8
1
  6
CONTINUOUS
 62
     7
 10
-251.4826183692436
 20
140.887993173903
 30
0.0
  0
VERTEX
  5
73D
  8
1
  6
CONTINUOUS
 62
     7
 10
-251.4990886899377
 20
140.8832562088548
 30
0.0
  0
VERTEX
  5
73E
  8
1
  6
CONTINUOUS
 62
     7
 10
-251.51525216431
 20
140.8781154849472
 30
0.0
  0
VERTEX
  5
73F
  8
1
  6
CONTINUOUS
 62
     7
 10
-251.5309662752824
 20
140.8726364857586
 30
0.0
  0
VERTEX
  5
740
  8
1
  6
CONTINUOUS
 62
     7
 10
-251.5437726048114
 20
140.8678094586205
 30
0.0
  0
VERTEX
  5
741
  8
1
  6
CONTINUOUS
 62
     7
 10
-251.5562754446126
 20
140.8627737343011
 30
0.0
  0
VERTEX
  5
742
  8
1
  6
CONTINUOUS
 62
     7
 10
-251.5685050278006
 20
140.8575299258146
 30
0.0
  0
VERTEX
  5
743
  8
1
  6
CONTINUOUS
 62
     7
 10
-251.580421279513
 20
140.8521083476555
 30
0.0
  0
VERTEX
  5
744
  8
1
  6
CONTINUOUS
 62
     7
 10
-251.5920657750708
 20
140.8465031001641
 30
0.0
  0
VERTEX
  5
745
  8
1
  6
CONTINUOUS
 62
     7
 10
-251.6034048922912
 20
140.8407431040465
 30
0.0
  0
VERTEX
  5
746
  8
1
  6
CONTINUOUS
 62
     7
 10
-251.625253130658
 20
140.8287660528025
 30
0.0
  0
VERTEX
  5
747
  8
1
  6
CONTINUOUS
 62
     7
 10
-251.6459966811164
 20
140.816258539446
 30
0.0
  0
VERTEX
  5
748
  8
1
  6
CONTINUOUS
 62
     7
 10
-251.6656803937376
 20
140.8032879265169
 30
0.0
  0
VERTEX
  5
749
  8
1
  6
CONTINUOUS
 62
     7
 10
-251.6862774394235
 20
140.7884705557695
 30
0.0
  0
VERTEX
  5
74A
  8
1
  6
CONTINUOUS
 62
     7
 10
-251.7069838675814
 20
140.772173230459
 30
0.0
  0
VERTEX
  5
74B
  8
1
  6
CONTINUOUS
 62
     7
 10
-251.726432581237
 20
140.7554572044283
 30
0.0
  0
VERTEX
  5
74C
  8
1
  6
CONTINUOUS
 62
     7
 10
-251.7471947157968
 20
140.7359378134796
 30
0.0
  0
VERTEX
  5
74D
  8
1
  6
CONTINUOUS
 62
     7
 10
-251.7665271003762
 20
140.7160193555336
 30
0.0
  0
VERTEX
  5
74E
  8
1
  6
CONTINUOUS
 62
     7
 10
-251.7864077708705
 20
140.6935440773955
 30
0.0
  0
VERTEX
  5
74F
  8
1
  6
CONTINUOUS
 62
     7
 10
-251.8047787589467
 20
140.6707180053905
 30
0.0
  0
VERTEX
  5
750
  8
1
  6
CONTINUOUS
 62
     7
 10
-251.8223474955651
 20
140.6467471785491
 30
0.0
  0
VERTEX
  5
751
  8
1
  6
CONTINUOUS
 62
     7
 10
-251.8387448763769
 20
140.6221713160228
 30
0.0
  0
VERTEX
  5
752
  8
1
  6
CONTINUOUS
 62
     7
 10
-251.8538112079365
 20
140.5973824593092
 30
0.0
  0
VERTEX
  5
753
  8
1
  6
CONTINUOUS
 62
     7
 10
-251.8804072526893
 20
140.5471656961368
 30
0.0
  0
VERTEX
  5
754
  8
1
  6
CONTINUOUS
 62
     7
 10
-251.9050867328318
 20
140.4904837741762
 30
0.0
  0
VERTEX
  5
755
  8
1
  6
CONTINUOUS
 62
     7
 10
-251.9252275161495
 20
140.4332537627126
 30
0.0
  0
VERTEX
  5
756
  8
1
  6
CONTINUOUS
 62
     7
 10
-251.943423611869
 20
140.3673349554777
 30
0.0
  0
VERTEX
  5
757
  8
1
  6
CONTINUOUS
 62
     7
 10
-251.9570895946072
 20
140.3010593357532
 30
0.0
  0
VERTEX
  5
758
  8
1
  6
CONTINUOUS
 62
     7
 10
-251.9673791026095
 20
140.2286967924118
 30
0.0
  0
VERTEX
  5
759
  8
1
  6
CONTINUOUS
 62
     7
 10
-251.9733179805744
 20
140.1561443651814
 30
0.0
  0
VERTEX
  5
75A
  8
1
  6
CONTINUOUS
 62
     7
 10
-251.9750905448655
 20
140.0737042521513
 30
0.0
  0
VERTEX
  5
75B
  8
1
  6
CONTINUOUS
 62
     7
 10
-251.9716578177029
 20
139.991194864663
 30
0.0
  0
VERTEX
  5
75C
  8
1
  6
CONTINUOUS
 62
     7
 10
-251.9637803214969
 20
139.9156776918387
 30
0.0
  0
VERTEX
  5
75D
  8
1
  6
CONTINUOUS
 62
     7
 10
-251.9509846444686
 20
139.8402512498866
 30
0.0
  0
VERTEX
  5
75E
  8
1
  6
CONTINUOUS
 62
     7
 10
-251.9361010128891
 20
139.7774740054136
 30
0.0
  0
VERTEX
  5
75F
  8
1
  6
CONTINUOUS
 62
     7
 10
-251.9168442211449
 20
139.7149211577829
 30
0.0
  0
VERTEX
  5
760
  8
1
  6
CONTINUOUS
 62
     7
 10
-251.8971029744029
 20
139.6633840048664
 30
0.0
  0
VERTEX
  5
761
  8
1
  6
CONTINUOUS
 62
     7
 10
-251.8733909074101
 20
139.6121918892349
 30
0.0
  0
VERTEX
  5
762
  8
1
  6
CONTINUOUS
 62
     7
 10
-251.8552724678984
 20
139.5786785584471
 30
0.0
  0
VERTEX
  5
763
  8
1
  6
CONTINUOUS
 62
     7
 10
-251.8349388413096
 20
139.5454469897774
 30
0.0
  0
VERTEX
  5
764
  8
1
  6
CONTINUOUS
 62
     7
 10
-251.8121317646181
 20
139.5125713419664
 30
0.0
  0
VERTEX
  5
765
  8
1
  6
CONTINUOUS
 62
     7
 10
-251.7865446489925
 20
139.4801487511696
 30
0.0
  0
VERTEX
  5
766
  8
1
  6
CONTINUOUS
 62
     7
 10
-251.770174341444
 20
139.4614751675034
 30
0.0
  0
VERTEX
  5
767
  8
1
  6
CONTINUOUS
 62
     7
 10
-251.7526591412449
 20
139.4430431064177
 30
0.0
  0
VERTEX
  5
768
  8
1
  6
CONTINUOUS
 62
     7
 10
-251.7342425859835
 20
139.4252025657185
 30
0.0
  0
VERTEX
  5
769
  8
1
  6
CONTINUOUS
 62
     7
 10
-251.7145390890178
 20
139.4076810439855
 30
0.0
  0
VERTEX
  5
76A
  8
1
  6
CONTINUOUS
 62
     7
 10
-251.6940341888161
 20
139.3909932113237
 30
0.0
  0
VERTEX
  5
76B
  8
1
  6
CONTINUOUS
 62
     7
 10
-251.672106685521
 20
139.3747239245955
 30
0.0
  0
VERTEX
  5
76C
  8
1
  6
CONTINUOUS
 62
     7
 10
-251.6492405474199
 20
139.3593333464887
 30
0.0
  0
VERTEX
  5
76D
  8
1
  6
CONTINUOUS
 62
     7
 10
-251.6372147658761
 20
139.3518363298481
 30
0.0
  0
VERTEX
  5
76E
  8
1
  6
CONTINUOUS
 62
     7
 10
-251.6247961203354
 20
139.3445015794907
 30
0.0
  0
VERTEX
  5
76F
  8
1
  6
CONTINUOUS
 62
     7
 10
-251.6120704615854
 20
139.3373963684095
 30
0.0
  0
VERTEX
  5
770
  8
1
  6
CONTINUOUS
 62
     7
 10
-251.5989236337584
 20
139.330474724559
 30
0.0
  0
VERTEX
  5
771
  8
1
  6
CONTINUOUS
 62
     7
 10
-251.5827152949267
 20
139.322501997239
 30
0.0
  0
VERTEX
  5
772
  8
1
  6
CONTINUOUS
 62
     7
 10
-251.5658677840596
 20
139.3148426033439
 30
0.0
  0
VERTEX
  5
773
  8
1
  6
CONTINUOUS
 62
     7
 10
-251.5484929403568
 20
139.3075842063887
 30
0.0
  0
VERTEX
  5
774
  8
1
  6
CONTINUOUS
 62
     7
 10
-251.5304897944578
 20
139.3007206836864
 30
0.0
  0
VERTEX
  5
775
  8
1
  6
CONTINUOUS
 62
     7
 10
-251.5116850937645
 20
139.2942379269004
 30
0.0
  0
VERTEX
  5
776
  8
1
  6
CONTINUOUS
 62
     7
 10
-251.4922438122478
 20
139.2882449347127
 30
0.0
  0
VERTEX
  5
777
  8
1
  6
CONTINUOUS
 62
     7
 10
-251.4823121200444
 20
139.2854537369869
 30
0.0
  0
VERTEX
  5
778
  8
1
  6
CONTINUOUS
 62
     7
 10
-251.472220360771
 20
139.2828006691261
 30
0.0
  0
VERTEX
  5
779
  8
1
  6
CONTINUOUS
 62
     7
 10
-251.4619481214571
 20
139.2802868009861
 30
0.0
  0
VERTEX
  5
77A
  8
1
  6
CONTINUOUS
 62
     7
 10
-251.4515311103517
 20
139.2779269126527
 30
0.0
  0
VERTEX
  5
77B
  8
1
  6
CONTINUOUS
 62
     7
 10
-251.4409353351207
 20
139.2757196045251
 30
0.0
  0
VERTEX
  5
77C
  8
1
  6
CONTINUOUS
 62
     7
 10
-251.4302060902986
 20
139.2736802327391
 30
0.0
  0
VERTEX
  5
77D
  8
1
  6
CONTINUOUS
 62
     7
 10
-251.4193017885284
 20
139.2718071261551
 30
0.0
  0
VERTEX
  5
77E
  8
1
  6
CONTINUOUS
 62
     7
 10
-251.4082795545928
 20
139.2701158046607
 30
0.0
  0
VERTEX
  5
77F
  8
1
  6
CONTINUOUS
 62
     7
 10
-251.3970981145279
 20
139.2686057172793
 30
0.0
  0
VERTEX
  5
780
  8
1
  6
CONTINUOUS
 62
     7
 10
-251.3858189676153
 20
139.2672902606838
 30
0.0
  0
VERTEX
  5
781
  8
1
  6
CONTINUOUS
 62
     7
 10
-251.3744029341192
 20
139.2661698907169
 30
0.0
  0
VERTEX
  5
782
  8
1
  6
CONTINUOUS
 62
     7
 10
-251.3628990781181
 20
139.2652542262526
 30
0.0
  0
VERTEX
  5
783
  8
1
  6
CONTINUOUS
 62
     7
 10
-251.3519817931917
 20
139.264582294431
 30
0.0
  0
VERTEX
  5
784
  8
1
  6
CONTINUOUS
 62
     7
 10
-251.3410245888608
 20
139.2640999271467
 30
0.0
  0
VERTEX
  5
785
  8
1
  6
CONTINUOUS
 62
     7
 10
-251.3299867301619
 20
139.263808154966
 30
0.0
  0
VERTEX
  5
786
  8
1
  6
CONTINUOUS
 62
     7
 10
-251.3189352075145
 20
139.2637107064043
 30
0.0
  0
SEQEND
  5
931
  8
1
  6
CONTINUOUS
 62
     7
  0
POLYLINE
  5
1AA
  8
1
  6
CONTINUOUS
 62
     7
 66
     1
 10
0.0
 20
0.0
 30
0.0
  0
VERTEX
  5
787
  8
1
  6
CONTINUOUS
 62
     7
 10
-249.9689352074398
 20
141.9068522321316
 30
0.0
  0
VERTEX
  5
788
  8
1
  6
CONTINUOUS
 62
     7
 10
-249.8602049786142
 20
141.9258684197331
 30
0.0
  0
VERTEX
  5
789
  8
1
  6
CONTINUOUS
 62
     7
 10
-249.7667249289257
 20
141.9742069806256
 30
0.0
  0
VERTEX
  5
78A
  8
1
  6
CONTINUOUS
 62
     7
 10
-249.6845843622106
 20
142.0447782642826
 30
0.0
  0
VERTEX
  5
78B
  8
1
  6
CONTINUOUS
 62
     7
 10
-249.614667830458
 20
142.1302648690484
 30
0.0
  0
SEQEND
  5
932
  8
1
  6
CONTINUOUS
 62
     7
  0
ARC
  5
1AB
  8
1
  6
CONTINUOUS
 62
     7
 10
-252.8201260356807
 20
143.5632116787868
 30
0.0
 40
3.511167735237009
 50
335.9137627742934
 51
22.89171855057606
  0
POLYLINE
  5
1AC
  8
1
  6
CONTINUOUS
 62
     7
 66
     1
 10
0.0
 20
0.0
 30
0.0
  0
VERTEX
  5
78C
  8
1
  6
CONTINUOUS
 62
     7
 10
-249.5854921152092
 20
144.9290236224689
 30
0.0
  0
VERTEX
  5
78D
  8
1
  6
CONTINUOUS
 62
     7
 10
-249.6563111499304
 20
145.0272651776383
 30
0.0
  0
VERTEX
  5
78E
  8
1
  6
CONTINUOUS
 62
     7
 10
-249.7315669185186
 20
145.1025638166973
 30
0.0
  0
VERTEX
  5
78F
  8
1
  6
CONTINUOUS
 62
     7
 10
-249.8199926167118
 20
145.1606266674873
 30
0.0
  0
VERTEX
  5
790
  8
1
  6
CONTINUOUS
 62
     7
 10
-249.9252419617756
 20
145.193561347748
 30
0.0
  0
VERTEX
  5
791
  8
1
  6
CONTINUOUS
 62
     7
 10
-249.9689352073481
 20
145.1966087550862
 30
0.0
  0
SEQEND
  5
933
  8
1
  6
CONTINUOUS
 62
     7
  0
LINE
  5
1AD
  8
1
  6
CONTINUOUS
 62
     7
 10
-251.3189352074398
 20
141.9068522321692
 30
0.0
 11
-249.9689352074398
 21
141.9068522321316
 31
0.0
  0
LINE
  5
1AE
  8
1
  6
CONTINUOUS
 62
     7
 10
-249.9689352073481
 20
145.1966087550862
 30
0.0
 11
-251.3189352073481
 21
145.1966087551238
 31
0.0
  0
LINE
  5
1AF
  8
1
  6
CONTINUOUS
 62
     7
 10
-249.1439352072977
 20
147.0500025195246
 30
0.0
 11
-249.1439352074927
 21
140.0500025195247
 31
0.0
  0
POLYLINE
  5
1B0
  8
1
  6
CONTINUOUS
 62
     7
 66
     1
 10
0.0
 20
0.0
 30
0.0
  0
VERTEX
  5
792
  8
1
  6
CONTINUOUS
 62
     7
 10
-249.9689352075144
 20
139.2637107063667
 30
0.0
  0
VERTEX
  5
793
  8
1
  6
CONTINUOUS
 62
     7
 10
-249.9563889668343
 20
139.2638365690487
 30
0.0
  0
VERTEX
  5
794
  8
1
  6
CONTINUOUS
 62
     7
 10
-249.9438577018205
 20
139.2642127418084
 30
0.0
  0
VERTEX
  5
795
  8
1
  6
CONTINUOUS
 62
     7
 10
-249.9313710157144
 20
139.2648371017155
 30
0.0
  0
VERTEX
  5
796
  8
1
  6
CONTINUOUS
 62
     7
 10
-249.9187658238008
 20
139.2657219495512
 30
0.0
  0
VERTEX
  5
797
  8
1
  6
CONTINUOUS
 62
     7
 10
-249.906235234773
 20
139.2668554136628
 30
0.0
  0
VERTEX
  5
798
  8
1
  6
CONTINUOUS
 62
     7
 10
-249.8938068239143
 20
139.2682313119694
 30
0.0
  0
VERTEX
  5
799
  8
1
  6
CONTINUOUS
 62
     7
 10
-249.8844482631663
 20
139.2694344755284
 30
0.0
  0
VERTEX
  5
79A
  8
1
  6
CONTINUOUS
 62
     7
 10
-249.8751622460581
 20
139.2707710560952
 30
0.0
  0
VERTEX
  5
79B
  8
1
  6
CONTINUOUS
 62
     7
 10
-249.8659256845789
 20
139.2722427711019
 30
0.0
  0
VERTEX
  5
79C
  8
1
  6
CONTINUOUS
 62
     7
 10
-249.8567741282223
 20
139.2738419979648
 30
0.0
  0
VERTEX
  5
79D
  8
1
  6
CONTINUOUS
 62
     7
 10
-249.8392739803026
 20
139.277296379555
 30
0.0
  0
VERTEX
  5
79E
  8
1
  6
CONTINUOUS
 62
     7
 10
-249.8221448885117
 20
139.2811894997359
 30
0.0
  0
VERTEX
  5
79F
  8
1
  6
CONTINUOUS
 62
     7
 10
-249.8052520486915
 20
139.285537254676
 30
0.0
  0
VERTEX
  5
7A0
  8
1
  6
CONTINUOUS
 62
     7
 10
-249.788781726979
 20
139.290274219943
 30
0.0
  0
VERTEX
  5
7A1
  8
1
  6
CONTINUOUS
 62
     7
 10
-249.772632517868
 20
139.2954101103156
 30
0.0
  0
VERTEX
  5
7A2
  8
1
  6
CONTINUOUS
 62
     7
 10
-249.7569041396998
 20
139.3008939436252
 30
0.0
  0
VERTEX
  5
7A3
  8
1
  6
CONTINUOUS
 62
     7
 10
-249.7440890665389
 20
139.3057243973944
 30
0.0
  0
VERTEX
  5
7A4
  8
1
  6
CONTINUOUS
 62
     7
 10
-249.7315906362184
 20
139.31075849718
 30
0.0
  0
VERTEX
  5
7A5
  8
1
  6
CONTINUOUS
 62
     7
 10
-249.7193602086895
 20
139.3160027920228
 30
0.0
  0
VERTEX
  5
7A6
  8
1
  6
CONTINUOUS
 62
     7
 10
-249.7074431604158
 20
139.3214248791585
 30
0.0
  0
VERTEX
  5
7A7
  8
1
  6
CONTINUOUS
 62
     7
 10
-249.6957976831739
 20
139.3270307707553
 30
0.0
  0
VERTEX
  5
7A8
  8
1
  6
CONTINUOUS
 62
     7
 10
-249.6844576412369
 20
139.3327914348377
 30
0.0
  0
VERTEX
  5
7A9
  8
1
  6
CONTINUOUS
 62
     7
 10
-249.6626118711791
 20
139.344767492549
 30
0.0
  0
VERTEX
  5
7AA
  8
1
  6
CONTINUOUS
 62
     7
 10
-249.6418701728131
 20
139.357274136913
 30
0.0
  0
VERTEX
  5
7AB
  8
1
  6
CONTINUOUS
 62
     7
 10
-249.6221900212446
 20
139.3702425028669
 30
0.0
  0
VERTEX
  5
7AC
  8
1
  6
CONTINUOUS
 62
     7
 10
-249.6079268888695
 20
139.3803612282535
 30
0.0
  0
VERTEX
  5
7AD
  8
1
  6
CONTINUOUS
 62
     7
 10
-249.5942309005359
 20
139.3906864507322
 30
0.0
  0
VERTEX
  5
7AE
  8
1
  6
CONTINUOUS
 62
     7
 10
-249.5683542400882
 20
139.4119633969406
 30
0.0
  0
VERTEX
  5
7AF
  8
1
  6
CONTINUOUS
 62
     7
 10
-249.5444735758536
 20
139.4338838634244
 30
0.0
  0
VERTEX
  5
7B0
  8
1
  6
CONTINUOUS
 62
     7
 10
-249.5223212657196
 20
139.4564597461825
 30
0.0
  0
VERTEX
  5
7B1
  8
1
  6
CONTINUOUS
 62
     7
 10
-249.5018895114866
 20
139.4794805994495
 30
0.0
  0
VERTEX
  5
7B2
  8
1
  6
CONTINUOUS
 62
     7
 10
-249.4829664725761
 20
139.5029754364298
 30
0.0
  0
VERTEX
  5
7B3
  8
1
  6
CONTINUOUS
 62
     7
 10
-249.4655229194171
 20
139.5267832508347
 30
0.0
  0
VERTEX
  5
7B4
  8
1
  6
CONTINUOUS
 62
     7
 10
-249.4430545633925
 20
139.5610735797462
 30
0.0
  0
VERTEX
  5
7B5
  8
1
  6
CONTINUOUS
 62
     7
 10
-249.4201431534373
 20
139.6012653879118
 30
0.0
  0
VERTEX
  5
7B6
  8
1
  6
CONTINUOUS
 62
     7
 10
-249.400175233736
 20
139.6419094595382
 30
0.0
  0
VERTEX
  5
7B7
  8
1
  6
CONTINUOUS
 62
     7
 10
-249.3783025563986
 20
139.6947481849438
 30
0.0
  0
VERTEX
  5
7B8
  8
1
  6
CONTINUOUS
 62
     7
 10
-249.3602431774321
 20
139.7480218989632
 30
0.0
  0
VERTEX
  5
7B9
  8
1
  6
CONTINUOUS
 62
     7
 10
-249.3430443033836
 20
139.8121282367471
 30
0.0
  0
VERTEX
  5
7BA
  8
1
  6
CONTINUOUS
 62
     7
 10
-249.3300761210126
 20
139.8765577632373
 30
0.0
  0
VERTEX
  5
7BB
  8
1
  6
CONTINUOUS
 62
     7
 10
-249.3202650250709
 20
139.946884401839
 30
0.0
  0
VERTEX
  5
7BC
  8
1
  6
CONTINUOUS
 62
     7
 10
-249.3145524344077
 20
140.0173860642024
 30
0.0
  0
VERTEX
  5
7BD
  8
1
  6
CONTINUOUS
 62
     7
 10
-249.3127149727509
 20
140.086849156059
 30
0.0
  0
VERTEX
  5
7BE
  8
1
  6
CONTINUOUS
 62
     7
 10
-249.3145451571466
 20
140.1560073197396
 30
0.0
  0
VERTEX
  5
7BF
  8
1
  6
CONTINUOUS
 62
     7
 10
-249.3201038144584
 20
140.2251654238036
 30
0.0
  0
VERTEX
  5
7C0
  8
1
  6
CONTINUOUS
 62
     7
 10
-249.3294754296759
 20
140.2934169354176
 30
0.0
  0
VERTEX
  5
7C1
  8
1
  6
CONTINUOUS
 62
     7
 10
-249.3430796648228
 20
140.3615537092311
 30
0.0
  0
VERTEX
  5
7C2
  8
1
  6
CONTINUOUS
 62
     7
 10
-249.3612045721873
 20
140.4286399982944
 30
0.0
  0
VERTEX
  5
7C3
  8
1
  6
CONTINUOUS
 62
     7
 10
-249.384729794061
 20
140.4954106235449
 30
0.0
  0
VERTEX
  5
7C4
  8
1
  6
CONTINUOUS
 62
     7
 10
-249.4144795075721
 20
140.5613385401489
 30
0.0
  0
VERTEX
  5
7C5
  8
1
  6
CONTINUOUS
 62
     7
 10
-249.4325979485634
 20
140.594851873511
 30
0.0
  0
VERTEX
  5
7C6
  8
1
  6
CONTINUOUS
 62
     7
 10
-249.452931577007
 20
140.6280834447291
 30
0.0
  0
VERTEX
  5
7C7
  8
1
  6
CONTINUOUS
 62
     7
 10
-249.4757386522283
 20
140.6609590899399
 30
0.0
  0
VERTEX
  5
7C8
  8
1
  6
CONTINUOUS
 62
     7
 10
-249.5013257659897
 20
140.6933816782142
 30
0.0
  0
VERTEX
  5
7C9
  8
1
  6
CONTINUOUS
 62
     7
 10
-249.5196869013462
 20
140.7142275362952
 30
0.0
  0
VERTEX
  5
7CA
  8
1
  6
CONTINUOUS
 62
     7
 10
-249.53949207458
 20
140.7347687651569
 30
0.0
  0
VERTEX
  5
7CB
  8
1
  6
CONTINUOUS
 62
     7
 10
-249.5604685624569
 20
140.7545858656121
 30
0.0
  0
VERTEX
  5
7CC
  8
1
  6
CONTINUOUS
 62
     7
 10
-249.5830981469818
 20
140.7739850451416
 30
0.0
  0
VERTEX
  5
7CD
  8
1
  6
CONTINUOUS
 62
     7
 10
-249.6068719712956
 20
140.7923955917301
 30
0.0
  0
VERTEX
  5
7CE
  8
1
  6
CONTINUOUS
 62
     7
 10
-249.6194586305951
 20
140.8013985204029
 30
0.0
  0
VERTEX
  5
7CF
  8
1
  6
CONTINUOUS
 62
     7
 10
-249.6325165884182
 20
140.8102316074765
 30
0.0
  0
VERTEX
  5
7D0
  8
1
  6
CONTINUOUS
 62
     7
 10
-249.6458425455606
 20
140.8187411132646
 30
0.0
  0
VERTEX
  5
7D1
  8
1
  6
CONTINUOUS
 62
     7
 10
-249.6596593173185
 20
140.8270520881132
 30
0.0
  0
VERTEX
  5
7D2
  8
1
  6
CONTINUOUS
 62
     7
 10
-249.6740390118102
 20
140.8351750406983
 30
0.0
  0
VERTEX
  5
7D3
  8
1
  6
CONTINUOUS
 62
     7
 10
-249.6889467812238
 20
140.8430557048248
 30
0.0
  0
VERTEX
  5
7D4
  8
1
  6
CONTINUOUS
 62
     7
 10
-249.7083908248796
 20
140.8525482337245
 30
0.0
  0
VERTEX
  5
7D5
  8
1
  6
CONTINUOUS
 62
     7
 10
-249.7287480768864
 20
140.8615814924183
 30
0.0
  0
VERTEX
  5
7D6
  8
1
  6
CONTINUOUS
 62
     7
 10
-249.7392920303394
 20
140.8659121263001
 30
0.0
  0
VERTEX
  5
7D7
  8
1
  6
CONTINUOUS
 62
     7
 10
-249.7500644387578
 20
140.8700995159548
 30
0.0
  0
VERTEX
  5
7D8
  8
1
  6
CONTINUOUS
 62
     7
 10
-249.7610895240556
 20
140.874143023402
 30
0.0
  0
VERTEX
  5
7D9
  8
1
  6
CONTINUOUS
 62
     7
 10
-249.772344845912
 20
140.8780243338532
 30
0.0
  0
VERTEX
  5
7DA
  8
1
  6
CONTINUOUS
 62
     7
 10
-249.7838714842184
 20
140.8817467051346
 30
0.0
  0
VERTEX
  5
7DB
  8
1
  6
CONTINUOUS
 62
     7
 10
-249.7956266027345
 20
140.8852854946711
 30
0.0
  0
VERTEX
  5
7DC
  8
1
  6
CONTINUOUS
 62
     7
 10
-249.8075475835581
 20
140.8886141789834
 30
0.0
  0
VERTEX
  5
7DD
  8
1
  6
CONTINUOUS
 62
     7
 10
-249.8196999371495
 20
140.8917432001852
 30
0.0
  0
VERTEX
  5
7DE
  8
1
  6
CONTINUOUS
 62
     7
 10
-249.832116310529
 20
140.8946696094698
 30
0.0
  0
VERTEX
  5
7DF
  8
1
  6
CONTINUOUS
 62
     7
 10
-249.844736459943
 20
140.8973687136522
 30
0.0
  0
VERTEX
  5
7E0
  8
1
  6
CONTINUOUS
 62
     7
 10
-249.8576218391296
 20
140.8998424337723
 30
0.0
  0
VERTEX
  5
7E1
  8
1
  6
CONTINUOUS
 62
     7
 10
-249.8706889356249
 20
140.902064408943
 30
0.0
  0
VERTEX
  5
7E2
  8
1
  6
CONTINUOUS
 62
     7
 10
-249.8840061471383
 20
140.9040354785212
 30
0.0
  0
VERTEX
  5
7E3
  8
1
  6
CONTINUOUS
 62
     7
 10
-249.8974736456699
 20
140.9057313607364
 30
0.0
  0
VERTEX
  5
7E4
  8
1
  6
CONTINUOUS
 62
     7
 10
-249.9111678709087
 20
140.9071517440157
 30
0.0
  0
VERTEX
  5
7E5
  8
1
  6
CONTINUOUS
 62
     7
 10
-249.9249713368641
 20
140.9082762031312
 30
0.0
  0
VERTEX
  5
7E6
  8
1
  6
CONTINUOUS
 62
     7
 10
-249.9358886217905
 20
140.9089481349527
 30
0.0
  0
VERTEX
  5
7E7
  8
1
  6
CONTINUOUS
 62
     7
 10
-249.9468458261214
 20
140.909430502237
 30
0.0
  0
VERTEX
  5
7E8
  8
1
  6
CONTINUOUS
 62
     7
 10
-249.9578836848204
 20
140.9097222744178
 30
0.0
  0
VERTEX
  5
7E9
  8
1
  6
CONTINUOUS
 62
     7
 10
-249.9689352074677
 20
140.9098197229794
 30
0.0
  0
SEQEND
  5
934
  8
1
  6
CONTINUOUS
 62
     7
  0
POLYLINE
  5
1B1
  8
1
  6
CONTINUOUS
 62
     7
 66
     1
 10
0.0
 20
0.0
 30
0.0
  0
VERTEX
  5
7EA
  8
1
  6
CONTINUOUS
 62
     7
 10
-249.9689352073205
 20
146.1931440453125
 30
0.0
  0
VERTEX
  5
7EB
  8
1
  6
CONTINUOUS
 62
     7
 10
-249.9595399577568
 20
146.1932143564104
 30
0.0
  0
VERTEX
  5
7EC
  8
1
  6
CONTINUOUS
 62
     7
 10
-249.9501531114203
 20
146.1934249902096
 30
0.0
  0
VERTEX
  5
7ED
  8
1
  6
CONTINUOUS
 62
     7
 10
-249.9407494929649
 20
146.1937769803596
 30
0.0
  0
VERTEX
  5
7EE
  8
1
  6
CONTINUOUS
 62
     7
 10
-249.9313710155202
 20
146.1942687563051
 30
0.0
  0
VERTEX
  5
7EF
  8
1
  6
CONTINUOUS
 62
     7
 10
-249.9187658236067
 20
146.1951522809829
 30
0.0
  0
VERTEX
  5
7F0
  8
1
  6
CONTINUOUS
 62
     7
 10
-249.9062352345789
 20
146.1962840501682
 30
0.0
  0
VERTEX
  5
7F1
  8
1
  6
CONTINUOUS
 62
     7
 10
-249.8938068237203
 20
146.1976578910243
 30
0.0
  0
VERTEX
  5
7F2
  8
1
  6
CONTINUOUS
 62
     7
 10
-249.8813264328299
 20
146.1992922680861
 30
0.0
  0
VERTEX
  5
7F3
  8
1
  6
CONTINUOUS
 62
     7
 10
-249.8689745782165
 20
146.2011627959093
 30
0.0
  0
VERTEX
  5
7F4
  8
1
  6
CONTINUOUS
 62
     7
 10
-249.8567741280283
 20
146.2032601870766
 30
0.0
  0
VERTEX
  5
7F5
  8
1
  6
CONTINUOUS
 62
     7
 10
-249.8392960635986
 20
146.2067045132683
 30
0.0
  0
VERTEX
  5
7F6
  8
1
  6
CONTINUOUS
 62
     7
 10
-249.8221448883176
 20
146.2105967017557
 30
0.0
  0
VERTEX
  5
7F7
  8
1
  6
CONTINUOUS
 62
     7
 10
-249.8052520484974
 20
146.2149379552773
 30
0.0
  0
VERTEX
  5
7F8
  8
1
  6
CONTINUOUS
 62
     7
 10
-249.788781726785
 20
146.21966783712
 30
0.0
  0
VERTEX
  5
7F9
  8
1
  6
CONTINUOUS
 62
     7
 10
-249.7726182514191
 20
146.2248008741145
 30
0.0
  0
VERTEX
  5
7FA
  8
1
  6
CONTINUOUS
 62
     7
 10
-249.7569041395058
 20
146.2302716805911
 30
0.0
  0
VERTEX
  5
7FB
  8
1
  6
CONTINUOUS
 62
     7
 10
-249.7440956729793
 20
146.2350923215523
 30
0.0
  0
VERTEX
  5
7FC
  8
1
  6
CONTINUOUS
 62
     7
 10
-249.731590796547
 20
146.2401214165341
 30
0.0
  0
VERTEX
  5
7FD
  8
1
  6
CONTINUOUS
 62
     7
 10
-249.7193602867147
 20
146.2453579014467
 30
0.0
  0
VERTEX
  5
7FE
  8
1
  6
CONTINUOUS
 62
     7
 10
-249.7074431602217
 20
146.2507719151755
 30
0.0
  0
VERTEX
  5
7FF
  8
1
  6
CONTINUOUS
 62
     7
 10
-249.6957978328786
 20
146.2563693499525
 30
0.0
  0
VERTEX
  5
800
  8
1
  6
CONTINUOUS
 62
     7
 10
-249.6844579329509
 20
146.2621213218877
 30
0.0
  0
VERTEX
  5
801
  8
1
  6
CONTINUOUS
 62
     7
 10
-249.6626118709851
 20
146.2740796231727
 30
0.0
  0
VERTEX
  5
802
  8
1
  6
CONTINUOUS
 62
     7
 10
-249.6418703045143
 20
146.2865674826171
 30
0.0
  0
VERTEX
  5
803
  8
1
  6
CONTINUOUS
 62
     7
 10
-249.6221900210507
 20
146.2995165394161
 30
0.0
  0
VERTEX
  5
804
  8
1
  6
CONTINUOUS
 62
     7
 10
-249.607921202861
 20
146.3096242047688
 30
0.0
  0
VERTEX
  5
805
  8
1
  6
CONTINUOUS
 62
     7
 10
-249.594230900342
 20
146.3199299164097
 30
0.0
  0
VERTEX
  5
806
  8
1
  6
CONTINUOUS
 62
     7
 10
-249.5684148406593
 20
146.3411224149164
 30
0.0
  0
VERTEX
  5
807
  8
1
  6
CONTINUOUS
 62
     7
 10
-249.5444735756597
 20
146.3630627338205
 30
0.0
  0
VERTEX
  5
808
  8
1
  6
CONTINUOUS
 62
     7
 10
-249.522385720308
 20
146.3855358404408
 30
0.0
  0
VERTEX
  5
809
  8
1
  6
CONTINUOUS
 62
     7
 10
-249.5018895112927
 20
146.4085912867345
 30
0.0
  0
VERTEX
  5
80A
  8
1
  6
CONTINUOUS
 62
     7
 10
-249.4829908950881
 20
146.4320192269581
 30
0.0
  0
VERTEX
  5
80B
  8
1
  6
CONTINUOUS
 62
     7
 10
-249.4655229192234
 20
146.4558232040668
 30
0.0
  0
VERTEX
  5
80C
  8
1
  6
CONTINUOUS
 62
     7
 10
-249.4430545631988
 20
146.4900622569109
 30
0.0
  0
VERTEX
  5
80D
  8
1
  6
CONTINUOUS
 62
     7
 10
-249.4230637988728
 20
146.524734342663
 30
0.0
  0
VERTEX
  5
80E
  8
1
  6
CONTINUOUS
 62
     7
 10
-249.4001752335423
 20
146.5707772587135
 30
0.0
  0
VERTEX
  5
80F
  8
1
  6
CONTINUOUS
 62
     7
 10
-249.3806787271345
 20
146.617277713959
 30
0.0
  0
VERTEX
  5
810
  8
1
  6
CONTINUOUS
 62
     7
 10
-249.3602431772386
 20
146.6767310228279
 30
0.0
  0
VERTEX
  5
811
  8
1
  6
CONTINUOUS
 62
     7
 10
-249.3440236623894
 20
146.7365885713991
 30
0.0
  0
VERTEX
  5
812
  8
1
  6
CONTINUOUS
 62
     7
 10
-249.3300761208192
 20
146.8050746809073
 30
0.0
  0
VERTEX
  5
813
  8
1
  6
CONTINUOUS
 62
     7
 10
-249.3204282189369
 20
146.8738162364774
 30
0.0
  0
VERTEX
  5
814
  8
1
  6
CONTINUOUS
 62
     7
 10
-249.3145524342146
 20
146.945692394174
 30
0.0
  0
VERTEX
  5
815
  8
1
  6
CONTINUOUS
 62
     7
 10
-249.3127149725577
 20
147.0150516143475
 30
0.0
  0
VERTEX
  5
816
  8
1
  6
CONTINUOUS
 62
     7
 10
-249.314563984008
 20
147.084459822469
 30
0.0
  0
VERTEX
  5
817
  8
1
  6
CONTINUOUS
 62
     7
 10
-249.3201038142654
 20
147.1531610507643
 30
0.0
  0
VERTEX
  5
818
  8
1
  6
CONTINUOUS
 62
     7
 10
-249.3295592550357
 20
147.2218100812124
 30
0.0
  0
VERTEX
  5
819
  8
1
  6
CONTINUOUS
 62
     7
 10
-249.3430796646299
 20
147.2893453878737
 30
0.0
  0
VERTEX
  5
81A
  8
1
  6
CONTINUOUS
 62
     7
 10
-249.3613134400247
 20
147.3566830049041
 30
0.0
  0
VERTEX
  5
81B
  8
1
  6
CONTINUOUS
 62
     7
 10
-249.3847297938683
 20
147.4230021391568
 30
0.0
  0
VERTEX
  5
81C
  8
1
  6
CONTINUOUS
 62
     7
 10
-249.4144795073796
 20
147.4888314704046
 30
0.0
  0
VERTEX
  5
81D
  8
1
  6
CONTINUOUS
 62
     7
 10
-249.4325979483707
 20
147.5222946895802
 30
0.0
  0
VERTEX
  5
81E
  8
1
  6
CONTINUOUS
 62
     7
 10
-249.4529315768013
 20
147.5554765679249
 30
0.0
  0
VERTEX
  5
81F
  8
1
  6
CONTINUOUS
 62
     7
 10
-249.4757386520357
 20
147.5883030525367
 30
0.0
  0
VERTEX
  5
820
  8
1
  6
CONTINUOUS
 62
     7
 10
-249.5013257657973
 20
147.6206771576709
 30
0.0
  0
VERTEX
  5
821
  8
1
  6
CONTINUOUS
 62
     7
 10
-249.5197877770198
 20
147.641601204509
 30
0.0
  0
VERTEX
  5
822
  8
1
  6
CONTINUOUS
 62
     7
 10
-249.5394920743875
 20
147.6620023564042
 30
0.0
  0
VERTEX
  5
823
  8
1
  6
CONTINUOUS
 62
     7
 10
-249.560752526787
 20
147.6820451043802
 30
0.0
  0
VERTEX
  5
824
  8
1
  6
CONTINUOUS
 62
     7
 10
-249.5830981467893
 20
147.7011599942971
 30
0.0
  0
VERTEX
  5
825
  8
1
  6
CONTINUOUS
 62
     7
 10
-249.6072032937723
 20
147.7197859999638
 30
0.0
  0
VERTEX
  5
826
  8
1
  6
CONTINUOUS
 62
     7
 10
-249.6325165882258
 20
147.7373523553097
 30
0.0
  0
VERTEX
  5
827
  8
1
  6
CONTINUOUS
 62
     7
 10
-249.6459198244163
 20
147.7458969756387
 30
0.0
  0
VERTEX
  5
828
  8
1
  6
CONTINUOUS
 62
     7
 10
-249.6598195785036
 20
147.7542409860308
 30
0.0
  0
VERTEX
  5
829
  8
1
  6
CONTINUOUS
 62
     7
 10
-249.6741142461167
 20
147.7622995295697
 30
0.0
  0
VERTEX
  5
82A
  8
1
  6
CONTINUOUS
 62
     7
 10
-249.6889467810316
 20
147.770127369121
 30
0.0
  0
VERTEX
  5
82B
  8
1
  6
CONTINUOUS
 62
     7
 10
-249.7083908246873
 20
147.779605703361
 30
0.0
  0
VERTEX
  5
82C
  8
1
  6
CONTINUOUS
 62
     7
 10
-249.7287607952722
 20
147.7886308106092
 30
0.0
  0
VERTEX
  5
82D
  8
1
  6
CONTINUOUS
 62
     7
 10
-249.7392985282044
 20
147.7929522058791
 30
0.0
  0
VERTEX
  5
82E
  8
1
  6
CONTINUOUS
 62
     7
 10
-249.7500644385655
 20
147.7971307402692
 30
0.0
  0
VERTEX
  5
82F
  8
1
  6
CONTINUOUS
 62
     7
 10
-249.7610937518629
 20
147.8011697033978
 30
0.0
  0
VERTEX
  5
830
  8
1
  6
CONTINUOUS
 62
     7
 10
-249.7723534761467
 20
147.8050465854359
 30
0.0
  0
VERTEX
  5
831
  8
1
  6
CONTINUOUS
 62
     7
 10
-249.7838700875055
 20
147.8087601032837
 30
0.0
  0
VERTEX
  5
832
  8
1
  6
CONTINUOUS
 62
     7
 10
-249.7956266025423
 20
147.8122940106215
 30
0.0
  0
VERTEX
  5
833
  8
1
  6
CONTINUOUS
 62
     7
 10
-249.8075544730929
 20
147.8156195260321
 30
0.0
  0
VERTEX
  5
834
  8
1
  6
CONTINUOUS
 62
     7
 10
-249.8196999369572
 20
147.8187420596012
 30
0.0
  0
VERTEX
  5
835
  8
1
  6
CONTINUOUS
 62
     7
 10
-249.832116776115
 20
147.821664197424
 30
0.0
  0
VERTEX
  5
836
  8
1
  6
CONTINUOUS
 62
     7
 10
-249.8447374060721
 20
147.8243593527535
 30
0.0
  0
VERTEX
  5
837
  8
1
  6
CONTINUOUS
 62
     7
 10
-249.8576223190712
 20
147.8268292687962
 30
0.0
  0
VERTEX
  5
838
  8
1
  6
CONTINUOUS
 62
     7
 10
-249.8706889354326
 20
147.8290478345323
 30
0.0
  0
VERTEX
  5
839
  8
1
  6
CONTINUOUS
 62
     7
 10
-249.8840064571156
 20
147.8310159990876
 30
0.0
  0
VERTEX
  5
83A
  8
1
  6
CONTINUOUS
 62
     7
 10
-249.8974742723143
 20
147.832709374851
 30
0.0
  0
VERTEX
  5
83B
  8
1
  6
CONTINUOUS
 62
     7
 10
-249.9111554080148
 20
147.8341265230679
 30
0.0
  0
VERTEX
  5
83C
  8
1
  6
CONTINUOUS
 62
     7
 10
-249.9249713366719
 20
147.8352503399095
 30
0.0
  0
VERTEX
  5
83D
  8
1
  6
CONTINUOUS
 62
     7
 10
-249.9358886215983
 20
147.8359212669574
 30
0.0
  0
VERTEX
  5
83E
  8
1
  6
CONTINUOUS
 62
     7
 10
-249.9468458259292
 20
147.8364029129336
 30
0.0
  0
VERTEX
  5
83F
  8
1
  6
CONTINUOUS
 62
     7
 10
-249.9578836846282
 20
147.8366942488125
 30
0.0
  0
VERTEX
  5
840
  8
1
  6
CONTINUOUS
 62
     7
 10
-249.9689352072755
 20
147.8367915516543
 30
0.0
  0
SEQEND
  5
935
  8
1
  6
CONTINUOUS
 62
     7
  0
LINE
  5
1B2
  8
1
  6
CONTINUOUS
 62
     7
 10
-249.9689352074677
 20
140.9098197229794
 30
0.0
 11
-251.3189352074677
 21
140.9098197230171
 31
0.0
  0
LINE
  5
1B3
  8
1
  6
CONTINUOUS
 62
     7
 10
-251.3189352073205
 20
146.1931440453501
 30
0.0
 11
-249.9689352073205
 21
146.1931440453125
 31
0.0
  0
LINE
  5
1B4
  8
1
  6
CONTINUOUS
 62
     7
 10
-251.3189352075145
 20
139.2637107064043
 30
0.0
 11
-249.9689352075144
 21
139.2637107063667
 31
0.0
  0
LINE
  5
1B5
  8
1
  6
CONTINUOUS
 62
     7
 10
-249.9689352072755
 20
147.8367915516543
 30
0.0
 11
-251.3189352072756
 21
147.836791551692
 31
0.0
  0
LINE
  5
1B6
  8
1
  6
CONTINUOUS
 62
     7
 10
-248.5439352074913
 20
140.1024957176235
 30
0.0
 11
-248.5439352074898
 21
140.1553683449491
 31
0.0
  0
LINE
  5
1B7
  8
1
  6
CONTINUOUS
 62
     7
 10
-248.5439352073006
 20
146.9451550862851
 30
0.0
 11
-248.5439352072991
 21
146.9975093213923
 31
0.0
  0
LINE
  5
1B8
  8
1
  6
CONTINUOUS
 62
     7
 10
-248.0656789345316
 20
146.9026564762163
 30
0.0
 11
-248.5439352073004
 21
146.9451550862851
 31
0.0
  0
LINE
  5
1B9
  8
1
  6
CONTINUOUS
 62
     7
 10
-248.5439352074896
 20
140.1553683449491
 30
0.0
 11
-248.0656789347177
 21
140.1978669549885
 31
0.0
  0
POLYLINE
  5
1BA
  8
1
  6
CONTINUOUS
 62
     7
 66
     1
 10
0.0
 20
0.0
 30
0.0
  0
VERTEX
  5
841
  8
1
  6
CONTINUOUS
 62
     7
 10
-247.1677560680154
 20
146.0611438049031
 30
0.0
  0
VERTEX
  5
842
  8
1
  6
CONTINUOUS
 62
     7
 10
-247.1740445936574
 20
146.0948148578945
 30
0.0
  0
VERTEX
  5
843
  8
1
  6
CONTINUOUS
 62
     7
 10
-247.1814389021838
 20
146.1282980077471
 30
0.0
  0
VERTEX
  5
844
  8
1
  6
CONTINUOUS
 62
     7
 10
-247.1899573198658
 20
146.1616278637867
 30
0.0
  0
VERTEX
  5
845
  8
1
  6
CONTINUOUS
 62
     7
 10
-247.1995825189753
 20
146.1946942000739
 30
0.0
  0
VERTEX
  5
846
  8
1
  6
CONTINUOUS
 62
     7
 10
-247.2133485520243
 20
146.2361166421022
 30
0.0
  0
VERTEX
  5
847
  8
1
  6
CONTINUOUS
 62
     7
 10
-247.2288772747541
 20
146.2769941707388
 30
0.0
  0
VERTEX
  5
848
  8
1
  6
CONTINUOUS
 62
     7
 10
-247.246222101036
 20
146.3173934024454
 30
0.0
  0
VERTEX
  5
849
  8
1
  6
CONTINUOUS
 62
     7
 10
-247.2653139645372
 20
146.3570863021426
 30
0.0
  0
VERTEX
  5
84A
  8
1
  6
CONTINUOUS
 62
     7
 10
-247.28654908543
 20
146.3967316397186
 30
0.0
  0
VERTEX
  5
84B
  8
1
  6
CONTINUOUS
 62
     7
 10
-247.3095540827755
 20
146.4354784237355
 30
0.0
  0
VERTEX
  5
84C
  8
1
  6
CONTINUOUS
 62
     7
 10
-247.3344011061659
 20
146.4733901223334
 30
0.0
  0
VERTEX
  5
84D
  8
1
  6
CONTINUOUS
 62
     7
 10
-247.3609692491771
 20
146.5102278249261
 30
0.0
  0
VERTEX
  5
84E
  8
1
  6
CONTINUOUS
 62
     7
 10
-247.3872622452401
 20
146.5435387057084
 30
0.0
  0
VERTEX
  5
84F
  8
1
  6
CONTINUOUS
 62
     7
 10
-247.4149810397265
 20
146.5757719122088
 30
0.0
  0
VERTEX
  5
850
  8
1
  6
CONTINUOUS
 62
     7
 10
-247.4441945005923
 20
146.6069712900735
 30
0.0
  0
VERTEX
  5
851
  8
1
  6
CONTINUOUS
 62
     7
 10
-247.4747639106472
 20
146.6369539909544
 30
0.0
  0
VERTEX
  5
852
  8
1
  6
CONTINUOUS
 62
     7
 10
-247.5072603229044
 20
146.6661869913034
 30
0.0
  0
VERTEX
  5
853
  8
1
  6
CONTINUOUS
 62
     7
 10
-247.541067494892
 20
146.6940252950452
 30
0.0
  0
VERTEX
  5
854
  8
1
  6
CONTINUOUS
 62
     7
 10
-247.5762692810594
 20
146.7205040679384
 30
0.0
  0
VERTEX
  5
855
  8
1
  6
CONTINUOUS
 62
     7
 10
-247.6126782955351
 20
146.7454495255086
 30
0.0
  0
VERTEX
  5
856
  8
1
  6
CONTINUOUS
 62
     7
 10
-247.6479167118186
 20
146.7674272164805
 30
0.0
  0
VERTEX
  5
857
  8
1
  6
CONTINUOUS
 62
     7
 10
-247.6841065546343
 20
146.7879480467943
 30
0.0
  0
VERTEX
  5
858
  8
1
  6
CONTINUOUS
 62
     7
 10
-247.7213237791042
 20
146.8070309294908
 30
0.0
  0
VERTEX
  5
859
  8
1
  6
CONTINUOUS
 62
     7
 10
-247.7593814863575
 20
146.8245563959861
 30
0.0
  0
VERTEX
  5
85A
  8
1
  6
CONTINUOUS
 62
     7
 10
-247.7989479555901
 20
146.8407642133971
 30
0.0
  0
VERTEX
  5
85B
  8
1
  6
CONTINUOUS
 62
     7
 10
-247.8392541656851
 20
146.8552718581569
 30
0.0
  0
VERTEX
  5
85C
  8
1
  6
CONTINUOUS
 62
     7
 10
-247.8803861712398
 20
146.8680859097234
 30
0.0
  0
VERTEX
  5
85D
  8
1
  6
CONTINUOUS
 62
     7
 10
-247.922118277414
 20
146.8791120051801
 30
0.0
  0
VERTEX
  5
85E
  8
1
  6
CONTINUOUS
 62
     7
 10
-247.9575360149685
 20
146.8869589343158
 30
0.0
  0
VERTEX
  5
85F
  8
1
  6
CONTINUOUS
 62
     7
 10
-247.9932671107892
 20
146.8935052671455
 30
0.0
  0
VERTEX
  5
860
  8
1
  6
CONTINUOUS
 62
     7
 10
-248.0293633469859
 20
146.8987487255279
 30
0.0
  0
VERTEX
  5
861
  8
1
  6
CONTINUOUS
 62
     7
 10
-248.0656789345316
 20
146.9026564762163
 30
0.0
  0
SEQEND
  5
936
  8
1
  6
CONTINUOUS
 62
     7
  0
POLYLINE
  5
1BB
  8
1
  6
CONTINUOUS
 62
     7
 66
     1
 10
0.0
 20
0.0
 30
0.0
  0
VERTEX
  5
862
  8
1
  6
CONTINUOUS
 62
     7
 10
-248.0656789347177
 20
140.1978669549885
 30
0.0
  0
VERTEX
  5
863
  8
1
  6
CONTINUOUS
 62
     7
 10
-248.0172176500627
 20
140.2033867957924
 30
0.0
  0
VERTEX
  5
864
  8
1
  6
CONTINUOUS
 62
     7
 10
-247.9689709670956
 20
140.2113211777058
 30
0.0
  0
VERTEX
  5
865
  8
1
  6
CONTINUOUS
 62
     7
 10
-247.9291015970169
 20
140.2197557676205
 30
0.0
  0
VERTEX
  5
866
  8
1
  6
CONTINUOUS
 62
     7
 10
-247.889547470362
 20
140.2298491079626
 30
0.0
  0
VERTEX
  5
867
  8
1
  6
CONTINUOUS
 62
     7
 10
-247.8502430785296
 20
140.2416347753255
 30
0.0
  0
VERTEX
  5
868
  8
1
  6
CONTINUOUS
 62
     7
 10
-247.8113955133561
 20
140.2550676363659
 30
0.0
  0
VERTEX
  5
869
  8
1
  6
CONTINUOUS
 62
     7
 10
-247.7723889527678
 20
140.2704176989151
 30
0.0
  0
VERTEX
  5
86A
  8
1
  6
CONTINUOUS
 62
     7
 10
-247.7339991498993
 20
140.2874380906021
 30
0.0
  0
VERTEX
  5
86B
  8
1
  6
CONTINUOUS
 62
     7
 10
-247.6961621886721
 20
140.3061760533758
 30
0.0
  0
VERTEX
  5
86C
  8
1
  6
CONTINUOUS
 62
     7
 10
-247.6590903957195
 20
140.3265455926707
 30
0.0
  0
VERTEX
  5
86D
  8
1
  6
CONTINUOUS
 62
     7
 10
-247.6181730902745
 20
140.3515111731141
 30
0.0
  0
VERTEX
  5
86E
  8
1
  6
CONTINUOUS
 62
     7
 10
-247.5784144566597
 20
140.3784830107749
 30
0.0
  0
VERTEX
  5
86F
  8
1
  6
CONTINUOUS
 62
     7
 10
-247.5397347007487
 20
140.4075493229203
 30
0.0
  0
VERTEX
  5
870
  8
1
  6
CONTINUOUS
 62
     7
 10
-247.5024214629358
 20
140.4385290172078
 30
0.0
  0
VERTEX
  5
871
  8
1
  6
CONTINUOUS
 62
     7
 10
-247.4713006049068
 20
140.4668398310724
 30
0.0
  0
VERTEX
  5
872
  8
1
  6
CONTINUOUS
 62
     7
 10
-247.4413420933221
 20
140.4964835314838
 30
0.0
  0
VERTEX
  5
873
  8
1
  6
CONTINUOUS
 62
     7
 10
-247.4125024354524
 20
140.5275241204917
 30
0.0
  0
VERTEX
  5
874
  8
1
  6
CONTINUOUS
 62
     7
 10
-247.3849450508538
 20
140.5598073664906
 30
0.0
  0
VERTEX
  5
875
  8
1
  6
CONTINUOUS
 62
     7
 10
-247.3582519433006
 20
140.5939074131487
 30
0.0
  0
VERTEX
  5
876
  8
1
  6
CONTINUOUS
 62
     7
 10
-247.3329954848531
 20
140.6291825106247
 30
0.0
  0
VERTEX
  5
877
  8
1
  6
CONTINUOUS
 62
     7
 10
-247.3091409432836
 20
140.6657076446304
 30
0.0
  0
VERTEX
  5
878
  8
1
  6
CONTINUOUS
 62
     7
 10
-247.2868322223807
 20
140.7032903349015
 30
0.0
  0
VERTEX
  5
879
  8
1
  6
CONTINUOUS
 62
     7
 10
-247.2668944461059
 20
140.7403371083227
 30
0.0
  0
VERTEX
  5
87A
  8
1
  6
CONTINUOUS
 62
     7
 10
-247.2484639144318
 20
140.7782354753845
 30
0.0
  0
VERTEX
  5
87B
  8
1
  6
CONTINUOUS
 62
     7
 10
-247.2315199968589
 20
140.8170559739227
 30
0.0
  0
VERTEX
  5
87C
  8
1
  6
CONTINUOUS
 62
     7
 10
-247.2161596631977
 20
140.8566068096864
 30
0.0
  0
VERTEX
  5
87D
  8
1
  6
CONTINUOUS
 62
     7
 10
-247.2021850184237
 20
140.897533834733
 30
0.0
  0
VERTEX
  5
87E
  8
1
  6
CONTINUOUS
 62
     7
 10
-247.1899069478878
 20
140.9390799938059
 30
0.0
  0
VERTEX
  5
87F
  8
1
  6
CONTINUOUS
 62
     7
 10
-247.1793158675488
 20
140.981322406406
 30
0.0
  0
VERTEX
  5
880
  8
1
  6
CONTINUOUS
 62
     7
 10
-247.1704792004984
 20
141.0240438262999
 30
0.0
  0
VERTEX
  5
881
  8
1
  6
CONTINUOUS
 62
     7
 10
-247.1677560681554
 20
141.0393796262544
 30
0.0
  0
SEQEND
  5
937
  8
1
  6
CONTINUOUS
 62
     7
  0
LINE
  5
1BC
  8
1
  6
CONTINUOUS
 62
     7
 10
-252.6439352074718
 20
140.8000025196222
 30
0.0
 11
-252.6439352073951
 21
143.5511905017893
 31
0.0
  0
LINE
  5
1BD
  8
1
  6
CONTINUOUS
 62
     7
 10
-253.893935207437
 20
142.050002519657
 30
0.0
 11
-253.8939352073952
 21
143.55065050993
 31
0.0
  0
LINE
  5
1BE
  8
1
  6
CONTINUOUS
 62
     7
 10
-252.6439352073951
 20
143.5511905017893
 30
0.0
 11
-252.6439352073185
 21
146.3000025196221
 31
0.0
  0
LINE
  5
1BF
  8
1
  6
CONTINUOUS
 62
     7
 10
-253.8939352073952
 20
143.55065050993
 30
0.0
 11
-253.8939352073534
 21
145.0500025196569
 31
0.0
  0
LINE
  5
1C0
  8
1
  6
CONTINUOUS
 62
     7
 10
-254.393935207437
 20
142.050002519671
 30
0.0
 11
-254.3939352073952
 21
143.5506505099439
 31
0.0
  0
LINE
  5
1C1
  8
1
  6
CONTINUOUS
 62
     7
 10
-255.6439352074709
 20
140.8387313999203
 30
0.0
 11
-255.1439352074579
 21
141.3000027296375
 31
0.0
  0
LINE
  5
1C2
  8
1
  6
CONTINUOUS
 62
     7
 10
-255.1439352074579
 20
141.3000027296375
 30
0.0
 11
-255.6439352074706
 21
140.8391297603149
 31
0.0
  0
LINE
  5
1C3
  8
1
  6
CONTINUOUS
 62
     7
 10
-255.6439352073194
 20
146.2612736394912
 30
0.0
 11
-255.1439352073325
 21
145.8000023097461
 31
0.0
  0
LINE
  5
1C4
  8
1
  6
CONTINUOUS
 62
     7
 10
-254.3939352073952
 20
143.5506505099439
 30
0.0
 11
-254.3939352073534
 21
145.0500025196709
 31
0.0
  0
LINE
  5
1C5
  8
1
  6
CONTINUOUS
 62
     7
 10
-246.9837555403329
 20
144.4629632957894
 30
0.0
 11
-247.1677560680153
 21
146.0611438049031
 31
0.0
  0
LINE
  5
1C6
  8
1
  6
CONTINUOUS
 62
     7
 10
-246.983755540333
 20
144.4629632957894
 30
0.0
 11
-247.0087418708352
 21
144.0505640643804
 31
0.0
  0
LINE
  5
1C7
  8
1
  6
CONTINUOUS
 62
     7
 10
-247.0087418708341
 20
144.0505640643805
 30
0.0
 11
-247.1008040536339
 21
144.0509118635466
 31
0.0
  0
LINE
  5
1C8
  8
1
  6
CONTINUOUS
 62
     7
 10
-247.1008040536434
 20
144.0509118635465
 30
0.0
 11
-247.1008040536713
 21
143.0509119568558
 31
0.0
  0
LINE
  5
1C9
  8
1
  6
CONTINUOUS
 62
     7
 10
-247.0087418708606
 20
143.0505641576896
 30
0.0
 11
-247.1008040536705
 21
143.0509119568558
 31
0.0
  0
LINE
  5
1CA
  8
1
  6
CONTINUOUS
 62
     7
 10
-247.008741870863
 20
143.0505641576896
 30
0.0
 11
-246.9837555403839
 21
142.6375601353578
 31
0.0
  0
LINE
  5
1CB
  8
1
  6
CONTINUOUS
 62
     7
 10
-247.1677560681552
 20
141.0393796262543
 30
0.0
 11
-246.9837555403838
 21
142.6375601353579
 31
0.0
  0
LINE
  5
1CC
  8
1
  6
CONTINUOUS
 62
     7
 10
-257.6439352074648
 20
141.0500025197615
 30
0.0
 11
-257.6439352074645
 21
141.0615168065474
 31
0.0
  0
LINE
  5
1CD
  8
1
  6
CONTINUOUS
 62
     7
 10
-257.6439352074519
 20
141.5147426983551
 30
0.0
 11
-257.6439352074434
 21
141.8176731484898
 31
0.0
  0
LINE
  5
1CE
  8
1
  6
CONTINUOUS
 62
     7
 10
-257.6439352074585
 20
141.2759751857046
 30
0.0
 11
-257.6439352074519
 21
141.5147426983551
 31
0.0
  0
LINE
  5
1CF
  8
1
  6
CONTINUOUS
 62
     7
 10
-257.6439352074645
 20
141.0615168065474
 30
0.0
 11
-257.6439352074585
 21
141.2759751857046
 31
0.0
  0
LINE
  5
1D0
  8
1
  6
CONTINUOUS
 62
     7
 10
-247.1008040536439
 20
144.050564064383
 30
0.0
 11
-247.0087418708352
 21
144.0505640643804
 31
0.0
  0
LINE
  5
1D1
  8
1
  6
CONTINUOUS
 62
     7
 10
-257.6439352074644
 20
141.0615168065473
 30
0.0
 11
-257.1439352074705
 21
140.8391297603567
 31
0.0
  0
LINE
  5
1D2
  8
1
  6
CONTINUOUS
 62
     7
 10
-255.6439352074706
 20
140.8391297603149
 30
0.0
 11
-257.1439352074705
 21
140.8391297603567
 31
0.0
  0
LINE
  5
1D3
  8
1
  6
CONTINUOUS
 62
     7
 10
-257.1439352074708
 20
140.8387313999621
 30
0.0
 11
-255.6439352074709
 21
140.8387313999203
 31
0.0
  0
LINE
  5
1D4
  8
1
  6
CONTINUOUS
 62
     7
 10
-257.6355153828105
 20
141.057451988118
 30
0.0
 11
-257.6439352074646
 21
141.0613106687333
 31
0.0
  0
LINE
  5
1D5
  8
1
  6
CONTINUOUS
 62
     7
 10
-247.1008040536529
 20
144.0490930820796
 30
0.0
 11
-247.0087418708406
 21
144.0494408812406
 31
0.0
  0
ARC
  5
1D6
  8
1
  6
CONTINUOUS
 62
     7
 10
-284.8028069449362
 20
151.55
 30
0.0
 40
22.99999999999999
 50
333.130662533273
 51
336.8542171276309
  0
ARC
  5
1D7
  8
1
  6
CONTINUOUS
 62
     7
 10
-284.8028069449362
 20
151.55
 30
0.0
 40
23.0
 50
345.6313280956512
 51
349.3637428283597
  0
ARC
  5
1D8
  8
1
  6
CONTINUOUS
 62
     7
 10
-284.8028069449362
 20
151.55
 30
0.0
 40
23.0
 50
358.1313280956513
 51
1.858886205028682
  0
ARC
  5
1D9
  8
1
  6
CONTINUOUS
 62
     7
 10
-284.8028069449362
 20
151.55
 30
0.0
 40
23.0
 50
10.63132809565124
 51
14.3514489890806
  0
ARC
  5
1DA
  8
1
  6
CONTINUOUS
 62
     7
 10
-284.8028069449362
 20
151.55
 30
0.0
 40
23.00000000000001
 50
23.13132809565125
 51
25.99999999999995
  0
ARC
  5
1DB
  8
1
  6
CONTINUOUS
 62
     7
 10
-284.8028069449362
 20
151.55
 30
0.0
 40
23.00000000000002
 50
153.130662533273
 51
156.8541462858813
  0
ARC
  5
1DC
  8
1
  6
CONTINUOUS
 62
     7
 10
-284.8028069449362
 20
151.55
 30
0.0
 40
23.00000000000002
 50
165.6483682435737
 51
169.3686719043488
  0
ARC
  5
1DD
  8
1
  6
CONTINUOUS
 62
     7
 10
-284.8028069449362
 20
151.55
 30
0.0
 40
22.99999999999999
 50
178.1409187613696
 51
181.8588153632791
  0
ARC
  5
1DE
  8
1
  6
CONTINUOUS
 62
     7
 10
-284.8028069449362
 20
151.55
 30
0.0
 40
23.00000000000001
 50
190.6362571716406
 51
194.3513781473311
  0
ARC
  5
1DF
  8
1
  6
CONTINUOUS
 62
     7
 10
-284.8028069449362
 20
151.55
 30
0.0
 40
23.00000000000001
 50
203.1456001050235
 51
205.9999999999998
  0
ARC
  5
1E0
  8
1
  6
CONTINUOUS
 62
     7
 10
-284.8028069449362
 20
151.55
 30
0.0
 40
23.00000000000001
 50
206.0
 51
206.8693180088257
  0
ARC
  5
1E1
  8
1
  6
CONTINUOUS
 62
     7
 10
-284.8028069449362
 20
151.55
 30
0.0
 40
23.00000000000001
 50
26.00000000000002
 51
26.86931800882578
  0
ARC
  5
1E2
  8
1
  6
CONTINUOUS
 62
     7
 10
-284.8028069449362
 20
151.55
 30
0.0
 40
30.35
 50
91.88817632956551
 51
93.3055439273172
  0
LINE
  5
1E3
  8
1
  6
CONTINUOUS
 62
     7
 10
-286.5528069449361
 20
180.3468748304395
 30
0.0
 11
-286.5528069449361
 21
181.8495049464508
 31
0.0
  0
LINE
  5
1E4
  8
1
  6
CONTINUOUS
 62
     7
 10
-283.0528069449362
 20
122.7531251695605
 30
0.0
 11
-283.0528069449362
 21
121.2504950535491
 31
0.0
  0
ARC
  5
1E5
  8
1
  6
CONTINUOUS
 62
     7
 10
-284.8028069449362
 20
151.55
 30
0.0
 40
30.35
 50
271.8881763295655
 51
273.3055439273172
  0
CIRCLE
  5
1E6
  8
1
  6
CONTINUOUS
 62
     7
 10
-284.8028069449362
 20
151.55
 30
0.0
 40
17.99999999999999
  0
LINE
  5
1E7
  8
1
  6
CONTINUOUS
 62
     7
 10
-263.6518496625016
 20
142.5146800811134
 30
0.0
 11
-262.2917089482812
 21
141.880436049904
 31
0.0
  0
ARC
  5
1E8
  8
1
  6
CONTINUOUS
 62
     7
 10
-284.8028069449362
 20
151.55
 30
0.0
 40
23.00000000000001
 50
336.8686719043488
 51
345.6313280956513
  0
LINE
  5
1E9
  8
1
  6
CONTINUOUS
 62
     7
 10
-261.0570945875149
 20
145.5174926739693
 30
0.0
 11
-262.5222700691871
 21
145.8423142580914
 31
0.0
  0
LINE
  5
1EA
  8
1
  6
CONTINUOUS
 62
     7
 10
-262.19761064828
 20
147.3067582687712
 30
0.0
 11
-260.7324351666078
 21
146.9819366846492
 31
0.0
  0
ARC
  5
1EB
  8
1
  6
CONTINUOUS
 62
     7
 10
-284.8028069449362
 20
151.55
 30
0.0
 40
23.0
 50
349.3686719043488
 51
358.1313280956513
  0
LINE
  5
1EC
  8
1
  6
CONTINUOUS
 62
     7
 10
-260.3142892274425
 20
150.8
 30
0.0
 11
-261.8150384581952
 21
150.8
 31
0.0
  0
LINE
  5
1ED
  8
1
  6
CONTINUOUS
 62
     7
 10
-261.8150384581952
 20
152.3
 30
0.0
 11
-260.3142892274425
 21
152.3
 31
0.0
  0
ARC
  5
1EE
  8
1
  6
CONTINUOUS
 62
     7
 10
-284.8028069449362
 20
151.55
 30
0.0
 40
23.0
 50
1.868671904348757
 51
10.63132809565125
  0
LINE
  5
1EF
  8
1
  6
CONTINUOUS
 62
     7
 10
-260.7324351666078
 20
156.1180633153508
 30
0.0
 11
-262.19761064828
 21
155.7932417312287
 31
0.0
  0
LINE
  5
1F0
  8
1
  6
CONTINUOUS
 62
     7
 10
-305.9537642273707
 20
142.5146800811134
 30
0.0
 11
-307.3139049415911
 21
141.880436049904
 31
0.0
  0
LINE
  5
1F1
  8
1
  6
CONTINUOUS
 62
     7
 10
-308.5485193023574
 20
145.5174926739693
 30
0.0
 11
-307.0833438206852
 21
145.8423142580914
 31
0.0
  0
ARC
  5
1F2
  8
1
  6
CONTINUOUS
 62
     7
 10
-284.8028069449362
 20
151.55
 30
0.0
 40
23.00000000000001
 50
194.3686719043486
 51
203.1313280956513
  0
LINE
  5
1F3
  8
1
  6
CONTINUOUS
 62
     7
 10
-307.4080032415923
 20
147.3067582687712
 30
0.0
 11
-308.8731787232645
 21
146.9819366846492
 31
0.0
  0
LINE
  5
1F4
  8
1
  6
CONTINUOUS
 62
     7
 10
-309.2913246624298
 20
150.8
 30
0.0
 11
-307.7905754316771
 21
150.8
 31
0.0
  0
ARC
  5
1F5
  8
1
  6
CONTINUOUS
 62
     7
 10
-284.8028069449362
 20
151.55
 30
0.0
 40
23.0
 50
181.8686719043487
 51
190.6313280956512
  0
LINE
  5
1F6
  8
1
  6
CONTINUOUS
 62
     7
 10
-262.5222700691871
 20
157.2576857419086
 30
0.0
 11
-261.0570945875149
 21
157.5825073260307
 31
0.0
  0
ARC
  5
1F7
  8
1
  6
CONTINUOUS
 62
     7
 10
-284.8028069449362
 20
151.55
 30
0.0
 40
23.0
 50
14.36867190434877
 51
23.13132809565136
  0
LINE
  5
1F8
  8
1
  6
CONTINUOUS
 62
     7
 10
-262.2917089482812
 20
161.219563950096
 30
0.0
 11
-263.6518496625016
 21
160.5853199188866
 31
0.0
  0
LINE
  5
1F9
  8
1
  6
CONTINUOUS
 62
     7
 10
-307.7905754316771
 20
152.3
 30
0.0
 11
-309.2913246624298
 21
152.3
 31
0.0
  0
ARC
  5
1FA
  8
1
  6
CONTINUOUS
 62
     7
 10
-284.8028069449362
 20
151.55
 30
0.0
 40
23.0
 50
169.3686719043487
 51
178.1313280956513
  0
LINE
  5
1FB
  8
1
  6
CONTINUOUS
 62
     7
 10
-308.8731787232645
 20
156.1180633153508
 30
0.0
 11
-307.4080032415923
 21
155.7932417312287
 31
0.0
  0
LINE
  5
1FC
  8
1
  6
CONTINUOUS
 62
     7
 10
-307.0833438206852
 20
157.2576857419086
 30
0.0
 11
-308.5485193023574
 21
157.5825073260307
 31
0.0
  0
LINE
  5
1FD
  8
1
  6
CONTINUOUS
 62
     7
 10
-307.3139049415911
 20
161.219563950096
 30
0.0
 11
-305.9537642273707
 21
160.5853199188866
 31
0.0
  0
ARC
  5
1FE
  8
1
  6
CONTINUOUS
 62
     7
 10
-284.8028069449362
 20
151.55
 30
0.0
 40
23.0
 50
156.8686719043486
 51
165.6313280956513
  0
LINE
  5
1FF
  8
1
  6
CONTINUOUS
 62
     7
 10
-284.0528069449362
 20
176.2065113529052
 30
0.0
 11
-284.0528069449362
 21
174.7121259337179
 31
0.0
  0
LINE
  5
200
  8
1
  6
CONTINUOUS
 62
     7
 10
-280.3232398438898
 20
174.2871954373584
 30
0.0
 11
-279.9870762682476
 21
175.743279855066
 31
0.0
  0
LINE
  5
201
  8
1
  6
CONTINUOUS
 62
     7
 10
-280.3232398438898
 20
128.8128045626415
 30
0.0
 11
-279.9870762682476
 21
127.356720144934
 31
0.0
  0
LINE
  5
202
  8
1
  6
CONTINUOUS
 62
     7
 10
-284.0528069449362
 20
126.8934886470948
 30
0.0
 11
-284.0528069449362
 21
128.3878740662821
 31
0.0
  0
LINE
  5
203
  8
1
  6
CONTINUOUS
 62
     7
 10
-273.3200082526208
 20
173.3823472464072
 30
0.0
 11
-273.9751037025748
 21
172.0392025287654
 31
0.0
  0
LINE
  5
204
  8
1
  6
CONTINUOUS
 62
     7
 10
-270.8092682658759
 20
170.022342921434
 30
0.0
 11
-269.8688210494938
 21
171.1836985148156
 31
0.0
  0
LINE
  5
205
  8
1
  6
CONTINUOUS
 62
     7
 10
-270.8092682658759
 20
133.0776570785659
 30
0.0
 11
-269.8688210494938
 21
131.9163014851844
 31
0.0
  0
LINE
  5
206
  8
1
  6
CONTINUOUS
 62
     7
 10
-273.3200082526208
 20
129.7176527535927
 30
0.0
 11
-273.9751037025748
 21
131.0607974712346
 31
0.0
  0
LINE
  5
207
  8
1
  6
CONTINUOUS
 62
     7
 10
-264.9114647459264
 20
166.1390560907084
 30
0.0
 11
-266.089056526279
 21
165.2190205588265
 31
0.0
  0
LINE
  5
208
  8
1
  6
CONTINUOUS
 62
     7
 10
-264.1277555431896
 20
162.0184682406045
 30
0.0
 11
-262.7733824009461
 21
162.6500228088321
 31
0.0
  0
LINE
  5
209
  8
1
  6
CONTINUOUS
 62
     7
 10
-264.1277555431896
 20
141.0815317593954
 30
0.0
 11
-262.7733824009461
 21
140.4499771911678
 31
0.0
  0
LINE
  5
20A
  8
1
  6
CONTINUOUS
 62
     7
 10
-264.9114647459264
 20
136.9609439092916
 30
0.0
 11
-266.089056526279
 21
137.8809794411735
 31
0.0
  0
LINE
  5
20B
  8
1
  6
CONTINUOUS
 62
     7
 10
-294.9374145678028
 20
174.0399039665908
 30
0.0
 11
-294.2823191178487
 21
172.696759248949
 31
0.0
  0
LINE
  5
20C
  8
1
  6
CONTINUOUS
 62
     7
 10
-290.7439291431603
 20
173.9497688558426
 30
0.0
 11
-291.0800927188026
 21
175.4058532735502
 31
0.0
  0
LINE
  5
20D
  8
1
  6
CONTINUOUS
 62
     7
 10
-290.7439291431603
 20
129.1502311441573
 30
0.0
 11
-291.0800927188026
 21
127.6941467264498
 31
0.0
  0
LINE
  5
20E
  8
1
  6
CONTINUOUS
 62
     7
 10
-294.9374145678028
 20
129.0600960334092
 30
0.0
 11
-294.2823191178487
 21
130.403240751051
 31
0.0
  0
LINE
  5
20F
  8
1
  6
CONTINUOUS
 62
     7
 10
-303.7706569309574
 20
167.3210722211185
 30
0.0
 11
-302.5930651506048
 21
166.4010366892365
 31
0.0
  0
LINE
  5
210
  8
1
  6
CONTINUOUS
 62
     7
 10
-299.9620645661818
 20
169.0783623348593
 30
0.0
 11
-300.9025117825639
 21
170.2397179282408
 31
0.0
  0
LINE
  5
211
  8
1
  6
CONTINUOUS
 62
     7
 10
-299.9620645661818
 20
134.0216376651407
 30
0.0
 11
-300.9025117825639
 21
132.8602820717591
 31
0.0
  0
LINE
  5
212
  8
1
  6
CONTINUOUS
 62
     7
 10
-303.7706569309574
 20
135.7789277788815
 30
0.0
 11
-302.5930651506048
 21
136.6989633107635
 31
0.0
  0
LINE
  5
213
  8
1
  6
CONTINUOUS
 62
     7
 10
-268.7031021073083
 20
170.2397179282409
 30
0.0
 11
-269.6435493236904
 21
169.0783623348593
 31
0.0
  0
LINE
  5
214
  8
1
  6
CONTINUOUS
 62
     7
 10
-267.0125487392675
 20
166.4010366892365
 30
0.0
 11
-265.8349569589149
 21
167.3210722211185
 31
0.0
  0
LINE
  5
215
  8
1
  6
CONTINUOUS
 62
     7
 10
-267.0125487392675
 20
136.6989633107635
 30
0.0
 11
-265.8349569589149
 21
135.7789277788815
 31
0.0
  0
LINE
  5
216
  8
1
  6
CONTINUOUS
 62
     7
 10
-268.7031021073083
 20
132.8602820717591
 30
0.0
 11
-269.6435493236904
 21
134.0216376651407
 31
0.0
  0
LINE
  5
217
  8
1
  6
CONTINUOUS
 62
     7
 10
-303.5165573635933
 20
137.8809794411736
 30
0.0
 11
-304.6941491439459
 21
136.9609439092916
 31
0.0
  0
LINE
  5
218
  8
1
  6
CONTINUOUS
 62
     7
 10
-306.8322314889262
 20
140.4499771911679
 30
0.0
 11
-305.4778583466827
 21
141.0815317593955
 31
0.0
  0
LINE
  5
219
  8
1
  6
CONTINUOUS
 62
     7
 10
-306.8322314889262
 20
162.6500228088321
 30
0.0
 11
-305.4778583466827
 21
162.0184682406045
 31
0.0
  0
LINE
  5
21A
  8
1
  6
CONTINUOUS
 62
     7
 10
-303.5165573635933
 20
165.2190205588264
 30
0.0
 11
-304.6941491439459
 21
166.1390560907084
 31
0.0
  0
LINE
  5
21B
  8
1
  6
CONTINUOUS
 62
     7
 10
-275.3232947720235
 20
130.403240751051
 30
0.0
 11
-274.6681993220695
 21
129.0600960334092
 31
0.0
  0
LINE
  5
21C
  8
1
  6
CONTINUOUS
 62
     7
 10
-278.5255211710697
 20
127.6941467264497
 30
0.0
 11
-278.861684746712
 21
129.1502311441573
 31
0.0
  0
LINE
  5
21D
  8
1
  6
CONTINUOUS
 62
     7
 10
-278.5255211710697
 20
175.4058532735502
 30
0.0
 11
-278.861684746712
 21
173.9497688558426
 31
0.0
  0
LINE
  5
21E
  8
1
  6
CONTINUOUS
 62
     7
 10
-275.3232947720235
 20
172.696759248949
 30
0.0
 11
-274.6681993220695
 21
174.0399039665908
 31
0.0
  0
LINE
  5
21F
  8
1
  6
CONTINUOUS
 62
     7
 10
-285.5528069449362
 20
128.3878740662821
 30
0.0
 11
-285.5528069449362
 21
126.8934886470948
 31
0.0
  0
LINE
  5
220
  8
1
  6
CONTINUOUS
 62
     7
 10
-289.6185376216247
 20
127.356720144934
 30
0.0
 11
-289.2823740459825
 21
128.8128045626415
 31
0.0
  0
LINE
  5
221
  8
1
  6
CONTINUOUS
 62
     7
 10
-289.6185376216247
 20
175.743279855066
 30
0.0
 11
-289.2823740459825
 21
174.2871954373584
 31
0.0
  0
LINE
  5
222
  8
1
  6
CONTINUOUS
 62
     7
 10
-285.5528069449362
 20
174.7121259337179
 30
0.0
 11
-285.5528069449362
 21
176.2065113529052
 31
0.0
  0
LINE
  5
223
  8
1
  6
CONTINUOUS
 62
     7
 10
-299.7367928403785
 20
171.1836985148156
 30
0.0
 11
-298.7963456239964
 21
170.022342921434
 31
0.0
  0
LINE
  5
224
  8
1
  6
CONTINUOUS
 62
     7
 10
-295.6305101872975
 20
172.0392025287654
 30
0.0
 11
-296.2856056372515
 21
173.3823472464072
 31
0.0
  0
LINE
  5
225
  8
1
  6
CONTINUOUS
 62
     7
 10
-295.6305101872975
 20
131.0607974712346
 30
0.0
 11
-296.2856056372515
 21
129.7176527535928
 31
0.0
  0
LINE
  5
226
  8
1
  6
CONTINUOUS
 62
     7
 10
-299.7367928403785
 20
131.9163014851844
 30
0.0
 11
-298.7963456239964
 21
133.0776570785659
 31
0.0
  0
ARC
  5
227
  8
1
  6
CONTINUOUS
 62
     7
 10
-284.8028069449362
 20
151.55
 30
0.0
 40
26.45
 50
49.37513817974792
 51
52.6248618202522
  0
ARC
  5
228
  8
1
  6
CONTINUOUS
 62
     7
 10
-284.8028069449362
 20
151.55
 30
0.0
 40
26.45
 50
62.37513817974791
 51
65.62486182025229
  0
ARC
  5
229
  8
1
  6
CONTINUOUS
 62
     7
 10
-284.8028069449362
 20
151.55
 30
0.0
 40
26.45
 50
75.3751381797479
 51
78.62486182025205
  0
ARC
  5
22A
  8
1
  6
CONTINUOUS
 62
     7
 10
-284.8028069449362
 20
151.55
 30
0.0
 40
26.44999999999999
 50
88.37513817974789
 51
91.62486182025206
  0
ARC
  5
22B
  8
1
  6
CONTINUOUS
 62
     7
 10
-284.8028069449362
 20
151.55
 30
0.0
 40
26.45000000000002
 50
101.3751381797479
 51
104.6248618202521
  0
ARC
  5
22C
  8
1
  6
CONTINUOUS
 62
     7
 10
-284.8028069449362
 20
151.55
 30
0.0
 40
26.45
 50
114.3751381797479
 51
117.6248618202519
  0
ARC
  5
22D
  8
1
  6
CONTINUOUS
 62
     7
 10
-284.8028069449362
 20
151.55
 30
0.0
 40
26.44999999999999
 50
127.3751381797479
 51
130.6248618202521
  0
ARC
  5
22E
  8
1
  6
CONTINUOUS
 62
     7
 10
-284.8028069449362
 20
151.55
 30
0.0
 40
26.44999999999999
 50
140.3751381797479
 51
143.6248618202521
  0
ARC
  5
22F
  8
1
  6
CONTINUOUS
 62
     7
 10
-284.8028069449362
 20
151.55
 30
0.0
 40
26.44999999999999
 50
153.3751381797479
 51
156.6248618202522
  0
ARC
  5
230
  8
1
  6
CONTINUOUS
 62
     7
 10
-284.8028069449362
 20
151.55
 30
0.0
 40
26.44999999999998
 50
165.8751381797479
 51
169.124861820252
  0
ARC
  5
231
  8
1
  6
CONTINUOUS
 62
     7
 10
-284.8028069449362
 20
151.55
 30
0.0
 40
26.45
 50
178.3751381797479
 51
181.6248618202522
  0
ARC
  5
232
  8
1
  6
CONTINUOUS
 62
     7
 10
-284.8028069449362
 20
151.55
 30
0.0
 40
26.45000000000003
 50
190.8751381797479
 51
194.1248618202517
  0
ARC
  5
233
  8
1
  6
CONTINUOUS
 62
     7
 10
-284.8028069449362
 20
151.55
 30
0.0
 40
26.44999999999999
 50
203.3751381797479
 51
206.6248618202522
  0
ARC
  5
234
  8
1
  6
CONTINUOUS
 62
     7
 10
-284.8028069449362
 20
151.55
 30
0.0
 40
26.44999999999999
 50
216.3751381797479
 51
219.624861820252
  0
ARC
  5
235
  8
1
  6
CONTINUOUS
 62
     7
 10
-284.8028069449362
 20
151.55
 30
0.0
 40
26.45000000000002
 50
229.3751381797478
 51
232.624861820252
  0
ARC
  5
236
  8
1
  6
CONTINUOUS
 62
     7
 10
-284.8028069449362
 20
151.55
 30
0.0
 40
26.45000000000002
 50
242.3751381797478
 51
245.6248618202519
  0
ARC
  5
237
  8
1
  6
CONTINUOUS
 62
     7
 10
-284.8028069449362
 20
151.55
 30
0.0
 40
26.45
 50
255.3751381797479
 51
258.624861820252
  0
ARC
  5
238
  8
1
  6
CONTINUOUS
 62
     7
 10
-284.8028069449362
 20
151.55
 30
0.0
 40
26.45000000000002
 50
268.3751381797479
 51
271.6248618202519
  0
ARC
  5
239
  8
1
  6
CONTINUOUS
 62
     7
 10
-284.8028069449362
 20
151.55
 30
0.0
 40
26.45000000000001
 50
281.3751381797479
 51
284.624861820252
  0
ARC
  5
23A
  8
1
  6
CONTINUOUS
 62
     7
 10
-284.8028069449362
 20
151.55
 30
0.0
 40
26.45000000000003
 50
294.3751381797479
 51
297.624861820252
  0
ARC
  5
23B
  8
1
  6
CONTINUOUS
 62
     7
 10
-284.8028069449362
 20
151.55
 30
0.0
 40
26.45000000000001
 50
307.3751381797479
 51
310.624861820252
  0
ARC
  5
23C
  8
1
  6
CONTINUOUS
 62
     7
 10
-284.8028069449362
 20
151.55
 30
0.0
 40
26.45000000000001
 50
320.3751381797479
 51
323.624861820252
  0
ARC
  5
23D
  8
1
  6
CONTINUOUS
 62
     7
 10
-284.8028069449362
 20
151.55
 30
0.0
 40
26.45
 50
333.3751381797479
 51
336.6248618202519
  0
ARC
  5
23E
  8
1
  6
CONTINUOUS
 62
     7
 10
-284.8028069449362
 20
151.55
 30
0.0
 40
26.45000000000003
 50
345.8751381797479
 51
349.1248618202519
  0
ARC
  5
23F
  8
1
  6
CONTINUOUS
 62
     7
 10
-284.8028069449362
 20
151.55
 30
0.0
 40
26.44999999999999
 50
358.3751381797479
 51
1.624861820252079
  0
ARC
  5
240
  8
1
  6
CONTINUOUS
 62
     7
 10
-284.8028069449362
 20
151.55
 30
0.0
 40
26.45000000000003
 50
10.87513817974793
 51
14.12486182025198
  0
ARC
  5
241
  8
1
  6
CONTINUOUS
 62
     7
 10
-284.8028069449362
 20
151.55
 30
0.0
 40
26.44999999999999
 50
23.37513817974792
 51
26.62486182025208
  0
ARC
  5
242
  8
1
  6
CONTINUOUS
 62
     7
 10
-284.8028069449362
 20
151.55
 30
0.0
 40
26.45000000000001
 50
36.37513817974791
 51
39.62486182025229
  0
LINE
  5
243
  8
1
  6
CONTINUOUS
 62
     7
 10
-308.8731787232645
 20
146.9819366846492
 30
0.0
 11
-310.7777827368175
 21
146.5596961403962
 31
0.0
  0
LINE
  5
244
  8
1
  6
CONTINUOUS
 62
     7
 10
-307.3139049415911
 20
141.880436049904
 30
0.0
 11
-309.0819726547804
 21
141.0559725351072
 31
0.0
  0
LINE
  5
245
  8
1
  6
CONTINUOUS
 62
     7
 10
-308.5485193023574
 20
157.5825073260307
 30
0.0
 11
-310.4531233159103
 21
158.0047478702837
 31
0.0
  0
LINE
  5
246
  8
1
  6
CONTINUOUS
 62
     7
 10
-260.7324351666078
 20
146.9819366846492
 30
0.0
 11
-258.8278311530547
 21
146.5596961403962
 31
0.0
  0
LINE
  5
247
  8
1
  6
CONTINUOUS
 62
     7
 10
-309.2913246624298
 20
152.3
 30
0.0
 11
-311.2421715363933
 21
152.3
 31
0.0
  0
LINE
  5
248
  8
1
  6
CONTINUOUS
 62
     7
 10
-262.2917089482812
 20
141.880436049904
 30
0.0
 11
-260.5236412350919
 21
141.0559725351072
 31
0.0
  0
LINE
  5
249
  8
1
  6
CONTINUOUS
 62
     7
 10
-261.0570945875149
 20
157.5825073260307
 30
0.0
 11
-259.1524905739619
 21
158.0047478702837
 31
0.0
  0
LINE
  5
24A
  8
1
  6
CONTINUOUS
 62
     7
 10
-260.3142892274425
 20
152.3
 30
0.0
 11
-258.3634423534789
 21
152.3
 31
0.0
  0
LINE
  5
24B
  8
1
  6
CONTINUOUS
 62
     7
 10
-304.6941491439459
 20
166.1390560907084
 30
0.0
 11
-306.0990566680275
 21
167.2366901458444
 31
0.0
  0
LINE
  5
24C
  8
1
  6
CONTINUOUS
 62
     7
 10
-304.6941491439459
 20
136.9609439092916
 30
0.0
 11
-306.0990566680275
 21
135.8633098541555
 31
0.0
  0
LINE
  5
24D
  8
1
  6
CONTINUOUS
 62
     7
 10
-300.9025117825639
 20
132.8602820717591
 30
0.0
 11
-302.024497679834
 21
131.474744877548
 31
0.0
  0
LINE
  5
24E
  8
1
  6
CONTINUOUS
 62
     7
 10
-300.9025117825639
 20
170.2397179282408
 30
0.0
 11
-302.024497679834
 21
171.625255122452
 31
0.0
  0
LINE
  5
24F
  8
1
  6
CONTINUOUS
 62
     7
 10
-296.2856056372515
 20
129.7176527535928
 30
0.0
 11
-297.0671570559921
 21
128.1152348773571
 31
0.0
  0
LINE
  5
250
  8
1
  6
CONTINUOUS
 62
     7
 10
-296.2856056372515
 20
173.3823472464072
 30
0.0
 11
-297.0671570559921
 21
174.9847651226429
 31
0.0
  0
LINE
  5
251
  8
1
  6
CONTINUOUS
 62
     7
 10
-279.9870762682476
 20
175.743279855066
 30
0.0
 11
-279.586021552495
 21
177.4804386806165
 31
0.0
  0
LINE
  5
252
  8
1
  6
CONTINUOUS
 62
     7
 10
-279.9870762682476
 20
127.356720144934
 30
0.0
 11
-279.586021552495
 21
125.6195613193835
 31
0.0
  0
LINE
  5
253
  8
1
  6
CONTINUOUS
 62
     7
 10
-269.8688210494938
 20
131.9163014851844
 30
0.0
 11
-268.7468351522238
 21
130.5307642909732
 31
0.0
  0
LINE
  5
254
  8
1
  6
CONTINUOUS
 62
     7
 10
-269.8688210494938
 20
171.1836985148156
 30
0.0
 11
-268.7468351522238
 21
172.5692357090268
 31
0.0
  0
LINE
  5
255
  8
1
  6
CONTINUOUS
 62
     7
 10
-285.5528069449362
 20
176.2065113529052
 30
0.0
 11
-285.5528069449362
 21
177.9893645914572
 31
0.0
  0
LINE
  5
256
  8
1
  6
CONTINUOUS
 62
     7
 10
-285.5528069449362
 20
126.8934886470948
 30
0.0
 11
-285.5528069449362
 21
125.1106354085428
 31
0.0
  0
LINE
  5
257
  8
1
  6
CONTINUOUS
 62
     7
 10
-291.0800927188026
 20
127.6941467264498
 30
0.0
 11
-291.4811474345552
 21
125.9569879008993
 31
0.0
  0
LINE
  5
258
  8
1
  6
CONTINUOUS
 62
     7
 10
-291.0800927188026
 20
175.4058532735502
 30
0.0
 11
-291.4811474345552
 21
177.1430120991007
 31
0.0
  0
LINE
  5
259
  8
1
  6
CONTINUOUS
 62
     7
 10
-274.6681993220695
 20
129.0600960334092
 30
0.0
 11
-273.8866479033289
 21
127.4576781571735
 31
0.0
  0
LINE
  5
25A
  8
1
  6
CONTINUOUS
 62
     7
 10
-274.6681993220695
 20
174.0399039665908
 30
0.0
 11
-273.8866479033289
 21
175.6423218428265
 31
0.0
  0
LINE
  5
25B
  8
1
  6
CONTINUOUS
 62
     7
 10
-265.8349569589149
 20
135.7789277788815
 30
0.0
 11
-264.4300494348333
 21
134.6812937237454
 31
0.0
  0
LINE
  5
25C
  8
1
  6
CONTINUOUS
 62
     7
 10
-265.8349569589149
 20
167.3210722211185
 30
0.0
 11
-264.4300494348333
 21
168.4187062762545
 31
0.0
  0
LINE
  5
25D
  8
1
  6
CONTINUOUS
 62
     7
 10
-262.7733824009461
 20
162.6500228088321
 30
0.0
 11
-261.157568627703
 21
163.4034891454477
 31
0.0
  0
LINE
  5
25E
  8
1
  6
CONTINUOUS
 62
     7
 10
-262.7733824009461
 20
140.4499771911678
 30
0.0
 11
-261.157568627703
 21
139.6965108545523
 31
0.0
  0
LINE
  5
25F
  8
1
  6
CONTINUOUS
 62
     7
 10
-300.8587787376485
 20
130.5307642909732
 30
0.0
 11
-299.7367928403785
 21
131.9163014851844
 31
0.0
  0
LINE
  5
260
  8
1
  6
CONTINUOUS
 62
     7
 10
-300.8587787376485
 20
172.5692357090267
 30
0.0
 11
-299.7367928403785
 21
171.1836985148156
 31
0.0
  0
LINE
  5
261
  8
1
  6
CONTINUOUS
 62
     7
 10
-290.0195923373774
 20
125.6195613193835
 30
0.0
 11
-289.6185376216247
 21
127.356720144934
 31
0.0
  0
LINE
  5
262
  8
1
  6
CONTINUOUS
 62
     7
 10
-290.0195923373774
 20
177.4804386806165
 30
0.0
 11
-289.6185376216247
 21
175.743279855066
 31
0.0
  0
LINE
  5
263
  8
1
  6
CONTINUOUS
 62
     7
 10
-278.1244664553171
 20
125.9569879008993
 30
0.0
 11
-278.5255211710697
 21
127.6941467264497
 31
0.0
  0
LINE
  5
264
  8
1
  6
CONTINUOUS
 62
     7
 10
-278.1244664553171
 20
177.1430120991007
 30
0.0
 11
-278.5255211710697
 21
175.4058532735502
 31
0.0
  0
LINE
  5
265
  8
1
  6
CONTINUOUS
 62
     7
 10
-308.4480452621693
 20
139.6965108545523
 30
0.0
 11
-306.8322314889262
 21
140.4499771911679
 31
0.0
  0
LINE
  5
266
  8
1
  6
CONTINUOUS
 62
     7
 10
-308.4480452621693
 20
163.4034891454477
 30
0.0
 11
-306.8322314889262
 21
162.6500228088321
 31
0.0
  0
LINE
  5
267
  8
1
  6
CONTINUOUS
 62
     7
 10
-267.5811162100384
 20
171.625255122452
 30
0.0
 11
-268.7031021073083
 21
170.2397179282409
 31
0.0
  0
LINE
  5
268
  8
1
  6
CONTINUOUS
 62
     7
 10
-267.5811162100384
 20
131.4747448775479
 30
0.0
 11
-268.7031021073083
 21
132.8602820717591
 31
0.0
  0
LINE
  5
269
  8
1
  6
CONTINUOUS
 62
     7
 10
-305.175564455039
 20
168.4187062762545
 30
0.0
 11
-303.7706569309574
 21
167.3210722211185
 31
0.0
  0
LINE
  5
26A
  8
1
  6
CONTINUOUS
 62
     7
 10
-305.175564455039
 20
134.6812937237455
 30
0.0
 11
-303.7706569309574
 21
135.7789277788815
 31
0.0
  0
LINE
  5
26B
  8
1
  6
CONTINUOUS
 62
     7
 10
-295.7189659865434
 20
127.4576781571735
 30
0.0
 11
-294.9374145678028
 21
129.0600960334092
 31
0.0
  0
LINE
  5
26C
  8
1
  6
CONTINUOUS
 62
     7
 10
-295.7189659865434
 20
175.6423218428265
 30
0.0
 11
-294.9374145678028
 21
174.0399039665908
 31
0.0
  0
LINE
  5
26D
  8
1
  6
CONTINUOUS
 62
     7
 10
-263.5065572218448
 20
167.2366901458445
 30
0.0
 11
-264.9114647459264
 21
166.1390560907084
 31
0.0
  0
LINE
  5
26E
  8
1
  6
CONTINUOUS
 62
     7
 10
-263.5065572218448
 20
135.8633098541555
 30
0.0
 11
-264.9114647459264
 21
136.9609439092916
 31
0.0
  0
LINE
  5
26F
  8
1
  6
CONTINUOUS
 62
     7
 10
-272.5384568338802
 20
174.9847651226429
 30
0.0
 11
-273.3200082526208
 21
173.3823472464072
 31
0.0
  0
LINE
  5
270
  8
1
  6
CONTINUOUS
 62
     7
 10
-272.5384568338802
 20
128.1152348773571
 30
0.0
 11
-273.3200082526208
 21
129.7176527535927
 31
0.0
  0
LINE
  5
271
  8
1
  6
CONTINUOUS
 62
     7
 10
-284.0528069449362
 20
125.1106354085428
 30
0.0
 11
-284.0528069449362
 21
126.8934886470948
 31
0.0
  0
LINE
  5
272
  8
1
  6
CONTINUOUS
 62
     7
 10
-284.0528069449362
 20
177.9893645914572
 30
0.0
 11
-284.0528069449362
 21
176.2065113529052
 31
0.0
  0
LINE
  5
273
  8
1
  6
CONTINUOUS
 62
     7
 10
-309.0819726547804
 20
162.0440274648928
 30
0.0
 11
-307.3139049415911
 21
161.219563950096
 31
0.0
  0
LINE
  5
274
  8
1
  6
CONTINUOUS
 62
     7
 10
-310.7777827368175
 20
156.5403038596038
 30
0.0
 11
-308.8731787232645
 21
156.1180633153508
 31
0.0
  0
LINE
  5
275
  8
1
  6
CONTINUOUS
 62
     7
 10
-260.5236412350919
 20
162.0440274648927
 30
0.0
 11
-262.2917089482812
 21
161.219563950096
 31
0.0
  0
LINE
  5
276
  8
1
  6
CONTINUOUS
 62
     7
 10
-311.2421715363933
 20
150.8
 30
0.0
 11
-309.2913246624298
 21
150.8
 31
0.0
  0
LINE
  5
277
  8
1
  6
CONTINUOUS
 62
     7
 10
-310.4531233159104
 20
145.0952521297163
 30
0.0
 11
-308.5485193023574
 21
145.5174926739693
 31
0.0
  0
LINE
  5
278
  8
1
  6
CONTINUOUS
 62
     7
 10
-258.8278311530548
 20
156.5403038596038
 30
0.0
 11
-260.7324351666078
 21
156.1180633153508
 31
0.0
  0
LINE
  5
279
  8
1
  6
CONTINUOUS
 62
     7
 10
-258.3634423534789
 20
150.8
 30
0.0
 11
-260.3142892274425
 21
150.8
 31
0.0
  0
LINE
  5
27A
  8
1
  6
CONTINUOUS
 62
     7
 10
-259.1524905739619
 20
145.0952521297163
 30
0.0
 11
-261.0570945875149
 21
145.5174926739693
 31
0.0
  0
ARC
  5
27B
  8
1
  6
CONTINUOUS
 62
     7
 10
-284.8028069449362
 20
151.55
 30
0.0
 40
28.84999999999999
 50
0.0
 51
84.13328575877463
  0
ARC
  5
27C
  8
1
  6
CONTINUOUS
 62
     7
 10
-284.8028069449362
 20
151.55
 30
0.0
 40
28.85
 50
272.929510285038
 51
0.0
  0
ARC
  5
27D
  8
1
  6
CONTINUOUS
 62
     7
 10
-284.8028069449362
 20
151.55
 30
0.0
 40
28.84999999999998
 50
264.1332857587746
 51
272.929510285038
  0
ARC
  5
27E
  8
1
  6
CONTINUOUS
 62
     7
 10
-284.8028069449362
 20
151.55
 30
0.0
 40
28.85
 50
92.92951028503799
 51
264.1332857587746
  0
ARC
  5
27F
  8
1
  6
CONTINUOUS
 62
     7
 10
-284.8028069449362
 20
151.55
 30
0.0
 40
28.84999999999998
 50
84.13328575877463
 51
92.92951028503806
  0
LINE
  5
280
  8
1
  6
CONTINUOUS
 62
     7
 10
-264.5146793823889
 20
161.8380426912632
 30
0.0
 11
-264.1277555431896
 21
162.0184682406045
 31
0.0
  0
LINE
  5
281
  8
1
  6
CONTINUOUS
 62
     7
 10
-266.089056526279
 20
165.2190205588265
 30
0.0
 11
-266.4254766149918
 21
164.9561803790471
 31
0.0
  0
LINE
  5
282
  8
1
  6
CONTINUOUS
 62
     7
 10
-264.5146793823889
 20
141.2619573087368
 30
0.0
 11
-264.1277555431896
 21
141.0815317593954
 31
0.0
  0
LINE
  5
283
  8
1
  6
CONTINUOUS
 62
     7
 10
-266.089056526279
 20
137.8809794411735
 30
0.0
 11
-266.4254766149918
 21
138.1438196209529
 31
0.0
  0
LINE
  5
284
  8
1
  6
CONTINUOUS
 62
     7
 10
-267.3489688279802
 20
166.1381965094571
 30
0.0
 11
-267.0125487392675
 21
166.4010366892365
 31
0.0
  0
LINE
  5
285
  8
1
  6
CONTINUOUS
 62
     7
 10
-269.6435493236904
 20
169.0783623348593
 30
0.0
 11
-269.9122208117593
 21
168.7465806782011
 31
0.0
  0
LINE
  5
286
  8
1
  6
CONTINUOUS
 62
     7
 10
-267.3489688279802
 20
136.9618034905428
 30
0.0
 11
-267.0125487392675
 21
136.6989633107635
 31
0.0
  0
LINE
  5
287
  8
1
  6
CONTINUOUS
 62
     7
 10
-269.6435493236904
 20
134.0216376651407
 30
0.0
 11
-269.9122208117593
 21
134.3534193217989
 31
0.0
  0
LINE
  5
288
  8
1
  6
CONTINUOUS
 62
     7
 10
-271.0779397539447
 20
133.4094387352241
 30
0.0
 11
-270.8092682658759
 21
133.0776570785659
 31
0.0
  0
LINE
  5
289
  8
1
  6
CONTINUOUS
 62
     7
 10
-273.9751037025748
 20
131.0607974712346
 30
0.0
 11
-274.1622545243331
 21
131.4445135200404
 31
0.0
  0
LINE
  5
28A
  8
1
  6
CONTINUOUS
 62
     7
 10
-271.0779397539447
 20
169.6905612647759
 30
0.0
 11
-270.8092682658759
 21
170.022342921434
 31
0.0
  0
LINE
  5
28B
  8
1
  6
CONTINUOUS
 62
     7
 10
-273.9751037025748
 20
172.0392025287654
 30
0.0
 11
-274.1622545243331
 21
171.6554864799596
 31
0.0
  0
LINE
  5
28C
  8
1
  6
CONTINUOUS
 62
     7
 10
-275.5104455937819
 20
130.7869567998567
 30
0.0
 11
-275.3232947720235
 21
130.403240751051
 31
0.0
  0
LINE
  5
28D
  8
1
  6
CONTINUOUS
 62
     7
 10
-278.861684746712
 20
129.1502311441573
 30
0.0
 11
-278.9577215752857
 21
129.5662123501672
 31
0.0
  0
LINE
  5
28E
  8
1
  6
CONTINUOUS
 62
     7
 10
-275.5104455937819
 20
172.3130432001432
 30
0.0
 11
-275.3232947720235
 21
172.696759248949
 31
0.0
  0
LINE
  5
28F
  8
1
  6
CONTINUOUS
 62
     7
 10
-278.861684746712
 20
173.9497688558426
 30
0.0
 11
-278.9577215752857
 21
173.5337876498327
 31
0.0
  0
LINE
  5
290
  8
1
  6
CONTINUOUS
 62
     7
 10
-280.4192766724636
 20
173.8712142313485
 30
0.0
 11
-280.3232398438898
 21
174.2871954373584
 31
0.0
  0
LINE
  5
291
  8
1
  6
CONTINUOUS
 62
     7
 10
-284.0528069449362
 20
174.7121259337179
 30
0.0
 11
-284.0528069449361
 21
174.2852027132251
 31
0.0
  0
LINE
  5
292
  8
1
  6
CONTINUOUS
 62
     7
 10
-280.4192766724636
 20
129.2287857686514
 30
0.0
 11
-280.3232398438898
 21
128.8128045626415
 31
0.0
  0
LINE
  5
293
  8
1
  6
CONTINUOUS
 62
     7
 10
-284.0528069449362
 20
128.3878740662821
 30
0.0
 11
-284.0528069449361
 21
128.8147972867748
 31
0.0
  0
LINE
  5
294
  8
1
  6
CONTINUOUS
 62
     7
 10
-285.5528069449362
 20
174.2852027132251
 30
0.0
 11
-285.5528069449362
 21
174.7121259337179
 31
0.0
  0
LINE
  5
295
  8
1
  6
CONTINUOUS
 62
     7
 10
-289.2823740459825
 20
174.2871954373584
 30
0.0
 11
-289.1863372174087
 21
173.8712142313485
 31
0.0
  0
LINE
  5
296
  8
1
  6
CONTINUOUS
 62
     7
 10
-285.5528069449362
 20
128.8147972867748
 30
0.0
 11
-285.5528069449362
 21
128.3878740662821
 31
0.0
  0
LINE
  5
297
  8
1
  6
CONTINUOUS
 62
     7
 10
-289.2823740459825
 20
128.8128045626415
 30
0.0
 11
-289.1863372174087
 21
129.2287857686514
 31
0.0
  0
LINE
  5
298
  8
1
  6
CONTINUOUS
 62
     7
 10
-290.6478923145866
 20
129.5662123501672
 30
0.0
 11
-290.7439291431603
 21
129.1502311441573
 31
0.0
  0
LINE
  5
299
  8
1
  6
CONTINUOUS
 62
     7
 10
-294.2823191178487
 20
130.403240751051
 30
0.0
 11
-294.0951682960904
 21
130.7869567998567
 31
0.0
  0
LINE
  5
29A
  8
1
  6
CONTINUOUS
 62
     7
 10
-290.6478923145866
 20
173.5337876498327
 30
0.0
 11
-290.7439291431603
 21
173.9497688558426
 31
0.0
  0
LINE
  5
29B
  8
1
  6
CONTINUOUS
 62
     7
 10
-294.2823191178487
 20
172.696759248949
 30
0.0
 11
-294.0951682960904
 21
172.3130432001432
 31
0.0
  0
LINE
  5
29C
  8
1
  6
CONTINUOUS
 62
     7
 10
-295.4433593655392
 20
131.4445135200404
 30
0.0
 11
-295.6305101872975
 21
131.0607974712346
 31
0.0
  0
LINE
  5
29D
  8
1
  6
CONTINUOUS
 62
     7
 10
-298.7963456239964
 20
133.0776570785659
 30
0.0
 11
-298.5276741359276
 21
133.4094387352241
 31
0.0
  0
LINE
  5
29E
  8
1
  6
CONTINUOUS
 62
     7
 10
-295.4433593655392
 20
171.6554864799596
 30
0.0
 11
-295.6305101872975
 21
172.0392025287654
 31
0.0
  0
LINE
  5
29F
  8
1
  6
CONTINUOUS
 62
     7
 10
-298.7963456239964
 20
170.022342921434
 30
0.0
 11
-298.5276741359276
 21
169.6905612647759
 31
0.0
  0
LINE
  5
2A0
  8
1
  6
CONTINUOUS
 62
     7
 10
-299.693393078113
 20
168.7465806782011
 30
0.0
 11
-299.9620645661818
 21
169.0783623348593
 31
0.0
  0
LINE
  5
2A1
  8
1
  6
CONTINUOUS
 62
     7
 10
-302.5930651506048
 20
166.4010366892365
 30
0.0
 11
-302.256645061892
 21
166.1381965094571
 31
0.0
  0
LINE
  5
2A2
  8
1
  6
CONTINUOUS
 62
     7
 10
-299.693393078113
 20
134.3534193217989
 30
0.0
 11
-299.9620645661818
 21
134.0216376651407
 31
0.0
  0
LINE
  5
2A3
  8
1
  6
CONTINUOUS
 62
     7
 10
-302.5930651506048
 20
136.6989633107635
 30
0.0
 11
-302.256645061892
 21
136.9618034905428
 31
0.0
  0
LINE
  5
2A4
  8
1
  6
CONTINUOUS
 62
     7
 10
-303.1801372748805
 20
138.1438196209529
 30
0.0
 11
-303.5165573635933
 21
137.8809794411736
 31
0.0
  0
LINE
  5
2A5
  8
1
  6
CONTINUOUS
 62
     7
 10
-305.4778583466827
 20
141.0815317593955
 30
0.0
 11
-305.0909345074834
 21
141.2619573087369
 31
0.0
  0
LINE
  5
2A6
  8
1
  6
CONTINUOUS
 62
     7
 10
-303.1801372748805
 20
164.9561803790471
 30
0.0
 11
-303.5165573635933
 21
165.2190205588264
 31
0.0
  0
LINE
  5
2A7
  8
1
  6
CONTINUOUS
 62
     7
 10
-305.4778583466827
 20
162.0184682406045
 30
0.0
 11
-305.0909345074834
 21
161.8380426912631
 31
0.0
  0
POLYLINE
  5
2A8
  8
1
  6
CONTINUOUS
 62
     7
 66
     1
 10
0.0
 20
0.0
 30
0.0
  0
VERTEX
  5
882
  8
1
  6
CONTINUOUS
 62
     7
 10
-285.8028069449362
 20
180.861644443792
 30
0.0
  0
VERTEX
  5
883
  8
1
  6
CONTINUOUS
 62
     7
 10
-285.8035956729607
 20
180.8335711674611
 30
0.0
  0
VERTEX
  5
884
  8
1
  6
CONTINUOUS
 62
     7
 10
-285.805967391521
 20
180.8055155015177
 30
0.0
  0
VERTEX
  5
885
  8
1
  6
CONTINUOUS
 62
     7
 10
-285.8099656033945
 20
180.7773389143999
 30
0.0
  0
VERTEX
  5
886
  8
1
  6
CONTINUOUS
 62
     7
 10
-285.8155975857773
 20
180.7492743394705
 30
0.0
  0
VERTEX
  5
887
  8
1
  6
CONTINUOUS
 62
     7
 10
-285.8230655112498
 20
180.7207608841018
 30
0.0
  0
VERTEX
  5
888
  8
1
  6
CONTINUOUS
 62
     7
 10
-285.8322943596557
 20
180.6924761634063
 30
0.0
  0
VERTEX
  5
889
  8
1
  6
CONTINUOUS
 62
     7
 10
-285.8434200220758
 20
180.6642522456724
 30
0.0
  0
VERTEX
  5
88A
  8
1
  6
CONTINUOUS
 62
     7
 10
-285.8564164841357
 20
180.6363988966643
 30
0.0
  0
VERTEX
  5
88B
  8
1
  6
CONTINUOUS
 62
     7
 10
-285.8694526074856
 20
180.6122372126357
 30
0.0
  0
VERTEX
  5
88C
  8
1
  6
CONTINUOUS
 62
     7
 10
-285.8840232279097
 20
180.5884774600868
 30
0.0
  0
VERTEX
  5
88D
  8
1
  6
CONTINUOUS
 62
     7
 10
-285.9001522195065
 20
180.5652170967372
 30
0.0
  0
VERTEX
  5
88E
  8
1
  6
CONTINUOUS
 62
     7
 10
-285.9136151744913
 20
180.547750660091
 30
0.0
  0
VERTEX
  5
88F
  8
1
  6
CONTINUOUS
 62
     7
 10
-285.9280565180633
 20
180.5306438627521
 30
0.0
  0
VERTEX
  5
890
  8
1
  6
CONTINUOUS
 62
     7
 10
-285.9434809785633
 20
180.5139599808885
 30
0.0
  0
VERTEX
  5
891
  8
1
  6
CONTINUOUS
 62
     7
 10
-285.9598932843318
 20
180.4977622906682
 30
0.0
  0
VERTEX
  5
892
  8
1
  6
CONTINUOUS
 62
     7
 10
-285.9724590195166
 20
180.4863176369639
 30
0.0
  0
VERTEX
  5
893
  8
1
  6
CONTINUOUS
 62
     7
 10
-285.9855666420696
 20
180.4751750527302
 30
0.0
  0
VERTEX
  5
894
  8
1
  6
CONTINUOUS
 62
     7
 10
-285.9992923324156
 20
180.464304766563
 30
0.0
  0
VERTEX
  5
895
  8
1
  6
CONTINUOUS
 62
     7
 10
-286.0135713913713
 20
180.4537930069377
 30
0.0
  0
VERTEX
  5
896
  8
1
  6
CONTINUOUS
 62
     7
 10
-286.0286814471796
 20
180.4434876456479
 30
0.0
  0
VERTEX
  5
897
  8
1
  6
CONTINUOUS
 62
     7
 10
-286.0443629247828
 20
180.4336179394298
 30
0.0
  0
VERTEX
  5
898
  8
1
  6
CONTINUOUS
 62
     7
 10
-286.0607334365336
 20
180.424151296729
 30
0.0
  0
VERTEX
  5
899
  8
1
  6
CONTINUOUS
 62
     7
 10
-286.0776680687993
 20
180.4152001735399
 30
0.0
  0
VERTEX
  5
89A
  8
1
  6
CONTINUOUS
 62
     7
 10
-286.0911773179383
 20
180.4086402290235
 30
0.0
  0
VERTEX
  5
89B
  8
1
  6
CONTINUOUS
 62
     7
 10
-286.105008126995
 20
180.4024324800869
 30
0.0
  0
VERTEX
  5
89C
  8
1
  6
CONTINUOUS
 62
     7
 10
-286.1192345912862
 20
180.3965626430488
 30
0.0
  0
VERTEX
  5
89D
  8
1
  6
CONTINUOUS
 62
     7
 10
-286.1337614729213
 20
180.3910877220448
 30
0.0
  0
VERTEX
  5
89E
  8
1
  6
CONTINUOUS
 62
     7
 10
-286.1488749463721
 20
180.3859294128458
 30
0.0
  0
VERTEX
  5
89F
  8
1
  6
CONTINUOUS
 62
     7
 10
-286.1642642436862
 20
180.381221796617
 30
0.0
  0
VERTEX
  5
8A0
  8
1
  6
CONTINUOUS
 62
     7
 10
-286.1800277551633
 20
180.376953733151
 30
0.0
  0
VERTEX
  5
8A1
  8
1
  6
CONTINUOUS
 62
     7
 10
-286.1960218808846
 20
180.373180576056
 30
0.0
  0
VERTEX
  5
8A2
  8
1
  6
CONTINUOUS
 62
     7
 10
-286.2092353937406
 20
180.3704785037524
 30
0.0
  0
VERTEX
  5
8A3
  8
1
  6
CONTINUOUS
 62
     7
 10
-286.2225710776056
 20
180.3681246149408
 30
0.0
  0
VERTEX
  5
8A4
  8
1
  6
CONTINUOUS
 62
     7
 10
-286.236001184227
 20
180.3661275517248
 30
0.0
  0
VERTEX
  5
8A5
  8
1
  6
CONTINUOUS
 62
     7
 10
-286.2496952049527
 20
180.3644737485441
 30
0.0
  0
VERTEX
  5
8A6
  8
1
  6
CONTINUOUS
 62
     7
 10
-286.2634564685289
 20
180.3631957532129
 30
0.0
  0
VERTEX
  5
8A7
  8
1
  6
CONTINUOUS
 62
     7
 10
-286.2772532822445
 20
180.3622978604345
 30
0.0
  0
SEQEND
  5
938
  8
1
  6
CONTINUOUS
 62
     7
  0
LINE
  5
2A9
  8
1
  6
CONTINUOUS
 62
     7
 10
-285.8028069449362
 20
180.861644443792
 30
0.0
 11
-285.8028069449362
 21
181.0043498110672
 31
0.0
  0
LINE
  5
2AA
  8
1
  6
CONTINUOUS
 62
     7
 10
-282.3028069449362
 20
180.9150936111689
 30
0.0
 11
-282.3028069449362
 21
180.7462754473922
 31
0.0
  0
POLYLINE
  5
2AB
  8
1
  6
CONTINUOUS
 62
     7
 66
     1
 10
0.0
 20
0.0
 30
0.0
  0
VERTEX
  5
8A8
  8
1
  6
CONTINUOUS
 62
     7
 10
-281.8539142703195
 20
180.2488942643021
 30
0.0
  0
VERTEX
  5
8A9
  8
1
  6
CONTINUOUS
 62
     7
 10
-281.8701622683538
 20
180.2508348931703
 30
0.0
  0
VERTEX
  5
8AA
  8
1
  6
CONTINUOUS
 62
     7
 10
-281.8863376349465
 20
180.2533056577697
 30
0.0
  0
VERTEX
  5
8AB
  8
1
  6
CONTINUOUS
 62
     7
 10
-281.9023894584165
 20
180.2562944218626
 30
0.0
  0
VERTEX
  5
8AC
  8
1
  6
CONTINUOUS
 62
     7
 10
-281.9182668270828
 20
180.2597890492117
 30
0.0
  0
VERTEX
  5
8AD
  8
1
  6
CONTINUOUS
 62
     7
 10
-281.9345022390737
 20
180.263932635437
 30
0.0
  0
VERTEX
  5
8AE
  8
1
  6
CONTINUOUS
 62
     7
 10
-281.9505200093088
 20
180.2685959346932
 30
0.0
  0
VERTEX
  5
8AF
  8
1
  6
CONTINUOUS
 62
     7
 10
-281.9662758506832
 20
180.273754385521
 30
0.0
  0
VERTEX
  5
8B0
  8
1
  6
CONTINUOUS
 62
     7
 10
-281.9817254760919
 20
180.2793834264612
 30
0.0
  0
VERTEX
  5
8B1
  8
1
  6
CONTINUOUS
 62
     7
 10
-282.0013233030554
 20
180.2873808896743
 30
0.0
  0
VERTEX
  5
8B2
  8
1
  6
CONTINUOUS
 62
     7
 10
-282.0203919788906
 20
180.2961214700231
 30
0.0
  0
VERTEX
  5
8B3
  8
1
  6
CONTINUOUS
 62
     7
 10
-282.0388848151414
 20
180.3055440830042
 30
0.0
  0
VERTEX
  5
8B4
  8
1
  6
CONTINUOUS
 62
     7
 10
-282.0567551233513
 20
180.315587644114
 30
0.0
  0
VERTEX
  5
8B5
  8
1
  6
CONTINUOUS
 62
     7
 10
-282.073956215064
 20
180.326191068849
 30
0.0
  0
VERTEX
  5
8B6
  8
1
  6
CONTINUOUS
 62
     7
 10
-282.0904414018233
 20
180.3372932727058
 30
0.0
  0
VERTEX
  5
8B7
  8
1
  6
CONTINUOUS
 62
     7
 10
-282.1070613229066
 20
180.3495031031408
 30
0.0
  0
VERTEX
  5
8B8
  8
1
  6
CONTINUOUS
 62
     7
 10
-282.1229496109567
 20
180.36220919389
 30
0.0
  0
VERTEX
  5
8B9
  8
1
  6
CONTINUOUS
 62
     7
 10
-282.1380946394567
 20
180.3753561378039
 30
0.0
  0
VERTEX
  5
8BA
  8
1
  6
CONTINUOUS
 62
     7
 10
-282.1524847818899
 20
180.388888527733
 30
0.0
  0
VERTEX
  5
8BB
  8
1
  6
CONTINUOUS
 62
     7
 10
-282.1710204069331
 20
180.4080175577825
 30
0.0
  0
VERTEX
  5
8BC
  8
1
  6
CONTINUOUS
 62
     7
 10
-282.188215163778
 20
180.4277475612808
 30
0.0
  0
VERTEX
  5
8BD
  8
1
  6
CONTINUOUS
 62
     7
 10
-282.2040760007849
 20
180.4479750202752
 30
0.0
  0
VERTEX
  5
8BE
  8
1
  6
CONTINUOUS
 62
     7
 10
-282.2188875946029
 20
180.4690087093005
 30
0.0
  0
VERTEX
  5
8BF
  8
1
  6
CONTINUOUS
 62
     7
 10
-282.2324053565978
 20
180.4904532814436
 30
0.0
  0
VERTEX
  5
8C0
  8
1
  6
CONTINUOUS
 62
     7
 10
-282.2446492665511
 20
180.5122345052787
 30
0.0
  0
VERTEX
  5
8C1
  8
1
  6
CONTINUOUS
 62
     7
 10
-282.2556393042441
 20
180.5342781493803
 30
0.0
  0
VERTEX
  5
8C2
  8
1
  6
CONTINUOUS
 62
     7
 10
-282.2687380885312
 20
180.5648688772492
 30
0.0
  0
VERTEX
  5
8C3
  8
1
  6
CONTINUOUS
 62
     7
 10
-282.2796342516964
 20
180.5958234627851
 30
0.0
  0
VERTEX
  5
8C4
  8
1
  6
CONTINUOUS
 62
     7
 10
-282.2883746580684
 20
180.6270110521878
 30
0.0
  0
VERTEX
  5
8C5
  8
1
  6
CONTINUOUS
 62
     7
 10
-282.2947239783824
 20
180.6567332586407
 30
0.0
  0
VERTEX
  5
8C6
  8
1
  6
CONTINUOUS
 62
     7
 10
-282.2992301574952
 20
180.6865747472639
 30
0.0
  0
VERTEX
  5
8C7
  8
1
  6
CONTINUOUS
 62
     7
 10
-282.3019166586121
 20
180.7164504871501
 30
0.0
  0
VERTEX
  5
8C8
  8
1
  6
CONTINUOUS
 62
     7
 10
-282.3028069449362
 20
180.7462754473922
 30
0.0
  0
SEQEND
  5
939
  8
1
  6
CONTINUOUS
 62
     7
  0
LINE
  5
2AC
  8
1
  6
CONTINUOUS
 62
     7
 10
-283.8028069449362
 20
122.238355556208
 30
0.0
 11
-283.8028069449362
 21
122.0956501889328
 31
0.0
  0
LINE
  5
2AD
  8
1
  6
CONTINUOUS
 62
     7
 10
-287.3028069449362
 20
122.1849063888311
 30
0.0
 11
-287.3028069449362
 21
122.3537245526077
 31
0.0
  0
POLYLINE
  5
2AE
  8
1
  6
CONTINUOUS
 62
     7
 66
     1
 10
0.0
 20
0.0
 30
0.0
  0
VERTEX
  5
8C9
  8
1
  6
CONTINUOUS
 62
     7
 10
-283.8028069449362
 20
122.238355556208
 30
0.0
  0
VERTEX
  5
8CA
  8
1
  6
CONTINUOUS
 62
     7
 10
-283.8020182169116
 20
122.2664288325388
 30
0.0
  0
VERTEX
  5
8CB
  8
1
  6
CONTINUOUS
 62
     7
 10
-283.7996464983513
 20
122.2944844984823
 30
0.0
  0
VERTEX
  5
8CC
  8
1
  6
CONTINUOUS
 62
     7
 10
-283.7956482864778
 20
122.3226610856001
 30
0.0
  0
VERTEX
  5
8CD
  8
1
  6
CONTINUOUS
 62
     7
 10
-283.790016304095
 20
122.3507256605294
 30
0.0
  0
VERTEX
  5
8CE
  8
1
  6
CONTINUOUS
 62
     7
 10
-283.7825483786225
 20
122.3792391158982
 30
0.0
  0
VERTEX
  5
8CF
  8
1
  6
CONTINUOUS
 62
     7
 10
-283.7733195302166
 20
122.4075238365937
 30
0.0
  0
VERTEX
  5
8D0
  8
1
  6
CONTINUOUS
 62
     7
 10
-283.7621938677965
 20
122.4357477543276
 30
0.0
  0
VERTEX
  5
8D1
  8
1
  6
CONTINUOUS
 62
     7
 10
-283.7491974057366
 20
122.4636011033357
 30
0.0
  0
VERTEX
  5
8D2
  8
1
  6
CONTINUOUS
 62
     7
 10
-283.7361612823867
 20
122.4877627873643
 30
0.0
  0
VERTEX
  5
8D3
  8
1
  6
CONTINUOUS
 62
     7
 10
-283.7215906619626
 20
122.5115225399132
 30
0.0
  0
VERTEX
  5
8D4
  8
1
  6
CONTINUOUS
 62
     7
 10
-283.7054616703658
 20
122.5347829032627
 30
0.0
  0
VERTEX
  5
8D5
  8
1
  6
CONTINUOUS
 62
     7
 10
-283.691998715381
 20
122.552249339909
 30
0.0
  0
VERTEX
  5
8D6
  8
1
  6
CONTINUOUS
 62
     7
 10
-283.6775573718089
 20
122.5693561372479
 30
0.0
  0
VERTEX
  5
8D7
  8
1
  6
CONTINUOUS
 62
     7
 10
-283.6621329113089
 20
122.5860400191115
 30
0.0
  0
VERTEX
  5
8D8
  8
1
  6
CONTINUOUS
 62
     7
 10
-283.6457206055405
 20
122.6022377093318
 30
0.0
  0
VERTEX
  5
8D9
  8
1
  6
CONTINUOUS
 62
     7
 10
-283.6331548703557
 20
122.613682363036
 30
0.0
  0
VERTEX
  5
8DA
  8
1
  6
CONTINUOUS
 62
     7
 10
-283.6200472478026
 20
122.6248249472698
 30
0.0
  0
VERTEX
  5
8DB
  8
1
  6
CONTINUOUS
 62
     7
 10
-283.6063215574567
 20
122.635695233437
 30
0.0
  0
VERTEX
  5
8DC
  8
1
  6
CONTINUOUS
 62
     7
 10
-283.592042498501
 20
122.6462069930623
 30
0.0
  0
VERTEX
  5
8DD
  8
1
  6
CONTINUOUS
 62
     7
 10
-283.5769324426927
 20
122.6565123543521
 30
0.0
  0
VERTEX
  5
8DE
  8
1
  6
CONTINUOUS
 62
     7
 10
-283.5612509650894
 20
122.6663820605702
 30
0.0
  0
VERTEX
  5
8DF
  8
1
  6
CONTINUOUS
 62
     7
 10
-283.5448804533387
 20
122.675848703271
 30
0.0
  0
VERTEX
  5
8E0
  8
1
  6
CONTINUOUS
 62
     7
 10
-283.527945821073
 20
122.6847998264601
 30
0.0
  0
VERTEX
  5
8E1
  8
1
  6
CONTINUOUS
 62
     7
 10
-283.514436571934
 20
122.6913597709764
 30
0.0
  0
VERTEX
  5
8E2
  8
1
  6
CONTINUOUS
 62
     7
 10
-283.5006057628773
 20
122.6975675199131
 30
0.0
  0
VERTEX
  5
8E3
  8
1
  6
CONTINUOUS
 62
     7
 10
-283.486379298586
 20
122.7034373569511
 30
0.0
  0
VERTEX
  5
8E4
  8
1
  6
CONTINUOUS
 62
     7
 10
-283.471852416951
 20
122.7089122779551
 30
0.0
  0
VERTEX
  5
8E5
  8
1
  6
CONTINUOUS
 62
     7
 10
-283.4567389435002
 20
122.7140705871541
 30
0.0
  0
VERTEX
  5
8E6
  8
1
  6
CONTINUOUS
 62
     7
 10
-283.4413496461861
 20
122.718778203383
 30
0.0
  0
VERTEX
  5
8E7
  8
1
  6
CONTINUOUS
 62
     7
 10
-283.425586134709
 20
122.723046266849
 30
0.0
  0
VERTEX
  5
8E8
  8
1
  6
CONTINUOUS
 62
     7
 10
-283.4095920089876
 20
122.726819423944
 30
0.0
  0
VERTEX
  5
8E9
  8
1
  6
CONTINUOUS
 62
     7
 10
-283.3963784961317
 20
122.7295214962476
 30
0.0
  0
VERTEX
  5
8EA
  8
1
  6
CONTINUOUS
 62
     7
 10
-283.3830428122667
 20
122.7318753850592
 30
0.0
  0
VERTEX
  5
8EB
  8
1
  6
CONTINUOUS
 62
     7
 10
-283.3696127056453
 20
122.7338724482752
 30
0.0
  0
VERTEX
  5
8EC
  8
1
  6
CONTINUOUS
 62
     7
 10
-283.3559186849196
 20
122.7355262514559
 30
0.0
  0
VERTEX
  5
8ED
  8
1
  6
CONTINUOUS
 62
     7
 10
-283.3421574213433
 20
122.7368042467871
 30
0.0
  0
VERTEX
  5
8EE
  8
1
  6
CONTINUOUS
 62
     7
 10
-283.3283606076278
 20
122.7377021395655
 30
0.0
  0
SEQEND
  5
93A
  8
1
  6
CONTINUOUS
 62
     7
  0
POLYLINE
  5
2AF
  8
1
  6
CONTINUOUS
 62
     7
 66
     1
 10
0.0
 20
0.0
 30
0.0
  0
VERTEX
  5
8EF
  8
1
  6
CONTINUOUS
 62
     7
 10
-287.7516996195528
 20
122.8511057356979
 30
0.0
  0
VERTEX
  5
8F0
  8
1
  6
CONTINUOUS
 62
     7
 10
-287.7354516215185
 20
122.8491651068297
 30
0.0
  0
VERTEX
  5
8F1
  8
1
  6
CONTINUOUS
 62
     7
 10
-287.7192762549258
 20
122.8466943422303
 30
0.0
  0
VERTEX
  5
8F2
  8
1
  6
CONTINUOUS
 62
     7
 10
-287.7032244314558
 20
122.8437055781373
 30
0.0
  0
VERTEX
  5
8F3
  8
1
  6
CONTINUOUS
 62
     7
 10
-287.6873470627895
 20
122.8402109507883
 30
0.0
  0
VERTEX
  5
8F4
  8
1
  6
CONTINUOUS
 62
     7
 10
-287.6711116507986
 20
122.8360673645629
 30
0.0
  0
VERTEX
  5
8F5
  8
1
  6
CONTINUOUS
 62
     7
 10
-287.6550938805635
 20
122.8314040653068
 30
0.0
  0
VERTEX
  5
8F6
  8
1
  6
CONTINUOUS
 62
     7
 10
-287.6393380391891
 20
122.826245614479
 30
0.0
  0
VERTEX
  5
8F7
  8
1
  6
CONTINUOUS
 62
     7
 10
-287.6238884137804
 20
122.8206165735388
 30
0.0
  0
VERTEX
  5
8F8
  8
1
  6
CONTINUOUS
 62
     7
 10
-287.6042905868169
 20
122.8126191103257
 30
0.0
  0
VERTEX
  5
8F9
  8
1
  6
CONTINUOUS
 62
     7
 10
-287.5852219109816
 20
122.8038785299769
 30
0.0
  0
VERTEX
  5
8FA
  8
1
  6
CONTINUOUS
 62
     7
 10
-287.5667290747309
 20
122.7944559169958
 30
0.0
  0
VERTEX
  5
8FB
  8
1
  6
CONTINUOUS
 62
     7
 10
-287.5488587665211
 20
122.784412355886
 30
0.0
  0
VERTEX
  5
8FC
  8
1
  6
CONTINUOUS
 62
     7
 10
-287.5316576748083
 20
122.7738089311509
 30
0.0
  0
VERTEX
  5
8FD
  8
1
  6
CONTINUOUS
 62
     7
 10
-287.515172488049
 20
122.7627067272942
 30
0.0
  0
VERTEX
  5
8FE
  8
1
  6
CONTINUOUS
 62
     7
 10
-287.4985525669657
 20
122.7504968968592
 30
0.0
  0
VERTEX
  5
8FF
  8
1
  6
CONTINUOUS
 62
     7
 10
-287.4826642789156
 20
122.73779080611
 30
0.0
  0
VERTEX
  5
900
  8
1
  6
CONTINUOUS
 62
     7
 10
-287.4675192504156
 20
122.7246438621961
 30
0.0
  0
VERTEX
  5
901
  8
1
  6
CONTINUOUS
 62
     7
 10
-287.4531291079824
 20
122.7111114722669
 30
0.0
  0
VERTEX
  5
902
  8
1
  6
CONTINUOUS
 62
     7
 10
-287.4345934829392
 20
122.6919824422175
 30
0.0
  0
VERTEX
  5
903
  8
1
  6
CONTINUOUS
 62
     7
 10
-287.4173987260943
 20
122.6722524387192
 30
0.0
  0
VERTEX
  5
904
  8
1
  6
CONTINUOUS
 62
     7
 10
-287.4015378890874
 20
122.6520249797247
 30
0.0
  0
VERTEX
  5
905
  8
1
  6
CONTINUOUS
 62
     7
 10
-287.3867262952694
 20
122.6309912906995
 30
0.0
  0
VERTEX
  5
906
  8
1
  6
CONTINUOUS
 62
     7
 10
-287.3732085332745
 20
122.6095467185564
 30
0.0
  0
VERTEX
  5
907
  8
1
  6
CONTINUOUS
 62
     7
 10
-287.3609646233212
 20
122.5877654947213
 30
0.0
  0
VERTEX
  5
908
  8
1
  6
CONTINUOUS
 62
     7
 10
-287.3499745856282
 20
122.5657218506197
 30
0.0
  0
VERTEX
  5
909
  8
1
  6
CONTINUOUS
 62
     7
 10
-287.3368758013411
 20
122.5351311227508
 30
0.0
  0
VERTEX
  5
90A
  8
1
  6
CONTINUOUS
 62
     7
 10
-287.3259796381759
 20
122.5041765372149
 30
0.0
  0
VERTEX
  5
90B
  8
1
  6
CONTINUOUS
 62
     7
 10
-287.3172392318039
 20
122.4729889478121
 30
0.0
  0
VERTEX
  5
90C
  8
1
  6
CONTINUOUS
 62
     7
 10
-287.3108899114898
 20
122.4432667413593
 30
0.0
  0
VERTEX
  5
90D
  8
1
  6
CONTINUOUS
 62
     7
 10
-287.3063837323771
 20
122.4134252527361
 30
0.0
  0
VERTEX
  5
90E
  8
1
  6
CONTINUOUS
 62
     7
 10
-287.3036972312601
 20
122.3835495128498
 30
0.0
  0
VERTEX
  5
90F
  8
1
  6
CONTINUOUS
 62
     7
 10
-287.3028069449362
 20
122.3537245526077
 30
0.0
  0
SEQEND
  5
93B
  8
1
  6
CONTINUOUS
 62
     7
  0
ARC
  5
2B0
  8
1
  6
CONTINUOUS
 62
     7
 10
-284.8028069449362
 20
151.55
 30
0.0
 40
30.35000000000002
 50
85.27505996402452
 51
91.88817632956561
  0
LINE
  5
2B1
  8
1
  6
CONTINUOUS
 62
     7
 10
-285.8028069449362
 20
181.0043498110672
 30
0.0
 11
-285.8028069449362
 21
181.18449969624
 31
0.0
  0
LINE
  5
2B2
  8
1
  6
CONTINUOUS
 62
     7
 10
-285.8028069449362
 20
181.18449969624
 30
0.0
 11
-285.8028069449362
 21
181.8835210616901
 31
0.0
  0
LINE
  5
2B3
  8
1
  6
CONTINUOUS
 62
     7
 10
-282.3028069449362
 20
181.7968593410952
 30
0.0
 11
-282.3028069449362
 21
181.0650050982909
 31
0.0
  0
LINE
  5
2B4
  8
1
  6
CONTINUOUS
 62
     7
 10
-282.3028069449362
 20
181.0650050982909
 30
0.0
 11
-282.3028069449362
 21
180.915093611169
 31
0.0
  0
ARC
  5
2B5
  8
1
  6
CONTINUOUS
 62
     7
 10
-284.8028069449362
 20
151.55
 30
0.0
 40
30.35
 50
265.2750599640245
 51
271.8881763295656
  0
LINE
  5
2B6
  8
1
  6
CONTINUOUS
 62
     7
 10
-283.8028069449362
 20
122.0956501889328
 30
0.0
 11
-283.8028069449362
 21
121.91550030376
 31
0.0
  0
LINE
  5
2B7
  8
1
  6
CONTINUOUS
 62
     7
 10
-283.8028069449362
 20
121.91550030376
 30
0.0
 11
-283.8028069449362
 21
121.2164789383098
 31
0.0
  0
LINE
  5
2B8
  8
1
  6
CONTINUOUS
 62
     7
 10
-287.3028069449362
 20
121.3031406589048
 30
0.0
 11
-287.3028069449362
 21
122.0349949017091
 31
0.0
  0
LINE
  5
2B9
  8
1
  6
CONTINUOUS
 62
     7
 10
-287.3028069449362
 20
122.0349949017091
 30
0.0
 11
-287.3028069449362
 21
122.184906388831
 31
0.0
  0
LINE
  5
2BA
  8
1
  6
CONTINUOUS
 62
     7
 10
-264.9642464503648
 20
141.4715938753883
 30
0.0
 11
-264.5308015459621
 21
141.269475197077
 31
0.0
  0
LINE
  5
2BB
  8
1
  6
CONTINUOUS
 62
     7
 10
-264.5308015459621
 20
141.269475197077
 30
0.0
 11
-264.5146793823889
 21
141.2619573087369
 31
0.0
  0
LINE
  5
2BC
  8
1
  6
CONTINUOUS
 62
     7
 10
-266.4254766149918
 20
138.1438196209529
 30
0.0
 11
-266.4372160206262
 21
138.1529914498389
 31
0.0
  0
LINE
  5
2BD
  8
1
  6
CONTINUOUS
 62
     7
 10
-266.4372160206262
 20
138.1529914498389
 30
0.0
 11
-266.8163633414435
 21
138.4492138019219
 31
0.0
  0
LINE
  5
2BE
  8
1
  6
CONTINUOUS
 62
     7
 10
-267.739855554432
 20
165.8328023284881
 30
0.0
 11
-267.3629866246369
 21
166.127244606414
 31
0.0
  0
LINE
  5
2BF
  8
1
  6
CONTINUOUS
 62
     7
 10
-267.3629866246369
 20
166.127244606414
 30
0.0
 11
-267.3489688279802
 21
166.1381965094571
 31
0.0
  0
LINE
  5
2C0
  8
1
  6
CONTINUOUS
 62
     7
 10
-269.9122208117593
 20
168.7465806782011
 30
0.0
 11
-269.9215961246097
 21
168.7350031310205
 31
0.0
  0
LINE
  5
2C1
  8
1
  6
CONTINUOUS
 62
     7
 10
-269.9215961246097
 20
168.7350031310205
 30
0.0
 11
-270.2243903937363
 21
168.361083349061
 31
0.0
  0
LINE
  5
2C2
  8
1
  6
CONTINUOUS
 62
     7
 10
-264.9642464503648
 20
161.6284061246116
 30
0.0
 11
-264.5308015459621
 21
161.830524802923
 31
0.0
  0
LINE
  5
2C3
  8
1
  6
CONTINUOUS
 62
     7
 10
-264.5308015459621
 20
161.830524802923
 30
0.0
 11
-264.5146793823889
 21
161.8380426912631
 31
0.0
  0
LINE
  5
2C4
  8
1
  6
CONTINUOUS
 62
     7
 10
-266.4254766149918
 20
164.9561803790471
 30
0.0
 11
-266.4372160206262
 21
164.9470085501611
 31
0.0
  0
LINE
  5
2C5
  8
1
  6
CONTINUOUS
 62
     7
 10
-266.4372160206262
 20
164.9470085501611
 30
0.0
 11
-266.8163633414435
 21
164.650786198078
 31
0.0
  0
LINE
  5
2C6
  8
1
  6
CONTINUOUS
 62
     7
 10
-271.3901093359217
 20
169.3050639356357
 30
0.0
 11
-271.0891346332446
 21
169.6767367401607
 31
0.0
  0
LINE
  5
2C7
  8
1
  6
CONTINUOUS
 62
     7
 10
-271.0891346332446
 20
169.6767367401607
 30
0.0
 11
-271.0779397539447
 21
169.6905612647759
 31
0.0
  0
LINE
  5
2C8
  8
1
  6
CONTINUOUS
 62
     7
 10
-274.1622545243331
 20
171.6554864799596
 30
0.0
 11
-274.1687851670776
 21
171.6420966780526
 31
0.0
  0
LINE
  5
2C9
  8
1
  6
CONTINUOUS
 62
     7
 10
-274.1687851670776
 20
171.6420966780526
 30
0.0
 11
-274.3797051895112
 21
171.209646545791
 31
0.0
  0
LINE
  5
2CA
  8
1
  6
CONTINUOUS
 62
     7
 10
-275.72789625896
 20
131.2327967340254
 30
0.0
 11
-275.5182437076626
 21
130.8029453027034
 31
0.0
  0
LINE
  5
2CB
  8
1
  6
CONTINUOUS
 62
     7
 10
-275.5182437076626
 20
130.8029453027034
 30
0.0
 11
-275.5104455937819
 21
130.7869567998567
 31
0.0
  0
LINE
  5
2CC
  8
1
  6
CONTINUOUS
 62
     7
 10
-278.9577215752857
 20
129.5662123501672
 30
0.0
 11
-278.9610629600883
 21
129.5806854778263
 31
0.0
  0
LINE
  5
2CD
  8
1
  6
CONTINUOUS
 62
     7
 10
-278.9610629600883
 20
129.5806854778263
 30
0.0
 11
-279.069306830743
 21
130.0495411921066
 31
0.0
  0
LINE
  5
2CE
  8
1
  6
CONTINUOUS
 62
     7
 10
-271.3901093359217
 20
133.7949360643643
 30
0.0
 11
-271.0891346332446
 21
133.4232632598393
 31
0.0
  0
LINE
  5
2CF
  8
1
  6
CONTINUOUS
 62
     7
 10
-271.0891346332446
 20
133.4232632598393
 30
0.0
 11
-271.0779397539447
 21
133.4094387352241
 31
0.0
  0
LINE
  5
2D0
  8
1
  6
CONTINUOUS
 62
     7
 10
-274.1622545243331
 20
131.4445135200403
 30
0.0
 11
-274.1687851670776
 21
131.4579033219474
 31
0.0
  0
LINE
  5
2D1
  8
1
  6
CONTINUOUS
 62
     7
 10
-274.1687851670776
 20
131.4579033219474
 30
0.0
 11
-274.3797051895112
 21
131.890353454209
 31
0.0
  0
LINE
  5
2D2
  8
1
  6
CONTINUOUS
 62
     7
 10
-275.72789625896
 20
171.8672032659746
 30
0.0
 11
-275.5182437076626
 21
172.2970546972966
 31
0.0
  0
LINE
  5
2D3
  8
1
  6
CONTINUOUS
 62
     7
 10
-275.5182437076626
 20
172.2970546972966
 30
0.0
 11
-275.5104455937819
 21
172.3130432001432
 31
0.0
  0
LINE
  5
2D4
  8
1
  6
CONTINUOUS
 62
     7
 10
-278.9577215752857
 20
173.5337876498327
 30
0.0
 11
-278.9610727880233
 21
173.5192719527103
 31
0.0
  0
LINE
  5
2D5
  8
1
  6
CONTINUOUS
 62
     7
 10
-278.9610727880233
 20
173.5192719527103
 30
0.0
 11
-279.069306830743
 21
173.0504588078934
 31
0.0
  0
LINE
  5
2D6
  8
1
  6
CONTINUOUS
 62
     7
 10
-267.739855554432
 20
137.2671976715118
 30
0.0
 11
-267.3629866246369
 21
136.972755393586
 31
0.0
  0
LINE
  5
2D7
  8
1
  6
CONTINUOUS
 62
     7
 10
-267.3629866246369
 20
136.972755393586
 30
0.0
 11
-267.3489688279802
 21
136.9618034905428
 31
0.0
  0
LINE
  5
2D8
  8
1
  6
CONTINUOUS
 62
     7
 10
-269.9122208117593
 20
134.3534193217989
 30
0.0
 11
-269.9215961246097
 21
134.3649968689795
 31
0.0
  0
LINE
  5
2D9
  8
1
  6
CONTINUOUS
 62
     7
 10
-269.9215961246097
 20
134.3649968689795
 30
0.0
 11
-270.2243903937363
 21
134.738916650939
 31
0.0
  0
LINE
  5
2DA
  8
1
  6
CONTINUOUS
 62
     7
 10
-285.5528069449362
 20
129.3108396626722
 30
0.0
 11
-285.5528069449362
 21
128.8325861260673
 31
0.0
  0
LINE
  5
2DB
  8
1
  6
CONTINUOUS
 62
     7
 10
-285.5528069449362
 20
128.8325861260673
 30
0.0
 11
-285.5528069449362
 21
128.8147972867748
 31
0.0
  0
LINE
  5
2DC
  8
1
  6
CONTINUOUS
 62
     7
 10
-289.1863372174087
 20
129.2287857686514
 30
0.0
 11
-289.1829860046711
 21
129.2433014657739
 31
0.0
  0
LINE
  5
2DD
  8
1
  6
CONTINUOUS
 62
     7
 10
-289.1829860046711
 20
129.2433014657739
 30
0.0
 11
-289.0747519619514
 21
129.7121146105908
 31
0.0
  0
LINE
  5
2DE
  8
1
  6
CONTINUOUS
 62
     7
 10
-285.5528069449362
 20
173.7891603373278
 30
0.0
 11
-285.5528069449362
 21
174.2674138739327
 31
0.0
  0
LINE
  5
2DF
  8
1
  6
CONTINUOUS
 62
     7
 10
-285.5528069449362
 20
174.2674138739327
 30
0.0
 11
-285.5528069449362
 21
174.2852027132251
 31
0.0
  0
LINE
  5
2E0
  8
1
  6
CONTINUOUS
 62
     7
 10
-289.1863372174087
 20
173.8712142313485
 30
0.0
 11
-289.1829860046711
 21
173.856698534226
 31
0.0
  0
LINE
  5
2E1
  8
1
  6
CONTINUOUS
 62
     7
 10
-289.1829860046711
 20
173.856698534226
 30
0.0
 11
-289.0747519619514
 21
173.3878853894092
 31
0.0
  0
LINE
  5
2E2
  8
1
  6
CONTINUOUS
 62
     7
 10
-290.5363070591292
 20
130.0495411921066
 30
0.0
 11
-290.6438906964322
 21
129.5835452626611
 31
0.0
  0
LINE
  5
2E3
  8
1
  6
CONTINUOUS
 62
     7
 10
-290.6438906964322
 20
129.5835452626611
 30
0.0
 11
-290.6478923145866
 21
129.5662123501672
 31
0.0
  0
LINE
  5
2E4
  8
1
  6
CONTINUOUS
 62
     7
 10
-294.0951682960904
 20
130.7869567998567
 30
0.0
 11
-294.088637653346
 21
130.8003466017637
 31
0.0
  0
LINE
  5
2E5
  8
1
  6
CONTINUOUS
 62
     7
 10
-294.088637653346
 20
130.8003466017637
 30
0.0
 11
-293.8777176309123
 21
131.2327967340254
 31
0.0
  0
LINE
  5
2E6
  8
1
  6
CONTINUOUS
 62
     7
 10
-280.5308619279209
 20
129.7121146105908
 30
0.0
 11
-280.423278290618
 21
129.2461186811453
 31
0.0
  0
LINE
  5
2E7
  8
1
  6
CONTINUOUS
 62
     7
 10
-280.423278290618
 20
129.2461186811453
 30
0.0
 11
-280.4192766724636
 21
129.2287857686514
 31
0.0
  0
LINE
  5
2E8
  8
1
  6
CONTINUOUS
 62
     7
 10
-284.0528069449362
 20
128.8147972867748
 30
0.0
 11
-284.0528069449362
 21
128.829651117144
 31
0.0
  0
LINE
  5
2E9
  8
1
  6
CONTINUOUS
 62
     7
 10
-284.0528069449362
 20
128.829651117144
 30
0.0
 11
-284.0528069449362
 21
129.3108396626722
 31
0.0
  0
LINE
  5
2EA
  8
1
  6
CONTINUOUS
 62
     7
 10
-290.5363070591292
 20
173.0504588078934
 30
0.0
 11
-290.6438906964322
 21
173.5164547373389
 31
0.0
  0
LINE
  5
2EB
  8
1
  6
CONTINUOUS
 62
     7
 10
-290.6438906964322
 20
173.5164547373389
 30
0.0
 11
-290.6478923145866
 21
173.5337876498327
 31
0.0
  0
LINE
  5
2EC
  8
1
  6
CONTINUOUS
 62
     7
 10
-294.0951682960904
 20
172.3130432001432
 30
0.0
 11
-294.088637653346
 21
172.2996533982363
 31
0.0
  0
LINE
  5
2ED
  8
1
  6
CONTINUOUS
 62
     7
 10
-294.088637653346
 20
172.2996533982363
 30
0.0
 11
-293.8777176309123
 21
171.8672032659746
 31
0.0
  0
LINE
  5
2EE
  8
1
  6
CONTINUOUS
 62
     7
 10
-280.5308619279209
 20
173.3878853894092
 30
0.0
 11
-280.423278290618
 21
173.8538813188547
 31
0.0
  0
LINE
  5
2EF
  8
1
  6
CONTINUOUS
 62
     7
 10
-280.423278290618
 20
173.8538813188547
 30
0.0
 11
-280.4192766724636
 21
173.8712142313485
 31
0.0
  0
LINE
  5
2F0
  8
1
  6
CONTINUOUS
 62
     7
 10
-284.0528069449362
 20
174.2852027132251
 30
0.0
 11
-284.0528069449362
 21
174.2703051936409
 31
0.0
  0
LINE
  5
2F1
  8
1
  6
CONTINUOUS
 62
     7
 10
-284.0528069449362
 20
174.2703051936409
 30
0.0
 11
-284.0528069449362
 21
173.7891603373278
 31
0.0
  0
LINE
  5
2F2
  8
1
  6
CONTINUOUS
 62
     7
 10
-302.7892505484288
 20
164.650786198078
 30
0.0
 11
-303.1661194782238
 21
164.9452284760039
 31
0.0
  0
LINE
  5
2F3
  8
1
  6
CONTINUOUS
 62
     7
 10
-303.1661194782238
 20
164.9452284760039
 30
0.0
 11
-303.1801372748805
 21
164.9561803790471
 31
0.0
  0
LINE
  5
2F4
  8
1
  6
CONTINUOUS
 62
     7
 10
-305.0909345074834
 20
161.8380426912631
 30
0.0
 11
-305.0774723653525
 21
161.8317651912923
 31
0.0
  0
LINE
  5
2F5
  8
1
  6
CONTINUOUS
 62
     7
 10
-305.0774723653525
 20
161.8317651912923
 30
0.0
 11
-304.6413674395074
 21
161.6284061246116
 31
0.0
  0
LINE
  5
2F6
  8
1
  6
CONTINUOUS
 62
     7
 10
-295.2259087003611
 20
171.2096465457909
 30
0.0
 11
-295.4355612516585
 21
171.6394979771129
 31
0.0
  0
LINE
  5
2F7
  8
1
  6
CONTINUOUS
 62
     7
 10
-295.4355612516585
 20
171.6394979771129
 30
0.0
 11
-295.4433593655392
 21
171.6554864799596
 31
0.0
  0
LINE
  5
2F8
  8
1
  6
CONTINUOUS
 62
     7
 10
-298.5276741359276
 20
169.6905612647759
 30
0.0
 11
-298.5182988230771
 21
169.6789837175952
 31
0.0
  0
LINE
  5
2F9
  8
1
  6
CONTINUOUS
 62
     7
 10
-298.5182988230771
 20
169.6789837175952
 30
0.0
 11
-298.2155045539506
 21
169.3050639356357
 31
0.0
  0
LINE
  5
2FA
  8
1
  6
CONTINUOUS
 62
     7
 10
-295.2259087003611
 20
131.890353454209
 30
0.0
 11
-295.4355612516585
 21
131.460502022887
 31
0.0
  0
LINE
  5
2FB
  8
1
  6
CONTINUOUS
 62
     7
 10
-295.4355612516585
 20
131.460502022887
 30
0.0
 11
-295.4433593655392
 21
131.4445135200403
 31
0.0
  0
LINE
  5
2FC
  8
1
  6
CONTINUOUS
 62
     7
 10
-298.5276741359276
 20
133.4094387352241
 30
0.0
 11
-298.5182988230771
 21
133.4210162824048
 31
0.0
  0
LINE
  5
2FD
  8
1
  6
CONTINUOUS
 62
     7
 10
-298.5182988230771
 20
133.4210162824048
 30
0.0
 11
-298.2155045539506
 21
133.7949360643643
 31
0.0
  0
LINE
  5
2FE
  8
1
  6
CONTINUOUS
 62
     7
 10
-299.381223496136
 20
168.3610833490609
 30
0.0
 11
-299.6821981988132
 21
168.7327561535859
 31
0.0
  0
LINE
  5
2FF
  8
1
  6
CONTINUOUS
 62
     7
 10
-299.6821981988132
 20
168.7327561535859
 30
0.0
 11
-299.693393078113
 21
168.7465806782011
 31
0.0
  0
LINE
  5
300
  8
1
  6
CONTINUOUS
 62
     7
 10
-302.256645061892
 20
166.1381965094571
 30
0.0
 11
-302.244940083829
 21
166.1290515783378
 31
0.0
  0
LINE
  5
301
  8
1
  6
CONTINUOUS
 62
     7
 10
-302.244940083829
 20
166.1290515783378
 30
0.0
 11
-301.8657583354403
 21
165.8328023284881
 31
0.0
  0
LINE
  5
302
  8
1
  6
CONTINUOUS
 62
     7
 10
-302.7892505484288
 20
138.4492138019219
 30
0.0
 11
-303.1706237506852
 21
138.1512524006642
 31
0.0
  0
LINE
  5
303
  8
1
  6
CONTINUOUS
 62
     7
 10
-303.1706237506852
 20
138.1512524006642
 30
0.0
 11
-303.1801372748805
 21
138.1438196209529
 31
0.0
  0
LINE
  5
304
  8
1
  6
CONTINUOUS
 62
     7
 10
-305.0909345074834
 20
141.2619573087369
 30
0.0
 11
-305.0774327694766
 21
141.2682532725678
 31
0.0
  0
LINE
  5
305
  8
1
  6
CONTINUOUS
 62
     7
 10
-305.0774327694766
 20
141.2682532725678
 30
0.0
 11
-304.6413674395074
 21
141.4715938753883
 31
0.0
  0
LINE
  5
306
  8
1
  6
CONTINUOUS
 62
     7
 10
-299.381223496136
 20
134.738916650939
 30
0.0
 11
-299.6857953965592
 21
134.3628016771459
 31
0.0
  0
LINE
  5
307
  8
1
  6
CONTINUOUS
 62
     7
 10
-299.6857953965592
 20
134.3628016771459
 30
0.0
 11
-299.693393078113
 21
134.3534193217989
 31
0.0
  0
LINE
  5
308
  8
1
  6
CONTINUOUS
 62
     7
 10
-302.256645061892
 20
136.9618034905428
 30
0.0
 11
-302.2449056562576
 21
136.9709753194288
 31
0.0
  0
LINE
  5
309
  8
1
  6
CONTINUOUS
 62
     7
 10
-302.2449056562576
 20
136.9709753194288
 30
0.0
 11
-301.8657583354403
 21
137.2671976715118
 31
0.0
  0
LINE
  5
30A
  8
1
  6
CONTINUOUS
 62
     7
 10
-267.9778169072304
 20
165.6468865438827
 30
0.0
 11
-267.739855554432
 21
165.8328023284881
 31
0.0
  0
LINE
  5
30B
  8
1
  6
CONTINUOUS
 62
     7
 10
-270.2243903937363
 20
168.361083349061
 30
0.0
 11
-270.4144308607126
 21
168.1264029167652
 31
0.0
  0
LINE
  5
30C
  8
1
  6
CONTINUOUS
 62
     7
 10
-271.5801498028981
 20
169.07038350334
 30
0.0
 11
-271.3901093359217
 21
169.3050639356357
 31
0.0
  0
LINE
  5
30D
  8
1
  6
CONTINUOUS
 62
     7
 10
-274.3797051895112
 20
171.209646545791
 30
0.0
 11
-274.512083320952
 21
170.9382311543569
 31
0.0
  0
LINE
  5
30E
  8
1
  6
CONTINUOUS
 62
     7
 10
-271.5801498028981
 20
134.0296164966599
 30
0.0
 11
-271.3901093359217
 21
133.7949360643643
 31
0.0
  0
LINE
  5
30F
  8
1
  6
CONTINUOUS
 62
     7
 10
-274.3797051895112
 20
131.890353454209
 30
0.0
 11
-274.512083320952
 21
132.1617688456431
 31
0.0
  0
LINE
  5
310
  8
1
  6
CONTINUOUS
 62
     7
 10
-265.2379308208735
 20
141.5992149932738
 30
0.0
 11
-264.9642464503648
 21
141.4715938753883
 31
0.0
  0
LINE
  5
311
  8
1
  6
CONTINUOUS
 62
     7
 10
-266.8163633414435
 20
138.4492138019219
 30
0.0
 11
-267.0543246942418
 21
138.6351295865274
 31
0.0
  0
LINE
  5
312
  8
1
  6
CONTINUOUS
 62
     7
 10
-275.8602743904007
 20
171.5957878745405
 30
0.0
 11
-275.72789625896
 21
171.8672032659746
 31
0.0
  0
LINE
  5
313
  8
1
  6
CONTINUOUS
 62
     7
 10
-279.069306830743
 20
173.0504588078934
 30
0.0
 11
-279.1372369407829
 21
172.7562211751184
 31
0.0
  0
LINE
  5
314
  8
1
  6
CONTINUOUS
 62
     7
 10
-265.2379308208735
 20
161.5007850067261
 30
0.0
 11
-264.9642464503648
 21
161.6284061246116
 31
0.0
  0
LINE
  5
315
  8
1
  6
CONTINUOUS
 62
     7
 10
-266.8163633414435
 20
164.650786198078
 30
0.0
 11
-267.0543246942418
 21
164.4648704134726
 31
0.0
  0
LINE
  5
316
  8
1
  6
CONTINUOUS
 62
     7
 10
-267.9778169072304
 20
137.4531134561173
 30
0.0
 11
-267.739855554432
 21
137.2671976715118
 31
0.0
  0
LINE
  5
317
  8
1
  6
CONTINUOUS
 62
     7
 10
-270.2243903937363
 20
134.738916650939
 30
0.0
 11
-270.4144308607126
 21
134.9735970832347
 31
0.0
  0
LINE
  5
318
  8
1
  6
CONTINUOUS
 62
     7
 10
-275.8602743904007
 20
131.5042121254595
 30
0.0
 11
-275.72789625896
 21
131.2327967340254
 31
0.0
  0
LINE
  5
319
  8
1
  6
CONTINUOUS
 62
     7
 10
-279.069306830743
 20
130.0495411921066
 30
0.0
 11
-279.1372369407829
 21
130.3437788248816
 31
0.0
  0
LINE
  5
31A
  8
1
  6
CONTINUOUS
 62
     7
 10
-280.5987920379608
 20
173.0936477566342
 30
0.0
 11
-280.5308619279209
 21
173.3878853894092
 31
0.0
  0
LINE
  5
31B
  8
1
  6
CONTINUOUS
 62
     7
 10
-284.0528069449362
 20
173.7891603373278
 30
0.0
 11
-284.0528069449362
 21
173.4871830461433
 31
0.0
  0
LINE
  5
31C
  8
1
  6
CONTINUOUS
 62
     7
 10
-280.5987920379608
 20
130.0063522433658
 30
0.0
 11
-280.5308619279209
 21
129.7121146105908
 31
0.0
  0
LINE
  5
31D
  8
1
  6
CONTINUOUS
 62
     7
 10
-284.0528069449362
 20
129.3108396626722
 30
0.0
 11
-284.0528069449362
 21
129.6128169538566
 31
0.0
  0
LINE
  5
31E
  8
1
  6
CONTINUOUS
 62
     7
 10
-290.4683769490894
 20
130.3437788248816
 30
0.0
 11
-290.5363070591292
 21
130.0495411921066
 31
0.0
  0
LINE
  5
31F
  8
1
  6
CONTINUOUS
 62
     7
 10
-293.8777176309123
 20
131.2327967340254
 30
0.0
 11
-293.7453394994716
 21
131.5042121254595
 31
0.0
  0
LINE
  5
320
  8
1
  6
CONTINUOUS
 62
     7
 10
-285.5528069449362
 20
129.6128169538566
 30
0.0
 11
-285.5528069449362
 21
129.3108396626722
 31
0.0
  0
LINE
  5
321
  8
1
  6
CONTINUOUS
 62
     7
 10
-289.0747519619514
 20
129.7121146105908
 30
0.0
 11
-289.0068218519115
 21
130.0063522433658
 31
0.0
  0
LINE
  5
322
  8
1
  6
CONTINUOUS
 62
     7
 10
-290.4683769490894
 20
172.7562211751184
 30
0.0
 11
-290.5363070591292
 21
173.0504588078934
 31
0.0
  0
LINE
  5
323
  8
1
  6
CONTINUOUS
 62
     7
 10
-293.8777176309123
 20
171.8672032659746
 30
0.0
 11
-293.7453394994716
 21
171.5957878745405
 31
0.0
  0
LINE
  5
324
  8
1
  6
CONTINUOUS
 62
     7
 10
-285.5528069449362
 20
173.4871830461433
 30
0.0
 11
-285.5528069449362
 21
173.7891603373278
 31
0.0
  0
LINE
  5
325
  8
1
  6
CONTINUOUS
 62
     7
 10
-289.0747519619514
 20
173.3878853894092
 30
0.0
 11
-289.0068218519115
 21
173.0936477566342
 31
0.0
  0
LINE
  5
326
  8
1
  6
CONTINUOUS
 62
     7
 10
-295.0935305689203
 20
170.9382311543569
 30
0.0
 11
-295.2259087003611
 21
171.2096465457909
 31
0.0
  0
LINE
  5
327
  8
1
  6
CONTINUOUS
 62
     7
 10
-298.2155045539506
 20
169.3050639356357
 30
0.0
 11
-298.0254640869742
 21
169.07038350334
 31
0.0
  0
LINE
  5
328
  8
1
  6
CONTINUOUS
 62
     7
 10
-302.5512891956304
 20
164.4648704134726
 30
0.0
 11
-302.7892505484288
 21
164.650786198078
 31
0.0
  0
LINE
  5
329
  8
1
  6
CONTINUOUS
 62
     7
 10
-304.6413674395074
 20
161.6284061246116
 30
0.0
 11
-304.3676830689988
 21
161.5007850067261
 31
0.0
  0
LINE
  5
32A
  8
1
  6
CONTINUOUS
 62
     7
 10
-299.1911830291597
 20
168.1264029167652
 30
0.0
 11
-299.381223496136
 21
168.3610833490609
 31
0.0
  0
LINE
  5
32B
  8
1
  6
CONTINUOUS
 62
     7
 10
-301.8657583354403
 20
165.8328023284881
 30
0.0
 11
-301.6277969826419
 21
165.6468865438827
 31
0.0
  0
LINE
  5
32C
  8
1
  6
CONTINUOUS
 62
     7
 10
-302.5512891956304
 20
138.6351295865274
 30
0.0
 11
-302.7892505484288
 21
138.4492138019219
 31
0.0
  0
LINE
  5
32D
  8
1
  6
CONTINUOUS
 62
     7
 10
-304.6413674395074
 20
141.4715938753883
 30
0.0
 11
-304.3676830689988
 21
141.5992149932738
 31
0.0
  0
LINE
  5
32E
  8
1
  6
CONTINUOUS
 62
     7
 10
-295.0935305689203
 20
132.1617688456431
 30
0.0
 11
-295.2259087003611
 21
131.890353454209
 31
0.0
  0
LINE
  5
32F
  8
1
  6
CONTINUOUS
 62
     7
 10
-298.2155045539506
 20
133.7949360643643
 30
0.0
 11
-298.0254640869742
 21
134.0296164966599
 31
0.0
  0
LINE
  5
330
  8
1
  6
CONTINUOUS
 62
     7
 10
-299.1911830291597
 20
134.9735970832347
 30
0.0
 11
-299.381223496136
 21
134.738916650939
 31
0.0
  0
LINE
  5
331
  8
1
  6
CONTINUOUS
 62
     7
 10
-301.8657583354403
 20
137.2671976715118
 30
0.0
 11
-301.6277969826419
 21
137.4531134561173
 31
0.0
  0
ARC
  5
332
  8
1
  6
CONTINUOUS
 62
     7
 10
-284.8028069449362
 20
151.55
 30
0.0
 40
21.7
 50
297.9806633431356
 51
307.0193366568642
  0
LINE
  5
333
  8
1
  6
CONTINUOUS
 62
     7
 10
-271.7375728818221
 20
134.2240178091963
 30
0.0
 11
-271.7373009728676
 21
134.2236820296015
 31
0.0
  0
LINE
  5
334
  8
1
  6
CONTINUOUS
 62
     7
 10
-271.7373020234541
 20
134.2236833269677
 30
0.0
 11
-271.5801498028981
 21
134.0296164966599
 31
0.0
  0
LINE
  5
335
  8
1
  6
CONTINUOUS
 62
     7
 10
-274.512083320952
 20
132.1617688456431
 30
0.0
 11
-274.6217408763411
 21
132.3866001527155
 31
0.0
  0
ARC
  5
336
  8
1
  6
CONTINUOUS
 62
     7
 10
-284.8028069449362
 20
151.55
 30
0.0
 40
21.70000000000001
 50
39.98066334313574
 51
49.01933665686433
  0
LINE
  5
337
  8
1
  6
CONTINUOUS
 62
     7
 10
-268.1749360230612
 20
165.4928802119743
 30
0.0
 11
-268.1745955491417
 21
165.4931462193539
 31
0.0
  0
LINE
  5
338
  8
1
  6
CONTINUOUS
 62
     7
 10
-268.1745968646455
 20
165.4931451915696
 30
0.0
 11
-267.9778169072304
 21
165.6468865438827
 31
0.0
  0
LINE
  5
339
  8
1
  6
CONTINUOUS
 62
     7
 10
-270.4144308607126
 20
168.1264029167652
 30
0.0
 11
-270.5718539396368
 21
167.9320016042289
 31
0.0
  0
ARC
  5
33A
  8
1
  6
CONTINUOUS
 62
     7
 10
-284.8028069449362
 20
151.55
 30
0.0
 40
21.7
 50
52.98066334313574
 51
62.0193366568644
  0
LINE
  5
33B
  8
1
  6
CONTINUOUS
 62
     7
 10
-271.7375728818221
 20
168.8759821908037
 30
0.0
 11
-271.7373009728676
 21
168.8763179703985
 31
0.0
  0
LINE
  5
33C
  8
1
  6
CONTINUOUS
 62
     7
 10
-271.7373020234541
 20
168.8763166730322
 30
0.0
 11
-271.5801498028981
 21
169.07038350334
 31
0.0
  0
LINE
  5
33D
  8
1
  6
CONTINUOUS
 62
     7
 10
-274.512083320952
 20
170.9382311543569
 30
0.0
 11
-274.6217408763411
 21
170.7133998472844
 31
0.0
  0
ARC
  5
33E
  8
1
  6
CONTINUOUS
 62
     7
 10
-284.8028069449362
 20
151.55
 30
0.0
 40
21.69999999999999
 50
65.98066334313573
 51
75.0193366568644
  0
LINE
  5
33F
  8
1
  6
CONTINUOUS
 62
     7
 10
-275.9699319457898
 20
171.3709565674681
 30
0.0
 11
-275.8602743904007
 21
171.5957878745405
 31
0.0
  0
LINE
  5
340
  8
1
  6
CONTINUOUS
 62
     7
 10
-279.1372369407829
 20
172.7562211751184
 30
0.0
 11
-279.1935079405561
 21
172.5124846971789
 31
0.0
  0
ARC
  5
341
  8
1
  6
CONTINUOUS
 62
     7
 10
-284.8028069449362
 20
151.55
 30
0.0
 40
21.69999999999999
 50
323.9806633431356
 51
333.0193366568642
  0
LINE
  5
342
  8
1
  6
CONTINUOUS
 62
     7
 10
-265.4646416732745
 20
141.7049319999352
 30
0.0
 11
-265.4642500870389
 21
141.7047494002748
 31
0.0
  0
LINE
  5
343
  8
1
  6
CONTINUOUS
 62
     7
 10
-265.4642516000278
 20
141.704750105793
 30
0.0
 11
-265.2379308208735
 21
141.5992149932738
 31
0.0
  0
LINE
  5
344
  8
1
  6
CONTINUOUS
 62
     7
 10
-267.0543246942418
 20
138.6351295865274
 30
0.0
 11
-267.2514438100727
 21
138.7891359184357
 31
0.0
  0
ARC
  5
345
  8
1
  6
CONTINUOUS
 62
     7
 10
-284.8028069449362
 20
151.55
 30
0.0
 40
21.69999999999999
 50
284.9806633431356
 51
294.0193366568642
  0
LINE
  5
346
  8
1
  6
CONTINUOUS
 62
     7
 10
-275.9699319457898
 20
131.7290434325319
 30
0.0
 11
-275.8602743904007
 21
131.5042121254595
 31
0.0
  0
LINE
  5
347
  8
1
  6
CONTINUOUS
 62
     7
 10
-279.1372369407829
 20
130.3437788248816
 30
0.0
 11
-279.1935079405561
 21
130.587515302821
 31
0.0
  0
ARC
  5
348
  8
1
  6
CONTINUOUS
 62
     7
 10
-284.8028069449362
 20
151.55
 30
0.0
 40
21.69999999999999
 50
26.98066334313575
 51
36.01933665686442
  0
LINE
  5
349
  8
1
  6
CONTINUOUS
 62
     7
 10
-265.4646416732745
 20
161.3950680000647
 30
0.0
 11
-265.4642500870389
 21
161.3952505997252
 31
0.0
  0
LINE
  5
34A
  8
1
  6
CONTINUOUS
 62
     7
 10
-265.4642516000278
 20
161.395249894207
 30
0.0
 11
-265.2379308208735
 21
161.5007850067261
 31
0.0
  0
LINE
  5
34B
  8
1
  6
CONTINUOUS
 62
     7
 10
-267.0543246942418
 20
164.4648704134726
 30
0.0
 11
-267.2514438100727
 21
164.3108640815643
 31
0.0
  0
ARC
  5
34C
  8
1
  6
CONTINUOUS
 62
     7
 10
-284.8028069449362
 20
151.55
 30
0.0
 40
21.70000000000001
 50
310.9806633431357
 51
320.0193366568642
  0
LINE
  5
34D
  8
1
  6
CONTINUOUS
 62
     7
 10
-268.1749360230612
 20
137.6071197880257
 30
0.0
 11
-268.1745955491417
 21
137.6068537806461
 31
0.0
  0
LINE
  5
34E
  8
1
  6
CONTINUOUS
 62
     7
 10
-268.1745968646455
 20
137.6068548084304
 30
0.0
 11
-267.9778169072304
 21
137.4531134561173
 31
0.0
  0
LINE
  5
34F
  8
1
  6
CONTINUOUS
 62
     7
 10
-270.4144308607126
 20
134.9735970832347
 30
0.0
 11
-270.5718539396368
 21
135.1679983957711
 31
0.0
  0
ARC
  5
350
  8
1
  6
CONTINUOUS
 62
     7
 10
-284.8028069449362
 20
151.55
 30
0.0
 40
21.7
 50
271.9806633431356
 51
281.0193366568642
  0
LINE
  5
351
  8
1
  6
CONTINUOUS
 62
     7
 10
-280.655063037734
 20
130.2500887213052
 30
0.0
 11
-280.5987920379608
 21
130.0063522433658
 31
0.0
  0
LINE
  5
352
  8
1
  6
CONTINUOUS
 62
     7
 10
-284.0528069449362
 20
129.6128169538566
 30
0.0
 11
-284.0528069449362
 21
129.8629647023849
 31
0.0
  0
ARC
  5
353
  8
1
  6
CONTINUOUS
 62
     7
 10
-284.8028069449362
 20
151.55
 30
0.0
 40
21.70000000000001
 50
258.9806633431356
 51
268.0193366568641
  0
LINE
  5
354
  8
1
  6
CONTINUOUS
 62
     7
 10
-285.5528069449362
 20
129.8629647023849
 30
0.0
 11
-285.5528069449362
 21
129.6128169538566
 31
0.0
  0
LINE
  5
355
  8
1
  6
CONTINUOUS
 62
     7
 10
-289.0068218519115
 20
130.0063522433658
 30
0.0
 11
-288.9505508521384
 21
130.2500887213052
 31
0.0
  0
ARC
  5
356
  8
1
  6
CONTINUOUS
 62
     7
 10
-284.8028069449362
 20
151.55
 30
0.0
 40
21.7
 50
104.9806633431357
 51
114.0193366568644
  0
LINE
  5
357
  8
1
  6
CONTINUOUS
 62
     7
 10
-290.4121059493162
 20
172.5124846971789
 30
0.0
 11
-290.4122031433796
 21
172.5129056909199
 31
0.0
  0
LINE
  5
358
  8
1
  6
CONTINUOUS
 62
     7
 10
-290.4122027678467
 20
172.512904064308
 30
0.0
 11
-290.4683769490894
 21
172.7562211751184
 31
0.0
  0
LINE
  5
359
  8
1
  6
CONTINUOUS
 62
     7
 10
-293.7453394994716
 20
171.5957878745405
 30
0.0
 11
-293.6356819440825
 21
171.3709565674681
 31
0.0
  0
ARC
  5
35A
  8
1
  6
CONTINUOUS
 62
     7
 10
-284.8028069449362
 20
151.55
 30
0.0
 40
21.70000000000001
 50
91.98066334313575
 51
101.0193366568644
  0
LINE
  5
35B
  8
1
  6
CONTINUOUS
 62
     7
 10
-285.5528069449362
 20
173.237035297615
 30
0.0
 11
-285.5528069449362
 21
173.4871830461433
 31
0.0
  0
LINE
  5
35C
  8
1
  6
CONTINUOUS
 62
     7
 10
-289.0068218519115
 20
173.0936477566342
 30
0.0
 11
-288.9505508521384
 21
172.8499112786947
 31
0.0
  0
ARC
  5
35D
  8
1
  6
CONTINUOUS
 62
     7
 10
-284.8028069449362
 20
151.55
 30
0.0
 40
21.7
 50
78.98066334313575
 51
88.01933665686437
  0
LINE
  5
35E
  8
1
  6
CONTINUOUS
 62
     7
 10
-280.655063037734
 20
172.8499112786947
 30
0.0
 11
-280.5987920379608
 21
173.0936477566342
 31
0.0
  0
LINE
  5
35F
  8
1
  6
CONTINUOUS
 62
     7
 10
-284.0528069449362
 20
173.4871830461433
 30
0.0
 11
-284.0528069449362
 21
173.237035297615
 31
0.0
  0
ARC
  5
360
  8
1
  6
CONTINUOUS
 62
     7
 10
-284.8028069449362
 20
151.55
 30
0.0
 40
21.7
 50
245.9806633431356
 51
255.0193366568642
  0
LINE
  5
361
  8
1
  6
CONTINUOUS
 62
     7
 10
-290.4121059493162
 20
130.5875153028211
 30
0.0
 11
-290.4122022246751
 21
130.5870982884268
 31
0.0
  0
LINE
  5
362
  8
1
  6
CONTINUOUS
 62
     7
 10
-290.4122021834671
 20
130.5870984669182
 30
0.0
 11
-290.4683769490894
 21
130.3437788248816
 31
0.0
  0
LINE
  5
363
  8
1
  6
CONTINUOUS
 62
     7
 10
-293.7453394994716
 20
131.5042121254595
 30
0.0
 11
-293.6356819440825
 21
131.7290434325319
 31
0.0
  0
ARC
  5
364
  8
1
  6
CONTINUOUS
 62
     7
 10
-284.8028069449362
 20
151.55
 30
0.0
 40
21.70000000000001
 50
219.9806633431357
 51
229.0193366568642
  0
LINE
  5
365
  8
1
  6
CONTINUOUS
 62
     7
 10
-299.0337599502356
 20
135.1679983957711
 30
0.0
 11
-299.0340292890332
 21
135.1676657900558
 31
0.0
  0
LINE
  5
366
  8
1
  6
CONTINUOUS
 62
     7
 10
-299.0340291737502
 20
135.1676659324184
 30
0.0
 11
-299.1911830291597
 21
134.9735970832347
 31
0.0
  0
LINE
  5
367
  8
1
  6
CONTINUOUS
 62
     7
 10
-301.6277969826419
 20
137.4531134561173
 30
0.0
 11
-301.4306778668111
 21
137.6071197880257
 31
0.0
  0
ARC
  5
368
  8
1
  6
CONTINUOUS
 62
     7
 10
-284.8028069449362
 20
151.55
 30
0.0
 40
21.69999999999999
 50
143.9806633431357
 51
153.0193366568643
  0
LINE
  5
369
  8
1
  6
CONTINUOUS
 62
     7
 10
-302.3541700797996
 20
164.3108640815642
 30
0.0
 11
-302.5512891956304
 21
164.4648704134726
 31
0.0
  0
LINE
  5
36A
  8
1
  6
CONTINUOUS
 62
     7
 10
-304.3676830689988
 20
161.5007850067261
 30
0.0
 11
-304.1409722165978
 21
161.3950680000647
 31
0.0
  0
ARC
  5
36B
  8
1
  6
CONTINUOUS
 62
     7
 10
-284.8028069449362
 20
151.55
 30
0.0
 40
21.70000000000001
 50
117.9806633431357
 51
127.0193366568644
  0
LINE
  5
36C
  8
1
  6
CONTINUOUS
 62
     7
 10
-294.9838730135313
 20
170.7133998472844
 30
0.0
 11
-294.984062419503
 21
170.7137881870761
 31
0.0
  0
LINE
  5
36D
  8
1
  6
CONTINUOUS
 62
     7
 10
-294.9840616876869
 20
170.7137866866306
 30
0.0
 11
-294.984629335391
 21
170.7149505368991
 31
0.0
  0
LINE
  5
36E
  8
1
  6
CONTINUOUS
 62
     7
 10
-294.9846280371907
 20
170.714947875194
 30
0.0
 11
-295.0935305689203
 21
170.9382311543569
 31
0.0
  0
LINE
  5
36F
  8
1
  6
CONTINUOUS
 62
     7
 10
-298.0254640869742
 20
169.07038350334
 30
0.0
 11
-297.8680410080501
 21
168.8759821908036
 31
0.0
  0
ARC
  5
370
  8
1
  6
CONTINUOUS
 62
     7
 10
-284.8028069449362
 20
151.55
 30
0.0
 40
21.70000000000001
 50
130.9806633431357
 51
140.0193366568643
  0
LINE
  5
371
  8
1
  6
CONTINUOUS
 62
     7
 10
-299.0337599502356
 20
167.9320016042289
 30
0.0
 11
-299.0340318591902
 21
167.9323373838237
 31
0.0
  0
LINE
  5
372
  8
1
  6
CONTINUOUS
 62
     7
 10
-299.0340308086037
 20
167.9323360864575
 30
0.0
 11
-299.1911830291597
 21
168.1264029167652
 31
0.0
  0
LINE
  5
373
  8
1
  6
CONTINUOUS
 62
     7
 10
-301.6277969826419
 20
165.6468865438827
 30
0.0
 11
-301.4306778668111
 21
165.4928802119743
 31
0.0
  0
ARC
  5
374
  8
1
  6
CONTINUOUS
 62
     7
 10
-284.8028069449362
 20
151.55
 30
0.0
 40
21.69999999999999
 50
206.9806633431357
 51
216.0193366568642
  0
LINE
  5
375
  8
1
  6
CONTINUOUS
 62
     7
 10
-302.3541700797996
 20
138.7891359184358
 30
0.0
 11
-302.5512891956304
 21
138.6351295865274
 31
0.0
  0
LINE
  5
376
  8
1
  6
CONTINUOUS
 62
     7
 10
-304.3676830689988
 20
141.5992149932738
 30
0.0
 11
-304.1409722165978
 21
141.7049319999353
 31
0.0
  0
ARC
  5
377
  8
1
  6
CONTINUOUS
 62
     7
 10
-284.8028069449362
 20
151.55
 30
0.0
 40
21.70000000000001
 50
232.9806633431355
 51
242.0193366568642
  0
LINE
  5
378
  8
1
  6
CONTINUOUS
 62
     7
 10
-294.9838730135313
 20
132.3866001527155
 30
0.0
 11
-294.9840606291865
 21
132.3862154836167
 31
0.0
  0
LINE
  5
379
  8
1
  6
CONTINUOUS
 62
     7
 10
-294.9840605488829
 20
132.3862156482636
 30
0.0
 11
-295.0935305689203
 21
132.1617688456431
 31
0.0
  0
LINE
  5
37A
  8
1
  6
CONTINUOUS
 62
     7
 10
-298.0254640869742
 20
134.0296164966599
 30
0.0
 11
-297.8683991525097
 21
134.2235755376216
 31
0.0
  0
LINE
  5
37B
  8
1
  6
CONTINUOUS
 62
     7
 10
-297.8683989487884
 20
134.2235757891965
 30
0.0
 11
-297.8680410080501
 21
134.2240178091964
 31
0.0
  0
ARC
  5
37C
  8
1
  6
CONTINUOUS
 62
     7
 10
-284.8028069449362
 20
151.55
 30
0.0
 40
29.15
 50
0.982823146123394
 51
1.160919657747456
  0
ARC
  5
37D
  8
1
  6
CONTINUOUS
 62
     7
 10
-251.3189352070468
 20
156.0500010266381
 30
0.0
 40
0.8249999999999647
 50
179.9999999984171
 51
269.9999999984035
  0
ARC
  5
37E
  8
1
  6
CONTINUOUS
 62
     7
 10
-251.3189352068518
 20
163.0500010266381
 30
0.0
 40
0.8249999999999647
 50
89.99999999840348
 51
179.9999999983894
  0
ARC
  5
37F
  8
1
  6
CONTINUOUS
 62
     7
 10
-249.9689352068518
 20
163.0500010266004
 30
0.0
 40
0.8249999999999924
 50
359.9999999984164
 51
89.99999999840344
  0
ARC
  5
380
  8
1
  6
CONTINUOUS
 62
     7
 10
-249.9689352070468
 20
156.0500010266005
 30
0.0
 40
0.8249999999999924
 50
269.9999999984034
 51
359.9999999983901
  0
LINE
  5
381
  8
1
  6
CONTINUOUS
 62
     7
 10
-249.1439352070469
 20
156.0500010265775
 30
0.0
 11
-248.5439352070454
 21
156.1024942246763
 31
0.0
  0
LINE
  5
382
  8
1
  6
CONTINUOUS
 62
     7
 10
-248.5439352068532
 20
162.9975078284452
 30
0.0
 11
-249.1439352068518
 21
163.0500010265775
 31
0.0
  0
LINE
  5
383
  8
1
  6
CONTINUOUS
 62
     7
 10
-252.6439352070295
 20
156.800001026675
 30
0.0
 11
-252.1439352070295
 21
156.8000010266611
 31
0.0
  0
LINE
  5
384
  8
1
  6
CONTINUOUS
 62
     7
 10
-252.1439352068762
 20
162.3000010266611
 30
0.0
 11
-252.6439352068762
 21
162.300001026675
 31
0.0
  0
LINE
  5
385
  8
1
  6
CONTINUOUS
 62
     7
 10
-252.6439352068727
 20
162.300001026675
 30
0.0
 11
-253.8939352069075
 21
161.0500010267099
 31
0.0
  0
LINE
  5
386
  8
1
  6
CONTINUOUS
 62
     7
 10
-253.893935206991
 20
158.0500010267099
 30
0.0
 11
-252.6439352070259
 21
156.800001026675
 31
0.0
  0
LINE
  5
387
  8
1
  6
CONTINUOUS
 62
     7
 10
-255.1449294342513
 20
157.2990067995054
 30
0.0
 11
-254.393935206991
 21
158.0500010267238
 31
0.0
  0
LINE
  5
388
  8
1
  6
CONTINUOUS
 62
     7
 10
-254.3939352069075
 20
161.0500010267238
 30
0.0
 11
-255.1449294341272
 21
161.8009952539854
 31
0.0
  0
LINE
  5
389
  8
1
  6
CONTINUOUS
 62
     7
 10
-257.6439352068796
 20
162.0500010268144
 30
0.0
 11
-257.9314006096375
 21
162.0500010268224
 31
0.0
  0
LINE
  5
38A
  8
1
  6
CONTINUOUS
 62
     7
 10
-254.3939352069946
 20
158.0500010267238
 30
0.0
 11
-253.8939352069946
 21
158.0500010267099
 31
0.0
  0
LINE
  5
38B
  8
1
  6
CONTINUOUS
 62
     7
 10
-253.893935206911
 20
161.0500010267099
 30
0.0
 11
-254.393935206911
 21
161.0500010267238
 31
0.0
  0
LINE
  5
38C
  8
1
  6
CONTINUOUS
 62
     7
 10
-251.3189352070703
 20
155.2250010266381
 30
0.0
 11
-249.9689352070703
 21
155.2250010266005
 31
0.0
  0
LINE
  5
38D
  8
1
  6
CONTINUOUS
 62
     7
 10
-249.9689352068293
 20
163.8750010266005
 30
0.0
 11
-251.3189352068293
 21
163.8750010266381
 31
0.0
  0
ARC
  5
38E
  8
1
  6
CONTINUOUS
 62
     7
 10
-251.3189352074928
 20
140.0500025195852
 30
0.0
 40
0.8249999999999647
 50
179.9999999984171
 51
269.9999999984035
  0
ARC
  5
38F
  8
1
  6
CONTINUOUS
 62
     7
 10
-251.3189352072976
 20
147.0500025195852
 30
0.0
 40
0.8249999999999647
 50
89.99999999840348
 51
179.9999999983894
  0
ARC
  5
390
  8
1
  6
CONTINUOUS
 62
     7
 10
-249.9689352072976
 20
147.0500025195476
 30
0.0
 40
0.8249999999999647
 50
359.9999999984164
 51
89.99999999840344
  0
ARC
  5
391
  8
1
  6
CONTINUOUS
 62
     7
 10
-249.9689352074927
 20
140.0500025195476
 30
0.0
 40
0.8249999999999924
 50
269.9999999984034
 51
359.9999999983901
  0
LINE
  5
392
  8
1
  6
CONTINUOUS
 62
     7
 10
-249.1439352074927
 20
140.0500025195246
 30
0.0
 11
-248.5439352074913
 21
140.1024957176234
 31
0.0
  0
LINE
  5
393
  8
1
  6
CONTINUOUS
 62
     7
 10
-248.5439352072991
 20
146.9975093213924
 30
0.0
 11
-249.1439352072977
 21
147.0500025195246
 31
0.0
  0
LINE
  5
394
  8
1
  6
CONTINUOUS
 62
     7
 10
-252.6439352073185
 20
146.3000025196222
 30
0.0
 11
-253.8939352073534
 21
145.050002519657
 31
0.0
  0
LINE
  5
395
  8
1
  6
CONTINUOUS
 62
     7
 10
-253.893935207437
 20
142.050002519657
 30
0.0
 11
-252.6439352074718
 21
140.8000025196222
 31
0.0
  0
LINE
  5
396
  8
1
  6
CONTINUOUS
 62
     7
 10
-252.6439352074754
 20
140.8000025196222
 30
0.0
 11
-252.1439352074754
 21
140.8000025196082
 31
0.0
  0
LINE
  5
397
  8
1
  6
CONTINUOUS
 62
     7
 10
-252.1439352073221
 20
146.3000025196082
 30
0.0
 11
-252.6439352073221
 21
146.3000025196222
 31
0.0
  0
LINE
  5
398
  8
1
  6
CONTINUOUS
 62
     7
 10
-255.1449294560189
 20
141.2990082711308
 30
0.0
 11
-254.393935207437
 21
142.0500025196709
 31
0.0
  0
LINE
  5
399
  8
1
  6
CONTINUOUS
 62
     7
 10
-254.3939352073534
 20
145.0500025196709
 30
0.0
 11
-255.1449294558948
 21
145.8009967682543
 31
0.0
  0
LINE
  5
39A
  8
1
  6
CONTINUOUS
 62
     7
 10
-257.9313992238071
 20
141.0500025197695
 30
0.0
 11
-257.6439352074648
 21
141.0500025197615
 31
0.0
  0
LINE
  5
39B
  8
1
  6
CONTINUOUS
 62
     7
 10
-254.3939352074405
 20
142.0500025196709
 30
0.0
 11
-253.8939352074405
 21
142.050002519657
 31
0.0
  0
LINE
  5
39C
  8
1
  6
CONTINUOUS
 62
     7
 10
-253.8939352073569
 20
145.050002519657
 30
0.0
 11
-254.3939352073569
 21
145.0500025196709
 31
0.0
  0
LINE
  5
39D
  8
1
  6
CONTINUOUS
 62
     7
 10
-251.3189352075162
 20
139.2250025195852
 30
0.0
 11
-249.9689352075162
 21
139.2250025195476
 31
0.0
  0
LINE
  5
39E
  8
1
  6
CONTINUOUS
 62
     7
 10
-249.9689352072752
 20
147.8750025195476
 30
0.0
 11
-251.3189352072752
 21
147.8750025195853
 31
0.0
  0
CIRCLE
  5
39F
  8
1
  6
CONTINUOUS
 62
     7
 10
-284.8028069449362
 20
151.55
 30
0.0
 40
16.99999999999999
  0
LINE
  5
3A0
  8
1
  6
CONTINUOUS
 62
     7
 10
-256.0770217472919
 20
146.5954545454545
 30
0.0
 11
-256.0772927170876
 21
146.5954545454545
 31
0.0
  0
ENDBLK
  8
0
  0
ENDSEC
  0
SECTION
  2
ENTITIES
  0
POINT
  5
70
  8
1
 62
     7
 10
-220.4
 20
141.55
 30
0.0
  0
POINT
  5
71
  8
1
 62
     7
 10
-245.6
 20
151.55
 30
0.0
  0
POINT
  5
72
  8
1
 62
     7
 10
-320.6
 20
141.55
 30
0.0
  0
POINT
  5
73
  8
1
 62
     7
 10
-85.4
 20
146.55
 30
0.0
  0
POINT
  5
74
  8
1
 62
     7
 10
-270.6
 20
116.55
 30
0.0
  0
POINT
  5
75
  8
1
 62
     7
 10
-280.6
 20
186.55
 30
0.0
  0
LINE
  5
76
  8
1
  6
CONTINUOUS
 62
     7
 10
-255.6439352070249
 20
156.8387299069732
 30
0.0
 11
-256.4417097170281
 21
156.8387299069954
 31
0.0
  0
LINE
  5
77
  8
1
  6
CONTINUOUS
 62
     7
 10
-256.4417090556813
 20
146.2612736395135
 30
0.0
 11
-255.6439352073194
 21
146.2612736394912
 31
0.0
  0
LINE
  5
78
  8
1
  6
CENTER
 62
     1
 10
-284.8028069449362
 20
116.55
 30
0.0
 11
-284.8028069449362
 21
186.55
 31
0.0
  0
LINE
  5
7A
  8
1
  6
CENTER
 62
     1
 10
-85.4
 20
151.55
 30
0.0
 11
-220.4
 21
151.55
 31
0.0
  0
LINE
  5
7B
  8
1
  6
CENTER
 62
     1
 10
-320.6
 20
151.55
 30
0.0
 11
-245.6
 21
151.55
 31
0.0
  0
INSERT
  5
16E
  8
1
  6
CONTINUOUS
 62
     7
  2
D_FRAME_VIEW_2744
 10
0.0
 20
0.0
 30
0.0
  0
TEXT
  5
16F
  8
1
  6
CONTINUOUS
 62
     7
 10
-159.6180005001876
 20
77.03636363636365
 30
0.0
 40
3.0
  1
ＭＦＳＧＮ－３６Ｇ
  0
INSERT
  5
3A1
  8
1
  6
CONTINUOUS
 62
     7
  2
D_FRAME_VIEW_4650
 10
0.0
 20
0.0
 30
0.0
  0
ENDSEC
  0
EOF
