  0
SECTION
  2
HEADER
  9
$ACADVER
  1
AC1006
  9
$DWGCODEPAGE
  3
ansi_932
  9
$INSBASE
 10
0.0
 20
0.0
 30
0.0
  9
$EXTMIN
 10
-337.3
 20
152.8
  9
$EXTMAX
 10
-146.9318181818182
 20
247.8
  9
$LIMMIN
 10
0.0
 20
0.0
  9
$LIMMAX
 10
12.0
 20
9.0
  9
$ORTHOMODE
 70
     0
  9
$REGENMODE
 70
     1
  9
$FILLMODE
 70
     1
  9
$QTEXTMODE
 70
     0
  9
$MIRRTEXT
 70
     1
  9
$DRAGMODE
 70
     2
  9
$LTSCALE
 40
1.0
  9
$OSMODE
 70
    37
  9
$ATTMODE
 70
     1
  9
$TEXTSIZE
 40
0.2
  9
$TRACEWID
 40
0.05
  9
$TEXTSTYLE
  7
STANDARD
  9
$CLAYER
  8
0
  9
$CELTYPE
  6
BYLAYER
  9
$CECOLOR
 62
   256
  9
$DIMSCALE
 40
1.0
  9
$DIMASZ
 40
3.0
  9
$DIMEXO
 40
0.0625
  9
$DIMDLI
 40
0.38
  9
$DIMRND
 40
0.0
  9
$DIMDLE
 40
0.0
  9
$DIMEXE
 40
1.5
  9
$DIMTP
 40
0.0
  9
$DIMTM
 40
0.0
  9
$DIMTXT
 40
3.0
  9
$DIMCEN
 40
0.09
  9
$DIMTSZ
 40
0.0
  9
$DIMTOL
 70
     0
  9
$DIMLIM
 70
     0
  9
$DIMTIH
 70
     1
  9
$DIMTOH
 70
     1
  9
$DIMSE1
 70
     0
  9
$DIMSE2
 70
     0
  9
$DIMTAD
 70
     1
  9
$DIMZIN
 70
     0
  9
$DIMBLK
  1

  9
$DIMASO
 70
     1
  9
$DIMSHO
 70
     1
  9
$DIMPOST
  1

  9
$DIMAPOST
  1

  9
$DIMALT
 70
     0
  9
$DIMALTD
 70
     2
  9
$DIMALTF
 40
25.4
  9
$DIMLFAC
 40
1.0
  9
$DIMTOFL
 70
     0
  9
$DIMTVP
 40
0.0
  9
$DIMTIX
 70
     0
  9
$DIMSOXD
 70
     0
  9
$DIMSAH
 70
     0
  9
$DIMBLK1
  1

  9
$DIMBLK2
  1

  9
$LUNITS
 70
     2
  9
$LUPREC
 70
     4
  9
$SKETCHINC
 40
0.1
  9
$FILLETRAD
 40
0.5
  9
$AUNITS
 70
     0
  9
$AUPREC
 70
     0
  9
$MENU
  1
.
  9
$ELEVATION
 40
0.0
  9
$THICKNESS
 40
0.0
  9
$LIMCHECK
 70
     0
  9
$CHAMFERA
 40
0.0
  9
$CHAMFERB
 40
0.0
  9
$SKPOLY
 70
     0
  9
$TDCREATE
 40
2460747.436172894
  9
$TDUPDATE
 40
2460747.436173033
  9
$TDINDWG
 40
0.0000000116
  9
$TDUSRTIMER
 40
0.0000000116
  9
$USRTIMER
 70
     1
  9
$ANGBASE
 50
0.0
  9
$ANGDIR
 70
     0
  9
$PDMODE
 70
     0
  9
$PDSIZE
 40
0.0
  9
$PLINEWID
 40
0.0
  9
$COORDS
 70
     1
  9
$SPLFRAME
 70
     0
  9
$SPLINETYPE
 70
     6
  9
$SPLINESEGS
 70
     8
  9
$ATTDIA
 70
     0
  9
$ATTREQ
 70
     1
  9
$HANDLING
 70
     1
  9
$HANDSEED
  5
560
  9
$SURFTAB1
 70
     6
  9
$SURFTAB2
 70
     6
  9
$SURFTYPE
 70
     6
  9
$SURFU
 70
     6
  9
$SURFV
 70
     6
  9
$UCSNAME
  2

  9
$UCSORG
 10
0.0
 20
0.0
 30
0.0
  9
$UCSXDIR
 10
1.0
 20
0.0
 30
0.0
  9
$UCSYDIR
 10
0.0
 20
1.0
 30
0.0
  9
$USERI1
 70
     0
  9
$USERI2
 70
     0
  9
$USERI3
 70
     0
  9
$USERI4
 70
     0
  9
$USERI5
 70
     0
  9
$USERR1
 40
0.0
  9
$USERR2
 40
0.0
  9
$USERR3
 40
0.0
  9
$USERR4
 40
0.0
  9
$USERR5
 40
0.0
  9
$WORLDVIEW
 70
     1
  0
ENDSEC
  0
SECTION
  2
TABLES
  0
TABLE
  2
VPORT
 70
     1
  0
VPORT
  2
*ACTIVE
 70
     0
 10
0.0
 20
0.0
 11
1.0
 21
1.0
 12
-242.1159090909091
 22
200.3
 13
0.0
 23
0.0
 14
0.5
 24
0.5
 15
0.5
 25
0.5
 16
0.0
 26
0.0
 36
1.0
 17
0.0
 27
0.0
 37
0.0
 40
95.0
 41
1.6
 42
50.0
 43
0.0
 44
0.0
 50
0.0
 51
0.0
 71
     0
 72
   100
 73
     1
 74
     3
 75
     0
 76
     0
 77
     0
 78
     0
  0
ENDTAB
  0
TABLE
  2
LTYPE
 70
     2
  0
LTYPE
  2
CONTINUOUS
 70
     0
  3
Solid line
 72
    65
 73
     0
 40
0.0
  0
LTYPE
  2
CENTER
 70
     0
  3

 72
    65
 73
     0
 40
0.0
  0
ENDTAB
  0
TABLE
  2
LAYER
 70
     2
  0
LAYER
  2
0
 70
     0
 62
     7
  6
CONTINUOUS
  0
LAYER
  2
1
 70
     0
 62
     7
  6
CONTINUOUS
  0
ENDTAB
  0
TABLE
  2
STYLE
 70
     2
  0
STYLE
  2
STANDARD
 70
     0
 40
0.0
 41
1.0
 50
0.0
 71
     0
 42
0.2
  3
txt
  4

  0
STYLE
  2
ＭＳ_ゴシック
 70
     0
 40
0.0
 41
1.0
 50
0.0
 71
     0
 42
0.2
  3
ＭＳ ゴシック.shx
  4

  0
ENDTAB
  0
TABLE
  2
VIEW
 70
     0
  0
ENDTAB
  0
TABLE
  2
UCS
 70
     0
  0
ENDTAB
  0
ENDSEC
  0
SECTION
  2
BLOCKS
  0
BLOCK
  8
0
  2
D_FRAME_VIEW_4843
 70
     0
 10
0.0
 20
0.0
 30
0.0
  0
LINE
  5
72
  8
1
  6
CONTINUOUS
 62
     7
 10
-163.6576664955247
 20
194.4696972201766
 30
0.0
 11
-164.6576664955247
 21
194.4696972201766
 31
0.0
  0
LINE
  5
73
  8
1
  6
CONTINUOUS
 62
     7
 10
-164.6576664955247
 20
231.1303027798234
 30
0.0
 11
-163.6576664955247
 21
231.1303027798234
 31
0.0
  0
LINE
  5
74
  8
1
  6
CONTINUOUS
 62
     7
 10
-163.6576664955247
 20
194.4696972201766
 30
0.0
 11
-163.6576664955247
 21
231.1303027798234
 31
0.0
  0
LINE
  5
75
  8
1
  6
CONTINUOUS
 62
     7
 10
-163.6576664955247
 20
216.7
 30
0.0
 11
-157.9093739029848
 21
216.2911818612742
 31
0.0
  0
ARC
  5
76
  8
1
  6
CONTINUOUS
 62
     7
 10
-158.1576664955246
 20
212.8
 30
0.0
 40
3.499999999999995
 50
274.0680220306858
 51
85.93197796931429
  0
LINE
  5
77
  8
1
  6
CONTINUOUS
 62
     7
 10
-157.9093739029848
 20
209.3088181387258
 30
0.0
 11
-163.6576664955247
 21
208.9
 31
0.0
  0
LINE
  5
78
  8
1
  6
CONTINUOUS
 62
     7
 10
-225.8576664955246
 20
213.55
 30
0.0
 11
-225.8576664955246
 21
212.05
 31
0.0
  0
ARC
  5
79
  8
1
  6
CONTINUOUS
 62
     7
 10
-227.8658310289514
 20
239.4907268228139
 30
0.0
 40
2.008184038543152
 50
359.747471441432
 51
89.7670559138029
  0
LINE
  5
7A
  8
1
  6
CONTINUOUS
 62
     7
 10
-225.8576664955246
 20
185.9919321845084
 30
0.0
 11
-225.8576664955246
 21
212.05
 31
0.0
  0
LINE
  5
7B
  8
1
  6
CONTINUOUS
 62
     7
 10
-225.8576664955246
 20
213.55
 30
0.0
 11
-225.8576664955246
 21
239.4818758710852
 31
0.0
  0
ARC
  5
7C
  8
1
  6
CONTINUOUS
 62
     7
 10
-227.8594093858365
 20
185.9891906695922
 30
0.0
 40
2.00148928887847
 50
270.0498929832901
 51
353.7835912173861
  0
LINE
  5
7D
  8
1
  6
CONTINUOUS
 62
     7
 10
-247.8576664955247
 20
183.9877021395655
 30
0.0
 11
-227.8576664955246
 21
183.9877021395655
 31
0.0
  0
LINE
  5
7E
  8
1
  6
CONTINUOUS
 62
     7
 10
-227.8576664955246
 20
241.4988942643021
 30
0.0
 11
-247.8576664955247
 21
241.4988942643021
 31
0.0
  0
LINE
  5
7F
  8
1
  6
CONTINUOUS
 62
     7
 10
-247.8576664955247
 20
183.95
 30
0.0
 11
-247.8576664955247
 21
183.9877021395655
 31
0.0
  0
LINE
  5
80
  8
1
  6
CONTINUOUS
 62
     7
 10
-249.8576664955247
 20
185.95
 30
0.0
 11
-249.8576664955247
 21
212.8
 31
0.0
  0
LINE
  5
81
  8
1
  6
CONTINUOUS
 62
     7
 10
-249.8576664955247
 20
212.8
 30
0.0
 11
-249.8576664955247
 21
239.6499999999999
 31
0.0
  0
LINE
  5
82
  8
1
  6
CONTINUOUS
 62
     7
 10
-247.8576664955247
 20
241.498894264302
 30
0.0
 11
-247.8576664955247
 21
241.6499999999999
 31
0.0
  0
LINE
  5
83
  8
1
  6
CONTINUOUS
 62
     7
 10
-225.8576664955246
 20
240.9908229748619
 30
0.0
 11
-225.8576664955246
 21
239.4818758710852
 31
0.0
  0
LINE
  5
84
  8
1
  6
CONTINUOUS
 62
     7
 10
-225.8576664955246
 20
243.0468593410952
 30
0.0
 11
-225.8576664955246
 21
243.15
 31
0.0
  0
LINE
  5
85
  8
1
  6
CONTINUOUS
 62
     7
 10
-225.8576664955246
 20
240.9908229748619
 30
0.0
 11
-225.8576664955246
 21
243.0468593410952
 31
0.0
  0
LINE
  5
86
  8
1
  6
CONTINUOUS
 62
     7
 10
-225.8696888668628
 20
185.7724612764078
 30
0.0
 11
-225.8576664955246
 21
185.9919321845083
 31
0.0
  0
LINE
  5
87
  8
1
  6
CONTINUOUS
 62
     7
 10
-225.8576664955246
 20
185.890533614095
 30
0.0
 11
-225.8576664955246
 21
184.4897103511815
 31
0.0
  0
LINE
  5
88
  8
1
  6
CONTINUOUS
 62
     7
 10
-225.8576664955246
 20
182.45
 30
0.0
 11
-225.8576664955246
 21
182.4664789383098
 31
0.0
  0
LINE
  5
89
  8
1
  6
CONTINUOUS
 62
     7
 10
-225.8576664955246
 20
182.4664789383098
 30
0.0
 11
-225.8576664955246
 21
184.4897103511815
 31
0.0
  0
LINE
  5
8A
  8
1
  6
CONTINUOUS
 62
     7
 10
-165.6576664955247
 20
212.9874487247825
 30
0.0
 11
-165.6576664955247
 21
212.6125512752175
 31
0.0
  0
LINE
  5
8B
  8
1
  6
CONTINUOUS
 62
     7
 10
-169.6576664955247
 20
213.012132034356
 30
0.0
 11
-169.6576664955247
 21
212.587867965644
 31
0.0
  0
LINE
  5
8C
  8
1
  6
CONTINUOUS
 62
     7
 10
-165.6576664955247
 20
214.1750245116935
 30
0.0
 11
-165.6576664955247
 21
214.549373362696
 31
0.0
  0
LINE
  5
8D
  8
1
  6
CONTINUOUS
 62
     7
 10
-169.6576664955247
 20
214.1517121660217
 30
0.0
 11
-169.6576664955247
 21
214.5753553965324
 31
0.0
  0
LINE
  5
8E
  8
1
  6
CONTINUOUS
 62
     7
 10
-165.6576664955247
 20
211.4249754883065
 30
0.0
 11
-165.6576664955247
 21
211.050626637304
 31
0.0
  0
LINE
  5
8F
  8
1
  6
CONTINUOUS
 62
     7
 10
-169.6576664955247
 20
211.4482878339782
 30
0.0
 11
-169.6576664955247
 21
211.0246446034676
 31
0.0
  0
LINE
  5
90
  8
1
  6
CONTINUOUS
 62
     7
 10
-169.6576664955247
 20
213.4312558733249
 30
0.0
 11
-165.6576664955247
 21
213.4164814124172
 31
0.0
  0
LINE
  5
91
  8
1
  6
CONTINUOUS
 62
     7
 10
-165.6576664955247
 20
213.4164814124172
 30
0.0
 11
-165.6576664955247
 21
212.9874487247825
 31
0.0
  0
LINE
  5
92
  8
1
  6
CONTINUOUS
 62
     7
 10
-169.6576664955247
 20
213.4312558733249
 30
0.0
 11
-169.6576664955247
 21
213.012132034356
 31
0.0
  0
LINE
  5
93
  8
1
  6
CONTINUOUS
 62
     7
 10
-165.6576664955246
 20
212.1835185875828
 30
0.0
 11
-169.6576664955246
 21
212.1687441266751
 31
0.0
  0
LINE
  5
94
  8
1
  6
CONTINUOUS
 62
     7
 10
-165.6576664955247
 20
212.6125512752175
 30
0.0
 11
-165.6576664955246
 21
212.1835185875828
 31
0.0
  0
LINE
  5
95
  8
1
  6
CONTINUOUS
 62
     7
 10
-169.6576664955247
 20
212.5878679656441
 30
0.0
 11
-169.6576664955246
 21
212.1687441266751
 31
0.0
  0
LINE
  5
96
  8
1
  6
CONTINUOUS
 62
     7
 10
-169.6576664955247
 20
211.8894640763017
 30
0.0
 11
-165.6576664955247
 21
211.8765819381572
 31
0.0
  0
LINE
  5
97
  8
1
  6
CONTINUOUS
 62
     7
 10
-165.6576664955247
 20
211.8765819381572
 30
0.0
 11
-165.6576664955247
 21
211.4249754883065
 31
0.0
  0
LINE
  5
98
  8
1
  6
CONTINUOUS
 62
     7
 10
-169.6576664955247
 20
211.8894640763017
 30
0.0
 11
-169.6576664955247
 21
211.4482878339782
 31
0.0
  0
LINE
  5
99
  8
1
  6
CONTINUOUS
 62
     7
 10
-165.6576664955247
 20
213.7234180618427
 30
0.0
 11
-169.6576664955247
 21
213.7105359236982
 31
0.0
  0
LINE
  5
9A
  8
1
  6
CONTINUOUS
 62
     7
 10
-165.6576664955247
 20
213.7234180618427
 30
0.0
 11
-165.6576664955247
 21
214.1750245116935
 31
0.0
  0
LINE
  5
9B
  8
1
  6
CONTINUOUS
 62
     7
 10
-169.6576664955247
 20
213.7105359236982
 30
0.0
 11
-169.6576664955247
 21
214.1517121660217
 31
0.0
  0
LINE
  5
9C
  8
1
  6
CONTINUOUS
 62
     7
 10
-169.6576664955247
 20
214.9712001994457
 30
0.0
 11
-165.6576664955247
 21
214.9545766555888
 31
0.0
  0
LINE
  5
9D
  8
1
  6
CONTINUOUS
 62
     7
 10
-165.6576664955247
 20
214.549373362696
 30
0.0
 11
-165.6576664955247
 21
214.9545766555888
 31
0.0
  0
LINE
  5
9E
  8
1
  6
CONTINUOUS
 62
     7
 10
-169.6576664955247
 20
214.5753553965324
 30
0.0
 11
-169.6576664955247
 21
214.9712001994457
 31
0.0
  0
LINE
  5
9F
  8
1
  6
CONTINUOUS
 62
     7
 10
-165.6576664955246
 20
210.6454233444111
 30
0.0
 11
-169.6576664955247
 21
210.6287998005543
 31
0.0
  0
LINE
  5
A0
  8
1
  6
CONTINUOUS
 62
     7
 10
-165.6576664955247
 20
211.050626637304
 30
0.0
 11
-165.6576664955246
 21
210.6454233444111
 31
0.0
  0
LINE
  5
A1
  8
1
  6
CONTINUOUS
 62
     7
 10
-169.6576664955247
 20
211.0246446034676
 30
0.0
 11
-169.6576664955247
 21
210.6287998005543
 31
0.0
  0
LINE
  5
A2
  8
1
  6
CONTINUOUS
 62
     7
 10
-165.6576664955247
 20
209.8665264801706
 30
0.0
 11
-165.6576664955247
 21
209.4938218192948
 31
0.0
  0
LINE
  5
A3
  8
1
  6
CONTINUOUS
 62
     7
 10
-169.6576664955247
 20
209.8883996346465
 30
0.0
 11
-169.6576664955247
 21
209.4666171017577
 31
0.0
  0
LINE
  5
A4
  8
1
  6
CONTINUOUS
 62
     7
 10
-165.6576664955247
 20
215.7334735198293
 30
0.0
 11
-165.6576664955247
 21
216.1061781807051
 31
0.0
  0
LINE
  5
A5
  8
1
  6
CONTINUOUS
 62
     7
 10
-169.6576664955247
 20
215.7116003653535
 30
0.0
 11
-169.6576664955247
 21
216.1333828982423
 31
0.0
  0
LINE
  5
A6
  8
1
  6
CONTINUOUS
 62
     7
 10
-165.6576664955247
 20
215.2606150060003
 30
0.0
 11
-169.6576664955247
 21
215.2496628922491
 31
0.0
  0
LINE
  5
A7
  8
1
  6
CONTINUOUS
 62
     7
 10
-165.6576664955247
 20
215.2606150060003
 30
0.0
 11
-165.6576664955247
 21
215.7334735198293
 31
0.0
  0
LINE
  5
A8
  8
1
  6
CONTINUOUS
 62
     7
 10
-169.6576664955247
 20
215.2496628922491
 30
0.0
 11
-169.6576664955247
 21
215.7116003653535
 31
0.0
  0
LINE
  5
A9
  8
1
  6
CONTINUOUS
 62
     7
 10
-169.6576664955247
 20
210.3503371077509
 30
0.0
 11
-165.6576664955247
 21
210.3393849939997
 31
0.0
  0
LINE
  5
AA
  8
1
  6
CONTINUOUS
 62
     7
 10
-165.6576664955247
 20
210.3393849939997
 30
0.0
 11
-165.6576664955247
 21
209.8665264801706
 31
0.0
  0
LINE
  5
AB
  8
1
  6
CONTINUOUS
 62
     7
 10
-169.6576664955247
 20
210.3503371077509
 30
0.0
 11
-169.6576664955247
 21
209.8883996346465
 31
0.0
  0
LINE
  5
AC
  8
1
  6
CONTINUOUS
 62
     7
 10
-169.6576664955247
 20
216.5047901622073
 30
0.0
 11
-165.6576664955247
 21
216.4863661868514
 31
0.0
  0
LINE
  5
AD
  8
1
  6
CONTINUOUS
 62
     7
 10
-165.6576664955247
 20
216.1061781807051
 30
0.0
 11
-165.6576664955247
 21
216.4863661868514
 31
0.0
  0
LINE
  5
AE
  8
1
  6
CONTINUOUS
 62
     7
 10
-169.6576664955247
 20
216.1333828982423
 30
0.0
 11
-169.6576664955247
 21
216.5047901622073
 31
0.0
  0
LINE
  5
AF
  8
1
  6
CONTINUOUS
 62
     7
 10
-165.6576664955246
 20
209.1136338131486
 30
0.0
 11
-169.6576664955247
 21
209.0952098377926
 31
0.0
  0
LINE
  5
B0
  8
1
  6
CONTINUOUS
 62
     7
 10
-165.6576664955247
 20
209.4938218192948
 30
0.0
 11
-165.6576664955246
 21
209.1136338131486
 31
0.0
  0
LINE
  5
B1
  8
1
  6
CONTINUOUS
 62
     7
 10
-169.6576664955247
 20
209.4666171017577
 30
0.0
 11
-169.6576664955247
 21
209.0952098377926
 31
0.0
  0
LINE
  5
B2
  8
1
  6
CONTINUOUS
 62
     7
 10
-165.6576664955246
 20
208.3166627497325
 30
0.0
 11
-165.6576664955246
 21
207.9466930585629
 31
0.0
  0
LINE
  5
B3
  8
1
  6
CONTINUOUS
 62
     7
 10
-169.6576664955246
 20
208.3370326977404
 30
0.0
 11
-169.6576664955246
 21
207.918345276266
 31
0.0
  0
LINE
  5
B4
  8
1
  6
CONTINUOUS
 62
     7
 10
-165.6576664955246
 20
217.2833372502674
 30
0.0
 11
-165.6576664955246
 21
217.653306941437
 31
0.0
  0
LINE
  5
B5
  8
1
  6
CONTINUOUS
 62
     7
 10
-169.6576664955246
 20
217.2629673022596
 30
0.0
 11
-169.6576664955246
 21
217.681654723734
 31
0.0
  0
LINE
  5
B6
  8
1
  6
CONTINUOUS
 62
     7
 10
-165.6576664955247
 20
216.7906105682498
 30
0.0
 11
-169.6576664955247
 21
216.7816205319978
 31
0.0
  0
LINE
  5
B7
  8
1
  6
CONTINUOUS
 62
     7
 10
-165.6576664955247
 20
216.7906105682498
 30
0.0
 11
-165.6576664955247
 21
217.2833372502674
 31
0.0
  0
LINE
  5
B8
  8
1
  6
CONTINUOUS
 62
     7
 10
-169.6576664955247
 20
216.7816205319978
 30
0.0
 11
-169.6576664955247
 21
217.2629673022596
 31
0.0
  0
LINE
  5
B9
  8
1
  6
CONTINUOUS
 62
     7
 10
-169.6576664955247
 20
208.8183794680021
 30
0.0
 11
-165.6576664955247
 21
208.8093894317502
 31
0.0
  0
LINE
  5
BA
  8
1
  6
CONTINUOUS
 62
     7
 10
-165.6576664955247
 20
208.8093894317502
 30
0.0
 11
-165.6576664955247
 21
208.3166627497325
 31
0.0
  0
LINE
  5
BB
  8
1
  6
CONTINUOUS
 62
     7
 10
-169.6576664955247
 20
208.8183794680021
 30
0.0
 11
-169.6576664955247
 21
208.3370326977404
 31
0.0
  0
LINE
  5
BC
  8
1
  6
CONTINUOUS
 62
     7
 10
-165.6576664955247
 20
207.5926330199453
 30
0.0
 11
-169.6576664955247
 21
207.57246253379
 31
0.0
  0
LINE
  5
BD
  8
1
  6
CONTINUOUS
 62
     7
 10
-165.6576664955247
 20
207.946693058563
 30
0.0
 11
-165.6576664955247
 21
207.5926330199453
 31
0.0
  0
LINE
  5
BE
  8
1
  6
CONTINUOUS
 62
     7
 10
-169.6576664955247
 20
207.918345276266
 30
0.0
 11
-169.6576664955247
 21
207.57246253379
 31
0.0
  0
LINE
  5
BF
  8
1
  6
CONTINUOUS
 62
     7
 10
-169.6576664955247
 20
218.0275374662099
 30
0.0
 11
-165.6576664955247
 21
218.0073669800546
 31
0.0
  0
LINE
  5
C0
  8
1
  6
CONTINUOUS
 62
     7
 10
-165.6576664955247
 20
217.653306941437
 30
0.0
 11
-165.6576664955247
 21
218.0073669800546
 31
0.0
  0
LINE
  5
C1
  8
1
  6
CONTINUOUS
 62
     7
 10
-169.6576664955247
 20
217.681654723734
 30
0.0
 11
-169.6576664955247
 21
218.0275374662099
 31
0.0
  0
LINE
  5
C2
  8
1
  6
CONTINUOUS
 62
     7
 10
-165.6576664955246
 20
218.3089269727771
 30
0.0
 11
-169.6576664955246
 21
218.3019253247981
 31
0.0
  0
LINE
  5
C3
  8
1
  6
CONTINUOUS
 62
     7
 10
-169.6576664955246
 20
219.5349855488223
 30
0.0
 11
-165.6576664955246
 21
219.5131275840094
 31
0.0
  0
LINE
  5
C4
  8
1
  6
CONTINUOUS
 62
     7
 10
-165.6576664955246
 20
219.8111206246845
 30
0.0
 11
-169.6576664955246
 21
219.806127856417
 31
0.0
  0
LINE
  5
C5
  8
1
  6
CONTINUOUS
 62
     7
 10
-169.6576664955246
 20
221.0227226230223
 30
0.0
 11
-165.6576664955246
 21
220.999241150369
 31
0.0
  0
LINE
  5
C6
  8
1
  6
CONTINUOUS
 62
     7
 10
-165.6576664955246
 20
221.2927951148787
 30
0.0
 11
-169.6576664955246
 21
221.2898258384545
 31
0.0
  0
LINE
  5
C7
  8
1
  6
CONTINUOUS
 62
     7
 10
-169.6576664955246
 20
222.4863945891952
 30
0.0
 11
-165.6576664955246
 21
222.4613583309728
 31
0.0
  0
LINE
  5
C8
  8
1
  6
CONTINUOUS
 62
     7
 10
-165.6576664955246
 20
222.7496140868628
 30
0.0
 11
-169.6576664955246
 21
222.7486769923426
 31
0.0
  0
LINE
  5
C9
  8
1
  6
CONTINUOUS
 62
     7
 10
-169.6576664955246
 20
223.9217177780993
 30
0.0
 11
-165.6576664955246
 21
223.895200006907
 31
0.0
  0
LINE
  5
CA
  8
1
  6
CONTINUOUS
 62
     7
 10
-165.6576664955246
 20
224.1773139277748
 30
0.0
 11
-169.6576664955246
 21
224.1784117577151
 31
0.0
  0
LINE
  5
CB
  8
1
  6
CONTINUOUS
 62
     7
 10
-169.6576664955246
 20
225.324491487707
 30
0.0
 11
-165.6576664955246
 21
225.2965698120277
 31
0.0
  0
LINE
  5
CC
  8
1
  6
CONTINUOUS
 62
     7
 10
-165.6576664955246
 20
225.5717162465298
 30
0.0
 11
-169.6576664955246
 21
225.5748457879562
 31
0.0
  0
LINE
  5
CD
  8
1
  6
CONTINUOUS
 62
     7
 10
-169.6576664955246
 20
226.6906102772286
 30
0.0
 11
-165.6576664955246
 21
226.6613664142955
 31
0.0
  0
LINE
  5
CE
  8
1
  6
CONTINUOUS
 62
     7
 10
-165.6576664955246
 20
226.9287401025473
 30
0.0
 11
-169.6576664955246
 21
226.9338921963582
 31
0.0
  0
LINE
  5
CF
  8
1
  6
CONTINUOUS
 62
     7
 10
-169.6576664955246
 20
228.0160759823387
 30
0.0
 11
-165.6576664955246
 21
227.9855955189766
 31
0.0
  0
LINE
  5
D0
  8
1
  6
CONTINUOUS
 62
     7
 10
-165.6576664955246
 20
228.2444139492742
 30
0.0
 11
-169.6576664955246
 21
228.2515735170461
 31
0.0
  0
LINE
  5
D1
  8
1
  6
CONTINUOUS
 62
     7
 10
-169.6576664955246
 20
229.2970094164418
 30
0.0
 11
-165.6576664955246
 21
229.2653815585836
 31
0.0
  0
LINE
  5
D2
  8
1
  6
CONTINUOUS
 62
     7
 10
-165.6576664955246
 20
229.5148872575487
 30
0.0
 11
-169.6576664955246
 21
229.5240333456656
 31
0.0
  0
LINE
  5
D3
  8
1
  6
CONTINUOUS
 62
     7
 10
-169.6576664955246
 20
230.5296617237291
 30
0.0
 11
-165.6576664955246
 21
230.4969790353408
 31
0.0
  0
LINE
  5
D4
  8
1
  6
CONTINUOUS
 62
     7
 10
-165.6576664955246
 20
195.1030209646592
 30
0.0
 11
-169.6576664955247
 21
195.0703382762708
 31
0.0
  0
LINE
  5
D5
  8
1
  6
CONTINUOUS
 62
     7
 10
-169.6576664955247
 20
196.0759666543344
 30
0.0
 11
-165.6576664955247
 21
196.0851127424513
 31
0.0
  0
LINE
  5
D6
  8
1
  6
CONTINUOUS
 62
     7
 10
-165.6576664955246
 20
196.3346184414163
 30
0.0
 11
-169.6576664955247
 21
196.3029905835581
 31
0.0
  0
LINE
  5
D7
  8
1
  6
CONTINUOUS
 62
     7
 10
-169.6576664955247
 20
197.3484264829539
 30
0.0
 11
-165.6576664955247
 21
197.3555860507257
 31
0.0
  0
LINE
  5
D8
  8
1
  6
CONTINUOUS
 62
     7
 10
-165.6576664955246
 20
197.6144044810233
 30
0.0
 11
-169.6576664955247
 21
197.5839240176612
 31
0.0
  0
LINE
  5
D9
  8
1
  6
CONTINUOUS
 62
     7
 10
-169.6576664955247
 20
198.6661078036418
 30
0.0
 11
-165.6576664955247
 21
198.6712598974526
 31
0.0
  0
LINE
  5
DA
  8
1
  6
CONTINUOUS
 62
     7
 10
-165.6576664955246
 20
198.9386335857045
 30
0.0
 11
-169.6576664955247
 21
198.9093897227714
 31
0.0
  0
LINE
  5
DB
  8
1
  6
CONTINUOUS
 62
     7
 10
-169.6576664955247
 20
200.0251542120438
 30
0.0
 11
-165.6576664955247
 21
200.0282837534701
 31
0.0
  0
LINE
  5
DC
  8
1
  6
CONTINUOUS
 62
     7
 10
-165.6576664955246
 20
200.3034301879722
 30
0.0
 11
-169.6576664955247
 21
200.2755085122929
 31
0.0
  0
LINE
  5
DD
  8
1
  6
CONTINUOUS
 62
     7
 10
-169.6576664955247
 20
201.4215882422849
 30
0.0
 11
-165.6576664955247
 21
201.4226860722252
 31
0.0
  0
LINE
  5
DE
  8
1
  6
CONTINUOUS
 62
     7
 10
-165.6576664955246
 20
201.704799993093
 30
0.0
 11
-169.6576664955247
 21
201.6782822219006
 31
0.0
  0
LINE
  5
DF
  8
1
  6
CONTINUOUS
 62
     7
 10
-169.6576664955247
 20
202.8513230076574
 30
0.0
 11
-165.6576664955247
 21
202.8503859131372
 31
0.0
  0
LINE
  5
E0
  8
1
  6
CONTINUOUS
 62
     7
 10
-165.6576664955246
 20
203.1386416690272
 30
0.0
 11
-169.6576664955247
 21
203.1136054108047
 31
0.0
  0
LINE
  5
E1
  8
1
  6
CONTINUOUS
 62
     7
 10
-169.6576664955247
 20
204.3101741615455
 30
0.0
 11
-165.6576664955247
 21
204.3072048851213
 31
0.0
  0
LINE
  5
E2
  8
1
  6
CONTINUOUS
 62
     7
 10
-165.6576664955246
 20
204.600758849631
 30
0.0
 11
-169.6576664955247
 21
204.5772773769776
 31
0.0
  0
LINE
  5
E3
  8
1
  6
CONTINUOUS
 62
     7
 10
-169.6576664955247
 20
205.793872143583
 30
0.0
 11
-165.6576664955247
 21
205.7888793753155
 31
0.0
  0
LINE
  5
E4
  8
1
  6
CONTINUOUS
 62
     7
 10
-165.6576664955246
 20
206.0868724159905
 30
0.0
 11
-169.6576664955247
 21
206.0650144511777
 31
0.0
  0
LINE
  5
E5
  8
1
  6
CONTINUOUS
 62
     7
 10
-169.6576664955247
 20
207.2980746752018
 30
0.0
 11
-165.6576664955247
 21
207.2910730272229
 31
0.0
  0
LINE
  5
E6
  8
1
  6
CONTINUOUS
 62
     7
 10
-169.6576664955246
 20
230.5296617237291
 30
0.0
 11
-169.6576664955246
 21
230.9103400956581
 31
0.0
  0
LINE
  5
E7
  8
1
  6
CONTINUOUS
 62
     7
 10
-169.6576664955246
 20
229.2970094164418
 30
0.0
 11
-169.6576664955246
 21
229.5240333456656
 31
0.0
  0
LINE
  5
E8
  8
1
  6
CONTINUOUS
 62
     7
 10
-169.6576664955246
 20
228.0160759823387
 30
0.0
 11
-169.6576664955246
 21
228.2515735170461
 31
0.0
  0
LINE
  5
E9
  8
1
  6
CONTINUOUS
 62
     7
 10
-169.6576664955246
 20
226.6906102772286
 30
0.0
 11
-169.6576664955246
 21
226.9338921963582
 31
0.0
  0
LINE
  5
EA
  8
1
  6
CONTINUOUS
 62
     7
 10
-169.6576664955246
 20
225.324491487707
 30
0.0
 11
-169.6576664955246
 21
225.5748457879562
 31
0.0
  0
LINE
  5
EB
  8
1
  6
CONTINUOUS
 62
     7
 10
-169.6576664955246
 20
223.9217177780993
 30
0.0
 11
-169.6576664955246
 21
224.1784117577151
 31
0.0
  0
LINE
  5
EC
  8
1
  6
CONTINUOUS
 62
     7
 10
-169.6576664955246
 20
222.4863945891952
 30
0.0
 11
-169.6576664955246
 21
222.7486769923426
 31
0.0
  0
LINE
  5
ED
  8
1
  6
CONTINUOUS
 62
     7
 10
-169.6576664955246
 20
221.0227226230223
 30
0.0
 11
-169.6576664955246
 21
221.2898258384545
 31
0.0
  0
LINE
  5
EE
  8
1
  6
CONTINUOUS
 62
     7
 10
-169.6576664955247
 20
219.5349855488222
 30
0.0
 11
-169.6576664955247
 21
219.806127856417
 31
0.0
  0
LINE
  5
EF
  8
1
  6
CONTINUOUS
 62
     7
 10
-169.6576664955247
 20
218.0275374662099
 30
0.0
 11
-169.6576664955247
 21
218.3019253247981
 31
0.0
  0
LINE
  5
F0
  8
1
  6
CONTINUOUS
 62
     7
 10
-169.6576664955247
 20
216.5047901622073
 30
0.0
 11
-169.6576664955247
 21
216.7816205319978
 31
0.0
  0
LINE
  5
F1
  8
1
  6
CONTINUOUS
 62
     7
 10
-169.6576664955247
 20
214.9712001994457
 30
0.0
 11
-169.6576664955247
 21
215.249662892249
 31
0.0
  0
LINE
  5
F2
  8
1
  6
CONTINUOUS
 62
     7
 10
-169.6576664955247
 20
213.4312558733249
 30
0.0
 11
-169.6576664955247
 21
213.7105359236982
 31
0.0
  0
LINE
  5
F3
  8
1
  6
CONTINUOUS
 62
     7
 10
-169.6576664955247
 20
211.8894640763017
 30
0.0
 11
-169.6576664955247
 21
212.1687441266751
 31
0.0
  0
LINE
  5
F4
  8
1
  6
CONTINUOUS
 62
     7
 10
-169.6576664955247
 20
210.3503371077509
 30
0.0
 11
-169.6576664955247
 21
210.6287998005543
 31
0.0
  0
LINE
  5
F5
  8
1
  6
CONTINUOUS
 62
     7
 10
-169.6576664955247
 20
208.8183794680021
 30
0.0
 11
-169.6576664955247
 21
209.0952098377926
 31
0.0
  0
LINE
  5
F6
  8
1
  6
CONTINUOUS
 62
     7
 10
-169.6576664955247
 20
207.2980746752018
 30
0.0
 11
-169.6576664955247
 21
207.57246253379
 31
0.0
  0
LINE
  5
F7
  8
1
  6
CONTINUOUS
 62
     7
 10
-169.6576664955247
 20
205.793872143583
 30
0.0
 11
-169.6576664955247
 21
206.0650144511777
 31
0.0
  0
LINE
  5
F8
  8
1
  6
CONTINUOUS
 62
     7
 10
-169.6576664955247
 20
204.3101741615455
 30
0.0
 11
-169.6576664955247
 21
204.5772773769776
 31
0.0
  0
LINE
  5
F9
  8
1
  6
CONTINUOUS
 62
     7
 10
-169.6576664955247
 20
202.8513230076574
 30
0.0
 11
-169.6576664955247
 21
203.1136054108048
 31
0.0
  0
LINE
  5
FA
  8
1
  6
CONTINUOUS
 62
     7
 10
-169.6576664955247
 20
201.4215882422849
 30
0.0
 11
-169.6576664955247
 21
201.6782822219006
 31
0.0
  0
LINE
  5
FB
  8
1
  6
CONTINUOUS
 62
     7
 10
-169.6576664955247
 20
200.0251542120438
 30
0.0
 11
-169.6576664955247
 21
200.275508512293
 31
0.0
  0
LINE
  5
FC
  8
1
  6
CONTINUOUS
 62
     7
 10
-169.6576664955247
 20
198.6661078036418
 30
0.0
 11
-169.6576664955247
 21
198.9093897227714
 31
0.0
  0
LINE
  5
FD
  8
1
  6
CONTINUOUS
 62
     7
 10
-169.6576664955247
 20
197.3484264829539
 30
0.0
 11
-169.6576664955247
 21
197.5839240176612
 31
0.0
  0
LINE
  5
FE
  8
1
  6
CONTINUOUS
 62
     7
 10
-169.6576664955247
 20
196.0759666543344
 30
0.0
 11
-169.6576664955247
 21
196.3029905835581
 31
0.0
  0
LINE
  5
FF
  8
1
  6
CONTINUOUS
 62
     7
 10
-169.6576664955247
 20
194.6896599043419
 30
0.0
 11
-169.6576664955247
 21
195.0703382762708
 31
0.0
  0
LINE
  5
100
  8
1
  6
CONTINUOUS
 62
     7
 10
-164.6576664955247
 20
230.1819673245547
 30
0.0
 11
-164.6679599955753
 21
230.2781546864624
 31
0.0
  0
LINE
  5
101
  8
1
  6
CONTINUOUS
 62
     7
 10
-164.6576664955247
 20
230.1819673245547
 30
0.0
 11
-164.6576664955247
 21
195.4180326754453
 31
0.0
  0
LINE
  5
102
  8
1
  6
CONTINUOUS
 62
     7
 10
-165.6576664955246
 20
206.7799202201662
 30
0.0
 11
-165.6576664955246
 21
206.4137682739579
 31
0.0
  0
LINE
  5
103
  8
1
  6
CONTINUOUS
 62
     7
 10
-169.6576664955246
 20
206.7987273458074
 30
0.0
 11
-169.6576664955246
 21
206.3843603912031
 31
0.0
  0
LINE
  5
104
  8
1
  6
CONTINUOUS
 62
     7
 10
-165.6576664955246
 20
218.8200797798337
 30
0.0
 11
-165.6576664955246
 21
219.1862317260421
 31
0.0
  0
LINE
  5
105
  8
1
  6
CONTINUOUS
 62
     7
 10
-169.6576664955246
 20
218.8012726541926
 30
0.0
 11
-169.6576664955246
 21
219.2156396087968
 31
0.0
  0
LINE
  5
106
  8
1
  6
CONTINUOUS
 62
     7
 10
-165.6576664955247
 20
207.2910730272229
 30
0.0
 11
-165.6576664955246
 21
206.7799202201662
 31
0.0
  0
LINE
  5
107
  8
1
  6
CONTINUOUS
 62
     7
 10
-169.6576664955247
 20
207.2980746752018
 30
0.0
 11
-169.6576664955246
 21
206.7987273458074
 31
0.0
  0
LINE
  5
108
  8
1
  6
CONTINUOUS
 62
     7
 10
-165.6576664955246
 20
218.3089269727771
 30
0.0
 11
-165.6576664955246
 21
218.8200797798337
 31
0.0
  0
LINE
  5
109
  8
1
  6
CONTINUOUS
 62
     7
 10
-169.6576664955246
 20
218.3019253247981
 30
0.0
 11
-169.6576664955246
 21
218.8012726541926
 31
0.0
  0
LINE
  5
10A
  8
1
  6
CONTINUOUS
 62
     7
 10
-165.6576664955246
 20
206.4137682739579
 30
0.0
 11
-165.6576664955246
 21
206.0868724159905
 31
0.0
  0
LINE
  5
10B
  8
1
  6
CONTINUOUS
 62
     7
 10
-169.6576664955246
 20
206.3843603912031
 30
0.0
 11
-169.6576664955247
 21
206.0650144511777
 31
0.0
  0
LINE
  5
10C
  8
1
  6
CONTINUOUS
 62
     7
 10
-165.6576664955246
 20
219.186231726042
 30
0.0
 11
-165.6576664955246
 21
219.5131275840094
 31
0.0
  0
LINE
  5
10D
  8
1
  6
CONTINUOUS
 62
     7
 10
-169.6576664955246
 20
219.2156396087968
 30
0.0
 11
-169.6576664955246
 21
219.5349855488223
 31
0.0
  0
LINE
  5
10E
  8
1
  6
CONTINUOUS
 62
     7
 10
-165.6576664955246
 20
220.3392035866392
 30
0.0
 11
-165.6576664955246
 21
220.7004661858703
 31
0.0
  0
LINE
  5
10F
  8
1
  6
CONTINUOUS
 62
     7
 10
-169.6576664955246
 20
220.3220143254149
 30
0.0
 11
-169.6576664955246
 21
220.7308481022279
 31
0.0
  0
LINE
  5
110
  8
1
  6
CONTINUOUS
 62
     7
 10
-165.6576664955246
 20
205.2607964133608
 30
0.0
 11
-165.6576664955246
 21
204.8995338141297
 31
0.0
  0
LINE
  5
111
  8
1
  6
CONTINUOUS
 62
     7
 10
-169.6576664955246
 20
205.2779856745851
 30
0.0
 11
-169.6576664955246
 21
204.869151897772
 31
0.0
  0
LINE
  5
112
  8
1
  6
CONTINUOUS
 62
     7
 10
-165.6576664955246
 20
219.8111206246845
 30
0.0
 11
-165.6576664955246
 21
220.3392035866392
 31
0.0
  0
LINE
  5
113
  8
1
  6
CONTINUOUS
 62
     7
 10
-169.6576664955246
 20
219.806127856417
 30
0.0
 11
-169.6576664955246
 21
220.3220143254149
 31
0.0
  0
LINE
  5
114
  8
1
  6
CONTINUOUS
 62
     7
 10
-165.6576664955247
 20
205.7888793753155
 30
0.0
 11
-165.6576664955246
 21
205.2607964133608
 31
0.0
  0
LINE
  5
115
  8
1
  6
CONTINUOUS
 62
     7
 10
-169.6576664955247
 20
205.793872143583
 30
0.0
 11
-169.6576664955246
 21
205.2779856745851
 31
0.0
  0
LINE
  5
116
  8
1
  6
CONTINUOUS
 62
     7
 10
-165.6576664955246
 20
220.7004661858703
 30
0.0
 11
-165.6576664955246
 21
220.999241150369
 31
0.0
  0
LINE
  5
117
  8
1
  6
CONTINUOUS
 62
     7
 10
-169.6576664955246
 20
220.7308481022279
 30
0.0
 11
-169.6576664955246
 21
221.0227226230223
 31
0.0
  0
LINE
  5
118
  8
1
  6
CONTINUOUS
 62
     7
 10
-165.6576664955246
 20
204.8995338141297
 30
0.0
 11
-165.6576664955246
 21
204.600758849631
 31
0.0
  0
LINE
  5
119
  8
1
  6
CONTINUOUS
 62
     7
 10
-169.6576664955246
 20
204.869151897772
 30
0.0
 11
-169.6576664955247
 21
204.5772773769776
 31
0.0
  0
LINE
  5
11A
  8
1
  6
CONTINUOUS
 62
     7
 10
-165.6576664955246
 20
221.8362627127945
 30
0.0
 11
-165.6576664955246
 21
222.1915786724854
 31
0.0
  0
LINE
  5
11B
  8
1
  6
CONTINUOUS
 62
     7
 10
-169.6576664955246
 20
221.8207416230991
 30
0.0
 11
-169.6576664955246
 21
222.2228457049264
 31
0.0
  0
LINE
  5
11C
  8
1
  6
CONTINUOUS
 62
     7
 10
-165.6576664955246
 20
203.7637372872054
 30
0.0
 11
-165.6576664955246
 21
203.4084213275145
 31
0.0
  0
LINE
  5
11D
  8
1
  6
CONTINUOUS
 62
     7
 10
-169.6576664955246
 20
203.7792583769009
 30
0.0
 11
-169.6576664955246
 21
203.3771542950736
 31
0.0
  0
LINE
  5
11E
  8
1
  6
CONTINUOUS
 62
     7
 10
-165.6576664955246
 20
221.2927951148787
 30
0.0
 11
-165.6576664955246
 21
221.8362627127945
 31
0.0
  0
LINE
  5
11F
  8
1
  6
CONTINUOUS
 62
     7
 10
-169.6576664955246
 20
221.2898258384545
 30
0.0
 11
-169.6576664955246
 21
221.8207416230991
 31
0.0
  0
LINE
  5
120
  8
1
  6
CONTINUOUS
 62
     7
 10
-165.6576664955247
 20
204.3072048851213
 30
0.0
 11
-165.6576664955246
 21
203.7637372872054
 31
0.0
  0
LINE
  5
121
  8
1
  6
CONTINUOUS
 62
     7
 10
-169.6576664955247
 20
204.3101741615455
 30
0.0
 11
-169.6576664955246
 21
203.7792583769009
 31
0.0
  0
LINE
  5
122
  8
1
  6
CONTINUOUS
 62
     7
 10
-165.6576664955246
 20
203.4084213275145
 30
0.0
 11
-165.6576664955246
 21
203.1386416690272
 31
0.0
  0
LINE
  5
123
  8
1
  6
CONTINUOUS
 62
     7
 10
-169.6576664955246
 20
203.3771542950736
 30
0.0
 11
-169.6576664955247
 21
203.1136054108047
 31
0.0
  0
LINE
  5
124
  8
1
  6
CONTINUOUS
 62
     7
 10
-165.6576664955246
 20
222.1915786724854
 30
0.0
 11
-165.6576664955246
 21
222.4613583309728
 31
0.0
  0
LINE
  5
125
  8
1
  6
CONTINUOUS
 62
     7
 10
-169.6576664955246
 20
222.2228457049264
 30
0.0
 11
-169.6576664955246
 21
222.4863945891952
 31
0.0
  0
LINE
  5
126
  8
1
  6
CONTINUOUS
 62
     7
 10
-165.6576664955246
 20
223.3068757762143
 30
0.0
 11
-165.6576664955246
 21
223.6552052075902
 31
0.0
  0
LINE
  5
127
  8
1
  6
CONTINUOUS
 62
     7
 10
-169.6576664955246
 20
223.29306828299
 30
0.0
 11
-169.6576664955246
 21
223.6872658481618
 31
0.0
  0
LINE
  5
128
  8
1
  6
CONTINUOUS
 62
     7
 10
-165.6576664955246
 20
202.2931242237856
 30
0.0
 11
-165.6576664955246
 21
201.9447947924097
 31
0.0
  0
LINE
  5
129
  8
1
  6
CONTINUOUS
 62
     7
 10
-169.6576664955246
 20
202.30693171701
 30
0.0
 11
-169.6576664955246
 21
201.9127341518382
 31
0.0
  0
LINE
  5
12A
  8
1
  6
CONTINUOUS
 62
     7
 10
-165.6576664955247
 20
202.8503859131372
 30
0.0
 11
-165.6576664955246
 21
202.2931242237856
 31
0.0
  0
LINE
  5
12B
  8
1
  6
CONTINUOUS
 62
     7
 10
-169.6576664955247
 20
202.8513230076574
 30
0.0
 11
-169.6576664955246
 21
202.30693171701
 31
0.0
  0
LINE
  5
12C
  8
1
  6
CONTINUOUS
 62
     7
 10
-165.6576664955246
 20
222.7496140868628
 30
0.0
 11
-165.6576664955246
 21
223.3068757762143
 31
0.0
  0
LINE
  5
12D
  8
1
  6
CONTINUOUS
 62
     7
 10
-169.6576664955246
 20
222.7486769923426
 30
0.0
 11
-169.6576664955246
 21
223.29306828299
 31
0.0
  0
LINE
  5
12E
  8
1
  6
CONTINUOUS
 62
     7
 10
-165.6576664955246
 20
223.6552052075902
 30
0.0
 11
-165.6576664955246
 21
223.895200006907
 31
0.0
  0
LINE
  5
12F
  8
1
  6
CONTINUOUS
 62
     7
 10
-169.6576664955246
 20
223.6872658481618
 30
0.0
 11
-169.6576664955246
 21
223.9217177780993
 31
0.0
  0
LINE
  5
130
  8
1
  6
CONTINUOUS
 62
     7
 10
-165.6576664955246
 20
201.9447947924097
 30
0.0
 11
-165.6576664955246
 21
201.704799993093
 31
0.0
  0
LINE
  5
131
  8
1
  6
CONTINUOUS
 62
     7
 10
-169.6576664955246
 20
201.9127341518382
 30
0.0
 11
-169.6576664955247
 21
201.6782822219006
 31
0.0
  0
LINE
  5
132
  8
1
  6
CONTINUOUS
 62
     7
 10
-165.6576664955246
 20
200.8532612065701
 30
0.0
 11
-165.6576664955246
 21
200.5129377450955
 31
0.0
  0
LINE
  5
133
  8
1
  6
CONTINUOUS
 62
     7
 10
-169.6576664955246
 20
200.8653146934943
 30
0.0
 11
-169.6576664955246
 21
200.4801773269668
 31
0.0
  0
LINE
  5
134
  8
1
  6
CONTINUOUS
 62
     7
 10
-165.6576664955246
 20
224.7467387934298
 30
0.0
 11
-165.6576664955246
 21
225.0870622549044
 31
0.0
  0
LINE
  5
135
  8
1
  6
CONTINUOUS
 62
     7
 10
-169.6576664955246
 20
224.7346853065057
 30
0.0
 11
-169.6576664955246
 21
225.1198226730331
 31
0.0
  0
LINE
  5
136
  8
1
  6
CONTINUOUS
 62
     7
 10
-165.6576664955246
 20
224.1773139277748
 30
0.0
 11
-165.6576664955246
 21
224.7467387934298
 31
0.0
  0
LINE
  5
137
  8
1
  6
CONTINUOUS
 62
     7
 10
-169.6576664955246
 20
224.1784117577151
 30
0.0
 11
-169.6576664955246
 21
224.7346853065057
 31
0.0
  0
LINE
  5
138
  8
1
  6
CONTINUOUS
 62
     7
 10
-165.6576664955247
 20
201.4226860722252
 30
0.0
 11
-165.6576664955246
 21
200.8532612065701
 31
0.0
  0
LINE
  5
139
  8
1
  6
CONTINUOUS
 62
     7
 10
-169.6576664955247
 20
201.4215882422849
 30
0.0
 11
-169.6576664955246
 21
200.8653146934943
 31
0.0
  0
LINE
  5
13A
  8
1
  6
CONTINUOUS
 62
     7
 10
-165.6576664955246
 20
225.0870622549044
 30
0.0
 11
-165.6576664955246
 21
225.2965698120277
 31
0.0
  0
LINE
  5
13B
  8
1
  6
CONTINUOUS
 62
     7
 10
-169.6576664955246
 20
225.1198226730331
 30
0.0
 11
-169.6576664955246
 21
225.324491487707
 31
0.0
  0
LINE
  5
13C
  8
1
  6
CONTINUOUS
 62
     7
 10
-165.6576664955246
 20
200.5129377450956
 30
0.0
 11
-165.6576664955246
 21
200.3034301879722
 31
0.0
  0
LINE
  5
13D
  8
1
  6
CONTINUOUS
 62
     7
 10
-169.6576664955246
 20
200.4801773269668
 30
0.0
 11
-169.6576664955247
 21
200.2755085122929
 31
0.0
  0
LINE
  5
13E
  8
1
  6
CONTINUOUS
 62
     7
 10
-165.6576664955246
 20
199.4483622241174
 30
0.0
 11
-165.6576664955246
 21
199.117040743384
 31
0.0
  0
LINE
  5
13F
  8
1
  6
CONTINUOUS
 62
     7
 10
-169.6576664955246
 20
199.4586264282912
 30
0.0
 11
-169.6576664955246
 21
199.083676426282
 31
0.0
  0
LINE
  5
140
  8
1
  6
CONTINUOUS
 62
     7
 10
-165.6576664955246
 20
226.1516377758825
 30
0.0
 11
-165.6576664955246
 21
226.482959256616
 31
0.0
  0
LINE
  5
141
  8
1
  6
CONTINUOUS
 62
     7
 10
-169.6576664955246
 20
226.1413735717087
 30
0.0
 11
-169.6576664955246
 21
226.516323573718
 31
0.0
  0
LINE
  5
142
  8
1
  6
CONTINUOUS
 62
     7
 10
-165.6576664955247
 20
200.0282837534701
 30
0.0
 11
-165.6576664955246
 21
199.4483622241174
 31
0.0
  0
LINE
  5
143
  8
1
  6
CONTINUOUS
 62
     7
 10
-169.6576664955247
 20
200.0251542120438
 30
0.0
 11
-169.6576664955246
 21
199.4586264282912
 31
0.0
  0
LINE
  5
144
  8
1
  6
CONTINUOUS
 62
     7
 10
-165.6576664955246
 20
225.5717162465298
 30
0.0
 11
-165.6576664955246
 21
226.1516377758825
 31
0.0
  0
LINE
  5
145
  8
1
  6
CONTINUOUS
 62
     7
 10
-169.6576664955246
 20
225.5748457879562
 30
0.0
 11
-169.6576664955246
 21
226.1413735717087
 31
0.0
  0
LINE
  5
146
  8
1
  6
CONTINUOUS
 62
     7
 10
-165.6576664955246
 20
226.482959256616
 30
0.0
 11
-165.6576664955246
 21
226.6613664142955
 31
0.0
  0
LINE
  5
147
  8
1
  6
CONTINUOUS
 62
     7
 10
-169.6576664955246
 20
226.5163235737179
 30
0.0
 11
-169.6576664955246
 21
226.6906102772286
 31
0.0
  0
LINE
  5
148
  8
1
  6
CONTINUOUS
 62
     7
 10
-165.6576664955246
 20
199.117040743384
 30
0.0
 11
-165.6576664955246
 21
198.9386335857045
 31
0.0
  0
LINE
  5
149
  8
1
  6
CONTINUOUS
 62
     7
 10
-169.6576664955246
 20
199.083676426282
 30
0.0
 11
-169.6576664955247
 21
198.9093897227714
 31
0.0
  0
LINE
  5
14A
  8
1
  6
CONTINUOUS
 62
     7
 10
-165.6576664955246
 20
227.5174610628329
 30
0.0
 11
-165.6576664955246
 21
227.8388108977167
 31
0.0
  0
LINE
  5
14B
  8
1
  6
CONTINUOUS
 62
     7
 10
-169.6576664955246
 20
227.5090161812386
 30
0.0
 11
-169.6576664955246
 21
227.8726814678013
 31
0.0
  0
LINE
  5
14C
  8
1
  6
CONTINUOUS
 62
     7
 10
-165.6576664955246
 20
198.082538937167
 30
0.0
 11
-165.6576664955246
 21
197.7611891022832
 31
0.0
  0
LINE
  5
14D
  8
1
  6
CONTINUOUS
 62
     7
 10
-169.6576664955246
 20
198.0909838187613
 30
0.0
 11
-169.6576664955246
 21
197.7273185321986
 31
0.0
  0
LINE
  5
14E
  8
1
  6
CONTINUOUS
 62
     7
 10
-165.6576664955246
 20
226.9287401025473
 30
0.0
 11
-165.6576664955246
 21
227.5174610628329
 31
0.0
  0
LINE
  5
14F
  8
1
  6
CONTINUOUS
 62
     7
 10
-169.6576664955246
 20
226.9338921963582
 30
0.0
 11
-169.6576664955246
 21
227.5090161812386
 31
0.0
  0
LINE
  5
150
  8
1
  6
CONTINUOUS
 62
     7
 10
-165.6576664955247
 20
198.6712598974526
 30
0.0
 11
-165.6576664955246
 21
198.082538937167
 31
0.0
  0
LINE
  5
151
  8
1
  6
CONTINUOUS
 62
     7
 10
-169.6576664955247
 20
198.6661078036418
 30
0.0
 11
-169.6576664955246
 21
198.0909838187613
 31
0.0
  0
LINE
  5
152
  8
1
  6
CONTINUOUS
 62
     7
 10
-165.6576664955246
 20
227.8388108977167
 30
0.0
 11
-165.6576664955246
 21
227.9855955189766
 31
0.0
  0
LINE
  5
153
  8
1
  6
CONTINUOUS
 62
     7
 10
-169.6576664955246
 20
227.8726814678013
 30
0.0
 11
-169.6576664955246
 21
228.0160759823387
 31
0.0
  0
LINE
  5
154
  8
1
  6
CONTINUOUS
 62
     7
 10
-165.6576664955246
 20
197.7611891022833
 30
0.0
 11
-165.6576664955246
 21
197.6144044810233
 31
0.0
  0
LINE
  5
155
  8
1
  6
CONTINUOUS
 62
     7
 10
-169.6576664955246
 20
197.7273185321987
 30
0.0
 11
-169.6576664955247
 21
197.5839240176612
 31
0.0
  0
LINE
  5
156
  8
1
  6
CONTINUOUS
 62
     7
 10
-165.6576664955246
 20
228.8402113547912
 30
0.0
 11
-165.6576664955246
 21
229.1506490623272
 31
0.0
  0
LINE
  5
157
  8
1
  6
CONTINUOUS
 62
     7
 10
-169.6576664955246
 20
228.833610511068
 30
0.0
 11
-169.6576664955246
 21
229.184926757774
 31
0.0
  0
LINE
  5
158
  8
1
  6
CONTINUOUS
 62
     7
 10
-165.6576664955246
 20
196.7597886452087
 30
0.0
 11
-165.6576664955246
 21
196.4493509376728
 31
0.0
  0
LINE
  5
159
  8
1
  6
CONTINUOUS
 62
     7
 10
-169.6576664955246
 20
196.7663894889319
 30
0.0
 11
-169.6576664955246
 21
196.415073242226
 31
0.0
  0
LINE
  5
15A
  8
1
  6
CONTINUOUS
 62
     7
 10
-165.6576664955246
 20
228.2444139492742
 30
0.0
 11
-165.6576664955246
 21
228.8402113547912
 31
0.0
  0
LINE
  5
15B
  8
1
  6
CONTINUOUS
 62
     7
 10
-169.6576664955246
 20
228.2515735170461
 30
0.0
 11
-169.6576664955246
 21
228.833610511068
 31
0.0
  0
LINE
  5
15C
  8
1
  6
CONTINUOUS
 62
     7
 10
-165.6576664955247
 20
197.3555860507257
 30
0.0
 11
-165.6576664955246
 21
196.7597886452087
 31
0.0
  0
LINE
  5
15D
  8
1
  6
CONTINUOUS
 62
     7
 10
-169.6576664955247
 20
197.3484264829539
 30
0.0
 11
-169.6576664955246
 21
196.7663894889319
 31
0.0
  0
LINE
  5
15E
  8
1
  6
CONTINUOUS
 62
     7
 10
-165.6576664955246
 20
229.1506490623272
 30
0.0
 11
-165.6576664955246
 21
229.2653815585836
 31
0.0
  0
LINE
  5
15F
  8
1
  6
CONTINUOUS
 62
     7
 10
-169.6576664955246
 20
229.1849267577739
 30
0.0
 11
-169.6576664955246
 21
229.2970094164418
 31
0.0
  0
LINE
  5
160
  8
1
  6
CONTINUOUS
 62
     7
 10
-165.6576664955246
 20
196.4493509376728
 30
0.0
 11
-165.6576664955246
 21
196.3346184414163
 31
0.0
  0
LINE
  5
161
  8
1
  6
CONTINUOUS
 62
     7
 10
-169.6576664955246
 20
196.415073242226
 30
0.0
 11
-169.6576664955247
 21
196.3029905835581
 31
0.0
  0
LINE
  5
162
  8
1
  6
CONTINUOUS
 62
     7
 10
-165.6576664955246
 20
230.1160174122509
 30
0.0
 11
-165.6576664955246
 21
230.4146344470205
 31
0.0
  0
LINE
  5
163
  8
1
  6
CONTINUOUS
 62
     7
 10
-169.6576664955246
 20
230.1112799248198
 30
0.0
 11
-169.6576664955246
 21
230.4492189486916
 31
0.0
  0
LINE
  5
164
  8
1
  6
CONTINUOUS
 62
     7
 10
-165.6576664955246
 20
195.483982587749
 30
0.0
 11
-165.6576664955246
 21
195.1853655529795
 31
0.0
  0
LINE
  5
165
  8
1
  6
CONTINUOUS
 62
     7
 10
-169.6576664955246
 20
195.4887200751801
 30
0.0
 11
-169.6576664955246
 21
195.1507810513084
 31
0.0
  0
LINE
  5
166
  8
1
  6
CONTINUOUS
 62
     7
 10
-165.6576664955246
 20
229.5148872575487
 30
0.0
 11
-165.6576664955246
 21
230.1160174122509
 31
0.0
  0
LINE
  5
167
  8
1
  6
CONTINUOUS
 62
     7
 10
-169.6576664955246
 20
229.5240333456656
 30
0.0
 11
-169.6576664955246
 21
230.1112799248198
 31
0.0
  0
LINE
  5
168
  8
1
  6
CONTINUOUS
 62
     7
 10
-165.6576664955247
 20
196.0851127424513
 30
0.0
 11
-165.6576664955246
 21
195.483982587749
 31
0.0
  0
LINE
  5
169
  8
1
  6
CONTINUOUS
 62
     7
 10
-169.6576664955247
 20
196.0759666543344
 30
0.0
 11
-169.6576664955246
 21
195.4887200751801
 31
0.0
  0
LINE
  5
16A
  8
1
  6
CONTINUOUS
 62
     7
 10
-165.6576664955246
 20
230.4146344470204
 30
0.0
 11
-165.6576664955246
 21
230.4969790353408
 31
0.0
  0
LINE
  5
16B
  8
1
  6
CONTINUOUS
 62
     7
 10
-169.6576664955246
 20
230.4492189486915
 30
0.0
 11
-169.6576664955246
 21
230.5296617237291
 31
0.0
  0
LINE
  5
16C
  8
1
  6
CONTINUOUS
 62
     7
 10
-165.6576664955246
 20
195.1853655529795
 30
0.0
 11
-165.6576664955246
 21
195.1030209646592
 31
0.0
  0
LINE
  5
16D
  8
1
  6
CONTINUOUS
 62
     7
 10
-169.6576664955246
 20
195.1507810513084
 30
0.0
 11
-169.6576664955247
 21
195.0703382762708
 31
0.0
  0
LINE
  5
16E
  8
1
  6
CONTINUOUS
 62
     7
 10
-164.6635172367883
 20
195.3454434985512
 30
0.0
 11
-164.6576664955247
 21
195.4180326754453
 31
0.0
  0
LINE
  5
16F
  8
1
  6
CONTINUOUS
 62
     7
 10
-169.6576664955247
 20
194.5073876376304
 30
0.0
 11
-169.6576664955247
 21
194.6040001271035
 31
0.0
  0
LINE
  5
170
  8
1
  6
CONTINUOUS
 62
     7
 10
-169.6576664955247
 20
194.6040001271035
 30
0.0
 11
-169.6576664955247
 21
194.6896599043419
 31
0.0
  0
LINE
  5
171
  8
1
  6
CONTINUOUS
 62
     7
 10
-169.6576664955247
 20
230.9103400956581
 30
0.0
 11
-169.6576664955247
 21
230.981760803533
 31
0.0
  0
LINE
  5
172
  8
1
  6
CONTINUOUS
 62
     7
 10
-169.6576664955247
 20
230.981760803533
 30
0.0
 11
-169.6576664955247
 21
231.0138719305091
 31
0.0
  0
LINE
  5
173
  8
1
  6
CONTINUOUS
 62
     7
 10
-169.6576664955247
 20
231.0138719305091
 30
0.0
 11
-169.6576664955247
 21
231.0926123634116
 31
0.0
  0
LINE
  5
174
  8
1
  6
CONTINUOUS
 62
     7
 10
-169.6576664955247
 20
234.0664390985959
 30
0.0
 11
-169.6576664955247
 21
234.8060351181124
 31
0.0
  0
LINE
  5
175
  8
1
  6
CONTINUOUS
 62
     7
 10
-169.6576664955247
 20
190.7939648818875
 30
0.0
 11
-169.6576664955247
 21
191.5084764358246
 31
0.0
  0
LINE
  5
176
  8
1
  6
CONTINUOUS
 62
     7
 10
-169.6576664955247
 20
191.5084764358246
 30
0.0
 11
-169.6576664955247
 21
191.5335609014041
 31
0.0
  0
LINE
  5
177
  8
1
  6
CONTINUOUS
 62
     7
 10
-164.6576664955247
 20
191.5350892808279
 30
0.0
 11
-164.6576664955247
 21
185.3349455495488
 31
0.0
  0
LINE
  5
178
  8
1
  6
CONTINUOUS
 62
     7
 10
-164.6576664955247
 20
240.2650544504512
 30
0.0
 11
-164.6576664955247
 21
234.0649107191721
 31
0.0
  0
LINE
  5
179
  8
1
  6
CONTINUOUS
 62
     7
 10
-169.6576664955247
 20
188.7018458860499
 30
0.0
 11
-165.6576664955247
 21
188.7238877430494
 31
0.0
  0
LINE
  5
17A
  8
1
  6
CONTINUOUS
 62
     7
 10
-169.6576664955247
 20
189.5599767574593
 30
0.0
 11
-165.6576664955247
 21
189.5803380126777
 31
0.0
  0
LINE
  5
17B
  8
1
  6
CONTINUOUS
 62
     7
 10
-169.6576664955247
 20
190.4861232601295
 30
0.0
 11
-165.6576664955247
 21
190.5047443231086
 31
0.0
  0
LINE
  5
17C
  8
1
  6
CONTINUOUS
 62
     7
 10
-169.6576664955247
 20
190.4861232601295
 30
0.0
 11
-169.6576664955247
 21
190.7939648818876
 31
0.0
  0
LINE
  5
17D
  8
1
  6
CONTINUOUS
 62
     7
 10
-169.6576664955247
 20
189.5599767574594
 30
0.0
 11
-169.6576664955247
 21
189.6423670005641
 31
0.0
  0
LINE
  5
17E
  8
1
  6
CONTINUOUS
 62
     7
 10
-169.6576664955247
 20
188.7018458860499
 30
0.0
 11
-169.6576664955247
 21
188.7400807825255
 31
0.0
  0
LINE
  5
17F
  8
1
  6
CONTINUOUS
 62
     7
 10
-165.6576664955246
 20
236.0196619873223
 30
0.0
 11
-169.6576664955246
 21
236.0400232425407
 31
0.0
  0
LINE
  5
180
  8
1
  6
CONTINUOUS
 62
     7
 10
-165.6576664955246
 20
236.8761122569506
 30
0.0
 11
-169.6576664955246
 21
236.8981541139501
 31
0.0
  0
LINE
  5
181
  8
1
  6
CONTINUOUS
 62
     7
 10
-169.6576664955246
 20
236.8599192174745
 30
0.0
 11
-169.6576664955246
 21
236.8981541139501
 31
0.0
  0
LINE
  5
182
  8
1
  6
CONTINUOUS
 62
     7
 10
-169.6576664955246
 20
235.9576329994359
 30
0.0
 11
-169.6576664955246
 21
236.0400232425406
 31
0.0
  0
LINE
  5
183
  8
1
  6
CONTINUOUS
 62
     7
 10
-169.6576664955247
 20
234.8060351181124
 30
0.0
 11
-169.6576664955247
 21
235.1138767398705
 31
0.0
  0
LINE
  5
184
  8
1
  6
CONTINUOUS
 62
     7
 10
-164.6576664955247
 20
194.5920407711357
 30
0.0
 11
-164.6576664955247
 21
191.5350892808279
 31
0.0
  0
LINE
  5
185
  8
1
  6
CONTINUOUS
 62
     7
 10
-164.6576664955247
 20
234.0649107191721
 30
0.0
 11
-164.6576664955247
 21
231.0079592288643
 31
0.0
  0
LINE
  5
186
  8
1
  6
CONTINUOUS
 62
     7
 10
-165.6576664955247
 20
189.9036141684064
 30
0.0
 11
-165.6576664955247
 21
190.5047443231086
 31
0.0
  0
LINE
  5
187
  8
1
  6
CONTINUOUS
 62
     7
 10
-169.6576664955247
 20
189.8988766809752
 30
0.0
 11
-169.6576664955247
 21
190.4861232601295
 31
0.0
  0
LINE
  5
188
  8
1
  6
CONTINUOUS
 62
     7
 10
-169.6576664955246
 20
235.7011233190247
 30
0.0
 11
-169.6576664955246
 21
235.1138767398705
 31
0.0
  0
LINE
  5
189
  8
1
  6
CONTINUOUS
 62
     7
 10
-169.6576664955246
 20
235.9604086472945
 30
0.0
 11
-169.6576664955246
 21
235.7011233190247
 31
0.0
  0
LINE
  5
18A
  8
1
  6
CONTINUOUS
 62
     7
 10
-165.6576664955247
 20
189.6744988238686
 30
0.0
 11
-165.6576664955247
 21
189.9036141684064
 31
0.0
  0
LINE
  5
18B
  8
1
  6
CONTINUOUS
 62
     7
 10
-169.6576664955247
 20
189.6395913527055
 30
0.0
 11
-169.6576664955247
 21
189.8988766809752
 31
0.0
  0
LINE
  5
18C
  8
1
  6
CONTINUOUS
 62
     7
 10
-165.6576664955247
 20
188.9845406071606
 30
0.0
 11
-165.6576664955247
 21
189.5803380126777
 31
0.0
  0
LINE
  5
18D
  8
1
  6
CONTINUOUS
 62
     7
 10
-169.6576664955247
 20
188.9779397634374
 30
0.0
 11
-169.6576664955247
 21
189.5599767574593
 31
0.0
  0
LINE
  5
18E
  8
1
  6
CONTINUOUS
 62
     7
 10
-165.6576664955246
 20
236.6154593928393
 30
0.0
 11
-165.6576664955246
 21
236.0196619873223
 31
0.0
  0
LINE
  5
18F
  8
1
  6
CONTINUOUS
 62
     7
 10
-169.6576664955246
 20
236.6220602365625
 30
0.0
 11
-169.6576664955246
 21
236.0400232425407
 31
0.0
  0
LINE
  5
190
  8
1
  6
CONTINUOUS
 62
     7
 10
-165.6576664955247
 20
188.7695758674974
 30
0.0
 11
-165.6576664955247
 21
188.9845406071606
 31
0.0
  0
LINE
  5
191
  8
1
  6
CONTINUOUS
 62
     7
 10
-169.6576664955247
 20
188.7346683963344
 30
0.0
 11
-169.6576664955247
 21
188.9779397634374
 31
0.0
  0
LINE
  5
192
  8
1
  6
CONTINUOUS
 62
     7
 10
-165.6576664955246
 20
236.8304241325026
 30
0.0
 11
-165.6576664955246
 21
236.6154593928393
 31
0.0
  0
LINE
  5
193
  8
1
  6
CONTINUOUS
 62
     7
 10
-169.6576664955246
 20
236.8653316036656
 30
0.0
 11
-169.6576664955246
 21
236.6220602365625
 31
0.0
  0
LINE
  5
194
  8
1
  6
CONTINUOUS
 62
     7
 10
-165.6576664955247
 20
188.1351667827638
 30
0.0
 11
-165.6576664955247
 21
188.7238877430494
 31
0.0
  0
LINE
  5
195
  8
1
  6
CONTINUOUS
 62
     7
 10
-169.6576664955247
 20
188.1267219011695
 30
0.0
 11
-169.6576664955247
 21
188.7018458860499
 31
0.0
  0
LINE
  5
196
  8
1
  6
CONTINUOUS
 62
     7
 10
-165.6576664955246
 20
237.4648332172362
 30
0.0
 11
-165.6576664955246
 21
236.8761122569506
 31
0.0
  0
LINE
  5
197
  8
1
  6
CONTINUOUS
 62
     7
 10
-169.6576664955246
 20
237.4732780988305
 30
0.0
 11
-169.6576664955246
 21
236.8981541139501
 31
0.0
  0
LINE
  5
198
  8
1
  6
CONTINUOUS
 62
     7
 10
-165.6576664955247
 20
187.9342059410124
 30
0.0
 11
-165.6576664955247
 21
188.1351667827638
 31
0.0
  0
LINE
  5
199
  8
1
  6
CONTINUOUS
 62
     7
 10
-169.6576664955247
 20
187.8992984698494
 30
0.0
 11
-169.6576664955247
 21
188.1267219011694
 31
0.0
  0
LINE
  5
19A
  8
1
  6
CONTINUOUS
 62
     7
 10
-165.6576664955246
 20
237.6657940589876
 30
0.0
 11
-165.6576664955246
 21
237.4648332172362
 31
0.0
  0
LINE
  5
19B
  8
1
  6
CONTINUOUS
 62
     7
 10
-169.6576664955246
 20
237.7007015301506
 30
0.0
 11
-169.6576664955246
 21
237.4732780988305
 31
0.0
  0
LINE
  5
19C
  8
1
  6
CONTINUOUS
 62
     7
 10
-164.6576664955247
 20
195.3449131032622
 30
0.0
 11
-164.6576664955247
 21
195.4180326754453
 31
0.0
  0
LINE
  5
19D
  8
1
  6
CONTINUOUS
 62
     7
 10
-164.6576664955247
 20
194.5920407711357
 30
0.0
 11
-164.6576664955247
 21
195.3449131032622
 31
0.0
  0
LINE
  5
19E
  8
1
  6
CONTINUOUS
 62
     7
 10
-164.6576664955247
 20
230.2550618628965
 30
0.0
 11
-164.6576664955247
 21
231.0079592288643
 31
0.0
  0
LINE
  5
19F
  8
1
  6
CONTINUOUS
 62
     7
 10
-164.6576664955247
 20
230.1819673245547
 30
0.0
 11
-164.6576664955247
 21
230.2550618628965
 31
0.0
  0
LINE
  5
1A0
  8
1
  6
CONTINUOUS
 62
     7
 10
-165.6576664955247
 20
187.3579785230586
 30
0.0
 11
-165.6576664955247
 21
187.9342059410124
 31
0.0
  0
LINE
  5
1A1
  8
1
  6
CONTINUOUS
 62
     7
 10
-169.6576664955247
 20
187.3477143188848
 30
0.0
 11
-169.6576664955247
 21
187.8992984698494
 31
0.0
  0
LINE
  5
1A2
  8
1
  6
CONTINUOUS
 62
     7
 10
-165.6576664955246
 20
238.2420214769414
 30
0.0
 11
-165.6576664955246
 21
237.6657940589876
 31
0.0
  0
LINE
  5
1A3
  8
1
  6
CONTINUOUS
 62
     7
 10
-169.6576664955246
 20
238.2522856811152
 30
0.0
 11
-169.6576664955246
 21
237.7007015301506
 31
0.0
  0
LINE
  5
1A4
  8
1
  6
CONTINUOUS
 62
     7
 10
-165.6576664955246
 20
238.4291661123825
 30
0.0
 11
-165.6576664955246
 21
238.2420214769414
 31
0.0
  0
LINE
  5
1A5
  8
1
  6
CONTINUOUS
 62
     7
 10
-169.6576664955246
 20
238.4640735835455
 30
0.0
 11
-169.6576664955246
 21
238.2522856811152
 31
0.0
  0
LINE
  5
1A6
  8
1
  6
CONTINUOUS
 62
     7
 10
-165.6576664955247
 20
187.1708338876175
 30
0.0
 11
-165.6576664955247
 21
187.3579785230586
 31
0.0
  0
LINE
  5
1A7
  8
1
  6
CONTINUOUS
 62
     7
 10
-169.6576664955247
 20
187.1359264164545
 30
0.0
 11
-169.6576664955247
 21
187.3477143188848
 31
0.0
  0
LINE
  5
1A8
  8
1
  6
CONTINUOUS
 62
     7
 10
-165.6576664955247
 20
186.6552503933301
 30
0.0
 11
-165.6576664955247
 21
187.1708338876175
 31
0.0
  0
LINE
  5
1A9
  8
1
  6
CONTINUOUS
 62
     7
 10
-169.6576664955247
 20
186.6431969064059
 30
0.0
 11
-169.6576664955247
 21
187.1359264164545
 31
0.0
  0
LINE
  5
1AA
  8
1
  6
CONTINUOUS
 62
     7
 10
-165.6576664955246
 20
238.9447496066698
 30
0.0
 11
-165.6576664955246
 21
238.4291661123825
 31
0.0
  0
LINE
  5
1AB
  8
1
  6
CONTINUOUS
 62
     7
 10
-169.6576664955246
 20
238.956803093594
 30
0.0
 11
-169.6576664955246
 21
238.4640735835455
 31
0.0
  0
LINE
  5
1AC
  8
1
  6
CONTINUOUS
 62
     7
 10
-165.6576664955247
 20
186.4816938372685
 30
0.0
 11
-165.6576664955247
 21
186.6552503933301
 31
0.0
  0
LINE
  5
1AD
  8
1
  6
CONTINUOUS
 62
     7
 10
-169.6576664955247
 20
186.4467863661055
 30
0.0
 11
-169.6576664955247
 21
186.6431969064059
 31
0.0
  0
LINE
  5
1AE
  8
1
  6
CONTINUOUS
 62
     7
 10
-165.6576664955246
 20
239.1183061627314
 30
0.0
 11
-165.6576664955246
 21
238.9447496066699
 31
0.0
  0
LINE
  5
1AF
  8
1
  6
CONTINUOUS
 62
     7
 10
-169.6576664955246
 20
239.1532136338945
 30
0.0
 11
-169.6576664955246
 21
238.956803093594
 31
0.0
  0
LINE
  5
1B0
  8
1
  6
CONTINUOUS
 62
     7
 10
-165.6576664955247
 20
186.0290390394281
 30
0.0
 11
-165.6576664955247
 21
186.4816938372685
 31
0.0
  0
LINE
  5
1B1
  8
1
  6
CONTINUOUS
 62
     7
 10
-169.6576664955247
 20
186.0152315462037
 30
0.0
 11
-169.6576664955247
 21
186.4467863661055
 31
0.0
  0
LINE
  5
1B2
  8
1
  6
CONTINUOUS
 62
     7
 10
-165.6576664955246
 20
239.5709609605719
 30
0.0
 11
-165.6576664955246
 21
239.1183061627314
 31
0.0
  0
LINE
  5
1B3
  8
1
  6
CONTINUOUS
 62
     7
 10
-169.6576664955246
 20
239.5847684537963
 30
0.0
 11
-169.6576664955246
 21
239.1532136338945
 31
0.0
  0
LINE
  5
1B4
  8
1
  6
CONTINUOUS
 62
     7
 10
-165.6576664955247
 20
185.8688026681356
 30
0.0
 11
-165.6576664955247
 21
186.0290390394281
 31
0.0
  0
LINE
  5
1B5
  8
1
  6
CONTINUOUS
 62
     7
 10
-169.6576664955247
 20
185.8338951969725
 30
0.0
 11
-169.6576664955247
 21
186.0152315462037
 31
0.0
  0
LINE
  5
1B6
  8
1
  6
CONTINUOUS
 62
     7
 10
-165.6576664955246
 20
239.7311973318644
 30
0.0
 11
-165.6576664955246
 21
239.5709609605719
 31
0.0
  0
LINE
  5
1B7
  8
1
  6
CONTINUOUS
 62
     7
 10
-169.6576664955246
 20
239.7661048030274
 30
0.0
 11
-169.6576664955246
 21
239.5847684537963
 31
0.0
  0
LINE
  5
1B8
  8
1
  6
CONTINUOUS
 62
     7
 10
-165.6576664955247
 20
185.4811771686649
 30
0.0
 11
-165.6576664955247
 21
185.8688026681356
 31
0.0
  0
LINE
  5
1B9
  8
1
  6
CONTINUOUS
 62
     7
 10
-169.6576664955247
 20
185.4656560789694
 30
0.0
 11
-169.6576664955247
 21
185.8338951969725
 31
0.0
  0
LINE
  5
1BA
  8
1
  6
CONTINUOUS
 62
     7
 10
-165.6576664955246
 20
240.1188228313351
 30
0.0
 11
-165.6576664955246
 21
239.7311973318644
 31
0.0
  0
LINE
  5
1BB
  8
1
  6
CONTINUOUS
 62
     7
 10
-169.6576664955246
 20
240.1343439210306
 30
0.0
 11
-169.6576664955246
 21
239.7661048030274
 31
0.0
  0
LINE
  5
1BC
  8
1
  6
CONTINUOUS
 62
     7
 10
-165.6576664955247
 20
185.3339541038879
 30
0.0
 11
-165.6576664955247
 21
185.4811771686649
 31
0.0
  0
LINE
  5
1BD
  8
1
  6
CONTINUOUS
 62
     7
 10
-169.6576664955247
 20
185.2990466327249
 30
0.0
 11
-169.6576664955247
 21
185.4656560789694
 31
0.0
  0
LINE
  5
1BE
  8
1
  6
CONTINUOUS
 62
     7
 10
-165.6576664955246
 20
240.2660458961121
 30
0.0
 11
-165.6576664955246
 21
240.1188228313351
 31
0.0
  0
LINE
  5
1BF
  8
1
  6
CONTINUOUS
 62
     7
 10
-169.6576664955246
 20
240.3009533672751
 30
0.0
 11
-169.6576664955246
 21
240.1343439210306
 31
0.0
  0
LINE
  5
1C0
  8
1
  6
CONTINUOUS
 62
     7
 10
-165.6576664955247
 20
185.0132681861058
 30
0.0
 11
-165.6576664955247
 21
185.3339541038879
 31
0.0
  0
LINE
  5
1C1
  8
1
  6
CONTINUOUS
 62
     7
 10
-169.6576664955247
 20
184.9960789248815
 30
0.0
 11
-169.6576664955247
 21
185.2990466327248
 31
0.0
  0
LINE
  5
1C2
  8
1
  6
CONTINUOUS
 62
     7
 10
-165.6576664955246
 20
240.5867318138942
 30
0.0
 11
-165.6576664955246
 21
240.2660458961121
 31
0.0
  0
LINE
  5
1C3
  8
1
  6
CONTINUOUS
 62
     7
 10
-169.6576664955246
 20
240.6039210751185
 30
0.0
 11
-169.6576664955246
 21
240.3009533672751
 31
0.0
  0
LINE
  5
1C4
  8
1
  6
CONTINUOUS
 62
     7
 10
-165.6576664955246
 20
240.7212865359244
 30
0.0
 11
-165.6576664955246
 21
240.5867318138942
 31
0.0
  0
LINE
  5
1C5
  8
1
  6
CONTINUOUS
 62
     7
 10
-169.6576664955246
 20
240.7561940070875
 30
0.0
 11
-169.6576664955246
 21
240.6039210751185
 31
0.0
  0
LINE
  5
1C6
  8
1
  6
CONTINUOUS
 62
     7
 10
-165.6576664955247
 20
184.8787134640755
 30
0.0
 11
-165.6576664955247
 21
185.0132681861057
 31
0.0
  0
LINE
  5
1C7
  8
1
  6
CONTINUOUS
 62
     7
 10
-169.6576664955247
 20
184.8438059929125
 30
0.0
 11
-169.6576664955247
 21
184.9960789248815
 31
0.0
  0
LINE
  5
1C8
  8
1
  6
CONTINUOUS
 62
     7
 10
-165.6576664955247
 20
184.6266815019484
 30
0.0
 11
-165.6576664955247
 21
184.8787134640755
 31
0.0
  0
LINE
  5
1C9
  8
1
  6
CONTINUOUS
 62
     7
 10
-169.6576664955247
 20
184.6078743763073
 30
0.0
 11
-169.6576664955247
 21
184.8438059929125
 31
0.0
  0
LINE
  5
1CA
  8
1
  6
CONTINUOUS
 62
     7
 10
-165.6576664955246
 20
240.9733184980516
 30
0.0
 11
-165.6576664955246
 21
240.7212865359244
 31
0.0
  0
LINE
  5
1CB
  8
1
  6
CONTINUOUS
 62
     7
 10
-169.6576664955246
 20
240.9921256236927
 30
0.0
 11
-169.6576664955246
 21
240.7561940070875
 31
0.0
  0
LINE
  5
1CC
  8
1
  6
CONTINUOUS
 62
     7
 10
-165.6576664955247
 20
184.5044130829724
 30
0.0
 11
-165.6576664955247
 21
184.6266815019484
 31
0.0
  0
LINE
  5
1CD
  8
1
  6
CONTINUOUS
 62
     7
 10
-169.6576664955247
 20
184.4695056118094
 30
0.0
 11
-169.6576664955247
 21
184.6078743763073
 31
0.0
  0
LINE
  5
1CE
  8
1
  6
CONTINUOUS
 62
     7
 10
-165.6576664955246
 20
241.0955869170276
 30
0.0
 11
-165.6576664955246
 21
240.9733184980516
 31
0.0
  0
LINE
  5
1CF
  8
1
  6
CONTINUOUS
 62
     7
 10
-169.6576664955246
 20
241.1304943881906
 30
0.0
 11
-169.6576664955246
 21
240.9921256236927
 31
0.0
  0
LINE
  5
1D0
  8
1
  6
CONTINUOUS
 62
     7
 10
-165.6576664955247
 20
184.3225485237257
 30
0.0
 11
-165.6576664955247
 21
184.5044130829724
 31
0.0
  0
LINE
  5
1D1
  8
1
  6
CONTINUOUS
 62
     7
 10
-169.6576664955247
 20
184.3021785757178
 30
0.0
 11
-169.6576664955247
 21
184.4695056118094
 31
0.0
  0
LINE
  5
1D2
  8
1
  6
CONTINUOUS
 62
     7
 10
-165.6576664955246
 20
241.2774514762743
 30
0.0
 11
-165.6576664955246
 21
241.0955869170276
 31
0.0
  0
LINE
  5
1D3
  8
1
  6
CONTINUOUS
 62
     7
 10
-169.6576664955246
 20
241.2978214242822
 30
0.0
 11
-169.6576664955246
 21
241.1304943881906
 31
0.0
  0
LINE
  5
1D4
  8
1
  6
CONTINUOUS
 62
     7
 10
-165.6576664955247
 20
184.2121484102876
 30
0.0
 11
-165.6576664955247
 21
184.3225485237256
 31
0.0
  0
LINE
  5
1D5
  8
1
  6
CONTINUOUS
 62
     7
 10
-169.6576664955247
 20
184.1772409391246
 30
0.0
 11
-169.6576664955247
 21
184.3021785757178
 31
0.0
  0
LINE
  5
1D6
  8
1
  6
CONTINUOUS
 62
     7
 10
-165.6576664955246
 20
241.3878515897123
 30
0.0
 11
-165.6576664955246
 21
241.2774514762743
 31
0.0
  0
LINE
  5
1D7
  8
1
  6
CONTINUOUS
 62
     7
 10
-169.6576664955246
 20
241.4227590608754
 30
0.0
 11
-169.6576664955246
 21
241.2978214242822
 31
0.0
  0
LINE
  5
1D8
  8
1
  6
CONTINUOUS
 62
     7
 10
-165.6576664955247
 20
184.1017593450611
 30
0.0
 11
-165.6576664955246
 21
184.2121484102876
 31
0.0
  0
LINE
  5
1D9
  8
1
  6
CONTINUOUS
 62
     7
 10
-169.6576664955247
 20
184.0798861905852
 30
0.0
 11
-169.6576664955247
 21
184.1772409391246
 31
0.0
  0
LINE
  5
1DA
  8
1
  6
CONTINUOUS
 62
     7
 10
-165.6576664955246
 20
241.4982406549389
 30
0.0
 11
-165.6576664955246
 21
241.3878515897123
 31
0.0
  0
LINE
  5
1DB
  8
1
  6
CONTINUOUS
 62
     7
 10
-169.6576664955246
 20
241.5201138094148
 30
0.0
 11
-169.6576664955246
 21
241.4227590608754
 31
0.0
  0
LINE
  5
1DC
  8
1
  6
CONTINUOUS
 62
     7
 10
-165.6576664955247
 20
184.0027748051575
 30
0.0
 11
-165.6576664955247
 21
184.101759345061
 31
0.0
  0
LINE
  5
1DD
  8
1
  6
CONTINUOUS
 62
     7
 10
-169.6576664955247
 20
183.9678673339945
 30
0.0
 11
-169.6576664955247
 21
184.0798861905852
 31
0.0
  0
LINE
  5
1DE
  8
1
  6
CONTINUOUS
 62
     7
 10
-165.6576664955246
 20
241.5972251948424
 30
0.0
 11
-165.6576664955246
 21
241.4982406549389
 31
0.0
  0
LINE
  5
1DF
  8
1
  6
CONTINUOUS
 62
     7
 10
-169.6576664955246
 20
241.6321326660054
 30
0.0
 11
-169.6576664955246
 21
241.5201138094148
 31
0.0
  0
LINE
  5
1E0
  8
1
  6
CONTINUOUS
 62
     7
 10
-165.6576664955247
 20
183.9649601406682
 30
0.0
 11
-165.6576664955247
 21
184.0027748051575
 31
0.0
  0
LINE
  5
1E1
  8
1
  6
CONTINUOUS
 62
     7
 10
-169.6576664955247
 20
183.9416477949964
 30
0.0
 11
-169.6576664955247
 21
183.9678673339945
 31
0.0
  0
LINE
  5
1E2
  8
1
  6
CONTINUOUS
 62
     7
 10
-165.6576664955246
 20
241.6350398593317
 30
0.0
 11
-165.6576664955246
 21
241.5972251948424
 31
0.0
  0
LINE
  5
1E3
  8
1
  6
CONTINUOUS
 62
     7
 10
-169.6576664955246
 20
241.6583522050036
 30
0.0
 11
-169.6576664955246
 21
241.6321326660054
 31
0.0
  0
LINE
  5
1E4
  8
1
  6
CONTINUOUS
 62
     7
 10
-165.6576664955246
 20
241.7230949671992
 30
0.0
 11
-165.6576664955246
 21
241.6350398593317
 31
0.0
  0
LINE
  5
1E5
  8
1
  6
CONTINUOUS
 62
     7
 10
-169.6576664955246
 20
241.7580024383623
 30
0.0
 11
-169.6576664955246
 21
241.6583522050036
 31
0.0
  0
LINE
  5
1E6
  8
1
  6
CONTINUOUS
 62
     7
 10
-165.6576664955247
 20
183.8769050328007
 30
0.0
 11
-165.6576664955247
 21
183.9649601406682
 31
0.0
  0
LINE
  5
1E7
  8
1
  6
CONTINUOUS
 62
     7
 10
-169.6576664955247
 20
183.8419975616377
 30
0.0
 11
-169.6576664955247
 21
183.9416477949964
 31
0.0
  0
LINE
  5
1E8
  8
1
  6
CONTINUOUS
 62
     7
 10
-165.6576664955247
 20
183.8769050328007
 30
0.0
 11
-165.6576664955247
 21
183.834907471163
 31
0.0
  0
LINE
  5
1E9
  8
1
  6
CONTINUOUS
 62
     7
 10
-169.6576664955247
 20
183.8419975616377
 30
0.0
 11
-169.6576664955247
 21
183.8
 31
0.0
  0
LINE
  5
1EA
  8
1
  6
CONTINUOUS
 62
     7
 10
-165.6576664955246
 20
241.765092528837
 30
0.0
 11
-165.6576664955246
 21
241.7230949671992
 31
0.0
  0
LINE
  5
1EB
  8
1
  6
CONTINUOUS
 62
     7
 10
-169.6576664955246
 20
241.8
 30
0.0
 11
-169.6576664955246
 21
241.7580024383623
 31
0.0
  0
LINE
  5
1EC
  8
1
  6
CONTINUOUS
 62
     7
 10
-169.6576664955247
 20
190.7939648818876
 30
0.0
 11
-169.6576664955247
 21
191.5335609014042
 31
0.0
  0
LINE
  5
1ED
  8
1
  6
CONTINUOUS
 62
     7
 10
-169.6576664955247
 20
191.5335609014041
 30
0.0
 11
-169.6576664955247
 21
191.6047682238924
 31
0.0
  0
LINE
  5
1EE
  8
1
  6
CONTINUOUS
 62
     7
 10
-169.6576664955247
 20
191.6047682238925
 30
0.0
 11
-169.6576664955247
 21
194.4238400298864
 31
0.0
  0
LINE
  5
1EF
  8
1
  6
CONTINUOUS
 62
     7
 10
-171.8903395075457
 20
240.7700318551026
 30
0.0
 11
-171.8903395075457
 21
184.8299681448974
 31
0.0
  0
LINE
  5
1F0
  8
1
  6
CONTINUOUS
 62
     7
 10
-169.6576664955247
 20
231.1762159993947
 30
0.0
 11
-169.6576664955247
 21
234.0824311415233
 31
0.0
  0
LINE
  5
1F1
  8
1
  6
CONTINUOUS
 62
     7
 10
-169.6576664955247
 20
234.0824311415233
 30
0.0
 11
-169.6576664955247
 21
234.246143630462
 31
0.0
  0
POLYLINE
  5
1F2
  8
1
  6
CONTINUOUS
 62
     7
 66
     1
 10
0.0
 20
0.0
 30
0.0
  0
VERTEX
  5
423
  8
1
  6
CONTINUOUS
 62
     7
 10
-172.8562653338348
 20
185.6334486006624
 30
0.0
  0
VERTEX
  5
424
  8
1
  6
CONTINUOUS
 62
     7
 10
-172.8443912350894
 20
185.5909557222327
 30
0.0
  0
VERTEX
  5
425
  8
1
  6
CONTINUOUS
 62
     7
 10
-172.831089819379
 20
185.5496913727957
 30
0.0
  0
VERTEX
  5
426
  8
1
  6
CONTINUOUS
 62
     7
 10
-172.8164774949017
 20
185.5096871678933
 30
0.0
  0
VERTEX
  5
427
  8
1
  6
CONTINUOUS
 62
     7
 10
-172.8006706698558
 20
185.4709747230675
 30
0.0
  0
VERTEX
  5
428
  8
1
  6
CONTINUOUS
 62
     7
 10
-172.7837857524393
 20
185.43358565386
 30
0.0
  0
VERTEX
  5
429
  8
1
  6
CONTINUOUS
 62
     7
 10
-172.7659391508503
 20
185.397551575813
 30
0.0
  0
VERTEX
  5
42A
  8
1
  6
CONTINUOUS
 62
     7
 10
-172.7472472732871
 20
185.3629041044683
 30
0.0
  0
VERTEX
  5
42B
  8
1
  6
CONTINUOUS
 62
     7
 10
-172.7278265279477
 20
185.3296748553679
 30
0.0
  0
VERTEX
  5
42C
  8
1
  6
CONTINUOUS
 62
     7
 10
-172.6916359837187
 20
185.2737601790435
 30
0.0
  0
VERTEX
  5
42D
  8
1
  6
CONTINUOUS
 62
     7
 10
-172.6533144551761
 20
185.2214312177206
 30
0.0
  0
VERTEX
  5
42E
  8
1
  6
CONTINUOUS
 62
     7
 10
-172.613015691423
 20
185.1725784965363
 30
0.0
  0
VERTEX
  5
42F
  8
1
  6
CONTINUOUS
 62
     7
 10
-172.5708934415623
 20
185.1270925406275
 30
0.0
  0
VERTEX
  5
430
  8
1
  6
CONTINUOUS
 62
     7
 10
-172.5271014546968
 20
185.0848638751313
 30
0.0
  0
VERTEX
  5
431
  8
1
  6
CONTINUOUS
 62
     7
 10
-172.4817934799294
 20
185.0457830251847
 30
0.0
  0
VERTEX
  5
432
  8
1
  6
CONTINUOUS
 62
     7
 10
-172.4409793912357
 20
185.0138498698628
 30
0.0
  0
VERTEX
  5
433
  8
1
  6
CONTINUOUS
 62
     7
 10
-172.3989303720627
 20
184.9839651223095
 30
0.0
  0
VERTEX
  5
434
  8
1
  6
CONTINUOUS
 62
     7
 10
-172.3551061913381
 20
184.9561707457657
 30
0.0
  0
VERTEX
  5
435
  8
1
  6
CONTINUOUS
 62
     7
 10
-172.3089666179893
 20
184.930508703472
 30
0.0
  0
VERTEX
  5
436
  8
1
  6
CONTINUOUS
 62
     7
 10
-172.2599714209437
 20
184.9070209586694
 30
0.0
  0
VERTEX
  5
437
  8
1
  6
CONTINUOUS
 62
     7
 10
-172.207580369129
 20
184.8857494745985
 30
0.0
  0
VERTEX
  5
438
  8
1
  6
CONTINUOUS
 62
     7
 10
-172.1512532314726
 20
184.8667362145001
 30
0.0
  0
VERTEX
  5
439
  8
1
  6
CONTINUOUS
 62
     7
 10
-172.136744239448
 20
184.8624374819425
 30
0.0
  0
VERTEX
  5
43A
  8
1
  6
CONTINUOUS
 62
     7
 10
-172.1218158124775
 20
184.8582973521342
 30
0.0
  0
VERTEX
  5
43B
  8
1
  6
CONTINUOUS
 62
     7
 10
-172.1064592993864
 20
184.8543376189085
 30
0.0
  0
VERTEX
  5
43C
  8
1
  6
CONTINUOUS
 62
     7
 10
-172.0906660489999
 20
184.8505800760989
 30
0.0
  0
VERTEX
  5
43D
  8
1
  6
CONTINUOUS
 62
     7
 10
-172.0744274101434
 20
184.8470465175388
 30
0.0
  0
VERTEX
  5
43E
  8
1
  6
CONTINUOUS
 62
     7
 10
-172.0631752768921
 20
184.8447942242907
 30
0.0
  0
VERTEX
  5
43F
  8
1
  6
CONTINUOUS
 62
     7
 10
-172.0516867692687
 20
184.8426596299643
 30
0.0
  0
VERTEX
  5
440
  8
1
  6
CONTINUOUS
 62
     7
 10
-172.0399937518234
 20
184.8406559937421
 30
0.0
  0
VERTEX
  5
441
  8
1
  6
CONTINUOUS
 62
     7
 10
-172.0281280891062
 20
184.8387965748068
 30
0.0
  0
VERTEX
  5
442
  8
1
  6
CONTINUOUS
 62
     7
 10
-172.0161216456674
 20
184.8370946323411
 30
0.0
  0
VERTEX
  5
443
  8
1
  6
CONTINUOUS
 62
     7
 10
-172.0056258686962
 20
184.8357585740952
 30
0.0
  0
VERTEX
  5
444
  8
1
  6
CONTINUOUS
 62
     7
 10
-171.9950217471695
 20
184.8345504825117
 30
0.0
  0
VERTEX
  5
445
  8
1
  6
CONTINUOUS
 62
     7
 10
-171.9843522433829
 20
184.8334737571426
 30
0.0
  0
VERTEX
  5
446
  8
1
  6
CONTINUOUS
 62
     7
 10
-171.973660319632
 20
184.8325317975402
 30
0.0
  0
VERTEX
  5
447
  8
1
  6
CONTINUOUS
 62
     7
 10
-171.9629889382128
 20
184.8317280032564
 30
0.0
  0
VERTEX
  5
448
  8
1
  6
CONTINUOUS
 62
     7
 10
-171.9523810614209
 20
184.8310657738436
 30
0.0
  0
VERTEX
  5
449
  8
1
  6
CONTINUOUS
 62
     7
 10
-171.9418796515519
 20
184.8305485088537
 30
0.0
  0
VERTEX
  5
44A
  8
1
  6
CONTINUOUS
 62
     7
 10
-171.9310382014073
 20
184.8301593759855
 30
0.0
  0
VERTEX
  5
44B
  8
1
  6
CONTINUOUS
 62
     7
 10
-171.9203110543591
 20
184.8299147604218
 30
0.0
  0
VERTEX
  5
44C
  8
1
  6
CONTINUOUS
 62
     7
 10
-171.9097258927218
 20
184.8298097817174
 30
0.0
  0
VERTEX
  5
44D
  8
1
  6
CONTINUOUS
 62
     7
 10
-171.8999653084944
 20
184.8298330343524
 30
0.0
  0
VERTEX
  5
44E
  8
1
  6
CONTINUOUS
 62
     7
 10
-171.8903395075457
 20
184.8299681448974
 30
0.0
  0
SEQEND
  5
554
  8
1
  6
CONTINUOUS
 62
     7
  0
POLYLINE
  5
1F3
  8
1
  6
CONTINUOUS
 62
     7
 66
     1
 10
0.0
 20
0.0
 30
0.0
  0
VERTEX
  5
44F
  8
1
  6
CONTINUOUS
 62
     7
 10
-171.8903395075457
 20
240.7700318551026
 30
0.0
  0
VERTEX
  5
450
  8
1
  6
CONTINUOUS
 62
     7
 10
-171.8999653084945
 20
240.7701669656475
 30
0.0
  0
VERTEX
  5
451
  8
1
  6
CONTINUOUS
 62
     7
 10
-171.9097258927218
 20
240.7701902182826
 30
0.0
  0
VERTEX
  5
452
  8
1
  6
CONTINUOUS
 62
     7
 10
-171.9195429025657
 20
240.7700954449607
 30
0.0
  0
VERTEX
  5
453
  8
1
  6
CONTINUOUS
 62
     7
 10
-171.9295107575636
 20
240.7698781090783
 30
0.0
  0
VERTEX
  5
454
  8
1
  6
CONTINUOUS
 62
     7
 10
-171.9395989598771
 20
240.7695364518258
 30
0.0
  0
VERTEX
  5
455
  8
1
  6
CONTINUOUS
 62
     7
 10
-171.9497770116677
 20
240.7690687143936
 30
0.0
  0
VERTEX
  5
456
  8
1
  6
CONTINUOUS
 62
     7
 10
-171.9600144150969
 20
240.768473137972
 30
0.0
  0
VERTEX
  5
457
  8
1
  6
CONTINUOUS
 62
     7
 10
-171.9702806723262
 20
240.7677479637512
 30
0.0
  0
VERTEX
  5
458
  8
1
  6
CONTINUOUS
 62
     7
 10
-171.9805452855172
 20
240.7668914329217
 30
0.0
  0
VERTEX
  5
459
  8
1
  6
CONTINUOUS
 62
     7
 10
-171.9894830822549
 20
240.7660372554923
 30
0.0
  0
VERTEX
  5
45A
  8
1
  6
CONTINUOUS
 62
     7
 10
-171.9984085984284
 20
240.7650856231957
 30
0.0
  0
VERTEX
  5
45B
  8
1
  6
CONTINUOUS
 62
     7
 10
-172.0072965481839
 20
240.7640403794464
 30
0.0
  0
VERTEX
  5
45C
  8
1
  6
CONTINUOUS
 62
     7
 10
-172.0161216456674
 20
240.7629053676588
 30
0.0
  0
VERTEX
  5
45D
  8
1
  6
CONTINUOUS
 62
     7
 10
-172.0287396943573
 20
240.7611107115214
 30
0.0
  0
VERTEX
  5
45E
  8
1
  6
CONTINUOUS
 62
     7
 10
-172.0412030713703
 20
240.7591402719345
 30
0.0
  0
VERTEX
  5
45F
  8
1
  6
CONTINUOUS
 62
     7
 10
-172.0534900145736
 20
240.7570076818545
 30
0.0
  0
VERTEX
  5
460
  8
1
  6
CONTINUOUS
 62
     7
 10
-172.065578761834
 20
240.7547265742382
 30
0.0
  0
VERTEX
  5
461
  8
1
  6
CONTINUOUS
 62
     7
 10
-172.0774475510185
 20
240.7523105820421
 30
0.0
  0
VERTEX
  5
462
  8
1
  6
CONTINUOUS
 62
     7
 10
-172.0890746199941
 20
240.7497733382228
 30
0.0
  0
VERTEX
  5
463
  8
1
  6
CONTINUOUS
 62
     7
 10
-172.1004382066276
 20
240.7471284757368
 30
0.0
  0
VERTEX
  5
464
  8
1
  6
CONTINUOUS
 62
     7
 10
-172.1115165487861
 20
240.7443896275408
 30
0.0
  0
VERTEX
  5
465
  8
1
  6
CONTINUOUS
 62
     7
 10
-172.131746851412
 20
240.7389793626167
 30
0.0
  0
VERTEX
  5
466
  8
1
  6
CONTINUOUS
 62
     7
 10
-172.1512532314726
 20
240.7332637854998
 30
0.0
  0
VERTEX
  5
467
  8
1
  6
CONTINUOUS
 62
     7
 10
-172.207580369129
 20
240.7142505254015
 30
0.0
  0
VERTEX
  5
468
  8
1
  6
CONTINUOUS
 62
     7
 10
-172.2599714209437
 20
240.6929790413306
 30
0.0
  0
VERTEX
  5
469
  8
1
  6
CONTINUOUS
 62
     7
 10
-172.3089666179893
 20
240.6694912965279
 30
0.0
  0
VERTEX
  5
46A
  8
1
  6
CONTINUOUS
 62
     7
 10
-172.3551061913381
 20
240.6438292542343
 30
0.0
  0
VERTEX
  5
46B
  8
1
  6
CONTINUOUS
 62
     7
 10
-172.3989303720627
 20
240.6160348776905
 30
0.0
  0
VERTEX
  5
46C
  8
1
  6
CONTINUOUS
 62
     7
 10
-172.4409793912357
 20
240.5861501301372
 30
0.0
  0
VERTEX
  5
46D
  8
1
  6
CONTINUOUS
 62
     7
 10
-172.4817934799294
 20
240.5542169748153
 30
0.0
  0
VERTEX
  5
46E
  8
1
  6
CONTINUOUS
 62
     7
 10
-172.5271014546968
 20
240.5151361248687
 30
0.0
  0
VERTEX
  5
46F
  8
1
  6
CONTINUOUS
 62
     7
 10
-172.5708934415622
 20
240.4729074593724
 30
0.0
  0
VERTEX
  5
470
  8
1
  6
CONTINUOUS
 62
     7
 10
-172.613015691423
 20
240.4274215034637
 30
0.0
  0
VERTEX
  5
471
  8
1
  6
CONTINUOUS
 62
     7
 10
-172.6533144551761
 20
240.3785687822794
 30
0.0
  0
VERTEX
  5
472
  8
1
  6
CONTINUOUS
 62
     7
 10
-172.6916359837187
 20
240.3262398209565
 30
0.0
  0
VERTEX
  5
473
  8
1
  6
CONTINUOUS
 62
     7
 10
-172.7278265279477
 20
240.2703251446321
 30
0.0
  0
VERTEX
  5
474
  8
1
  6
CONTINUOUS
 62
     7
 10
-172.7472472732871
 20
240.2370958955317
 30
0.0
  0
VERTEX
  5
475
  8
1
  6
CONTINUOUS
 62
     7
 10
-172.7659391508503
 20
240.2024484241869
 30
0.0
  0
VERTEX
  5
476
  8
1
  6
CONTINUOUS
 62
     7
 10
-172.7837857524393
 20
240.1664143461399
 30
0.0
  0
VERTEX
  5
477
  8
1
  6
CONTINUOUS
 62
     7
 10
-172.8006706698558
 20
240.1290252769325
 30
0.0
  0
VERTEX
  5
478
  8
1
  6
CONTINUOUS
 62
     7
 10
-172.8164774949018
 20
240.0903128321067
 30
0.0
  0
VERTEX
  5
479
  8
1
  6
CONTINUOUS
 62
     7
 10
-172.831089819379
 20
240.0503086272043
 30
0.0
  0
VERTEX
  5
47A
  8
1
  6
CONTINUOUS
 62
     7
 10
-172.8443912350894
 20
240.0090442777673
 30
0.0
  0
VERTEX
  5
47B
  8
1
  6
CONTINUOUS
 62
     7
 10
-172.8562653338348
 20
239.9665513993376
 30
0.0
  0
SEQEND
  5
555
  8
1
  6
CONTINUOUS
 62
     7
  0
LINE
  5
1F4
  8
1
  6
CONTINUOUS
 62
     7
 10
-173.7641384423096
 20
236.545252712683
 30
0.0
 11
-173.7641384423096
 21
189.054747287317
 31
0.0
  0
LINE
  5
1F5
  8
1
  6
CONTINUOUS
 62
     7
 10
-172.9365019219172
 20
239.6622812735827
 30
0.0
 11
-173.7641384423096
 21
236.545252712683
 31
0.0
  0
LINE
  5
1F6
  8
1
  6
CONTINUOUS
 62
     7
 10
-172.8562653338348
 20
239.9665513993376
 30
0.0
 11
-172.9365019219172
 21
239.6622812735827
 31
0.0
  0
LINE
  5
1F7
  8
1
  6
CONTINUOUS
 62
     7
 10
-172.9365019219187
 20
185.937718726423
 30
0.0
 11
-172.8562653338348
 21
185.6334486006624
 31
0.0
  0
LINE
  5
1F8
  8
1
  6
CONTINUOUS
 62
     7
 10
-173.7641384423096
 20
189.054747287317
 30
0.0
 11
-172.9365019219187
 21
185.937718726423
 31
0.0
  0
LINE
  5
1F9
  8
1
  6
CONTINUOUS
 62
     7
 10
-205.4576664955246
 20
186.4
 30
0.0
 11
-205.4576664955246
 21
186.4925115607166
 31
0.0
  0
LINE
  5
1FA
  8
1
  6
CONTINUOUS
 62
     7
 10
-190.0413299895141
 20
239.1494391810264
 30
0.0
 11
-189.6576664955246
 21
239.1869437752111
 31
0.0
  0
LINE
  5
1FB
  8
1
  6
CONTINUOUS
 62
     7
 10
-190.0413299895141
 20
186.4505608189736
 30
0.0
 11
-190.0413299895141
 21
239.1494391810264
 31
0.0
  0
LINE
  5
1FC
  8
1
  6
CONTINUOUS
 62
     7
 10
-189.6576664955246
 20
186.4130562247889
 30
0.0
 11
-190.0413299895141
 21
186.4505608189736
 31
0.0
  0
LINE
  5
1FD
  8
1
  6
CONTINUOUS
 62
     7
 10
-189.6576664955246
 20
186.4130562247889
 30
0.0
 11
-189.6576664955246
 21
186.3999999999999
 31
0.0
  0
LINE
  5
1FE
  8
1
  6
CONTINUOUS
 62
     7
 10
-189.6576664955246
 20
239.1869437752111
 30
0.0
 11
-189.6576664955246
 21
239.2
 31
0.0
  0
LINE
  5
1FF
  8
1
  6
CONTINUOUS
 62
     7
 10
-225.4576664955246
 20
186.4925115607166
 30
0.0
 11
-205.4576664955246
 21
186.4925115607166
 31
0.0
  0
LINE
  5
200
  8
1
  6
CONTINUOUS
 62
     7
 10
-225.4576664955246
 20
186.4925115607166
 30
0.0
 11
-225.4576664955246
 21
239.1074884392834
 31
0.0
  0
LINE
  5
201
  8
1
  6
CONTINUOUS
 62
     7
 10
-205.4576664955246
 20
239.1074884392834
 30
0.0
 11
-225.4576664955246
 21
239.1074884392834
 31
0.0
  0
LINE
  5
202
  8
1
  6
CONTINUOUS
 62
     7
 10
-205.4576664955246
 20
239.1074884392834
 30
0.0
 11
-205.4576664955246
 21
239.2
 31
0.0
  0
LINE
  5
203
  8
1
  6
CONTINUOUS
 62
     7
 10
-189.7379116748734
 20
186.5529510525894
 30
0.0
 11
-189.5583670763696
 21
186.8595383053905
 31
0.0
  0
POLYLINE
  5
204
  8
1
  6
CONTINUOUS
 62
     7
 66
     1
 10
0.0
 20
0.0
 30
0.0
  0
VERTEX
  5
47C
  8
1
  6
CONTINUOUS
 62
     7
 10
-190.0413299895141
 20
186.4505608189736
 30
0.0
  0
VERTEX
  5
47D
  8
1
  6
CONTINUOUS
 62
     7
 10
-189.9335046259854
 20
186.4623030049922
 30
0.0
  0
VERTEX
  5
47E
  8
1
  6
CONTINUOUS
 62
     7
 10
-189.830753402265
 20
186.496976989038
 30
0.0
  0
VERTEX
  5
47F
  8
1
  6
CONTINUOUS
 62
     7
 10
-189.7379116748734
 20
186.5529510525894
 30
0.0
  0
SEQEND
  5
556
  8
1
  6
CONTINUOUS
 62
     7
  0
POLYLINE
  5
205
  8
1
  6
CONTINUOUS
 62
     7
 66
     1
 10
0.0
 20
0.0
 30
0.0
  0
VERTEX
  5
480
  8
1
  6
CONTINUOUS
 62
     7
 10
-189.7379116748735
 20
239.0470489474107
 30
0.0
  0
VERTEX
  5
481
  8
1
  6
CONTINUOUS
 62
     7
 10
-189.8307534022651
 20
239.103023010962
 30
0.0
  0
VERTEX
  5
482
  8
1
  6
CONTINUOUS
 62
     7
 10
-189.9335046259854
 20
239.1376969950078
 30
0.0
  0
VERTEX
  5
483
  8
1
  6
CONTINUOUS
 62
     7
 10
-190.0413299895141
 20
239.1494391810264
 30
0.0
  0
SEQEND
  5
557
  8
1
  6
CONTINUOUS
 62
     7
  0
LINE
  5
206
  8
1
  6
CONTINUOUS
 62
     7
 10
-189.5583670763696
 20
238.7404616946095
 30
0.0
 11
-189.7379116748735
 21
239.0470489474107
 31
0.0
  0
LINE
  5
207
  8
1
  6
CONTINUOUS
 62
     7
 10
-189.4175827963061
 20
187.3985904221359
 30
0.0
 11
-189.2778115140946
 21
187.9249527471725
 31
0.0
  0
LINE
  5
208
  8
1
  6
CONTINUOUS
 62
     7
 10
-189.5583670763696
 20
186.8595383053905
 30
0.0
 11
-189.4175827963061
 21
187.3985904221359
 31
0.0
  0
LINE
  5
209
  8
1
  6
CONTINUOUS
 62
     7
 10
-189.4175827963061
 20
238.2014095778641
 30
0.0
 11
-189.5583670763696
 21
238.7404616946095
 31
0.0
  0
LINE
  5
20A
  8
1
  6
CONTINUOUS
 62
     7
 10
-189.2778115140946
 20
237.6750472528274
 30
0.0
 11
-189.4175827963061
 21
238.2014095778641
 31
0.0
  0
ARC
  5
20B
  8
1
  6
CONTINUOUS
 62
     7
 10
-187.3397940883226
 20
238.1877586571231
 30
0.0
 40
2.004690631167496
 50
194.8183788373747
 51
269.8237766302034
  0
LINE
  5
20C
  8
1
  6
CONTINUOUS
 62
     7
 10
-187.3459598615165
 20
236.1830775079296
 30
0.0
 11
-187.3459598615165
 21
189.4169224920704
 31
0.0
  0
ARC
  5
20D
  8
1
  6
CONTINUOUS
 62
     7
 10
-187.3392478515268
 20
187.4115340574508
 30
0.0
 40
2.005399667094808
 50
90.19176754079295
 51
165.1660769916285
  0
POLYLINE
  5
20E
  8
1
  6
CONTINUOUS
 62
     7
 66
     1
 10
0.0
 20
0.0
 30
0.0
  0
VERTEX
  5
484
  8
1
  6
CONTINUOUS
 62
     7
 10
-174.2471013554542
 20
236.1766081017234
 30
0.0
  0
VERTEX
  5
485
  8
1
  6
CONTINUOUS
 62
     7
 10
-174.1541455518727
 20
236.185279095831
 30
0.0
  0
VERTEX
  5
486
  8
1
  6
CONTINUOUS
 62
     7
 10
-174.064430843271
 20
236.210989746138
 30
0.0
  0
VERTEX
  5
487
  8
1
  6
CONTINUOUS
 62
     7
 10
-173.9810853171965
 20
236.2528435980238
 30
0.0
  0
VERTEX
  5
488
  8
1
  6
CONTINUOUS
 62
     7
 10
-173.9070149865687
 20
236.3093813309941
 30
0.0
  0
VERTEX
  5
489
  8
1
  6
CONTINUOUS
 62
     7
 10
-173.8448024655708
 20
236.3786316408868
 30
0.0
  0
VERTEX
  5
48A
  8
1
  6
CONTINUOUS
 62
     7
 10
-173.796616921503
 20
236.4581799734396
 30
0.0
  0
VERTEX
  5
48B
  8
1
  6
CONTINUOUS
 62
     7
 10
-173.7641384423096
 20
236.545252712683
 30
0.0
  0
SEQEND
  5
558
  8
1
  6
CONTINUOUS
 62
     7
  0
POLYLINE
  5
20F
  8
1
  6
CONTINUOUS
 62
     7
 66
     1
 10
0.0
 20
0.0
 30
0.0
  0
VERTEX
  5
48C
  8
1
  6
CONTINUOUS
 62
     7
 10
-173.7641384423097
 20
189.054747287317
 30
0.0
  0
VERTEX
  5
48D
  8
1
  6
CONTINUOUS
 62
     7
 10
-173.796616921503
 20
189.1418200265604
 30
0.0
  0
VERTEX
  5
48E
  8
1
  6
CONTINUOUS
 62
     7
 10
-173.8448024655709
 20
189.2213683591132
 30
0.0
  0
VERTEX
  5
48F
  8
1
  6
CONTINUOUS
 62
     7
 10
-173.9070149865687
 20
189.2906186690059
 30
0.0
  0
VERTEX
  5
490
  8
1
  6
CONTINUOUS
 62
     7
 10
-173.9810853171965
 20
189.3471564019762
 30
0.0
  0
VERTEX
  5
491
  8
1
  6
CONTINUOUS
 62
     7
 10
-174.064430843271
 20
189.389010253862
 30
0.0
  0
VERTEX
  5
492
  8
1
  6
CONTINUOUS
 62
     7
 10
-174.1541455518727
 20
189.414720904169
 30
0.0
  0
VERTEX
  5
493
  8
1
  6
CONTINUOUS
 62
     7
 10
-174.2471013554542
 20
189.4233918982766
 30
0.0
  0
SEQEND
  5
559
  8
1
  6
CONTINUOUS
 62
     7
  0
LINE
  5
210
  8
1
  6
CONTINUOUS
 62
     7
 10
-174.2471013554542
 20
236.1766081017234
 30
0.0
 11
-187.3459598615165
 21
236.1830775079297
 31
0.0
  0
LINE
  5
211
  8
1
  6
CONTINUOUS
 62
     7
 10
-187.3459598615165
 20
189.4169224920703
 30
0.0
 11
-174.2471013554542
 21
189.4233918982766
 31
0.0
  0
LINE
  5
212
  8
1
  6
CONTINUOUS
 62
     7
 10
-225.4576664955246
 20
239.605736326391
 30
0.0
 11
-225.4576664955246
 21
239.1074884392834
 31
0.0
  0
LINE
  5
213
  8
1
  6
CONTINUOUS
 62
     7
 10
-225.4576664955246
 20
186.4925115607166
 30
0.0
 11
-225.4576664955246
 21
185.994263673609
 31
0.0
  0
LINE
  5
214
  8
1
  6
CONTINUOUS
 62
     7
 10
-225.4576664955246
 20
182.45
 30
0.0
 11
-225.4576664955246
 21
182.5004950535491
 31
0.0
  0
LINE
  5
215
  8
1
  6
CONTINUOUS
 62
     7
 10
-225.4576664955246
 20
243.0995049464508
 30
0.0
 11
-225.4576664955246
 21
243.15
 31
0.0
  0
LINE
  5
216
  8
1
  6
CONTINUOUS
 62
     7
 10
-225.4576664955246
 20
185.994263673609
 30
0.0
 11
-225.4576664955246
 21
182.5004950535491
 31
0.0
  0
LINE
  5
217
  8
1
  6
CONTINUOUS
 62
     7
 10
-225.4576664955246
 20
243.0995049464508
 30
0.0
 11
-225.4576664955246
 21
239.605736326391
 31
0.0
  0
ARC
  5
218
  8
1
  6
CONTINUOUS
 62
     7
 10
-247.8576664955247
 20
185.95
 30
0.0
 40
2.000000000000002
 50
180.0
 51
270.0
  0
ARC
  5
219
  8
1
  6
CONTINUOUS
 62
     7
 10
-247.8576664955247
 20
239.65
 30
0.0
 40
2.000000000000002
 50
90.0
 51
180.0
  0
LINE
  5
21A
  8
1
  6
CONTINUOUS
 62
     7
 10
-247.236346151965
 20
242.2713203435596
 30
0.0
 11
-247.8576664955247
 21
241.65
 31
0.0
  0
ARC
  5
21B
  8
1
  6
CONTINUOUS
 62
     7
 10
-245.1150258084054
 20
240.15
 30
0.0
 40
3.000000000000003
 50
90.00000000000016
 51
135.0
  0
LINE
  5
21C
  8
1
  6
CONTINUOUS
 62
     7
 10
-225.8576664955246
 20
243.15
 30
0.0
 11
-245.1150258084054
 21
243.15
 31
0.0
  0
LINE
  5
21D
  8
1
  6
CONTINUOUS
 62
     7
 10
-247.8576664955247
 20
183.95
 30
0.0
 11
-247.236346151965
 21
183.3286796564403
 31
0.0
  0
ARC
  5
21E
  8
1
  6
CONTINUOUS
 62
     7
 10
-245.1150258084054
 20
185.45
 30
0.0
 40
2.999999999999989
 50
225.0
 51
269.9999999999999
  0
LINE
  5
21F
  8
1
  6
CONTINUOUS
 62
     7
 10
-245.1150258084054
 20
182.45
 30
0.0
 11
-225.8576664955246
 21
182.45
 31
0.0
  0
POLYLINE
  5
220
  8
1
  6
CONTINUOUS
 62
     7
 66
     1
 10
0.0
 20
0.0
 30
0.0
  0
VERTEX
  5
494
  8
1
  6
CONTINUOUS
 62
     7
 10
-164.667958567307
 20
230.278148044144
 30
0.0
  0
VERTEX
  5
495
  8
1
  6
CONTINUOUS
 62
     7
 10
-164.6926493331814
 20
230.4001037393687
 30
0.0
  0
VERTEX
  5
496
  8
1
  6
CONTINUOUS
 62
     7
 10
-164.7334062197273
 20
230.5092057870094
 30
0.0
  0
VERTEX
  5
497
  8
1
  6
CONTINUOUS
 62
     7
 10
-164.7884019085886
 20
230.6087510541822
 30
0.0
  0
VERTEX
  5
498
  8
1
  6
CONTINUOUS
 62
     7
 10
-164.8520606213662
 20
230.6938194480546
 30
0.0
  0
VERTEX
  5
499
  8
1
  6
CONTINUOUS
 62
     7
 10
-164.9234953189919
 20
230.7678725438503
 30
0.0
  0
VERTEX
  5
49A
  8
1
  6
CONTINUOUS
 62
     7
 10
-165.0023375631875
 20
230.8329330497958
 30
0.0
  0
VERTEX
  5
49B
  8
1
  6
CONTINUOUS
 62
     7
 10
-165.1082577733211
 20
230.9009348234755
 30
0.0
  0
VERTEX
  5
49C
  8
1
  6
CONTINUOUS
 62
     7
 10
-165.2037498512437
 20
230.9477879588747
 30
0.0
  0
SEQEND
  5
55A
  8
1
  6
CONTINUOUS
 62
     7
  0
ARC
  5
221
  8
1
  6
CONTINUOUS
 62
     7
 10
-165.6602581791006
 20
229.8721295107939
 30
0.0
 40
1.168520838637593
 50
67.00368274394191
 51
89.3407905603622
  0
POLYLINE
  5
222
  8
1
  6
CONTINUOUS
 62
     7
 66
     1
 10
0.0
 20
0.0
 30
0.0
  0
VERTEX
  5
49D
  8
1
  6
CONTINUOUS
 62
     7
 10
-165.6468142050539
 20
194.5594269904046
 30
0.0
  0
VERTEX
  5
49E
  8
1
  6
CONTINUOUS
 62
     7
 10
-165.6073208981552
 20
194.5605972717433
 30
0.0
  0
VERTEX
  5
49F
  8
1
  6
CONTINUOUS
 62
     7
 10
-165.5690967202645
 20
194.5629836599131
 30
0.0
  0
VERTEX
  5
4A0
  8
1
  6
CONTINUOUS
 62
     7
 10
-165.5321275236207
 20
194.5664684463867
 30
0.0
  0
VERTEX
  5
4A1
  8
1
  6
CONTINUOUS
 62
     7
 10
-165.496401005264
 20
194.5709448958133
 30
0.0
  0
VERTEX
  5
4A2
  8
1
  6
CONTINUOUS
 62
     7
 10
-165.4619062656097
 20
194.5763151156791
 30
0.0
  0
VERTEX
  5
4A3
  8
1
  6
CONTINUOUS
 62
     7
 10
-165.4286334654344
 20
194.582488380823
 30
0.0
  0
VERTEX
  5
4A4
  8
1
  6
CONTINUOUS
 62
     7
 10
-165.3965735556353
 20
194.5893797955905
 30
0.0
  0
VERTEX
  5
4A5
  8
1
  6
CONTINUOUS
 62
     7
 10
-165.3606920041586
 20
194.5982207355937
 30
0.0
  0
VERTEX
  5
4A6
  8
1
  6
CONTINUOUS
 62
     7
 10
-165.3266422631801
 20
194.6077493238613
 30
0.0
  0
VERTEX
  5
4A7
  8
1
  6
CONTINUOUS
 62
     7
 10
-165.2946142955064
 20
194.6177644364441
 30
0.0
  0
VERTEX
  5
4A8
  8
1
  6
CONTINUOUS
 62
     7
 10
-165.2645258262974
 20
194.6281412108544
 30
0.0
  0
VERTEX
  5
4A9
  8
1
  6
CONTINUOUS
 62
     7
 10
-165.2363013839223
 20
194.6387652805242
 30
0.0
  0
VERTEX
  5
4AA
  8
1
  6
CONTINUOUS
 62
     7
 10
-165.2098716815751
 20
194.6495308734332
 30
0.0
  0
VERTEX
  5
4AB
  8
1
  6
CONTINUOUS
 62
     7
 10
-165.177065406477
 20
194.664050794227
 30
0.0
  0
VERTEX
  5
4AC
  8
1
  6
CONTINUOUS
 62
     7
 10
-165.1472429989325
 20
194.6784276534898
 30
0.0
  0
VERTEX
  5
4AD
  8
1
  6
CONTINUOUS
 62
     7
 10
-165.1202743075981
 20
194.6924574500535
 30
0.0
  0
VERTEX
  5
4AE
  8
1
  6
CONTINUOUS
 62
     7
 10
-165.0960406563071
 20
194.7059517830442
 30
0.0
  0
VERTEX
  5
4AF
  8
1
  6
CONTINUOUS
 62
     7
 10
-165.0741038021463
 20
194.7189359059551
 30
0.0
  0
VERTEX
  5
4B0
  8
1
  6
CONTINUOUS
 62
     7
 10
-165.0475066939341
 20
194.7357181055688
 30
0.0
  0
VERTEX
  5
4B1
  8
1
  6
CONTINUOUS
 62
     7
 10
-165.0231434798071
 20
194.7521639649787
 30
0.0
  0
VERTEX
  5
4B2
  8
1
  6
CONTINUOUS
 62
     7
 10
-165.0008837053506
 20
194.7681590441714
 30
0.0
  0
VERTEX
  5
4B3
  8
1
  6
CONTINUOUS
 62
     7
 10
-164.9811106274934
 20
194.7832048136006
 30
0.0
  0
VERTEX
  5
4B4
  8
1
  6
CONTINUOUS
 62
     7
 10
-164.9631190237359
 20
194.7976329761665
 30
0.0
  0
VERTEX
  5
4B5
  8
1
  6
CONTINUOUS
 62
     7
 10
-164.9468163028393
 20
194.8113603944366
 30
0.0
  0
VERTEX
  5
4B6
  8
1
  6
CONTINUOUS
 62
     7
 10
-164.9321178830232
 20
194.8243103592713
 30
0.0
  0
VERTEX
  5
4B7
  8
1
  6
CONTINUOUS
 62
     7
 10
-164.9172445007309
 20
194.838017829841
 30
0.0
  0
VERTEX
  5
4B8
  8
1
  6
CONTINUOUS
 62
     7
 10
-164.8967806690422
 20
194.8579736560228
 30
0.0
  0
VERTEX
  5
4B9
  8
1
  6
CONTINUOUS
 62
     7
 10
-164.8708553175428
 20
194.8852781429439
 30
0.0
  0
VERTEX
  5
4BA
  8
1
  6
CONTINUOUS
 62
     7
 10
-164.8563983476267
 20
194.9016059666577
 30
0.0
  0
VERTEX
  5
4BB
  8
1
  6
CONTINUOUS
 62
     7
 10
-164.8409531485545
 20
194.9200288969703
 30
0.0
  0
VERTEX
  5
4BC
  8
1
  6
CONTINUOUS
 62
     7
 10
-164.8247332456904
 20
194.9405918918703
 30
0.0
  0
VERTEX
  5
4BD
  8
1
  6
CONTINUOUS
 62
     7
 10
-164.8079400377568
 20
194.9633717388807
 30
0.0
  0
VERTEX
  5
4BE
  8
1
  6
CONTINUOUS
 62
     7
 10
-164.7944731808612
 20
194.9828912930641
 30
0.0
  0
VERTEX
  5
4BF
  8
1
  6
CONTINUOUS
 62
     7
 10
-164.7808830550549
 20
195.003889903104
 30
0.0
  0
VERTEX
  5
4C0
  8
1
  6
CONTINUOUS
 62
     7
 10
-164.7672858880327
 20
195.0264138885049
 30
0.0
  0
VERTEX
  5
4C1
  8
1
  6
CONTINUOUS
 62
     7
 10
-164.7538073469622
 20
195.0505070642178
 30
0.0
  0
VERTEX
  5
4C2
  8
1
  6
CONTINUOUS
 62
     7
 10
-164.7403457009852
 20
195.0766923831363
 30
0.0
  0
VERTEX
  5
4C3
  8
1
  6
CONTINUOUS
 62
     7
 10
-164.7273013190561
 20
195.1045847504815
 30
0.0
  0
VERTEX
  5
4C4
  8
1
  6
CONTINUOUS
 62
     7
 10
-164.7148392901606
 20
195.1342170856787
 30
0.0
  0
VERTEX
  5
4C5
  8
1
  6
CONTINUOUS
 62
     7
 10
-164.7031363441706
 20
195.1656159996276
 30
0.0
  0
VERTEX
  5
4C6
  8
1
  6
CONTINUOUS
 62
     7
 10
-164.6923812293026
 20
195.198800903904
 30
0.0
  0
VERTEX
  5
4C7
  8
1
  6
CONTINUOUS
 62
     7
 10
-164.6847263259519
 20
195.2261353947981
 30
0.0
  0
VERTEX
  5
4C8
  8
1
  6
CONTINUOUS
 62
     7
 10
-164.6778958518031
 20
195.2545387776971
 30
0.0
  0
VERTEX
  5
4C9
  8
1
  6
CONTINUOUS
 62
     7
 10
-164.6720176441095
 20
195.2839080602629
 30
0.0
  0
VERTEX
  5
4CA
  8
1
  6
CONTINUOUS
 62
     7
 10
-164.667191130086
 20
195.3142187688752
 30
0.0
  0
VERTEX
  5
4CB
  8
1
  6
CONTINUOUS
 62
     7
 10
-164.6635170587066
 20
195.3454446004977
 30
0.0
  0
SEQEND
  5
55B
  8
1
  6
CONTINUOUS
 62
     7
  0
LINE
  5
223
  8
1
  6
CONTINUOUS
 62
     7
 10
-169.6817726992348
 20
194.5070749820239
 30
0.0
 11
-169.6574199399584
 21
194.5073908348359
 31
0.0
  0
LINE
  5
224
  8
1
  6
CONTINUOUS
 62
     7
 10
-169.6574199399584
 20
194.5073908348359
 30
0.0
 11
-165.6468142051401
 21
194.5594269904488
 31
0.0
  0
LINE
  5
225
  8
1
  6
CONTINUOUS
 62
     7
 10
-165.6468142051401
 20
231.0405730095512
 30
0.0
 11
-169.6817726989743
 21
231.0929250179727
 31
0.0
  0
ARC
  5
226
  8
1
  6
CONTINUOUS
 62
     7
 10
-165.6576664955247
 20
185.3349455495488
 30
0.0
 40
1.000000000000003
 50
270.4999999999997
 51
359.9999999999993
  0
ARC
  5
227
  8
1
  6
CONTINUOUS
 62
     7
 10
-165.6576664955247
 20
240.2650544504512
 30
0.0
 40
1.000000000000001
 50
0.0000000000007951
 51
89.50000000000031
  0
LINE
  5
228
  8
1
  6
CONTINUOUS
 62
     7
 10
-165.6576664955247
 20
184.334907471163
 30
0.0
 11
-165.6489399600263
 21
184.3349836264846
 31
0.0
  0
LINE
  5
229
  8
1
  6
CONTINUOUS
 62
     7
 10
-165.6489399600263
 20
241.2650163735154
 30
0.0
 11
-165.6576664955247
 21
241.265092528837
 31
0.0
  0
LINE
  5
22A
  8
1
  6
CONTINUOUS
 62
     7
 10
-169.6576664955247
 20
189.6395913527055
 30
0.0
 11
-165.6576664955247
 21
189.6744988238686
 31
0.0
  0
LINE
  5
22B
  8
1
  6
CONTINUOUS
 62
     7
 10
-169.6576664955247
 20
188.7346683963344
 30
0.0
 11
-165.6576664955247
 21
188.7695758674974
 31
0.0
  0
LINE
  5
22C
  8
1
  6
CONTINUOUS
 62
     7
 10
-165.6576664955246
 20
236.8304241325026
 30
0.0
 11
-169.6576664955246
 21
236.8653316036656
 31
0.0
  0
LINE
  5
22D
  8
1
  6
CONTINUOUS
 62
     7
 10
-169.6576664955247
 20
187.8992984698494
 30
0.0
 11
-165.6576664955247
 21
187.9342059410124
 31
0.0
  0
LINE
  5
22E
  8
1
  6
CONTINUOUS
 62
     7
 10
-165.6576664955246
 20
237.6657940589876
 30
0.0
 11
-169.6576664955246
 21
237.7007015301506
 31
0.0
  0
LINE
  5
22F
  8
1
  6
CONTINUOUS
 62
     7
 10
-165.6576664955246
 20
238.4291661123825
 30
0.0
 11
-169.6576664955246
 21
238.4640735835455
 31
0.0
  0
LINE
  5
230
  8
1
  6
CONTINUOUS
 62
     7
 10
-169.6576664955247
 20
187.1359264164545
 30
0.0
 11
-165.6576664955247
 21
187.1708338876175
 31
0.0
  0
LINE
  5
231
  8
1
  6
CONTINUOUS
 62
     7
 10
-169.6576664955247
 20
186.4467863661055
 30
0.0
 11
-165.6576664955247
 21
186.4816938372685
 31
0.0
  0
LINE
  5
232
  8
1
  6
CONTINUOUS
 62
     7
 10
-165.6576664955246
 20
239.1183061627314
 30
0.0
 11
-169.6576664955246
 21
239.1532136338945
 31
0.0
  0
LINE
  5
233
  8
1
  6
CONTINUOUS
 62
     7
 10
-169.6576664955247
 20
185.8338951969725
 30
0.0
 11
-165.6576664955247
 21
185.8688026681356
 31
0.0
  0
LINE
  5
234
  8
1
  6
CONTINUOUS
 62
     7
 10
-165.6576664955246
 20
239.7311973318644
 30
0.0
 11
-169.6576664955246
 21
239.7661048030274
 31
0.0
  0
LINE
  5
235
  8
1
  6
CONTINUOUS
 62
     7
 10
-169.6576664955247
 20
185.2990466327248
 30
0.0
 11
-165.6576664955247
 21
185.3339541038879
 31
0.0
  0
LINE
  5
236
  8
1
  6
CONTINUOUS
 62
     7
 10
-165.6576664955246
 20
240.2660458961121
 30
0.0
 11
-169.6576664955246
 21
240.3009533672751
 31
0.0
  0
LINE
  5
237
  8
1
  6
CONTINUOUS
 62
     7
 10
-165.6576664955246
 20
240.7212865359244
 30
0.0
 11
-169.6576664955246
 21
240.7561940070875
 31
0.0
  0
LINE
  5
238
  8
1
  6
CONTINUOUS
 62
     7
 10
-169.6576664955247
 20
184.8438059929125
 30
0.0
 11
-165.6576664955247
 21
184.8787134640755
 31
0.0
  0
LINE
  5
239
  8
1
  6
CONTINUOUS
 62
     7
 10
-169.6576664955247
 20
184.4695056118094
 30
0.0
 11
-165.6576664955247
 21
184.5044130829724
 31
0.0
  0
LINE
  5
23A
  8
1
  6
CONTINUOUS
 62
     7
 10
-165.6576664955246
 20
241.0955869170276
 30
0.0
 11
-169.6576664955246
 21
241.1304943881906
 31
0.0
  0
LINE
  5
23B
  8
1
  6
CONTINUOUS
 62
     7
 10
-169.6576664955247
 20
184.1772409391246
 30
0.0
 11
-165.6576664955247
 21
184.2121484102876
 31
0.0
  0
LINE
  5
23C
  8
1
  6
CONTINUOUS
 62
     7
 10
-165.6576664955246
 20
241.3878515897123
 30
0.0
 11
-169.6576664955246
 21
241.4227590608754
 31
0.0
  0
LINE
  5
23D
  8
1
  6
CONTINUOUS
 62
     7
 10
-169.6576664955247
 20
183.9678673339945
 30
0.0
 11
-165.6576664955247
 21
184.0027748051575
 31
0.0
  0
LINE
  5
23E
  8
1
  6
CONTINUOUS
 62
     7
 10
-165.6576664955246
 20
241.5972251948424
 30
0.0
 11
-169.6576664955246
 21
241.6321326660054
 31
0.0
  0
LINE
  5
23F
  8
1
  6
CONTINUOUS
 62
     7
 10
-169.6576664955247
 20
183.8
 30
0.0
 11
-165.6576664955247
 21
183.834907471163
 31
0.0
  0
LINE
  5
240
  8
1
  6
CONTINUOUS
 62
     7
 10
-165.6576664955246
 20
241.765092528837
 30
0.0
 11
-169.6576664955246
 21
241.8
 31
0.0
  0
LINE
  5
241
  8
1
  6
CONTINUOUS
 62
     7
 10
-172.6576664955246
 20
184.8
 30
0.0
 11
-169.6576664955247
 21
184.8
 31
0.0
  0
LINE
  5
242
  8
1
  6
CONTINUOUS
 62
     7
 10
-169.6576664955247
 20
240.8
 30
0.0
 11
-172.6576664955247
 21
240.8
 31
0.0
  0
LINE
  5
243
  8
1
  6
CONTINUOUS
 62
     7
 10
-205.4576664955246
 20
186.4
 30
0.0
 11
-189.6576664955246
 21
186.4
 31
0.0
  0
LINE
  5
244
  8
1
  6
CONTINUOUS
 62
     7
 10
-189.6576664955246
 20
239.2
 30
0.0
 11
-205.4576664955246
 21
239.2
 31
0.0
  0
LINE
  5
245
  8
1
  6
CONTINUOUS
 62
     7
 10
-225.8576664955246
 20
186.55
 30
0.0
 11
-225.4576664955246
 21
186.55
 31
0.0
  0
LINE
  5
246
  8
1
  6
CONTINUOUS
 62
     7
 10
-225.4576664955246
 20
239.05
 30
0.0
 11
-225.8576664955246
 21
239.05
 31
0.0
  0
LINE
  5
247
  8
1
  6
CONTINUOUS
 62
     7
 10
-205.4576664955246
 20
239.2
 30
0.0
 11
-208.5289868390843
 21
242.2713203435596
 31
0.0
  0
LINE
  5
248
  8
1
  6
CONTINUOUS
 62
     7
 10
-208.5289868390843
 20
183.3286796564403
 30
0.0
 11
-205.4576664955246
 21
186.4
 31
0.0
  0
LINE
  5
249
  8
1
  6
CONTINUOUS
 62
     7
 10
-225.4576664955246
 20
182.45
 30
0.0
 11
-210.6503071826439
 21
182.45
 31
0.0
  0
ARC
  5
24A
  8
1
  6
CONTINUOUS
 62
     7
 10
-210.6503071826439
 20
185.45
 30
0.0
 40
3.000000000000003
 50
270.0000000000001
 51
314.9999999999993
  0
ARC
  5
24B
  8
1
  6
CONTINUOUS
 62
     7
 10
-210.6503071826439
 20
240.15
 30
0.0
 40
3.000000000000009
 50
45.00000000000046
 51
90.00000000000018
  0
LINE
  5
24C
  8
1
  6
CONTINUOUS
 62
     7
 10
-210.6503071826439
 20
243.15
 30
0.0
 11
-225.4576664955246
 21
243.15
 31
0.0
  0
LINE
  5
24D
  8
1
  6
CONTINUOUS
 62
     7
 10
-189.6576664955246
 20
186.4
 30
0.0
 11
-172.6576664955246
 21
184.7999999999999
 31
0.0
  0
LINE
  5
24E
  8
1
  6
CONTINUOUS
 62
     7
 10
-172.6576664955247
 20
240.8000000000001
 30
0.0
 11
-189.6576664955246
 21
239.2
 31
0.0
  0
ENDBLK
  8
0
  0
BLOCK
  8
0
  2
D_FRAME_VIEW_7156
 70
     0
 10
0.0
 20
0.0
 30
0.0
  0
ARC
  5
257
  8
1
  6
CONTINUOUS
 62
     7
 10
-302.3
 20
212.8
 30
0.0
 40
16.74999999999999
 50
252.6320200881164
 51
287.3679799118837
  0
LINE
  5
258
  8
1
  6
CONTINUOUS
 62
     7
 10
-297.3
 20
196.8136777212518
 30
0.0
 11
-297.3
 21
196.5569585291791
 31
0.0
  0
LINE
  5
259
  8
1
  6
CONTINUOUS
 62
     7
 10
-307.3
 20
196.5569585291792
 30
0.0
 11
-307.3
 21
196.8136777212518
 31
0.0
  0
LINE
  5
25A
  8
1
  6
CONTINUOUS
 62
     7
 10
-297.3
 20
197.3
 30
0.0
 11
-297.3
 21
196.8136777212518
 31
0.0
  0
LINE
  5
25B
  8
1
  6
CONTINUOUS
 62
     7
 10
-307.3
 20
196.8136777212518
 30
0.0
 11
-307.3
 21
197.3
 31
0.0
  0
LINE
  5
25C
  8
1
  6
CONTINUOUS
 62
     7
 10
-307.3
 20
197.3
 30
0.0
 11
-297.3
 21
197.3
 31
0.0
  0
LINE
  5
25D
  8
1
  6
CONTINUOUS
 62
     7
 10
-307.3
 20
228.7863222787481
 30
0.0
 11
-307.3
 21
228.3
 31
0.0
  0
ARC
  5
25E
  8
1
  6
CONTINUOUS
 62
     7
 10
-302.3
 20
212.8
 30
0.0
 40
16.74999999999999
 50
72.63202008811629
 51
107.3679799118836
  0
LINE
  5
25F
  8
1
  6
CONTINUOUS
 62
     7
 10
-297.3
 20
228.3
 30
0.0
 11
-297.3
 21
228.7863222787481
 31
0.0
  0
LINE
  5
260
  8
1
  6
CONTINUOUS
 62
     7
 10
-307.3
 20
228.3
 30
0.0
 11
-297.3
 21
228.3
 31
0.0
  0
LINE
  5
261
  8
1
  6
CONTINUOUS
 62
     7
 10
-307.3
 20
229.0430414708208
 30
0.0
 11
-307.3
 21
228.7863222787481
 31
0.0
  0
LINE
  5
262
  8
1
  6
CONTINUOUS
 62
     7
 10
-297.3
 20
228.7863222787481
 30
0.0
 11
-297.3
 21
229.0430414708208
 31
0.0
  0
LINE
  5
263
  8
1
  6
CONTINUOUS
 62
     7
 10
-278.2296282216716
 20
217.3680633153508
 30
0.0
 11
-279.6948037033438
 21
217.0432417312287
 31
0.0
  0
LINE
  5
264
  8
1
  6
CONTINUOUS
 62
     7
 10
-279.3122315132591
 20
213.55
 30
0.0
 11
-277.8114822825063
 21
213.55
 31
0.0
  0
ARC
  5
265
  8
1
  6
CONTINUOUS
 62
     7
 10
-302.3
 20
212.8
 30
0.0
 40
23.0
 50
1.868671904348757
 51
10.63132809565125
  0
LINE
  5
266
  8
1
  6
CONTINUOUS
 62
     7
 10
-323.4509572824346
 20
203.7646800811134
 30
0.0
 11
-324.811097996655
 21
203.130436049904
 31
0.0
  0
LINE
  5
267
  8
1
  6
CONTINUOUS
 62
     7
 10
-326.0457123574212
 20
206.7674926739693
 30
0.0
 11
-324.580536875749
 21
207.0923142580913
 31
0.0
  0
ARC
  5
268
  8
1
  6
CONTINUOUS
 62
     7
 10
-302.3
 20
212.8
 30
0.0
 40
23.00000000000001
 50
194.3686719043486
 51
203.1313280956513
  0
LINE
  5
269
  8
1
  6
CONTINUOUS
 62
     7
 10
-325.287768486741
 20
213.55
 30
0.0
 11
-326.7885177174937
 21
213.55
 31
0.0
  0
LINE
  5
26A
  8
1
  6
CONTINUOUS
 62
     7
 10
-326.3703717783284
 20
217.3680633153508
 30
0.0
 11
-324.9051962966562
 21
217.0432417312287
 31
0.0
  0
ARC
  5
26B
  8
1
  6
CONTINUOUS
 62
     7
 10
-302.3
 20
212.8
 30
0.0
 40
23.0
 50
169.3686719043487
 51
178.1313280956513
  0
LINE
  5
26C
  8
1
  6
CONTINUOUS
 62
     7
 10
-279.7889020033451
 20
222.469563950096
 30
0.0
 11
-281.1490427175655
 21
221.8353199188866
 31
0.0
  0
LINE
  5
26D
  8
1
  6
CONTINUOUS
 62
     7
 10
-280.0194631242509
 20
218.5076857419086
 30
0.0
 11
-278.5542876425789
 21
218.8325073260307
 31
0.0
  0
ARC
  5
26E
  8
1
  6
CONTINUOUS
 62
     7
 10
-302.3
 20
212.8
 30
0.0
 40
23.0
 50
14.36867190434877
 51
23.13132809565136
  0
LINE
  5
26F
  8
1
  6
CONTINUOUS
 62
     7
 10
-278.5542876425788
 20
206.7674926739693
 30
0.0
 11
-280.0194631242509
 21
207.0923142580913
 31
0.0
  0
LINE
  5
270
  8
1
  6
CONTINUOUS
 62
     7
 10
-281.1490427175655
 20
203.7646800811134
 30
0.0
 11
-279.7889020033451
 21
203.130436049904
 31
0.0
  0
ARC
  5
271
  8
1
  6
CONTINUOUS
 62
     7
 10
-302.3
 20
212.8
 30
0.0
 40
23.00000000000001
 50
336.8686719043488
 51
345.6313280956513
  0
LINE
  5
272
  8
1
  6
CONTINUOUS
 62
     7
 10
-324.580536875749
 20
218.5076857419086
 30
0.0
 11
-326.0457123574212
 21
218.8325073260307
 31
0.0
  0
LINE
  5
273
  8
1
  6
CONTINUOUS
 62
     7
 10
-324.811097996655
 20
222.469563950096
 30
0.0
 11
-323.4509572824346
 21
221.8353199188866
 31
0.0
  0
ARC
  5
274
  8
1
  6
CONTINUOUS
 62
     7
 10
-302.3
 20
212.8
 30
0.0
 40
23.0
 50
156.8686719043486
 51
165.6313280956513
  0
LINE
  5
275
  8
1
  6
CONTINUOUS
 62
     7
 10
-277.8114822825063
 20
212.05
 30
0.0
 11
-279.3122315132591
 21
212.05
 31
0.0
  0
LINE
  5
276
  8
1
  6
CONTINUOUS
 62
     7
 10
-279.6948037033438
 20
208.5567582687712
 30
0.0
 11
-278.2296282216716
 21
208.2319366846492
 31
0.0
  0
ARC
  5
277
  8
1
  6
CONTINUOUS
 62
     7
 10
-302.3
 20
212.8
 30
0.0
 40
23.0
 50
349.3686719043488
 51
358.1313280956513
  0
LINE
  5
278
  8
1
  6
CONTINUOUS
 62
     7
 10
-324.9051962966562
 20
208.5567582687712
 30
0.0
 11
-326.3703717783284
 21
208.2319366846492
 31
0.0
  0
ARC
  5
279
  8
1
  6
CONTINUOUS
 62
     7
 10
-302.3
 20
212.8
 30
0.0
 40
23.0
 50
181.8686719043487
 51
190.6313280956512
  0
LINE
  5
27A
  8
1
  6
CONTINUOUS
 62
     7
 10
-326.7885177174937
 20
212.05
 30
0.0
 11
-325.287768486741
 21
212.05
 31
0.0
  0
LINE
  5
27B
  8
1
  6
CONTINUOUS
 62
     7
 10
-286.2002951623722
 20
231.4897179282409
 30
0.0
 11
-287.1407423787543
 21
230.3283623348593
 31
0.0
  0
LINE
  5
27C
  8
1
  6
CONTINUOUS
 62
     7
 10
-284.5097417943314
 20
227.6510366892365
 30
0.0
 11
-283.3321500139787
 21
228.5710722211185
 31
0.0
  0
LINE
  5
27D
  8
1
  6
CONTINUOUS
 62
     7
 10
-290.8172013076847
 20
234.6323472464072
 30
0.0
 11
-291.4722967576387
 21
233.2892025287654
 31
0.0
  0
LINE
  5
27E
  8
1
  6
CONTINUOUS
 62
     7
 10
-288.3064613209398
 20
231.272342921434
 30
0.0
 11
-287.3660141045577
 21
232.4336985148156
 31
0.0
  0
LINE
  5
27F
  8
1
  6
CONTINUOUS
 62
     7
 10
-282.4086578009902
 20
227.3890560907084
 30
0.0
 11
-283.5862495813429
 21
226.4690205588265
 31
0.0
  0
LINE
  5
280
  8
1
  6
CONTINUOUS
 62
     7
 10
-281.6249485982534
 20
223.2684682406045
 30
0.0
 11
-280.27057545601
 21
223.9000228088321
 31
0.0
  0
LINE
  5
281
  8
1
  6
CONTINUOUS
 62
     7
 10
-292.8204878270874
 20
191.6532407510509
 30
0.0
 11
-292.1653923771335
 21
190.3100960334091
 31
0.0
  0
LINE
  5
282
  8
1
  6
CONTINUOUS
 62
     7
 10
-296.0227142261336
 20
188.9441467264498
 30
0.0
 11
-296.3588778017759
 21
190.4002311441573
 31
0.0
  0
LINE
  5
283
  8
1
  6
CONTINUOUS
 62
     7
 10
-303.05
 20
189.6378740662821
 30
0.0
 11
-303.05
 21
188.1434886470948
 31
0.0
  0
LINE
  5
284
  8
1
  6
CONTINUOUS
 62
     7
 10
-307.1157306766886
 20
188.6067201449339
 30
0.0
 11
-306.7795671010463
 21
190.0628045626416
 31
0.0
  0
LINE
  5
285
  8
1
  6
CONTINUOUS
 62
     7
 10
-288.3064613209398
 20
194.3276570785659
 30
0.0
 11
-287.3660141045577
 21
193.1663014851844
 31
0.0
  0
LINE
  5
286
  8
1
  6
CONTINUOUS
 62
     7
 10
-290.8172013076847
 20
190.9676527535928
 30
0.0
 11
-291.4722967576387
 21
192.3107974712346
 31
0.0
  0
LINE
  5
287
  8
1
  6
CONTINUOUS
 62
     7
 10
-307.1157306766886
 20
236.993279855066
 30
0.0
 11
-306.7795671010463
 21
235.5371954373584
 31
0.0
  0
LINE
  5
288
  8
1
  6
CONTINUOUS
 62
     7
 10
-303.05
 20
235.9621259337179
 30
0.0
 11
-303.05
 21
237.4565113529052
 31
0.0
  0
LINE
  5
289
  8
1
  6
CONTINUOUS
 62
     7
 10
-308.2411221982242
 20
190.4002311441573
 30
0.0
 11
-308.5772857738664
 21
188.9441467264498
 31
0.0
  0
LINE
  5
28A
  8
1
  6
CONTINUOUS
 62
     7
 10
-312.4346076228666
 20
190.3100960334092
 30
0.0
 11
-311.7795121729126
 21
191.6532407510509
 31
0.0
  0
LINE
  5
28B
  8
1
  6
CONTINUOUS
 62
     7
 10
-284.5097417943314
 20
197.9489633107634
 30
0.0
 11
-283.3321500139787
 21
197.0289277788815
 31
0.0
  0
LINE
  5
28C
  8
1
  6
CONTINUOUS
 62
     7
 10
-286.2002951623722
 20
194.1102820717591
 30
0.0
 11
-287.1407423787543
 21
195.2716376651407
 31
0.0
  0
LINE
  5
28D
  8
1
  6
CONTINUOUS
 62
     7
 10
-308.2411221982242
 20
235.1997688558426
 30
0.0
 11
-308.5772857738664
 21
236.6558532735502
 31
0.0
  0
LINE
  5
28E
  8
1
  6
CONTINUOUS
 62
     7
 10
-312.4346076228666
 20
235.2899039665908
 30
0.0
 11
-311.7795121729126
 21
233.946759248949
 31
0.0
  0
LINE
  5
28F
  8
1
  6
CONTINUOUS
 62
     7
 10
-321.0137504186571
 20
199.1309794411736
 30
0.0
 11
-322.1913421990098
 21
198.2109439092916
 31
0.0
  0
LINE
  5
290
  8
1
  6
CONTINUOUS
 62
     7
 10
-324.3294245439901
 20
201.6999771911679
 30
0.0
 11
-322.9750514017466
 21
202.3315317593954
 31
0.0
  0
LINE
  5
291
  8
1
  6
CONTINUOUS
 62
     7
 10
-281.6249485982534
 20
202.3315317593954
 30
0.0
 11
-280.27057545601
 21
201.6999771911678
 31
0.0
  0
LINE
  5
292
  8
1
  6
CONTINUOUS
 62
     7
 10
-282.4086578009902
 20
198.2109439092916
 30
0.0
 11
-283.5862495813429
 21
199.1309794411735
 31
0.0
  0
LINE
  5
293
  8
1
  6
CONTINUOUS
 62
     7
 10
-297.8204328989537
 20
190.0628045626416
 30
0.0
 11
-297.4842693233114
 21
188.6067201449339
 31
0.0
  0
LINE
  5
294
  8
1
  6
CONTINUOUS
 62
     7
 10
-301.55
 20
188.1434886470948
 30
0.0
 11
-301.55
 21
189.6378740662821
 31
0.0
  0
LINE
  5
295
  8
1
  6
CONTINUOUS
 62
     7
 10
-321.0137504186571
 20
226.4690205588264
 30
0.0
 11
-322.1913421990098
 21
227.3890560907084
 31
0.0
  0
LINE
  5
296
  8
1
  6
CONTINUOUS
 62
     7
 10
-324.3294245439901
 20
223.9000228088321
 30
0.0
 11
-322.9750514017466
 21
223.2684682406045
 31
0.0
  0
LINE
  5
297
  8
1
  6
CONTINUOUS
 62
     7
 10
-301.55
 20
237.4565113529052
 30
0.0
 11
-301.55
 21
235.9621259337179
 31
0.0
  0
LINE
  5
298
  8
1
  6
CONTINUOUS
 62
     7
 10
-297.8204328989537
 20
235.5371954373584
 30
0.0
 11
-297.4842693233114
 21
236.993279855066
 31
0.0
  0
LINE
  5
299
  8
1
  6
CONTINUOUS
 62
     7
 10
-296.0227142261336
 20
236.6558532735502
 30
0.0
 11
-296.3588778017759
 21
235.1997688558426
 31
0.0
  0
LINE
  5
29A
  8
1
  6
CONTINUOUS
 62
     7
 10
-292.8204878270874
 20
233.946759248949
 30
0.0
 11
-292.1653923771335
 21
235.2899039665908
 31
0.0
  0
LINE
  5
29B
  8
1
  6
CONTINUOUS
 62
     7
 10
-313.1277032423614
 20
192.3107974712346
 30
0.0
 11
-313.7827986923153
 21
190.9676527535928
 31
0.0
  0
LINE
  5
29C
  8
1
  6
CONTINUOUS
 62
     7
 10
-317.2339858954424
 20
193.1663014851844
 30
0.0
 11
-316.2935386790602
 21
194.3276570785659
 31
0.0
  0
LINE
  5
29D
  8
1
  6
CONTINUOUS
 62
     7
 10
-317.4592576212457
 20
195.2716376651407
 30
0.0
 11
-318.3997048376278
 21
194.1102820717591
 31
0.0
  0
LINE
  5
29E
  8
1
  6
CONTINUOUS
 62
     7
 10
-321.2678499860213
 20
197.0289277788815
 30
0.0
 11
-320.0902582056686
 21
197.9489633107635
 31
0.0
  0
LINE
  5
29F
  8
1
  6
CONTINUOUS
 62
     7
 10
-317.4592576212457
 20
230.3283623348593
 30
0.0
 11
-318.3997048376278
 21
231.4897179282408
 31
0.0
  0
LINE
  5
2A0
  8
1
  6
CONTINUOUS
 62
     7
 10
-321.2678499860213
 20
228.5710722211185
 30
0.0
 11
-320.0902582056686
 21
227.6510366892365
 31
0.0
  0
LINE
  5
2A1
  8
1
  6
CONTINUOUS
 62
     7
 10
-313.1277032423614
 20
233.2892025287654
 30
0.0
 11
-313.7827986923153
 21
234.6323472464072
 31
0.0
  0
LINE
  5
2A2
  8
1
  6
CONTINUOUS
 62
     7
 10
-317.2339858954424
 20
232.4336985148156
 30
0.0
 11
-316.2935386790602
 21
231.272342921434
 31
0.0
  0
ARC
  5
2A3
  8
1
  6
CONTINUOUS
 62
     7
 10
-302.3
 20
212.8
 30
0.0
 40
26.45
 50
49.37513817974792
 51
52.6248618202522
  0
ARC
  5
2A4
  8
1
  6
CONTINUOUS
 62
     7
 10
-302.3
 20
212.8
 30
0.0
 40
26.45
 50
62.37513817974791
 51
65.62486182025229
  0
ARC
  5
2A5
  8
1
  6
CONTINUOUS
 62
     7
 10
-302.3
 20
212.8
 30
0.0
 40
26.45
 50
75.3751381797479
 51
78.62486182025205
  0
ARC
  5
2A6
  8
1
  6
CONTINUOUS
 62
     7
 10
-302.3
 20
212.8
 30
0.0
 40
26.44999999999999
 50
88.37513817974789
 51
91.62486182025206
  0
ARC
  5
2A7
  8
1
  6
CONTINUOUS
 62
     7
 10
-302.3
 20
212.8
 30
0.0
 40
26.45000000000002
 50
101.3751381797479
 51
104.6248618202521
  0
ARC
  5
2A8
  8
1
  6
CONTINUOUS
 62
     7
 10
-302.3
 20
212.8
 30
0.0
 40
26.45
 50
114.3751381797479
 51
117.6248618202519
  0
ARC
  5
2A9
  8
1
  6
CONTINUOUS
 62
     7
 10
-302.3
 20
212.8
 30
0.0
 40
26.44999999999999
 50
127.3751381797479
 51
130.6248618202521
  0
ARC
  5
2AA
  8
1
  6
CONTINUOUS
 62
     7
 10
-302.3
 20
212.8
 30
0.0
 40
26.44999999999999
 50
140.3751381797479
 51
143.6248618202521
  0
ARC
  5
2AB
  8
1
  6
CONTINUOUS
 62
     7
 10
-302.3
 20
212.8
 30
0.0
 40
26.44999999999999
 50
153.3751381797479
 51
156.6248618202522
  0
ARC
  5
2AC
  8
1
  6
CONTINUOUS
 62
     7
 10
-302.3
 20
212.8
 30
0.0
 40
26.45000000000003
 50
165.8751381797479
 51
169.124861820252
  0
ARC
  5
2AD
  8
1
  6
CONTINUOUS
 62
     7
 10
-302.3
 20
212.8
 30
0.0
 40
26.45
 50
178.3751381797479
 51
181.6248618202522
  0
ARC
  5
2AE
  8
1
  6
CONTINUOUS
 62
     7
 10
-302.3
 20
212.8
 30
0.0
 40
26.45000000000003
 50
190.8751381797479
 51
194.1248618202517
  0
ARC
  5
2AF
  8
1
  6
CONTINUOUS
 62
     7
 10
-302.3
 20
212.8
 30
0.0
 40
26.44999999999999
 50
203.3751381797479
 51
206.6248618202522
  0
ARC
  5
2B0
  8
1
  6
CONTINUOUS
 62
     7
 10
-302.3
 20
212.8
 30
0.0
 40
26.44999999999999
 50
216.3751381797479
 51
219.624861820252
  0
ARC
  5
2B1
  8
1
  6
CONTINUOUS
 62
     7
 10
-302.3
 20
212.8
 30
0.0
 40
26.45000000000002
 50
229.3751381797478
 51
232.624861820252
  0
ARC
  5
2B2
  8
1
  6
CONTINUOUS
 62
     7
 10
-302.3
 20
212.8
 30
0.0
 40
26.45000000000002
 50
242.3751381797478
 51
245.6248618202519
  0
ARC
  5
2B3
  8
1
  6
CONTINUOUS
 62
     7
 10
-302.3
 20
212.8
 30
0.0
 40
26.45
 50
255.3751381797479
 51
258.624861820252
  0
ARC
  5
2B4
  8
1
  6
CONTINUOUS
 62
     7
 10
-302.3
 20
212.8
 30
0.0
 40
26.45000000000002
 50
268.3751381797479
 51
271.6248618202519
  0
ARC
  5
2B5
  8
1
  6
CONTINUOUS
 62
     7
 10
-302.3
 20
212.8
 30
0.0
 40
26.45000000000001
 50
281.3751381797479
 51
284.624861820252
  0
ARC
  5
2B6
  8
1
  6
CONTINUOUS
 62
     7
 10
-302.3
 20
212.8
 30
0.0
 40
26.45000000000003
 50
294.3751381797479
 51
297.624861820252
  0
ARC
  5
2B7
  8
1
  6
CONTINUOUS
 62
     7
 10
-302.3
 20
212.8
 30
0.0
 40
26.45000000000001
 50
307.3751381797479
 51
310.624861820252
  0
ARC
  5
2B8
  8
1
  6
CONTINUOUS
 62
     7
 10
-302.3
 20
212.8
 30
0.0
 40
26.45000000000001
 50
320.3751381797479
 51
323.624861820252
  0
ARC
  5
2B9
  8
1
  6
CONTINUOUS
 62
     7
 10
-302.3
 20
212.8
 30
0.0
 40
26.45
 50
333.3751381797479
 51
336.6248618202519
  0
ARC
  5
2BA
  8
1
  6
CONTINUOUS
 62
     7
 10
-302.3
 20
212.8
 30
0.0
 40
26.45000000000003
 50
345.8751381797479
 51
349.1248618202519
  0
ARC
  5
2BB
  8
1
  6
CONTINUOUS
 62
     7
 10
-302.3
 20
212.8
 30
0.0
 40
26.44999999999999
 50
358.3751381797479
 51
1.624861820252079
  0
ARC
  5
2BC
  8
1
  6
CONTINUOUS
 62
     7
 10
-302.3
 20
212.8
 30
0.0
 40
26.44999999999998
 50
10.87513817974793
 51
14.12486182025198
  0
ARC
  5
2BD
  8
1
  6
CONTINUOUS
 62
     7
 10
-302.3
 20
212.8
 30
0.0
 40
26.44999999999999
 50
23.37513817974792
 51
26.62486182025208
  0
ARC
  5
2BE
  8
1
  6
CONTINUOUS
 62
     7
 10
-302.3
 20
212.8
 30
0.0
 40
26.45000000000001
 50
36.37513817974791
 51
39.62486182025229
  0
LINE
  5
2BF
  8
1
  6
CONTINUOUS
 62
     7
 10
-279.7889020033451
 20
203.130436049904
 30
0.0
 11
-278.0208342901558
 21
202.3059725351072
 31
0.0
  0
LINE
  5
2C0
  8
1
  6
CONTINUOUS
 62
     7
 10
-278.2296282216716
 20
208.2319366846492
 30
0.0
 11
-276.3250242081186
 21
207.8096961403962
 31
0.0
  0
LINE
  5
2C1
  8
1
  6
CONTINUOUS
 62
     7
 10
-326.3703717783284
 20
208.2319366846492
 30
0.0
 11
-328.2749757918814
 21
207.8096961403962
 31
0.0
  0
LINE
  5
2C2
  8
1
  6
CONTINUOUS
 62
     7
 10
-324.811097996655
 20
203.130436049904
 30
0.0
 11
-326.5791657098442
 21
202.3059725351072
 31
0.0
  0
LINE
  5
2C3
  8
1
  6
CONTINUOUS
 62
     7
 10
-326.0457123574212
 20
218.8325073260307
 30
0.0
 11
-327.9503163709743
 21
219.2547478702837
 31
0.0
  0
LINE
  5
2C4
  8
1
  6
CONTINUOUS
 62
     7
 10
-278.5542876425789
 20
218.8325073260307
 30
0.0
 11
-276.6496836290257
 21
219.2547478702837
 31
0.0
  0
LINE
  5
2C5
  8
1
  6
CONTINUOUS
 62
     7
 10
-326.7885177174937
 20
213.55
 30
0.0
 11
-328.7393645914572
 21
213.55
 31
0.0
  0
LINE
  5
2C6
  8
1
  6
CONTINUOUS
 62
     7
 10
-277.8114822825063
 20
213.55
 30
0.0
 11
-275.8606354085428
 21
213.55
 31
0.0
  0
LINE
  5
2C7
  8
1
  6
CONTINUOUS
 62
     7
 10
-287.3660141045577
 20
193.1663014851844
 30
0.0
 11
-286.2440282072877
 21
191.7807642909732
 31
0.0
  0
LINE
  5
2C8
  8
1
  6
CONTINUOUS
 62
     7
 10
-303.05
 20
237.4565113529052
 30
0.0
 11
-303.05
 21
239.2393645914572
 31
0.0
  0
LINE
  5
2C9
  8
1
  6
CONTINUOUS
 62
     7
 10
-322.1913421990098
 20
227.3890560907084
 30
0.0
 11
-323.5962497230913
 21
228.4866901458444
 31
0.0
  0
LINE
  5
2CA
  8
1
  6
CONTINUOUS
 62
     7
 10
-322.1913421990098
 20
198.2109439092916
 30
0.0
 11
-323.5962497230913
 21
197.1133098541555
 31
0.0
  0
LINE
  5
2CB
  8
1
  6
CONTINUOUS
 62
     7
 10
-303.05
 20
188.1434886470948
 30
0.0
 11
-303.05
 21
186.3606354085428
 31
0.0
  0
LINE
  5
2CC
  8
1
  6
CONTINUOUS
 62
     7
 10
-280.27057545601
 20
201.6999771911678
 30
0.0
 11
-278.6547616827668
 21
200.9465108545523
 31
0.0
  0
LINE
  5
2CD
  8
1
  6
CONTINUOUS
 62
     7
 10
-308.5772857738664
 20
188.9441467264498
 30
0.0
 11
-308.9783404896191
 21
187.2069879008993
 31
0.0
  0
LINE
  5
2CE
  8
1
  6
CONTINUOUS
 62
     7
 10
-280.27057545601
 20
223.9000228088321
 30
0.0
 11
-278.6547616827668
 21
224.6534891454477
 31
0.0
  0
LINE
  5
2CF
  8
1
  6
CONTINUOUS
 62
     7
 10
-297.4842693233114
 20
188.6067201449339
 30
0.0
 11
-297.0832146075588
 21
186.8695613193835
 31
0.0
  0
LINE
  5
2D0
  8
1
  6
CONTINUOUS
 62
     7
 10
-313.7827986923153
 20
234.6323472464072
 30
0.0
 11
-314.5643501110561
 21
236.2347651226429
 31
0.0
  0
LINE
  5
2D1
  8
1
  6
CONTINUOUS
 62
     7
 10
-313.7827986923153
 20
190.9676527535928
 30
0.0
 11
-314.564350111056
 21
189.3652348773571
 31
0.0
  0
LINE
  5
2D2
  8
1
  6
CONTINUOUS
 62
     7
 10
-308.5772857738664
 20
236.6558532735502
 30
0.0
 11
-308.9783404896191
 21
238.3930120991007
 31
0.0
  0
LINE
  5
2D3
  8
1
  6
CONTINUOUS
 62
     7
 10
-292.1653923771335
 20
190.3100960334091
 30
0.0
 11
-291.3838409583927
 21
188.7076781571735
 31
0.0
  0
LINE
  5
2D4
  8
1
  6
CONTINUOUS
 62
     7
 10
-318.3997048376278
 20
194.1102820717591
 30
0.0
 11
-319.5216907348978
 21
192.724744877548
 31
0.0
  0
LINE
  5
2D5
  8
1
  6
CONTINUOUS
 62
     7
 10
-297.4842693233114
 20
236.993279855066
 30
0.0
 11
-297.0832146075588
 21
238.7304386806165
 31
0.0
  0
LINE
  5
2D6
  8
1
  6
CONTINUOUS
 62
     7
 10
-292.1653923771335
 20
235.2899039665908
 30
0.0
 11
-291.3838409583927
 21
236.8923218428265
 31
0.0
  0
LINE
  5
2D7
  8
1
  6
CONTINUOUS
 62
     7
 10
-318.3997048376278
 20
231.4897179282408
 30
0.0
 11
-319.5216907348978
 21
232.875255122452
 31
0.0
  0
LINE
  5
2D8
  8
1
  6
CONTINUOUS
 62
     7
 10
-287.3660141045577
 20
232.4336985148156
 30
0.0
 11
-286.2440282072877
 21
233.8192357090268
 31
0.0
  0
LINE
  5
2D9
  8
1
  6
CONTINUOUS
 62
     7
 10
-283.3321500139787
 20
228.5710722211185
 30
0.0
 11
-281.9272424898972
 21
229.6687062762545
 31
0.0
  0
LINE
  5
2DA
  8
1
  6
CONTINUOUS
 62
     7
 10
-283.3321500139787
 20
197.0289277788815
 30
0.0
 11
-281.9272424898972
 21
195.9312937237454
 31
0.0
  0
LINE
  5
2DB
  8
1
  6
CONTINUOUS
 62
     7
 10
-318.3559717927124
 20
191.7807642909732
 30
0.0
 11
-317.2339858954424
 21
193.1663014851844
 31
0.0
  0
LINE
  5
2DC
  8
1
  6
CONTINUOUS
 62
     7
 10
-318.3559717927124
 20
233.8192357090267
 30
0.0
 11
-317.2339858954424
 21
232.4336985148156
 31
0.0
  0
LINE
  5
2DD
  8
1
  6
CONTINUOUS
 62
     7
 10
-322.6727575101028
 20
195.9312937237455
 30
0.0
 11
-321.2678499860213
 21
197.0289277788815
 31
0.0
  0
LINE
  5
2DE
  8
1
  6
CONTINUOUS
 62
     7
 10
-322.6727575101028
 20
229.6687062762545
 30
0.0
 11
-321.2678499860213
 21
228.5710722211185
 31
0.0
  0
LINE
  5
2DF
  8
1
  6
CONTINUOUS
 62
     7
 10
-285.0783092651022
 20
192.7247448775479
 30
0.0
 11
-286.2002951623722
 21
194.1102820717591
 31
0.0
  0
LINE
  5
2E0
  8
1
  6
CONTINUOUS
 62
     7
 10
-281.0037502769087
 20
228.4866901458444
 30
0.0
 11
-282.4086578009902
 21
227.3890560907084
 31
0.0
  0
LINE
  5
2E1
  8
1
  6
CONTINUOUS
 62
     7
 10
-295.6216595103809
 20
238.3930120991007
 30
0.0
 11
-296.0227142261336
 21
236.6558532735502
 31
0.0
  0
LINE
  5
2E2
  8
1
  6
CONTINUOUS
 62
     7
 10
-307.5167853924412
 20
186.8695613193835
 30
0.0
 11
-307.1157306766886
 21
188.6067201449339
 31
0.0
  0
LINE
  5
2E3
  8
1
  6
CONTINUOUS
 62
     7
 10
-307.5167853924412
 20
238.7304386806165
 30
0.0
 11
-307.1157306766886
 21
236.993279855066
 31
0.0
  0
LINE
  5
2E4
  8
1
  6
CONTINUOUS
 62
     7
 10
-301.55
 20
239.2393645914572
 30
0.0
 11
-301.55
 21
237.4565113529052
 31
0.0
  0
LINE
  5
2E5
  8
1
  6
CONTINUOUS
 62
     7
 10
-301.55
 20
186.3606354085428
 30
0.0
 11
-301.55
 21
188.1434886470948
 31
0.0
  0
LINE
  5
2E6
  8
1
  6
CONTINUOUS
 62
     7
 10
-313.2161590416073
 20
236.8923218428265
 30
0.0
 11
-312.4346076228666
 21
235.2899039665908
 31
0.0
  0
LINE
  5
2E7
  8
1
  6
CONTINUOUS
 62
     7
 10
-313.2161590416073
 20
188.7076781571734
 30
0.0
 11
-312.4346076228666
 21
190.3100960334092
 31
0.0
  0
LINE
  5
2E8
  8
1
  6
CONTINUOUS
 62
     7
 10
-290.035649888944
 20
189.3652348773571
 30
0.0
 11
-290.8172013076847
 21
190.9676527535928
 31
0.0
  0
LINE
  5
2E9
  8
1
  6
CONTINUOUS
 62
     7
 10
-295.6216595103809
 20
187.2069879008993
 30
0.0
 11
-296.0227142261336
 21
188.9441467264498
 31
0.0
  0
LINE
  5
2EA
  8
1
  6
CONTINUOUS
 62
     7
 10
-290.035649888944
 20
236.2347651226429
 30
0.0
 11
-290.8172013076847
 21
234.6323472464072
 31
0.0
  0
LINE
  5
2EB
  8
1
  6
CONTINUOUS
 62
     7
 10
-325.9452383172332
 20
224.6534891454477
 30
0.0
 11
-324.3294245439901
 21
223.9000228088321
 31
0.0
  0
LINE
  5
2EC
  8
1
  6
CONTINUOUS
 62
     7
 10
-285.0783092651022
 20
232.875255122452
 30
0.0
 11
-286.2002951623722
 21
231.4897179282409
 31
0.0
  0
LINE
  5
2ED
  8
1
  6
CONTINUOUS
 62
     7
 10
-281.0037502769087
 20
197.1133098541555
 30
0.0
 11
-282.4086578009902
 21
198.2109439092916
 31
0.0
  0
LINE
  5
2EE
  8
1
  6
CONTINUOUS
 62
     7
 10
-325.9452383172332
 20
200.9465108545523
 30
0.0
 11
-324.3294245439901
 21
201.6999771911679
 31
0.0
  0
LINE
  5
2EF
  8
1
  6
CONTINUOUS
 62
     7
 10
-327.9503163709743
 20
206.3452521297163
 30
0.0
 11
-326.0457123574212
 21
206.7674926739693
 31
0.0
  0
LINE
  5
2F0
  8
1
  6
CONTINUOUS
 62
     7
 10
-275.8606354085428
 20
212.05
 30
0.0
 11
-277.8114822825063
 21
212.05
 31
0.0
  0
LINE
  5
2F1
  8
1
  6
CONTINUOUS
 62
     7
 10
-278.0208342901558
 20
223.2940274648927
 30
0.0
 11
-279.7889020033451
 21
222.469563950096
 31
0.0
  0
LINE
  5
2F2
  8
1
  6
CONTINUOUS
 62
     7
 10
-326.5791657098442
 20
223.2940274648928
 30
0.0
 11
-324.811097996655
 21
222.469563950096
 31
0.0
  0
LINE
  5
2F3
  8
1
  6
CONTINUOUS
 62
     7
 10
-276.6496836290258
 20
206.3452521297163
 30
0.0
 11
-278.5542876425788
 21
206.7674926739693
 31
0.0
  0
LINE
  5
2F4
  8
1
  6
CONTINUOUS
 62
     7
 10
-328.2749757918814
 20
217.7903038596038
 30
0.0
 11
-326.3703717783284
 21
217.3680633153508
 31
0.0
  0
LINE
  5
2F5
  8
1
  6
CONTINUOUS
 62
     7
 10
-276.3250242081186
 20
217.7903038596038
 30
0.0
 11
-278.2296282216716
 21
217.3680633153508
 31
0.0
  0
LINE
  5
2F6
  8
1
  6
CONTINUOUS
 62
     7
 10
-328.7393645914572
 20
212.05
 30
0.0
 11
-326.7885177174937
 21
212.05
 31
0.0
  0
ARC
  5
2F7
  8
1
  6
CONTINUOUS
 62
     7
 10
-302.3
 20
212.8
 30
0.0
 40
28.84999999999999
 50
0.0
 51
84.13328575877463
  0
ARC
  5
2F8
  8
1
  6
CONTINUOUS
 62
     7
 10
-302.3
 20
212.8
 30
0.0
 40
28.85
 50
272.929510285038
 51
0.0
  0
ARC
  5
2F9
  8
1
  6
CONTINUOUS
 62
     7
 10
-302.3
 20
212.8
 30
0.0
 40
28.84999999999998
 50
264.1332857587746
 51
272.929510285038
  0
ARC
  5
2FA
  8
1
  6
CONTINUOUS
 62
     7
 10
-302.3
 20
212.8
 30
0.0
 40
28.85
 50
92.92951028503799
 51
264.1332857587746
  0
ARC
  5
2FB
  8
1
  6
CONTINUOUS
 62
     7
 10
-302.3
 20
212.8
 30
0.0
 40
28.84999999999998
 50
84.13328575877463
 51
92.92951028503806
  0
LINE
  5
2FC
  8
1
  6
CONTINUOUS
 62
     7
 10
-284.8461618830441
 20
198.2118034905428
 30
0.0
 11
-284.5097417943314
 21
197.9489633107634
 31
0.0
  0
LINE
  5
2FD
  8
1
  6
CONTINUOUS
 62
     7
 10
-287.1407423787543
 20
195.2716376651407
 30
0.0
 11
-287.4094138668231
 21
195.6034193217989
 31
0.0
  0
LINE
  5
2FE
  8
1
  6
CONTINUOUS
 62
     7
 10
-320.6773303299444
 20
226.2061803790471
 30
0.0
 11
-321.0137504186571
 21
226.4690205588264
 31
0.0
  0
LINE
  5
2FF
  8
1
  6
CONTINUOUS
 62
     7
 10
-322.9750514017466
 20
223.2684682406045
 30
0.0
 11
-322.5881275625472
 21
223.0880426912631
 31
0.0
  0
LINE
  5
300
  8
1
  6
CONTINUOUS
 62
     7
 10
-303.05
 20
190.0647972867748
 30
0.0
 11
-303.05
 21
189.6378740662821
 31
0.0
  0
LINE
  5
301
  8
1
  6
CONTINUOUS
 62
     7
 10
-306.7795671010463
 20
190.0628045626416
 30
0.0
 11
-306.6835302724726
 21
190.4787857686514
 31
0.0
  0
LINE
  5
302
  8
1
  6
CONTINUOUS
 62
     7
 10
-297.9164697275274
 20
235.1212142313485
 30
0.0
 11
-297.8204328989537
 21
235.5371954373584
 31
0.0
  0
LINE
  5
303
  8
1
  6
CONTINUOUS
 62
     7
 10
-301.55
 20
235.9621259337179
 30
0.0
 11
-301.55
 21
235.5352027132251
 31
0.0
  0
LINE
  5
304
  8
1
  6
CONTINUOUS
 62
     7
 10
-317.1905861331769
 20
195.6034193217989
 30
0.0
 11
-317.4592576212457
 21
195.2716376651407
 31
0.0
  0
LINE
  5
305
  8
1
  6
CONTINUOUS
 62
     7
 10
-320.0902582056686
 20
197.9489633107635
 30
0.0
 11
-319.7538381169559
 21
198.2118034905428
 31
0.0
  0
LINE
  5
306
  8
1
  6
CONTINUOUS
 62
     7
 10
-282.0118724374528
 20
202.5119573087368
 30
0.0
 11
-281.6249485982534
 21
202.3315317593954
 31
0.0
  0
LINE
  5
307
  8
1
  6
CONTINUOUS
 62
     7
 10
-283.5862495813429
 20
199.1309794411735
 30
0.0
 11
-283.9226696700557
 21
199.3938196209529
 31
0.0
  0
LINE
  5
308
  8
1
  6
CONTINUOUS
 62
     7
 10
-297.9164697275274
 20
190.4787857686514
 30
0.0
 11
-297.8204328989537
 21
190.0628045626416
 31
0.0
  0
LINE
  5
309
  8
1
  6
CONTINUOUS
 62
     7
 10
-301.55
 20
189.6378740662821
 30
0.0
 11
-301.55
 21
190.0647972867748
 31
0.0
  0
LINE
  5
30A
  8
1
  6
CONTINUOUS
 62
     7
 10
-293.0076386488458
 20
233.5630432001432
 30
0.0
 11
-292.8204878270874
 21
233.946759248949
 31
0.0
  0
LINE
  5
30B
  8
1
  6
CONTINUOUS
 62
     7
 10
-296.3588778017759
 20
235.1997688558426
 30
0.0
 11
-296.4549146303495
 21
234.7837876498327
 31
0.0
  0
LINE
  5
30C
  8
1
  6
CONTINUOUS
 62
     7
 10
-308.1450853696505
 20
190.8162123501672
 30
0.0
 11
-308.2411221982242
 21
190.4002311441573
 31
0.0
  0
LINE
  5
30D
  8
1
  6
CONTINUOUS
 62
     7
 10
-311.7795121729126
 20
191.6532407510509
 30
0.0
 11
-311.5923613511543
 21
192.0369567998567
 31
0.0
  0
LINE
  5
30E
  8
1
  6
CONTINUOUS
 62
     7
 10
-282.0118724374528
 20
223.0880426912631
 30
0.0
 11
-281.6249485982534
 21
223.2684682406045
 31
0.0
  0
LINE
  5
30F
  8
1
  6
CONTINUOUS
 62
     7
 10
-283.5862495813429
 20
226.4690205588265
 30
0.0
 11
-283.9226696700557
 21
226.2061803790471
 31
0.0
  0
LINE
  5
310
  8
1
  6
CONTINUOUS
 62
     7
 10
-288.5751328090086
 20
230.9405612647759
 30
0.0
 11
-288.3064613209398
 21
231.272342921434
 31
0.0
  0
LINE
  5
311
  8
1
  6
CONTINUOUS
 62
     7
 10
-291.4722967576387
 20
233.2892025287654
 30
0.0
 11
-291.659447579397
 21
232.9054864799596
 31
0.0
  0
LINE
  5
312
  8
1
  6
CONTINUOUS
 62
     7
 10
-293.0076386488458
 20
192.0369567998567
 30
0.0
 11
-292.8204878270874
 21
191.6532407510509
 31
0.0
  0
LINE
  5
313
  8
1
  6
CONTINUOUS
 62
     7
 10
-296.3588778017759
 20
190.4002311441573
 30
0.0
 11
-296.4549146303495
 21
190.8162123501672
 31
0.0
  0
LINE
  5
314
  8
1
  6
CONTINUOUS
 62
     7
 10
-317.1905861331769
 20
229.9965806782011
 30
0.0
 11
-317.4592576212457
 21
230.3283623348593
 31
0.0
  0
LINE
  5
315
  8
1
  6
CONTINUOUS
 62
     7
 10
-320.0902582056686
 20
227.6510366892365
 30
0.0
 11
-319.7538381169559
 21
227.3881965094571
 31
0.0
  0
LINE
  5
316
  8
1
  6
CONTINUOUS
 62
     7
 10
-320.6773303299444
 20
199.3938196209529
 30
0.0
 11
-321.0137504186571
 21
199.1309794411736
 31
0.0
  0
LINE
  5
317
  8
1
  6
CONTINUOUS
 62
     7
 10
-322.9750514017466
 20
202.3315317593954
 30
0.0
 11
-322.5881275625472
 21
202.5119573087369
 31
0.0
  0
LINE
  5
318
  8
1
  6
CONTINUOUS
 62
     7
 10
-284.8461618830441
 20
227.3881965094571
 30
0.0
 11
-284.5097417943314
 21
227.6510366892365
 31
0.0
  0
LINE
  5
319
  8
1
  6
CONTINUOUS
 62
     7
 10
-287.1407423787543
 20
230.3283623348593
 30
0.0
 11
-287.4094138668231
 21
229.9965806782011
 31
0.0
  0
LINE
  5
31A
  8
1
  6
CONTINUOUS
 62
     7
 10
-308.1450853696505
 20
234.7837876498327
 30
0.0
 11
-308.2411221982242
 21
235.1997688558426
 31
0.0
  0
LINE
  5
31B
  8
1
  6
CONTINUOUS
 62
     7
 10
-311.7795121729126
 20
233.946759248949
 30
0.0
 11
-311.5923613511543
 21
233.5630432001432
 31
0.0
  0
LINE
  5
31C
  8
1
  6
CONTINUOUS
 62
     7
 10
-303.05
 20
235.5352027132251
 30
0.0
 11
-303.05
 21
235.9621259337179
 31
0.0
  0
LINE
  5
31D
  8
1
  6
CONTINUOUS
 62
     7
 10
-306.7795671010463
 20
235.5371954373584
 30
0.0
 11
-306.6835302724726
 21
235.1212142313485
 31
0.0
  0
LINE
  5
31E
  8
1
  6
CONTINUOUS
 62
     7
 10
-288.5751328090086
 20
194.6594387352241
 30
0.0
 11
-288.3064613209398
 21
194.3276570785659
 31
0.0
  0
LINE
  5
31F
  8
1
  6
CONTINUOUS
 62
     7
 10
-291.4722967576387
 20
192.3107974712346
 30
0.0
 11
-291.659447579397
 21
192.6945135200403
 31
0.0
  0
LINE
  5
320
  8
1
  6
CONTINUOUS
 62
     7
 10
-312.940552420603
 20
192.6945135200403
 30
0.0
 11
-313.1277032423614
 21
192.3107974712346
 31
0.0
  0
LINE
  5
321
  8
1
  6
CONTINUOUS
 62
     7
 10
-316.2935386790602
 20
194.3276570785659
 30
0.0
 11
-316.0248671909915
 21
194.6594387352241
 31
0.0
  0
LINE
  5
322
  8
1
  6
CONTINUOUS
 62
     7
 10
-312.940552420603
 20
232.9054864799596
 30
0.0
 11
-313.1277032423614
 21
233.2892025287654
 31
0.0
  0
LINE
  5
323
  8
1
  6
CONTINUOUS
 62
     7
 10
-316.2935386790602
 20
231.272342921434
 30
0.0
 11
-316.0248671909915
 21
230.9405612647759
 31
0.0
  0
POLYLINE
  5
324
  8
1
  6
CONTINUOUS
 62
     7
 66
     1
 10
0.0
 20
0.0
 30
0.0
  0
VERTEX
  5
4CE
  8
1
  6
CONTINUOUS
 62
     7
 10
-301.3
 20
183.488355556208
 30
0.0
  0
VERTEX
  5
4CF
  8
1
  6
CONTINUOUS
 62
     7
 10
-301.2992067078277
 20
183.5165100461107
 30
0.0
  0
VERTEX
  5
4D0
  8
1
  6
CONTINUOUS
 62
     7
 10
-301.2968186674705
 20
183.5446698177334
 30
0.0
  0
VERTEX
  5
4D1
  8
1
  6
CONTINUOUS
 62
     7
 10
-301.2928236331677
 20
183.5727649846707
 30
0.0
  0
VERTEX
  5
4D2
  8
1
  6
CONTINUOUS
 62
     7
 10
-301.2872093591589
 20
183.6007256605295
 30
0.0
  0
VERTEX
  5
4D3
  8
1
  6
CONTINUOUS
 62
     7
 10
-301.2797106591823
 20
183.6293440587264
 30
0.0
  0
VERTEX
  5
4D4
  8
1
  6
CONTINUOUS
 62
     7
 10
-301.270427441925
 20
183.6577614862634
 30
0.0
  0
VERTEX
  5
4D5
  8
1
  6
CONTINUOUS
 62
     7
 10
-301.259330458695
 20
183.685879861635
 30
0.0
  0
VERTEX
  5
4D6
  8
1
  6
CONTINUOUS
 62
     7
 10
-301.2463904608005
 20
183.7136011033357
 30
0.0
  0
VERTEX
  5
4D7
  8
1
  6
CONTINUOUS
 62
     7
 10
-301.2332156260952
 20
183.7379988402697
 30
0.0
  0
VERTEX
  5
4D8
  8
1
  6
CONTINUOUS
 62
     7
 10
-301.2184379095837
 20
183.7620423683095
 30
0.0
  0
VERTEX
  5
4D9
  8
1
  6
CONTINUOUS
 62
     7
 10
-301.2020380830226
 20
183.7856098533453
 30
0.0
  0
VERTEX
  5
4DA
  8
1
  6
CONTINUOUS
 62
     7
 10
-301.183996918168
 20
183.8085794612674
 30
0.0
  0
VERTEX
  5
4DB
  8
1
  6
CONTINUOUS
 62
     7
 10
-301.1642951867765
 20
183.8308293579661
 30
0.0
  0
VERTEX
  5
4DC
  8
1
  6
CONTINUOUS
 62
     7
 10
-301.1429136606043
 20
183.8522377093318
 30
0.0
  0
VERTEX
  5
4DD
  8
1
  6
CONTINUOUS
 62
     7
 10
-301.1259961939236
 20
183.8674674988363
 30
0.0
  0
VERTEX
  5
4DE
  8
1
  6
CONTINUOUS
 62
     7
 10
-301.1080988263329
 20
183.8821505776365
 30
0.0
  0
VERTEX
  5
4DF
  8
1
  6
CONTINUOUS
 62
     7
 10
-301.0892355535648
 20
183.8962069930622
 30
0.0
  0
VERTEX
  5
4E0
  8
1
  6
CONTINUOUS
 62
     7
 10
-301.0740737301486
 20
183.9065449783696
 30
0.0
  0
VERTEX
  5
4E1
  8
1
  6
CONTINUOUS
 62
     7
 10
-301.0583217336484
 20
183.9164534125003
 30
0.0
  0
VERTEX
  5
4E2
  8
1
  6
CONTINUOUS
 62
     7
 10
-301.0420024777495
 20
183.9258868452615
 30
0.0
  0
VERTEX
  5
4E3
  8
1
  6
CONTINUOUS
 62
     7
 10
-301.0251388761369
 20
183.9347998264601
 30
0.0
  0
VERTEX
  5
4E4
  8
1
  6
CONTINUOUS
 62
     7
 10
-301.0070026352447
 20
183.9434914686474
 30
0.0
  0
VERTEX
  5
4E5
  8
1
  6
CONTINUOUS
 62
     7
 10
-300.988286743442
 20
183.9515476295737
 30
0.0
  0
VERTEX
  5
4E6
  8
1
  6
CONTINUOUS
 62
     7
 10
-300.9690454720149
 20
183.9589122779551
 30
0.0
  0
VERTEX
  5
4E7
  8
1
  6
CONTINUOUS
 62
     7
 10
-300.9538797034556
 20
183.9640860820279
 30
0.0
  0
VERTEX
  5
4E8
  8
1
  6
CONTINUOUS
 62
     7
 10
-300.9384213978897
 20
183.9688103871148
 30
0.0
  0
VERTEX
  5
4E9
  8
1
  6
CONTINUOUS
 62
     7
 10
-300.9227100273956
 20
183.973062424119
 30
0.0
  0
VERTEX
  5
4EA
  8
1
  6
CONTINUOUS
 62
     7
 10
-300.9067850640515
 20
183.9768194239439
 30
0.0
  0
VERTEX
  5
4EB
  8
1
  6
CONTINUOUS
 62
     7
 10
-300.8908203426263
 20
183.9800345529761
 30
0.0
  0
VERTEX
  5
4EC
  8
1
  6
CONTINUOUS
 62
     7
 10
-300.8746634123334
 20
183.9827416938048
 30
0.0
  0
VERTEX
  5
4ED
  8
1
  6
CONTINUOUS
 62
     7
 10
-300.8583657026172
 20
183.9849295416795
 30
0.0
  0
VERTEX
  5
4EE
  8
1
  6
CONTINUOUS
 62
     7
 10
-300.8419786429218
 20
183.9865867918499
 30
0.0
  0
VERTEX
  5
4EF
  8
1
  6
CONTINUOUS
 62
     7
 10
-300.8255536626916
 20
183.9877021395655
 30
0.0
  0
SEQEND
  5
55C
  8
1
  6
CONTINUOUS
 62
     7
  0
LINE
  5
325
  8
1
  6
CONTINUOUS
 62
     7
 10
-301.3
 20
183.488355556208
 30
0.0
 11
-301.3
 21
183.3456501889328
 31
0.0
  0
LINE
  5
326
  8
1
  6
CONTINUOUS
 62
     7
 10
-304.8
 20
183.4349063888311
 30
0.0
 11
-304.8
 21
183.6037245526077
 31
0.0
  0
POLYLINE
  5
327
  8
1
  6
CONTINUOUS
 62
     7
 66
     1
 10
0.0
 20
0.0
 30
0.0
  0
VERTEX
  5
4F0
  8
1
  6
CONTINUOUS
 62
     7
 10
-305.2488926746167
 20
184.1011057356979
 30
0.0
  0
VERTEX
  5
4F1
  8
1
  6
CONTINUOUS
 62
     7
 10
-305.2326446765823
 20
184.0991651068297
 30
0.0
  0
VERTEX
  5
4F2
  8
1
  6
CONTINUOUS
 62
     7
 10
-305.2164693099897
 20
184.0966943422303
 30
0.0
  0
VERTEX
  5
4F3
  8
1
  6
CONTINUOUS
 62
     7
 10
-305.2004174865197
 20
184.0937055781373
 30
0.0
  0
VERTEX
  5
4F4
  8
1
  6
CONTINUOUS
 62
     7
 10
-305.1845401178533
 20
184.0902109507883
 30
0.0
  0
VERTEX
  5
4F5
  8
1
  6
CONTINUOUS
 62
     7
 10
-305.1683047058625
 20
184.0860673645629
 30
0.0
  0
VERTEX
  5
4F6
  8
1
  6
CONTINUOUS
 62
     7
 10
-305.1522869356273
 20
184.0814040653068
 30
0.0
  0
VERTEX
  5
4F7
  8
1
  6
CONTINUOUS
 62
     7
 10
-305.136531094253
 20
184.076245614479
 30
0.0
  0
VERTEX
  5
4F8
  8
1
  6
CONTINUOUS
 62
     7
 10
-305.1210814688443
 20
184.0706165735388
 30
0.0
  0
VERTEX
  5
4F9
  8
1
  6
CONTINUOUS
 62
     7
 10
-305.1014836418807
 20
184.0626191103257
 30
0.0
  0
VERTEX
  5
4FA
  8
1
  6
CONTINUOUS
 62
     7
 10
-305.0824149660455
 20
184.0538785299768
 30
0.0
  0
VERTEX
  5
4FB
  8
1
  6
CONTINUOUS
 62
     7
 10
-305.0639221297948
 20
184.0444559169958
 30
0.0
  0
VERTEX
  5
4FC
  8
1
  6
CONTINUOUS
 62
     7
 10
-305.0460518215849
 20
184.034412355886
 30
0.0
  0
VERTEX
  5
4FD
  8
1
  6
CONTINUOUS
 62
     7
 10
-305.0288507298721
 20
184.0238089311509
 30
0.0
  0
VERTEX
  5
4FE
  8
1
  6
CONTINUOUS
 62
     7
 10
-305.0123655431128
 20
184.0127067272942
 30
0.0
  0
VERTEX
  5
4FF
  8
1
  6
CONTINUOUS
 62
     7
 10
-304.9957456220295
 20
184.0004968968592
 30
0.0
  0
VERTEX
  5
500
  8
1
  6
CONTINUOUS
 62
     7
 10
-304.9798573339795
 20
183.98779080611
 30
0.0
  0
VERTEX
  5
501
  8
1
  6
CONTINUOUS
 62
     7
 10
-304.9647123054795
 20
183.9746438621961
 30
0.0
  0
VERTEX
  5
502
  8
1
  6
CONTINUOUS
 62
     7
 10
-304.9503221630462
 20
183.961111472267
 30
0.0
  0
VERTEX
  5
503
  8
1
  6
CONTINUOUS
 62
     7
 10
-304.9317865380031
 20
183.9419824422175
 30
0.0
  0
VERTEX
  5
504
  8
1
  6
CONTINUOUS
 62
     7
 10
-304.9145917811582
 20
183.9222524387192
 30
0.0
  0
VERTEX
  5
505
  8
1
  6
CONTINUOUS
 62
     7
 10
-304.8987309441512
 20
183.9020249797247
 30
0.0
  0
VERTEX
  5
506
  8
1
  6
CONTINUOUS
 62
     7
 10
-304.8839193503333
 20
183.8809912906995
 30
0.0
  0
VERTEX
  5
507
  8
1
  6
CONTINUOUS
 62
     7
 10
-304.8704015883384
 20
183.8595467185564
 30
0.0
  0
VERTEX
  5
508
  8
1
  6
CONTINUOUS
 62
     7
 10
-304.8581576783851
 20
183.8377654947213
 30
0.0
  0
VERTEX
  5
509
  8
1
  6
CONTINUOUS
 62
     7
 10
-304.8471676406921
 20
183.8157218506197
 30
0.0
  0
VERTEX
  5
50A
  8
1
  6
CONTINUOUS
 62
     7
 10
-304.8340688564049
 20
183.7851311227508
 30
0.0
  0
VERTEX
  5
50B
  8
1
  6
CONTINUOUS
 62
     7
 10
-304.8231726932398
 20
183.7541765372149
 30
0.0
  0
VERTEX
  5
50C
  8
1
  6
CONTINUOUS
 62
     7
 10
-304.8144322868677
 20
183.7229889478121
 30
0.0
  0
VERTEX
  5
50D
  8
1
  6
CONTINUOUS
 62
     7
 10
-304.8080829665537
 20
183.6932667413593
 30
0.0
  0
VERTEX
  5
50E
  8
1
  6
CONTINUOUS
 62
     7
 10
-304.8035767874409
 20
183.6634252527361
 30
0.0
  0
VERTEX
  5
50F
  8
1
  6
CONTINUOUS
 62
     7
 10
-304.800890286324
 20
183.6335495128498
 30
0.0
  0
VERTEX
  5
510
  8
1
  6
CONTINUOUS
 62
     7
 10
-304.8
 20
183.6037245526077
 30
0.0
  0
SEQEND
  5
55D
  8
1
  6
CONTINUOUS
 62
     7
  0
LINE
  5
328
  8
1
  6
CONTINUOUS
 62
     7
 10
-303.3
 20
242.111644443792
 30
0.0
 11
-303.3
 21
242.2543498110672
 31
0.0
  0
LINE
  5
329
  8
1
  6
CONTINUOUS
 62
     7
 10
-299.8
 20
242.1650936111689
 30
0.0
 11
-299.8
 21
241.9962754473922
 31
0.0
  0
POLYLINE
  5
32A
  8
1
  6
CONTINUOUS
 62
     7
 66
     1
 10
0.0
 20
0.0
 30
0.0
  0
VERTEX
  5
511
  8
1
  6
CONTINUOUS
 62
     7
 10
-303.3
 20
242.111644443792
 30
0.0
  0
VERTEX
  5
512
  8
1
  6
CONTINUOUS
 62
     7
 10
-303.3007932921723
 20
242.0834899538893
 30
0.0
  0
VERTEX
  5
513
  8
1
  6
CONTINUOUS
 62
     7
 10
-303.3031813325295
 20
242.0553301822666
 30
0.0
  0
VERTEX
  5
514
  8
1
  6
CONTINUOUS
 62
     7
 10
-303.3071763668323
 20
242.0272350153292
 30
0.0
  0
VERTEX
  5
515
  8
1
  6
CONTINUOUS
 62
     7
 10
-303.3127906408411
 20
241.9992743394705
 30
0.0
  0
VERTEX
  5
516
  8
1
  6
CONTINUOUS
 62
     7
 10
-303.3202893408177
 20
241.9706559412735
 30
0.0
  0
VERTEX
  5
517
  8
1
  6
CONTINUOUS
 62
     7
 10
-303.329572558075
 20
241.9422385137366
 30
0.0
  0
VERTEX
  5
518
  8
1
  6
CONTINUOUS
 62
     7
 10
-303.3406695413049
 20
241.914120138365
 30
0.0
  0
VERTEX
  5
519
  8
1
  6
CONTINUOUS
 62
     7
 10
-303.3536095391995
 20
241.8863988966643
 30
0.0
  0
VERTEX
  5
51A
  8
1
  6
CONTINUOUS
 62
     7
 10
-303.3667843739049
 20
241.8620011597303
 30
0.0
  0
VERTEX
  5
51B
  8
1
  6
CONTINUOUS
 62
     7
 10
-303.3815620904163
 20
241.8379576316905
 30
0.0
  0
VERTEX
  5
51C
  8
1
  6
CONTINUOUS
 62
     7
 10
-303.3979619169774
 20
241.8143901466547
 30
0.0
  0
VERTEX
  5
51D
  8
1
  6
CONTINUOUS
 62
     7
 10
-303.4160030818319
 20
241.7914205387326
 30
0.0
  0
VERTEX
  5
51E
  8
1
  6
CONTINUOUS
 62
     7
 10
-303.4357048132235
 20
241.7691706420339
 30
0.0
  0
VERTEX
  5
51F
  8
1
  6
CONTINUOUS
 62
     7
 10
-303.4570863393957
 20
241.7477622906682
 30
0.0
  0
VERTEX
  5
520
  8
1
  6
CONTINUOUS
 62
     7
 10
-303.4740038060764
 20
241.7325325011636
 30
0.0
  0
VERTEX
  5
521
  8
1
  6
CONTINUOUS
 62
     7
 10
-303.4919011736671
 20
241.7178494223635
 30
0.0
  0
VERTEX
  5
522
  8
1
  6
CONTINUOUS
 62
     7
 10
-303.5107644464352
 20
241.7037930069377
 30
0.0
  0
VERTEX
  5
523
  8
1
  6
CONTINUOUS
 62
     7
 10
-303.5259262698514
 20
241.6934550216304
 30
0.0
  0
VERTEX
  5
524
  8
1
  6
CONTINUOUS
 62
     7
 10
-303.5416782663516
 20
241.6835465874996
 30
0.0
  0
VERTEX
  5
525
  8
1
  6
CONTINUOUS
 62
     7
 10
-303.5579975222506
 20
241.6741131547385
 30
0.0
  0
VERTEX
  5
526
  8
1
  6
CONTINUOUS
 62
     7
 10
-303.5748611238632
 20
241.6652001735399
 30
0.0
  0
VERTEX
  5
527
  8
1
  6
CONTINUOUS
 62
     7
 10
-303.5929973647553
 20
241.6565085313526
 30
0.0
  0
VERTEX
  5
528
  8
1
  6
CONTINUOUS
 62
     7
 10
-303.611713256558
 20
241.6484523704263
 30
0.0
  0
VERTEX
  5
529
  8
1
  6
CONTINUOUS
 62
     7
 10
-303.6309545279851
 20
241.6410877220448
 30
0.0
  0
VERTEX
  5
52A
  8
1
  6
CONTINUOUS
 62
     7
 10
-303.6461202965444
 20
241.635913917972
 30
0.0
  0
VERTEX
  5
52B
  8
1
  6
CONTINUOUS
 62
     7
 10
-303.6615786021103
 20
241.6311896128852
 30
0.0
  0
VERTEX
  5
52C
  8
1
  6
CONTINUOUS
 62
     7
 10
-303.6772899726045
 20
241.626937575881
 30
0.0
  0
VERTEX
  5
52D
  8
1
  6
CONTINUOUS
 62
     7
 10
-303.6932149359485
 20
241.623180576056
 30
0.0
  0
VERTEX
  5
52E
  8
1
  6
CONTINUOUS
 62
     7
 10
-303.7091796573737
 20
241.6199654470238
 30
0.0
  0
VERTEX
  5
52F
  8
1
  6
CONTINUOUS
 62
     7
 10
-303.7253365876666
 20
241.6172583061952
 30
0.0
  0
VERTEX
  5
530
  8
1
  6
CONTINUOUS
 62
     7
 10
-303.7416342973829
 20
241.6150704583205
 30
0.0
  0
VERTEX
  5
531
  8
1
  6
CONTINUOUS
 62
     7
 10
-303.7580213570782
 20
241.6134132081501
 30
0.0
  0
VERTEX
  5
532
  8
1
  6
CONTINUOUS
 62
     7
 10
-303.7744463373083
 20
241.6122978604345
 30
0.0
  0
SEQEND
  5
55E
  8
1
  6
CONTINUOUS
 62
     7
  0
POLYLINE
  5
32B
  8
1
  6
CONTINUOUS
 62
     7
 66
     1
 10
0.0
 20
0.0
 30
0.0
  0
VERTEX
  5
533
  8
1
  6
CONTINUOUS
 62
     7
 10
-299.3511073253833
 20
241.4988942643021
 30
0.0
  0
VERTEX
  5
534
  8
1
  6
CONTINUOUS
 62
     7
 10
-299.3673553234177
 20
241.5008348931703
 30
0.0
  0
VERTEX
  5
535
  8
1
  6
CONTINUOUS
 62
     7
 10
-299.3835306900103
 20
241.5033056577697
 30
0.0
  0
VERTEX
  5
536
  8
1
  6
CONTINUOUS
 62
     7
 10
-299.3995825134804
 20
241.5062944218626
 30
0.0
  0
VERTEX
  5
537
  8
1
  6
CONTINUOUS
 62
     7
 10
-299.4154598821466
 20
241.5097890492117
 30
0.0
  0
VERTEX
  5
538
  8
1
  6
CONTINUOUS
 62
     7
 10
-299.4316952941375
 20
241.513932635437
 30
0.0
  0
VERTEX
  5
539
  8
1
  6
CONTINUOUS
 62
     7
 10
-299.4477130643727
 20
241.5185959346932
 30
0.0
  0
VERTEX
  5
53A
  8
1
  6
CONTINUOUS
 62
     7
 10
-299.463468905747
 20
241.523754385521
 30
0.0
  0
VERTEX
  5
53B
  8
1
  6
CONTINUOUS
 62
     7
 10
-299.4789185311557
 20
241.5293834264612
 30
0.0
  0
VERTEX
  5
53C
  8
1
  6
CONTINUOUS
 62
     7
 10
-299.4985163581192
 20
241.5373808896743
 30
0.0
  0
VERTEX
  5
53D
  8
1
  6
CONTINUOUS
 62
     7
 10
-299.5175850339545
 20
241.5461214700231
 30
0.0
  0
VERTEX
  5
53E
  8
1
  6
CONTINUOUS
 62
     7
 10
-299.5360778702052
 20
241.5555440830042
 30
0.0
  0
VERTEX
  5
53F
  8
1
  6
CONTINUOUS
 62
     7
 10
-299.5539481784151
 20
241.565587644114
 30
0.0
  0
VERTEX
  5
540
  8
1
  6
CONTINUOUS
 62
     7
 10
-299.5711492701278
 20
241.576191068849
 30
0.0
  0
VERTEX
  5
541
  8
1
  6
CONTINUOUS
 62
     7
 10
-299.5876344568872
 20
241.5872932727058
 30
0.0
  0
VERTEX
  5
542
  8
1
  6
CONTINUOUS
 62
     7
 10
-299.6042543779705
 20
241.5995031031408
 30
0.0
  0
VERTEX
  5
543
  8
1
  6
CONTINUOUS
 62
     7
 10
-299.6201426660206
 20
241.61220919389
 30
0.0
  0
VERTEX
  5
544
  8
1
  6
CONTINUOUS
 62
     7
 10
-299.6352876945206
 20
241.6253561378039
 30
0.0
  0
VERTEX
  5
545
  8
1
  6
CONTINUOUS
 62
     7
 10
-299.6496778369538
 20
241.638888527733
 30
0.0
  0
VERTEX
  5
546
  8
1
  6
CONTINUOUS
 62
     7
 10
-299.668213461997
 20
241.6580175577825
 30
0.0
  0
VERTEX
  5
547
  8
1
  6
CONTINUOUS
 62
     7
 10
-299.6854082188418
 20
241.6777475612807
 30
0.0
  0
VERTEX
  5
548
  8
1
  6
CONTINUOUS
 62
     7
 10
-299.7012690558488
 20
241.6979750202752
 30
0.0
  0
VERTEX
  5
549
  8
1
  6
CONTINUOUS
 62
     7
 10
-299.7160806496668
 20
241.7190087093005
 30
0.0
  0
VERTEX
  5
54A
  8
1
  6
CONTINUOUS
 62
     7
 10
-299.7295984116616
 20
241.7404532814436
 30
0.0
  0
VERTEX
  5
54B
  8
1
  6
CONTINUOUS
 62
     7
 10
-299.7418423216149
 20
241.7622345052787
 30
0.0
  0
VERTEX
  5
54C
  8
1
  6
CONTINUOUS
 62
     7
 10
-299.7528323593079
 20
241.7842781493803
 30
0.0
  0
VERTEX
  5
54D
  8
1
  6
CONTINUOUS
 62
     7
 10
-299.7659311435951
 20
241.8148688772492
 30
0.0
  0
VERTEX
  5
54E
  8
1
  6
CONTINUOUS
 62
     7
 10
-299.7768273067603
 20
241.8458234627851
 30
0.0
  0
VERTEX
  5
54F
  8
1
  6
CONTINUOUS
 62
     7
 10
-299.7855677131323
 20
241.8770110521878
 30
0.0
  0
VERTEX
  5
550
  8
1
  6
CONTINUOUS
 62
     7
 10
-299.7919170334463
 20
241.9067332586407
 30
0.0
  0
VERTEX
  5
551
  8
1
  6
CONTINUOUS
 62
     7
 10
-299.796423212559
 20
241.9365747472639
 30
0.0
  0
VERTEX
  5
552
  8
1
  6
CONTINUOUS
 62
     7
 10
-299.799109713676
 20
241.9664504871501
 30
0.0
  0
VERTEX
  5
553
  8
1
  6
CONTINUOUS
 62
     7
 10
-299.8
 20
241.9962754473922
 30
0.0
  0
SEQEND
  5
55F
  8
1
  6
CONTINUOUS
 62
     7
  0
ARC
  5
32C
  8
1
  6
CONTINUOUS
 62
     7
 10
-302.3
 20
212.8
 30
0.0
 40
30.34999999999999
 50
85.27505996402452
 51
91.88817632956561
  0
LINE
  5
32D
  8
1
  6
CONTINUOUS
 62
     7
 10
-303.3
 20
242.2543498110672
 30
0.0
 11
-303.3
 21
242.43449969624
 31
0.0
  0
LINE
  5
32E
  8
1
  6
CONTINUOUS
 62
     7
 10
-303.3
 20
242.43449969624
 30
0.0
 11
-303.3
 21
243.1335210616901
 31
0.0
  0
LINE
  5
32F
  8
1
  6
CONTINUOUS
 62
     7
 10
-299.8
 20
243.0468593410952
 30
0.0
 11
-299.8
 21
242.3150050982909
 31
0.0
  0
LINE
  5
330
  8
1
  6
CONTINUOUS
 62
     7
 10
-299.8
 20
242.3150050982909
 30
0.0
 11
-299.8
 21
242.165093611169
 31
0.0
  0
ARC
  5
331
  8
1
  6
CONTINUOUS
 62
     7
 10
-302.3
 20
212.8
 30
0.0
 40
30.34999999999999
 50
265.2750599640245
 51
271.8881763295656
  0
LINE
  5
332
  8
1
  6
CONTINUOUS
 62
     7
 10
-301.3
 20
183.3456501889328
 30
0.0
 11
-301.3
 21
183.16550030376
 31
0.0
  0
LINE
  5
333
  8
1
  6
CONTINUOUS
 62
     7
 10
-301.3
 20
183.16550030376
 30
0.0
 11
-301.3
 21
182.4664789383098
 31
0.0
  0
LINE
  5
334
  8
1
  6
CONTINUOUS
 62
     7
 10
-304.8
 20
182.5531406589047
 30
0.0
 11
-304.8
 21
183.2849949017091
 31
0.0
  0
LINE
  5
335
  8
1
  6
CONTINUOUS
 62
     7
 10
-304.8
 20
183.2849949017091
 30
0.0
 11
-304.8
 21
183.434906388831
 31
0.0
  0
LINE
  5
336
  8
1
  6
CONTINUOUS
 62
     7
 10
-312.7231017554249
 20
193.140353454209
 30
0.0
 11
-312.9327543067224
 21
192.710502022887
 31
0.0
  0
LINE
  5
337
  8
1
  6
CONTINUOUS
 62
     7
 10
-312.9327543067224
 20
192.710502022887
 30
0.0
 11
-312.940552420603
 21
192.6945135200403
 31
0.0
  0
LINE
  5
338
  8
1
  6
CONTINUOUS
 62
     7
 10
-316.0248671909915
 20
194.6594387352241
 30
0.0
 11
-316.0154918781411
 21
194.6710162824048
 31
0.0
  0
LINE
  5
339
  8
1
  6
CONTINUOUS
 62
     7
 10
-316.0154918781411
 20
194.6710162824048
 30
0.0
 11
-315.7126976090144
 21
195.0449360643643
 31
0.0
  0
LINE
  5
33A
  8
1
  6
CONTINUOUS
 62
     7
 10
-282.4614395054288
 20
222.8784061246116
 30
0.0
 11
-282.027994601026
 21
223.080524802923
 31
0.0
  0
LINE
  5
33B
  8
1
  6
CONTINUOUS
 62
     7
 10
-282.027994601026
 20
223.080524802923
 30
0.0
 11
-282.0118724374528
 21
223.0880426912631
 31
0.0
  0
LINE
  5
33C
  8
1
  6
CONTINUOUS
 62
     7
 10
-283.9226696700557
 20
226.2061803790471
 30
0.0
 11
-283.9344090756901
 21
226.1970085501611
 31
0.0
  0
LINE
  5
33D
  8
1
  6
CONTINUOUS
 62
     7
 10
-283.9344090756901
 20
226.1970085501611
 30
0.0
 11
-284.3135563965074
 21
225.900786198078
 31
0.0
  0
LINE
  5
33E
  8
1
  6
CONTINUOUS
 62
     7
 10
-308.0335001141931
 20
234.3004588078934
 30
0.0
 11
-308.1410837514961
 21
234.7664547373389
 31
0.0
  0
LINE
  5
33F
  8
1
  6
CONTINUOUS
 62
     7
 10
-308.1410837514961
 20
234.7664547373389
 30
0.0
 11
-308.1450853696505
 21
234.7837876498327
 31
0.0
  0
LINE
  5
340
  8
1
  6
CONTINUOUS
 62
     7
 10
-311.5923613511543
 20
233.5630432001432
 30
0.0
 11
-311.5858307084098
 21
233.5496533982363
 31
0.0
  0
LINE
  5
341
  8
1
  6
CONTINUOUS
 62
     7
 10
-311.5858307084098
 20
233.5496533982363
 30
0.0
 11
-311.3749106859761
 21
233.1172032659746
 31
0.0
  0
LINE
  5
342
  8
1
  6
CONTINUOUS
 62
     7
 10
-320.2864436034927
 20
199.6992138019219
 30
0.0
 11
-320.6633125332877
 21
199.404771523996
 31
0.0
  0
LINE
  5
343
  8
1
  6
CONTINUOUS
 62
     7
 10
-320.6633125332877
 20
199.404771523996
 30
0.0
 11
-320.6773303299444
 21
199.3938196209529
 31
0.0
  0
LINE
  5
344
  8
1
  6
CONTINUOUS
 62
     7
 10
-322.5881275625472
 20
202.5119573087369
 30
0.0
 11
-322.5746258245405
 21
202.5182532725678
 31
0.0
  0
LINE
  5
345
  8
1
  6
CONTINUOUS
 62
     7
 10
-322.5746258245405
 20
202.5182532725678
 30
0.0
 11
-322.1385604945713
 21
202.7215938753883
 31
0.0
  0
LINE
  5
346
  8
1
  6
CONTINUOUS
 62
     7
 10
-285.2370486094959
 20
227.0828023284881
 30
0.0
 11
-284.8601796797008
 21
227.377244606414
 31
0.0
  0
LINE
  5
347
  8
1
  6
CONTINUOUS
 62
     7
 10
-284.8601796797008
 20
227.377244606414
 30
0.0
 11
-284.8461618830441
 21
227.3881965094571
 31
0.0
  0
LINE
  5
348
  8
1
  6
CONTINUOUS
 62
     7
 10
-287.4094138668231
 20
229.9965806782011
 30
0.0
 11
-287.4187891796736
 21
229.9850031310204
 31
0.0
  0
LINE
  5
349
  8
1
  6
CONTINUOUS
 62
     7
 10
-287.4187891796736
 20
229.9850031310204
 30
0.0
 11
-287.7215834488001
 21
229.611083349061
 31
0.0
  0
LINE
  5
34A
  8
1
  6
CONTINUOUS
 62
     7
 10
-303.05
 20
235.0391603373278
 30
0.0
 11
-303.05
 21
235.5174138739326
 31
0.0
  0
LINE
  5
34B
  8
1
  6
CONTINUOUS
 62
     7
 10
-303.05
 20
235.5174138739326
 30
0.0
 11
-303.05
 21
235.5352027132251
 31
0.0
  0
LINE
  5
34C
  8
1
  6
CONTINUOUS
 62
     7
 10
-306.6835302724726
 20
235.1212142313485
 30
0.0
 11
-306.680179059735
 21
235.106698534226
 31
0.0
  0
LINE
  5
34D
  8
1
  6
CONTINUOUS
 62
     7
 10
-306.680179059735
 20
235.106698534226
 30
0.0
 11
-306.5719450170153
 21
234.6378853894092
 31
0.0
  0
LINE
  5
34E
  8
1
  6
CONTINUOUS
 62
     7
 10
-298.0280549829848
 20
190.9621146105908
 30
0.0
 11
-297.9204713456818
 21
190.4961186811453
 31
0.0
  0
LINE
  5
34F
  8
1
  6
CONTINUOUS
 62
     7
 10
-297.9204713456818
 20
190.4961186811453
 30
0.0
 11
-297.9164697275274
 21
190.4787857686514
 31
0.0
  0
LINE
  5
350
  8
1
  6
CONTINUOUS
 62
     7
 10
-301.55
 20
190.0647972867748
 30
0.0
 11
-301.55
 21
190.0796948063591
 31
0.0
  0
LINE
  5
351
  8
1
  6
CONTINUOUS
 62
     7
 10
-301.55
 20
190.0796948063591
 30
0.0
 11
-301.55
 21
190.5608396626722
 31
0.0
  0
LINE
  5
352
  8
1
  6
CONTINUOUS
 62
     7
 10
-298.0280549829848
 20
234.6378853894092
 30
0.0
 11
-297.9204713456818
 21
235.1038813188547
 31
0.0
  0
LINE
  5
353
  8
1
  6
CONTINUOUS
 62
     7
 10
-297.9204713456818
 20
235.1038813188547
 30
0.0
 11
-297.9164697275274
 21
235.1212142313485
 31
0.0
  0
LINE
  5
354
  8
1
  6
CONTINUOUS
 62
     7
 10
-301.55
 20
235.5352027132251
 30
0.0
 11
-301.55
 21
235.5203051936409
 31
0.0
  0
LINE
  5
355
  8
1
  6
CONTINUOUS
 62
     7
 10
-301.55
 20
235.5203051936409
 30
0.0
 11
-301.55
 21
235.0391603373278
 31
0.0
  0
LINE
  5
356
  8
1
  6
CONTINUOUS
 62
     7
 10
-308.0335001141931
 20
191.2995411921066
 30
0.0
 11
-308.1410837514961
 21
190.8335452626611
 31
0.0
  0
LINE
  5
357
  8
1
  6
CONTINUOUS
 62
     7
 10
-308.1410837514961
 20
190.8335452626611
 30
0.0
 11
-308.1450853696505
 21
190.8162123501672
 31
0.0
  0
LINE
  5
358
  8
1
  6
CONTINUOUS
 62
     7
 10
-311.5923613511543
 20
192.0369567998567
 30
0.0
 11
-311.5858307084098
 21
192.0503466017637
 31
0.0
  0
LINE
  5
359
  8
1
  6
CONTINUOUS
 62
     7
 10
-311.5858307084098
 20
192.0503466017637
 30
0.0
 11
-311.3749106859761
 21
192.4827967340254
 31
0.0
  0
LINE
  5
35A
  8
1
  6
CONTINUOUS
 62
     7
 10
-282.4614395054288
 20
202.7215938753883
 30
0.0
 11
-282.027994601026
 21
202.519475197077
 31
0.0
  0
LINE
  5
35B
  8
1
  6
CONTINUOUS
 62
     7
 10
-282.027994601026
 20
202.519475197077
 30
0.0
 11
-282.0118724374528
 21
202.5119573087369
 31
0.0
  0
LINE
  5
35C
  8
1
  6
CONTINUOUS
 62
     7
 10
-283.9226696700557
 20
199.3938196209529
 30
0.0
 11
-283.9344090756901
 21
199.4029914498389
 31
0.0
  0
LINE
  5
35D
  8
1
  6
CONTINUOUS
 62
     7
 10
-283.9344090756901
 20
199.4029914498389
 30
0.0
 11
-284.3135563965074
 21
199.6992138019219
 31
0.0
  0
LINE
  5
35E
  8
1
  6
CONTINUOUS
 62
     7
 10
-303.05
 20
190.5608396626722
 30
0.0
 11
-303.05
 21
190.0825861260673
 31
0.0
  0
LINE
  5
35F
  8
1
  6
CONTINUOUS
 62
     7
 10
-303.05
 20
190.0825861260673
 30
0.0
 11
-303.05
 21
190.0647972867748
 31
0.0
  0
LINE
  5
360
  8
1
  6
CONTINUOUS
 62
     7
 10
-306.6835302724726
 20
190.4787857686514
 30
0.0
 11
-306.680179059735
 21
190.4933014657739
 31
0.0
  0
LINE
  5
361
  8
1
  6
CONTINUOUS
 62
     7
 10
-306.680179059735
 20
190.4933014657739
 30
0.0
 11
-306.5719450170153
 21
190.9621146105908
 31
0.0
  0
LINE
  5
362
  8
1
  6
CONTINUOUS
 62
     7
 10
-316.8784165511999
 20
195.988916650939
 30
0.0
 11
-317.179391253877
 21
195.6172438464141
 31
0.0
  0
LINE
  5
363
  8
1
  6
CONTINUOUS
 62
     7
 10
-317.179391253877
 20
195.6172438464141
 30
0.0
 11
-317.1905861331769
 21
195.6034193217989
 31
0.0
  0
LINE
  5
364
  8
1
  6
CONTINUOUS
 62
     7
 10
-319.7538381169559
 20
198.2118034905428
 30
0.0
 11
-319.7420987113214
 21
198.2209753194288
 31
0.0
  0
LINE
  5
365
  8
1
  6
CONTINUOUS
 62
     7
 10
-319.7420987113214
 20
198.2209753194288
 30
0.0
 11
-319.3629513905042
 21
198.5171976715118
 31
0.0
  0
LINE
  5
366
  8
1
  6
CONTINUOUS
 62
     7
 10
-316.8784165511999
 20
229.6110833490609
 30
0.0
 11
-317.179391253877
 21
229.9827561535859
 31
0.0
  0
LINE
  5
367
  8
1
  6
CONTINUOUS
 62
     7
 10
-317.179391253877
 20
229.9827561535859
 30
0.0
 11
-317.1905861331769
 21
229.9965806782011
 31
0.0
  0
LINE
  5
368
  8
1
  6
CONTINUOUS
 62
     7
 10
-319.7538381169559
 20
227.3881965094571
 30
0.0
 11
-319.7420987113214
 21
227.3790246805712
 31
0.0
  0
LINE
  5
369
  8
1
  6
CONTINUOUS
 62
     7
 10
-319.7420987113214
 20
227.3790246805712
 30
0.0
 11
-319.3629513905042
 21
227.0828023284881
 31
0.0
  0
LINE
  5
36A
  8
1
  6
CONTINUOUS
 62
     7
 10
-288.8873023909856
 20
230.5550639356357
 30
0.0
 11
-288.5863276883084
 21
230.9267367401607
 31
0.0
  0
LINE
  5
36B
  8
1
  6
CONTINUOUS
 62
     7
 10
-288.5863276883084
 20
230.9267367401607
 30
0.0
 11
-288.5751328090086
 21
230.9405612647759
 31
0.0
  0
LINE
  5
36C
  8
1
  6
CONTINUOUS
 62
     7
 10
-291.659447579397
 20
232.9054864799596
 30
0.0
 11
-291.6659782221415
 21
232.8920966780527
 31
0.0
  0
LINE
  5
36D
  8
1
  6
CONTINUOUS
 62
     7
 10
-291.6659782221415
 20
232.8920966780527
 30
0.0
 11
-291.876898244575
 21
232.459646545791
 31
0.0
  0
LINE
  5
36E
  8
1
  6
CONTINUOUS
 62
     7
 10
-293.2250893140239
 20
233.1172032659746
 30
0.0
 11
-293.0154367627264
 21
233.5470546972966
 31
0.0
  0
LINE
  5
36F
  8
1
  6
CONTINUOUS
 62
     7
 10
-293.0154367627264
 20
233.5470546972966
 30
0.0
 11
-293.0076386488458
 21
233.5630432001432
 31
0.0
  0
LINE
  5
370
  8
1
  6
CONTINUOUS
 62
     7
 10
-296.4549146303496
 20
234.7837876498327
 30
0.0
 11
-296.4582658430872
 21
234.7692719527103
 31
0.0
  0
LINE
  5
371
  8
1
  6
CONTINUOUS
 62
     7
 10
-296.4582658430872
 20
234.7692719527103
 30
0.0
 11
-296.5664998858069
 21
234.3004588078934
 31
0.0
  0
LINE
  5
372
  8
1
  6
CONTINUOUS
 62
     7
 10
-288.8873023909856
 20
195.0449360643643
 30
0.0
 11
-288.5863276883084
 21
194.6732632598393
 31
0.0
  0
LINE
  5
373
  8
1
  6
CONTINUOUS
 62
     7
 10
-288.5863276883084
 20
194.6732632598393
 30
0.0
 11
-288.5751328090086
 21
194.6594387352241
 31
0.0
  0
LINE
  5
374
  8
1
  6
CONTINUOUS
 62
     7
 10
-291.659447579397
 20
192.6945135200403
 30
0.0
 11
-291.6659782221415
 21
192.7079033219473
 31
0.0
  0
LINE
  5
375
  8
1
  6
CONTINUOUS
 62
     7
 10
-291.6659782221415
 20
192.7079033219473
 30
0.0
 11
-291.876898244575
 21
193.140353454209
 31
0.0
  0
LINE
  5
376
  8
1
  6
CONTINUOUS
 62
     7
 10
-320.2864436034927
 20
225.900786198078
 30
0.0
 11
-320.6633125332877
 21
226.1952284760039
 31
0.0
  0
LINE
  5
377
  8
1
  6
CONTINUOUS
 62
     7
 10
-320.6633125332877
 20
226.1952284760039
 30
0.0
 11
-320.6773303299444
 21
226.2061803790471
 31
0.0
  0
LINE
  5
378
  8
1
  6
CONTINUOUS
 62
     7
 10
-322.5881275625472
 20
223.0880426912631
 30
0.0
 11
-322.5746258245405
 21
223.0817467274321
 31
0.0
  0
LINE
  5
379
  8
1
  6
CONTINUOUS
 62
     7
 10
-322.5746258245405
 20
223.0817467274321
 30
0.0
 11
-322.1385604945713
 21
222.8784061246116
 31
0.0
  0
LINE
  5
37A
  8
1
  6
CONTINUOUS
 62
     7
 10
-312.7231017554249
 20
232.459646545791
 30
0.0
 11
-312.9327543067224
 21
232.8894979771129
 31
0.0
  0
LINE
  5
37B
  8
1
  6
CONTINUOUS
 62
     7
 10
-312.9327543067224
 20
232.8894979771129
 30
0.0
 11
-312.940552420603
 21
232.9054864799596
 31
0.0
  0
LINE
  5
37C
  8
1
  6
CONTINUOUS
 62
     7
 10
-316.0248671909915
 20
230.9405612647759
 30
0.0
 11
-316.0154918781411
 21
230.9289837175952
 31
0.0
  0
LINE
  5
37D
  8
1
  6
CONTINUOUS
 62
     7
 10
-316.0154918781411
 20
230.9289837175952
 30
0.0
 11
-315.7126976090144
 21
230.5550639356357
 31
0.0
  0
LINE
  5
37E
  8
1
  6
CONTINUOUS
 62
     7
 10
-285.2370486094959
 20
198.5171976715118
 30
0.0
 11
-284.8601796797008
 21
198.222755393586
 31
0.0
  0
LINE
  5
37F
  8
1
  6
CONTINUOUS
 62
     7
 10
-284.8601796797008
 20
198.222755393586
 30
0.0
 11
-284.8461618830441
 21
198.2118034905428
 31
0.0
  0
LINE
  5
380
  8
1
  6
CONTINUOUS
 62
     7
 10
-287.4094138668231
 20
195.6034193217989
 30
0.0
 11
-287.4187891796736
 21
195.6149968689795
 31
0.0
  0
LINE
  5
381
  8
1
  6
CONTINUOUS
 62
     7
 10
-287.4187891796736
 20
195.6149968689795
 30
0.0
 11
-287.7215834488001
 21
195.988916650939
 31
0.0
  0
LINE
  5
382
  8
1
  6
CONTINUOUS
 62
     7
 10
-293.2250893140239
 20
192.4827967340254
 30
0.0
 11
-293.0154367627264
 21
192.0529453027034
 31
0.0
  0
LINE
  5
383
  8
1
  6
CONTINUOUS
 62
     7
 10
-293.0154367627264
 20
192.0529453027034
 30
0.0
 11
-293.0076386488458
 21
192.0369567998567
 31
0.0
  0
LINE
  5
384
  8
1
  6
CONTINUOUS
 62
     7
 10
-296.4549146303496
 20
190.8162123501672
 30
0.0
 11
-296.4582658430872
 21
190.8307280472897
 31
0.0
  0
LINE
  5
385
  8
1
  6
CONTINUOUS
 62
     7
 10
-296.4582658430872
 20
190.8307280472897
 30
0.0
 11
-296.5664998858069
 21
191.2995411921066
 31
0.0
  0
LINE
  5
386
  8
1
  6
CONTINUOUS
 62
     7
 10
-320.0484822506943
 20
199.8851295865274
 30
0.0
 11
-320.2864436034927
 21
199.6992138019219
 31
0.0
  0
LINE
  5
387
  8
1
  6
CONTINUOUS
 62
     7
 10
-322.1385604945713
 20
202.7215938753883
 30
0.0
 11
-321.8648761240626
 21
202.8492149932738
 31
0.0
  0
LINE
  5
388
  8
1
  6
CONTINUOUS
 62
     7
 10
-307.9655700041532
 20
234.0062211751184
 30
0.0
 11
-308.0335001141931
 21
234.3004588078934
 31
0.0
  0
LINE
  5
389
  8
1
  6
CONTINUOUS
 62
     7
 10
-311.3749106859761
 20
233.1172032659746
 30
0.0
 11
-311.2425325545354
 21
232.8457878745405
 31
0.0
  0
LINE
  5
38A
  8
1
  6
CONTINUOUS
 62
     7
 10
-293.3574674454646
 20
192.7542121254595
 30
0.0
 11
-293.2250893140239
 21
192.4827967340254
 31
0.0
  0
LINE
  5
38B
  8
1
  6
CONTINUOUS
 62
     7
 10
-296.5664998858069
 20
191.2995411921066
 30
0.0
 11
-296.6344299958467
 21
191.5937788248816
 31
0.0
  0
LINE
  5
38C
  8
1
  6
CONTINUOUS
 62
     7
 10
-303.05
 20
234.7371830461433
 30
0.0
 11
-303.05
 21
235.0391603373278
 31
0.0
  0
LINE
  5
38D
  8
1
  6
CONTINUOUS
 62
     7
 10
-306.5719450170153
 20
234.6378853894092
 30
0.0
 11
-306.5040149069754
 21
234.3436477566342
 31
0.0
  0
LINE
  5
38E
  8
1
  6
CONTINUOUS
 62
     7
 10
-312.5907236239842
 20
232.1882311543569
 30
0.0
 11
-312.7231017554249
 21
232.459646545791
 31
0.0
  0
LINE
  5
38F
  8
1
  6
CONTINUOUS
 62
     7
 10
-315.7126976090144
 20
230.5550639356357
 30
0.0
 11
-315.5226571420381
 21
230.32038350334
 31
0.0
  0
LINE
  5
390
  8
1
  6
CONTINUOUS
 62
     7
 10
-282.7351238759374
 20
202.8492149932738
 30
0.0
 11
-282.4614395054288
 21
202.7215938753883
 31
0.0
  0
LINE
  5
391
  8
1
  6
CONTINUOUS
 62
     7
 10
-284.3135563965074
 20
199.6992138019219
 30
0.0
 11
-284.5515177493057
 21
199.8851295865274
 31
0.0
  0
LINE
  5
392
  8
1
  6
CONTINUOUS
 62
     7
 10
-285.4750099622942
 20
226.8968865438827
 30
0.0
 11
-285.2370486094959
 21
227.0828023284881
 31
0.0
  0
LINE
  5
393
  8
1
  6
CONTINUOUS
 62
     7
 10
-287.7215834488001
 20
229.611083349061
 30
0.0
 11
-287.9116239157764
 21
229.3764029167652
 31
0.0
  0
LINE
  5
394
  8
1
  6
CONTINUOUS
 62
     7
 10
-293.3574674454646
 20
232.8457878745405
 30
0.0
 11
-293.2250893140239
 21
233.1172032659746
 31
0.0
  0
LINE
  5
395
  8
1
  6
CONTINUOUS
 62
     7
 10
-296.5664998858069
 20
234.3004588078934
 30
0.0
 11
-296.6344299958467
 21
234.0062211751184
 31
0.0
  0
LINE
  5
396
  8
1
  6
CONTINUOUS
 62
     7
 10
-282.7351238759374
 20
222.7507850067261
 30
0.0
 11
-282.4614395054288
 21
222.8784061246116
 31
0.0
  0
LINE
  5
397
  8
1
  6
CONTINUOUS
 62
     7
 10
-284.3135563965074
 20
225.900786198078
 30
0.0
 11
-284.5515177493057
 21
225.7148704134726
 31
0.0
  0
LINE
  5
398
  8
1
  6
CONTINUOUS
 62
     7
 10
-303.05
 20
190.8628169538566
 30
0.0
 11
-303.05
 21
190.5608396626722
 31
0.0
  0
LINE
  5
399
  8
1
  6
CONTINUOUS
 62
     7
 10
-306.5719450170153
 20
190.9621146105908
 30
0.0
 11
-306.5040149069754
 21
191.2563522433658
 31
0.0
  0
LINE
  5
39A
  8
1
  6
CONTINUOUS
 62
     7
 10
-307.9655700041532
 20
191.5937788248816
 30
0.0
 11
-308.0335001141931
 21
191.2995411921066
 31
0.0
  0
LINE
  5
39B
  8
1
  6
CONTINUOUS
 62
     7
 10
-311.3749106859761
 20
192.4827967340254
 30
0.0
 11
-311.2425325545354
 21
192.7542121254595
 31
0.0
  0
LINE
  5
39C
  8
1
  6
CONTINUOUS
 62
     7
 10
-285.4750099622942
 20
198.7031134561173
 30
0.0
 11
-285.2370486094959
 21
198.5171976715118
 31
0.0
  0
LINE
  5
39D
  8
1
  6
CONTINUOUS
 62
     7
 10
-287.7215834488001
 20
195.988916650939
 30
0.0
 11
-287.9116239157764
 21
196.2235970832347
 31
0.0
  0
LINE
  5
39E
  8
1
  6
CONTINUOUS
 62
     7
 10
-316.6883760842235
 20
196.2235970832347
 30
0.0
 11
-316.8784165511999
 21
195.988916650939
 31
0.0
  0
LINE
  5
39F
  8
1
  6
CONTINUOUS
 62
     7
 10
-319.3629513905042
 20
198.5171976715118
 30
0.0
 11
-319.1249900377059
 21
198.7031134561173
 31
0.0
  0
LINE
  5
3A0
  8
1
  6
CONTINUOUS
 62
     7
 10
-312.5907236239842
 20
193.4117688456431
 30
0.0
 11
-312.7231017554249
 21
193.140353454209
 31
0.0
  0
LINE
  5
3A1
  8
1
  6
CONTINUOUS
 62
     7
 10
-315.7126976090144
 20
195.0449360643643
 30
0.0
 11
-315.5226571420381
 21
195.2796164966599
 31
0.0
  0
LINE
  5
3A2
  8
1
  6
CONTINUOUS
 62
     7
 10
-316.6883760842235
 20
229.3764029167652
 30
0.0
 11
-316.8784165511999
 21
229.6110833490609
 31
0.0
  0
LINE
  5
3A3
  8
1
  6
CONTINUOUS
 62
     7
 10
-319.3629513905042
 20
227.0828023284881
 30
0.0
 11
-319.1249900377059
 21
226.8968865438827
 31
0.0
  0
LINE
  5
3A4
  8
1
  6
CONTINUOUS
 62
     7
 10
-298.0959850930246
 20
191.2563522433658
 30
0.0
 11
-298.0280549829848
 21
190.9621146105908
 31
0.0
  0
LINE
  5
3A5
  8
1
  6
CONTINUOUS
 62
     7
 10
-301.55
 20
190.5608396626722
 30
0.0
 11
-301.55
 21
190.8628169538566
 31
0.0
  0
LINE
  5
3A6
  8
1
  6
CONTINUOUS
 62
     7
 10
-289.0773428579619
 20
195.2796164966599
 30
0.0
 11
-288.8873023909856
 21
195.0449360643643
 31
0.0
  0
LINE
  5
3A7
  8
1
  6
CONTINUOUS
 62
     7
 10
-291.876898244575
 20
193.140353454209
 30
0.0
 11
-292.0092763760159
 21
193.4117688456431
 31
0.0
  0
LINE
  5
3A8
  8
1
  6
CONTINUOUS
 62
     7
 10
-320.0484822506943
 20
225.7148704134726
 30
0.0
 11
-320.2864436034927
 21
225.900786198078
 31
0.0
  0
LINE
  5
3A9
  8
1
  6
CONTINUOUS
 62
     7
 10
-322.1385604945713
 20
222.8784061246116
 30
0.0
 11
-321.8648761240626
 21
222.7507850067261
 31
0.0
  0
LINE
  5
3AA
  8
1
  6
CONTINUOUS
 62
     7
 10
-298.0959850930246
 20
234.3436477566342
 30
0.0
 11
-298.0280549829848
 21
234.6378853894092
 31
0.0
  0
LINE
  5
3AB
  8
1
  6
CONTINUOUS
 62
     7
 10
-301.55
 20
235.0391603373278
 30
0.0
 11
-301.55
 21
234.7371830461433
 31
0.0
  0
LINE
  5
3AC
  8
1
  6
CONTINUOUS
 62
     7
 10
-289.0773428579619
 20
230.32038350334
 30
0.0
 11
-288.8873023909856
 21
230.5550639356357
 31
0.0
  0
LINE
  5
3AD
  8
1
  6
CONTINUOUS
 62
     7
 10
-291.876898244575
 20
232.459646545791
 30
0.0
 11
-292.0092763760159
 21
232.1882311543569
 31
0.0
  0
ARC
  5
3AE
  8
1
  6
CONTINUOUS
 62
     7
 10
-302.3
 20
212.8
 30
0.0
 40
21.69999999999999
 50
284.9806633431356
 51
294.0193366568642
  0
LINE
  5
3AF
  8
1
  6
CONTINUOUS
 62
     7
 10
-293.4671250008537
 20
192.9790434325319
 30
0.0
 11
-293.4669355948819
 21
192.9786550927403
 31
0.0
  0
LINE
  5
3B0
  8
1
  6
CONTINUOUS
 62
     7
 10
-293.466936326698
 20
192.9786565931857
 30
0.0
 11
-293.3574674454646
 21
192.7542121254595
 31
0.0
  0
LINE
  5
3B1
  8
1
  6
CONTINUOUS
 62
     7
 10
-296.6344299958467
 20
191.5937788248816
 30
0.0
 11
-296.69070099562
 21
191.8375153028211
 31
0.0
  0
ARC
  5
3B2
  8
1
  6
CONTINUOUS
 62
     7
 10
-302.3
 20
212.8
 30
0.0
 40
21.70000000000002
 50
219.9806633431357
 51
229.0193366568642
  0
LINE
  5
3B3
  8
1
  6
CONTINUOUS
 62
     7
 10
-316.5309530052995
 20
196.4179983957711
 30
0.0
 11
-316.5320387719428
 21
196.4166575856305
 31
0.0
  0
LINE
  5
3B4
  8
1
  6
CONTINUOUS
 62
     7
 10
-316.5320369082619
 20
196.4166598870848
 30
0.0
 11
-316.6883760842235
 21
196.2235970832347
 31
0.0
  0
LINE
  5
3B5
  8
1
  6
CONTINUOUS
 62
     7
 10
-319.1249900377059
 20
198.7031134561173
 30
0.0
 11
-318.927870921875
 21
198.8571197880257
 31
0.0
  0
ARC
  5
3B6
  8
1
  6
CONTINUOUS
 62
     7
 10
-302.3
 20
212.8
 30
0.0
 40
21.7
 50
78.98066334313575
 51
88.01933665686437
  0
LINE
  5
3B7
  8
1
  6
CONTINUOUS
 62
     7
 10
-298.1522560927978
 20
234.0999112786947
 30
0.0
 11
-298.151867984682
 21
234.1015923596349
 31
0.0
  0
LINE
  5
3B8
  8
1
  6
CONTINUOUS
 62
     7
 10
-298.1518686508562
 20
234.1015894741175
 30
0.0
 11
-298.0959850930246
 21
234.3436477566342
 31
0.0
  0
LINE
  5
3B9
  8
1
  6
CONTINUOUS
 62
     7
 10
-301.55
 20
234.7371830461433
 30
0.0
 11
-301.55
 21
234.487035297615
 31
0.0
  0
ARC
  5
3BA
  8
1
  6
CONTINUOUS
 62
     7
 10
-302.3
 20
212.8
 30
0.0
 40
21.69999999999999
 50
65.98066334313573
 51
75.0193366568644
  0
LINE
  5
3BB
  8
1
  6
CONTINUOUS
 62
     7
 10
-293.4671250008537
 20
232.6209565674681
 30
0.0
 11
-293.4669355948819
 21
232.6213449072597
 31
0.0
  0
LINE
  5
3BC
  8
1
  6
CONTINUOUS
 62
     7
 10
-293.466936326698
 20
232.6213434068143
 30
0.0
 11
-293.3574674454646
 21
232.8457878745405
 31
0.0
  0
LINE
  5
3BD
  8
1
  6
CONTINUOUS
 62
     7
 10
-296.6344299958467
 20
234.0062211751184
 30
0.0
 11
-296.69070099562
 21
233.7624846971789
 31
0.0
  0
ARC
  5
3BE
  8
1
  6
CONTINUOUS
 62
     7
 10
-302.3
 20
212.8
 30
0.0
 40
21.69999999999999
 50
258.9806633431356
 51
268.0193366568641
  0
LINE
  5
3BF
  8
1
  6
CONTINUOUS
 62
     7
 10
-303.05
 20
191.112964702385
 30
0.0
 11
-303.05
 21
191.1112394021106
 31
0.0
  0
LINE
  5
3C0
  8
1
  6
CONTINUOUS
 62
     7
 10
-303.05
 20
191.1112423635288
 30
0.0
 11
-303.05
 21
190.8628169538566
 31
0.0
  0
LINE
  5
3C1
  8
1
  6
CONTINUOUS
 62
     7
 10
-306.5040149069754
 20
191.2563522433658
 30
0.0
 11
-306.4477439072023
 21
191.5000887213052
 31
0.0
  0
ARC
  5
3C2
  8
1
  6
CONTINUOUS
 62
     7
 10
-302.3
 20
212.8
 30
0.0
 40
21.69999999999999
 50
143.9806633431357
 51
153.0193366568643
  0
LINE
  5
3C3
  8
1
  6
CONTINUOUS
 62
     7
 10
-319.8513631348634
 20
225.5608640815643
 30
0.0
 11
-319.8517036087831
 21
225.5611300889438
 31
0.0
  0
LINE
  5
3C4
  8
1
  6
CONTINUOUS
 62
     7
 10
-319.8517022932791
 20
225.5611290611595
 30
0.0
 11
-320.0484822506943
 21
225.7148704134726
 31
0.0
  0
LINE
  5
3C5
  8
1
  6
CONTINUOUS
 62
     7
 10
-321.8648761240626
 20
222.7507850067261
 30
0.0
 11
-321.6381652716616
 21
222.6450680000647
 31
0.0
  0
ARC
  5
3C6
  8
1
  6
CONTINUOUS
 62
     7
 10
-302.3
 20
212.8
 30
0.0
 40
21.70000000000001
 50
117.9806633431357
 51
127.0193366568644
  0
LINE
  5
3C7
  8
1
  6
CONTINUOUS
 62
     7
 10
-312.4810660685951
 20
231.9633998472844
 30
0.0
 11
-312.4812554745669
 21
231.9637881870761
 31
0.0
  0
LINE
  5
3C8
  8
1
  6
CONTINUOUS
 62
     7
 10
-312.4812547427508
 20
231.9637866866306
 30
0.0
 11
-312.5907236239842
 21
232.1882311543569
 31
0.0
  0
LINE
  5
3C9
  8
1
  6
CONTINUOUS
 62
     7
 10
-315.5226571420381
 20
230.32038350334
 30
0.0
 11
-315.365234063114
 21
230.1259821908037
 31
0.0
  0
ARC
  5
3CA
  8
1
  6
CONTINUOUS
 62
     7
 10
-302.3
 20
212.8
 30
0.0
 40
21.7
 50
52.98066334313574
 51
62.0193366568644
  0
LINE
  5
3CB
  8
1
  6
CONTINUOUS
 62
     7
 10
-289.234765936886
 20
230.1259821908037
 30
0.0
 11
-289.0773428579619
 21
230.32038350334
 31
0.0
  0
LINE
  5
3CC
  8
1
  6
CONTINUOUS
 62
     7
 10
-292.0092763760159
 20
232.1882311543569
 30
0.0
 11
-292.118933931405
 21
231.9633998472844
 31
0.0
  0
ARC
  5
3CD
  8
1
  6
CONTINUOUS
 62
     7
 10
-302.3
 20
212.8
 30
0.0
 40
21.7
 50
271.9806633431356
 51
281.0193366568642
  0
LINE
  5
3CE
  8
1
  6
CONTINUOUS
 62
     7
 10
-298.1522560927978
 20
191.5000887213052
 30
0.0
 11
-298.151867984682
 21
191.4984076403651
 31
0.0
  0
LINE
  5
3CF
  8
1
  6
CONTINUOUS
 62
     7
 10
-298.1518686508562
 20
191.4984105258825
 30
0.0
 11
-298.0959850930246
 21
191.2563522433658
 31
0.0
  0
LINE
  5
3D0
  8
1
  6
CONTINUOUS
 62
     7
 10
-301.55
 20
190.8628169538566
 30
0.0
 11
-301.55
 21
191.1129647023849
 31
0.0
  0
ARC
  5
3D1
  8
1
  6
CONTINUOUS
 62
     7
 10
-302.3
 20
212.8
 30
0.0
 40
21.69999999999999
 50
26.98066334313575
 51
36.01933665686442
  0
LINE
  5
3D2
  8
1
  6
CONTINUOUS
 62
     7
 10
-282.9618347283384
 20
222.6450680000647
 30
0.0
 11
-282.7351238759374
 21
222.7507850067261
 31
0.0
  0
LINE
  5
3D3
  8
1
  6
CONTINUOUS
 62
     7
 10
-284.5515177493057
 20
225.7148704134726
 30
0.0
 11
-284.7486368651366
 21
225.5608640815643
 31
0.0
  0
ARC
  5
3D4
  8
1
  6
CONTINUOUS
 62
     7
 10
-302.3
 20
212.8
 30
0.0
 40
21.7
 50
297.9806633431356
 51
307.0193366568642
  0
LINE
  5
3D5
  8
1
  6
CONTINUOUS
 62
     7
 10
-289.234765936886
 20
195.4740178091963
 30
0.0
 11
-289.0773428579619
 21
195.2796164966599
 31
0.0
  0
LINE
  5
3D6
  8
1
  6
CONTINUOUS
 62
     7
 10
-292.0092763760159
 20
193.4117688456431
 30
0.0
 11
-292.118933931405
 21
193.6366001527155
 31
0.0
  0
ARC
  5
3D7
  8
1
  6
CONTINUOUS
 62
     7
 10
-302.3
 20
212.8
 30
0.0
 40
21.69999999999999
 50
206.9806633431357
 51
216.0193366568642
  0
LINE
  5
3D8
  8
1
  6
CONTINUOUS
 62
     7
 10
-319.8513631348634
 20
200.0391359184357
 30
0.0
 11
-319.8517036087831
 21
200.0388699110562
 31
0.0
  0
LINE
  5
3D9
  8
1
  6
CONTINUOUS
 62
     7
 10
-319.8517022932791
 20
200.0388709388405
 30
0.0
 11
-320.0484822506943
 21
199.8851295865274
 31
0.0
  0
LINE
  5
3DA
  8
1
  6
CONTINUOUS
 62
     7
 10
-321.8648761240626
 20
202.8492149932738
 30
0.0
 11
-321.6381652716616
 21
202.9549319999353
 31
0.0
  0
ARC
  5
3DB
  8
1
  6
CONTINUOUS
 62
     7
 10
-302.3
 20
212.8
 30
0.0
 40
21.69999999999999
 50
91.98066334313575
 51
101.0193366568644
  0
LINE
  5
3DC
  8
1
  6
CONTINUOUS
 62
     7
 10
-303.05
 20
234.487035297615
 30
0.0
 11
-303.05
 21
234.4887605978894
 31
0.0
  0
LINE
  5
3DD
  8
1
  6
CONTINUOUS
 62
     7
 10
-303.05
 20
234.4887576364711
 30
0.0
 11
-303.05
 21
234.7371830461433
 31
0.0
  0
LINE
  5
3DE
  8
1
  6
CONTINUOUS
 62
     7
 10
-306.5040149069754
 20
234.3436477566342
 30
0.0
 11
-306.4477439072023
 21
234.0999112786947
 31
0.0
  0
ARC
  5
3DF
  8
1
  6
CONTINUOUS
 62
     7
 10
-302.3
 20
212.8
 30
0.0
 40
21.7
 50
245.9806633431356
 51
255.0193366568642
  0
LINE
  5
3E0
  8
1
  6
CONTINUOUS
 62
     7
 10
-307.90929900438
 20
191.8375153028211
 30
0.0
 11
-307.9655700041532
 21
191.5937788248816
 31
0.0
  0
LINE
  5
3E1
  8
1
  6
CONTINUOUS
 62
     7
 10
-311.2425325545354
 20
192.7542121254595
 30
0.0
 11
-311.1328749991464
 21
192.9790434325319
 31
0.0
  0
ARC
  5
3E2
  8
1
  6
CONTINUOUS
 62
     7
 10
-302.3
 20
212.8
 30
0.0
 40
21.70000000000001
 50
39.98066334313574
 51
49.01933665686433
  0
LINE
  5
3E3
  8
1
  6
CONTINUOUS
 62
     7
 10
-285.6721290781251
 20
226.7428802119743
 30
0.0
 11
-285.4750099622942
 21
226.8968865438827
 31
0.0
  0
LINE
  5
3E4
  8
1
  6
CONTINUOUS
 62
     7
 10
-287.9116239157764
 20
229.3764029167652
 30
0.0
 11
-288.0690469947006
 21
229.1820016042289
 31
0.0
  0
ARC
  5
3E5
  8
1
  6
CONTINUOUS
 62
     7
 10
-302.3
 20
212.8
 30
0.0
 40
21.70000000000001
 50
232.9806633431355
 51
242.0193366568642
  0
LINE
  5
3E6
  8
1
  6
CONTINUOUS
 62
     7
 10
-312.4810660685951
 20
193.6366001527155
 30
0.0
 11
-312.4812554745669
 21
193.6362118129239
 31
0.0
  0
LINE
  5
3E7
  8
1
  6
CONTINUOUS
 62
     7
 10
-312.4812547427508
 20
193.6362133133693
 30
0.0
 11
-312.5907236239842
 21
193.4117688456431
 31
0.0
  0
LINE
  5
3E8
  8
1
  6
CONTINUOUS
 62
     7
 10
-315.5226571420381
 20
195.2796164966599
 30
0.0
 11
-315.365234063114
 21
195.4740178091963
 31
0.0
  0
ARC
  5
3E9
  8
1
  6
CONTINUOUS
 62
     7
 10
-302.3
 20
212.8
 30
0.0
 40
21.70000000000001
 50
310.9806633431357
 51
320.0193366568642
  0
LINE
  5
3EA
  8
1
  6
CONTINUOUS
 62
     7
 10
-285.6721290781251
 20
198.8571197880256
 30
0.0
 11
-285.4750099622942
 21
198.7031134561173
 31
0.0
  0
LINE
  5
3EB
  8
1
  6
CONTINUOUS
 62
     7
 10
-287.9116239157764
 20
196.2235970832347
 30
0.0
 11
-288.0690469947006
 21
196.4179983957711
 31
0.0
  0
ARC
  5
3EC
  8
1
  6
CONTINUOUS
 62
     7
 10
-302.3
 20
212.8
 30
0.0
 40
21.69999999999999
 50
323.9806633431356
 51
333.0193366568642
  0
LINE
  5
3ED
  8
1
  6
CONTINUOUS
 62
     7
 10
-282.9618347283384
 20
202.9549319999352
 30
0.0
 11
-282.7351238759374
 21
202.8492149932738
 31
0.0
  0
LINE
  5
3EE
  8
1
  6
CONTINUOUS
 62
     7
 10
-284.5515177493057
 20
199.8851295865274
 30
0.0
 11
-284.7486368651366
 21
200.0391359184357
 31
0.0
  0
ARC
  5
3EF
  8
1
  6
CONTINUOUS
 62
     7
 10
-302.3
 20
212.8
 30
0.0
 40
21.7
 50
104.9806633431357
 51
114.0193366568644
  0
LINE
  5
3F0
  8
1
  6
CONTINUOUS
 62
     7
 10
-307.90929900438
 20
233.7624846971789
 30
0.0
 11
-307.9655700041532
 21
234.0062211751184
 31
0.0
  0
LINE
  5
3F1
  8
1
  6
CONTINUOUS
 62
     7
 10
-311.2425325545354
 20
232.8457878745405
 30
0.0
 11
-311.1328749991464
 21
232.6209565674681
 31
0.0
  0
ARC
  5
3F2
  8
1
  6
CONTINUOUS
 62
     7
 10
-302.3
 20
212.8
 30
0.0
 40
21.70000000000002
 50
130.9806633431357
 51
140.0193366568643
  0
LINE
  5
3F3
  8
1
  6
CONTINUOUS
 62
     7
 10
-316.5309530052995
 20
229.1820016042289
 30
0.0
 11
-316.5320387719428
 21
229.1833424143694
 31
0.0
  0
LINE
  5
3F4
  8
1
  6
CONTINUOUS
 62
     7
 10
-316.5320369082619
 20
229.1833401129151
 30
0.0
 11
-316.6883760842235
 21
229.3764029167652
 31
0.0
  0
LINE
  5
3F5
  8
1
  6
CONTINUOUS
 62
     7
 10
-319.1249900377059
 20
226.8968865438827
 30
0.0
 11
-318.927870921875
 21
226.7428802119743
 31
0.0
  0
ARC
  5
3F6
  8
1
  6
CONTINUOUS
 62
     7
 10
-302.3
 20
212.8
 30
0.0
 40
17.00000000000001
 50
180.0
 51
270.0
  0
ARC
  5
3F7
  8
1
  6
CONTINUOUS
 62
     7
 10
-302.3
 20
212.8
 30
0.0
 40
16.99999999999999
 50
270.0
 51
180.0
  0
LINE
  5
3F8
  8
1
  6
CONTINUOUS
 62
     7
 10
-299.4473924690491
 20
241.5185025988598
 30
0.0
 11
-299.3883996346465
 21
241.5659340554849
 31
0.0
  0
ARC
  5
3F9
  8
1
  6
CONTINUOUS
 62
     7
 10
-299.2004184912371
 20
241.3321326660054
 30
0.0
 40
0.3000000000000261
 50
38.79999999999893
 51
128.8000000000025
  0
LINE
  5
3FA
  8
1
  6
CONTINUOUS
 62
     7
 10
-298.9666171017577
 20
241.5201138094148
 30
0.0
 11
-298.9103923239398
 21
241.4501842891524
 31
0.0
  0
LINE
  5
3FB
  8
1
  6
CONTINUOUS
 62
     7
 10
-305.1526075309508
 20
184.0814974011401
 30
0.0
 11
-305.2116003653535
 21
184.0340659445151
 31
0.0
  0
ARC
  5
3FC
  8
1
  6
CONTINUOUS
 62
     7
 10
-305.3995815087628
 20
184.2678673339945
 30
0.0
 40
0.3000000000000129
 50
218.799999999999
 51
308.8000000000025
  0
LINE
  5
3FD
  8
1
  6
CONTINUOUS
 62
     7
 10
-305.6333828982422
 20
184.0798861905852
 30
0.0
 11
-305.6896076760602
 21
184.1498157108476
 31
0.0
  0
ARC
  5
3FE
  8
1
  6
CONTINUOUS
 62
     7
 10
-302.3
 20
212.8
 30
0.0
 40
23.0
 50
49.13127322482672
 51
52.00000000000006
  0
ARC
  5
3FF
  8
1
  6
CONTINUOUS
 62
     7
 10
-302.3
 20
212.8
 30
0.0
 40
23.00000000000002
 50
153.130662533273
 51
153.3576847309103
  0
ARC
  5
400
  8
1
  6
CONTINUOUS
 62
     7
 10
-302.3
 20
212.8
 30
0.0
 40
23.0
 50
153.3576847309103
 51
156.8686719043488
  0
ARC
  5
401
  8
1
  6
CONTINUOUS
 62
     7
 10
-302.3
 20
212.8
 30
0.0
 40
23.0
 50
165.6313280956512
 51
169.36883468702
  0
ARC
  5
402
  8
1
  6
CONTINUOUS
 62
     7
 10
-302.3
 20
212.8
 30
0.0
 40
23.0
 50
178.1313280956512
 51
181.8686719043488
  0
ARC
  5
403
  8
1
  6
CONTINUOUS
 62
     7
 10
-302.3
 20
212.8
 30
0.0
 40
23.0
 50
190.6313280956512
 51
194.3686719043486
  0
ARC
  5
404
  8
1
  6
CONTINUOUS
 62
     7
 10
-302.3
 20
212.8
 30
0.0
 40
23.00000000000001
 50
203.1313280956512
 51
205.9999999999997
  0
ARC
  5
405
  8
1
  6
CONTINUOUS
 62
     7
 10
-302.3
 20
212.8
 30
0.0
 40
24.10000000000003
 50
190.7160476060682
 51
194.2834399938365
  0
ARC
  5
406
  8
1
  6
CONTINUOUS
 62
     7
 10
-302.3
 20
212.8
 30
0.0
 40
24.09999999999999
 50
178.2160019603617
 51
181.7836694438458
  0
ARC
  5
407
  8
1
  6
CONTINUOUS
 62
     7
 10
-302.3
 20
212.8
 30
0.0
 40
24.10000000000002
 50
153.2163375214949
 51
156.7839994830489
  0
ARC
  5
408
  8
1
  6
CONTINUOUS
 62
     7
 10
-302.3
 20
212.8
 30
0.0
 40
23.0
 50
36.13127322482683
 51
38.99999999999999
  0
ARC
  5
409
  8
1
  6
CONTINUOUS
 62
     7
 10
-302.3
 20
212.8
 30
0.0
 40
22.99999999999999
 50
333.130662533273
 51
333.3576847309103
  0
ARC
  5
40A
  8
1
  6
CONTINUOUS
 62
     7
 10
-302.3
 20
212.8
 30
0.0
 40
23.0
 50
333.3576847309103
 51
336.8686719043487
  0
ARC
  5
40B
  8
1
  6
CONTINUOUS
 62
     7
 10
-302.3
 20
212.8
 30
0.0
 40
22.99999999999998
 50
345.6388871202922
 51
349.3686719043488
  0
ARC
  5
40C
  8
1
  6
CONTINUOUS
 62
     7
 10
-302.3
 20
212.8
 30
0.0
 40
22.99999999999999
 50
358.1353498689783
 51
1.868671904348673
  0
ARC
  5
40D
  8
1
  6
CONTINUOUS
 62
     7
 10
-302.3
 20
212.8
 30
0.0
 40
23.00000000000002
 50
10.67264064955856
 51
14.36867190434861
  0
ARC
  5
40E
  8
1
  6
CONTINUOUS
 62
     7
 10
-302.3
 20
212.8
 30
0.0
 40
23.00000000000001
 50
23.13132809565125
 51
25.99999999999995
  0
ARC
  5
40F
  8
1
  6
CONTINUOUS
 62
     7
 10
-302.3
 20
212.8
 30
0.0
 40
24.1
 50
333.2163375214948
 51
336.783999483049
  0
ARC
  5
410
  8
1
  6
CONTINUOUS
 62
     7
 10
-302.3
 20
212.8
 30
0.0
 40
22.99999999999999
 50
206.0
 51
206.8693180088257
  0
ARC
  5
411
  8
1
  6
CONTINUOUS
 62
     7
 10
-302.3
 20
212.8
 30
0.0
 40
22.99999999999996
 50
26.00000000000002
 51
26.86931800882578
  0
ARC
  5
412
  8
1
  6
CONTINUOUS
 62
     7
 10
-302.3
 20
212.8
 30
0.0
 40
22.99999999999999
 50
39.00000000000004
 51
39.86931800882576
  0
ARC
  5
413
  8
1
  6
CONTINUOUS
 62
     7
 10
-302.3
 20
212.8
 30
0.0
 40
22.99999999999998
 50
52.00000000000001
 51
52.86931800882576
  0
ARC
  5
414
  8
1
  6
CONTINUOUS
 62
     7
 10
-302.3
 20
212.8
 30
0.0
 40
30.35
 50
91.88817632956551
 51
93.3055439273172
  0
LINE
  5
415
  8
1
  6
CONTINUOUS
 62
     7
 10
-300.55
 20
184.0031251695605
 30
0.0
 11
-300.55
 21
182.5004950535491
 31
0.0
  0
ARC
  5
416
  8
1
  6
CONTINUOUS
 62
     7
 10
-302.3
 20
212.8
 30
0.0
 40
30.35000000000002
 50
271.8885604725302
 51
273.3055439273172
  0
LINE
  5
417
  8
1
  6
CONTINUOUS
 62
     7
 10
-304.05
 20
241.5968748304395
 30
0.0
 11
-304.05
 21
243.0995049464508
 31
0.0
  0
CIRCLE
  5
418
  8
1
  6
CONTINUOUS
 62
     7
 10
-302.3
 20
212.8
 30
0.0
 40
18.00000000000001
  0
LINE
  5
419
  8
1
  6
CONTINUOUS
 62
     7
 10
-274.6050699584423
 20
204.7181818181818
 30
0.0
 11
-274.2926932389802
 21
204.7181818181818
 31
0.0
  0
LINE
  5
41A
  8
1
  6
CONTINUOUS
 62
     7
 10
-329.9949300415578
 20
220.8818181818182
 30
0.0
 11
-330.3073067610198
 21
220.8818181818182
 31
0.0
  0
ENDBLK
  8
0
  0
ENDSEC
  0
SECTION
  2
ENTITIES
  0
TEXT
  5
70
  8
1
  6
CONTINUOUS
 62
     7
 10
-178.0180005001876
 20
152.4863636363636
 30
0.0
 40
3.0
  1
ＭＦＳＫ－３６ＢＧ
  0
INSERT
  5
24F
  8
1
  6
CONTINUOUS
 62
     7
  2
D_FRAME_VIEW_4843
 10
0.0
 20
0.0
 30
0.0
  0
LINE
  5
250
  8
1
  6
CENTER
 62
     1
 10
-152.3
 20
212.8
 30
0.0
 11
-252.3
 21
212.8
 31
0.0
  0
LINE
  5
252
  8
1
  6
CENTER
 62
     1
 10
-302.3
 20
177.8
 30
0.0
 11
-302.3
 21
247.8
 31
0.0
  0
LINE
  5
253
  8
1
  6
CENTER
 62
     1
 10
-337.3
 20
212.8
 30
0.0
 11
-267.3
 21
212.8
 31
0.0
  0
INSERT
  5
41B
  8
1
  6
CONTINUOUS
 62
     7
  2
D_FRAME_VIEW_7156
 10
0.0
 20
0.0
 30
0.0
  0
ENDSEC
  0
EOF
