  0
SECTION
  2
HEADER
  9
$ACADVER
  1
AC1006
  9
$DWGCODEPAGE
  3
ansi_932
  9
$INSBASE
 10
0.0
 20
0.0
 30
0.0
  9
$EXTMIN
 10
76.0
 20
59.32919219707388
  9
$EXTMAX
 10
339.9999999999998
 20
164.6010889999999
  9
$LIMMIN
 10
0.0
 20
0.0
  9
$LIMMAX
 10
12.0
 20
9.0
  9
$ORTHOMODE
 70
     0
  9
$REGENMODE
 70
     1
  9
$FILLMODE
 70
     1
  9
$QTEXTMODE
 70
     0
  9
$MIRRTEXT
 70
     1
  9
$DRAGMODE
 70
     2
  9
$LTSCALE
 40
1.0
  9
$OSMODE
 70
    37
  9
$ATTMODE
 70
     1
  9
$TEXTSIZE
 40
0.2
  9
$TRACEWID
 40
0.05
  9
$TEXTSTYLE
  7
STANDARD
  9
$CLAYER
  8
0
  9
$CELTYPE
  6
BYLAYER
  9
$CECOLOR
 62
   256
  9
$DIMSCALE
 40
1.0
  9
$DIMASZ
 40
0.9
  9
$DIMEXO
 40
0.0625
  9
$DIMDLI
 40
0.38
  9
$DIMRND
 40
0.0
  9
$DIMDLE
 40
0.0
  9
$DIMEXE
 40
0.45
  9
$DIMTP
 40
0.0
  9
$DIMTM
 40
0.0
  9
$DIMTXT
 40
3.0
  9
$DIMCEN
 40
0.09
  9
$DIMTSZ
 40
0.0
  9
$DIMTOL
 70
     0
  9
$DIMLIM
 70
     0
  9
$DIMTIH
 70
     1
  9
$DIMTOH
 70
     1
  9
$DIMSE1
 70
     0
  9
$DIMSE2
 70
     0
  9
$DIMTAD
 70
     1
  9
$DIMZIN
 70
     0
  9
$DIMBLK
  1

  9
$DIMASO
 70
     1
  9
$DIMSHO
 70
     1
  9
$DIMPOST
  1

  9
$DIMAPOST
  1

  9
$DIMALT
 70
     0
  9
$DIMALTD
 70
     2
  9
$DIMALTF
 40
25.4
  9
$DIMLFAC
 40
1.0
  9
$DIMTOFL
 70
     0
  9
$DIMTVP
 40
0.0
  9
$DIMTIX
 70
     0
  9
$DIMSOXD
 70
     0
  9
$DIMSAH
 70
     0
  9
$DIMBLK1
  1

  9
$DIMBLK2
  1

  9
$LUNITS
 70
     2
  9
$LUPREC
 70
     4
  9
$SKETCHINC
 40
0.1
  9
$FILLETRAD
 40
0.5
  9
$AUNITS
 70
     0
  9
$AUPREC
 70
     0
  9
$MENU
  1
.
  9
$ELEVATION
 40
0.0
  9
$THICKNESS
 40
0.0
  9
$LIMCHECK
 70
     0
  9
$CHAMFERA
 40
0.0
  9
$CHAMFERB
 40
0.0
  9
$SKPOLY
 70
     0
  9
$TDCREATE
 40
2460742.404793519
  9
$TDUPDATE
 40
2460742.404793773
  9
$TDINDWG
 40
0.0000000116
  9
$TDUSRTIMER
 40
0.0000000116
  9
$USRTIMER
 70
     1
  9
$ANGBASE
 50
0.0
  9
$ANGDIR
 70
     0
  9
$PDMODE
 70
     0
  9
$PDSIZE
 40
0.0
  9
$PLINEWID
 40
0.0
  9
$COORDS
 70
     1
  9
$SPLFRAME
 70
     0
  9
$SPLINETYPE
 70
     6
  9
$SPLINESEGS
 70
     8
  9
$ATTDIA
 70
     0
  9
$ATTREQ
 70
     1
  9
$HANDLING
 70
     1
  9
$HANDSEED
  5
200
  9
$SURFTAB1
 70
     6
  9
$SURFTAB2
 70
     6
  9
$SURFTYPE
 70
     6
  9
$SURFU
 70
     6
  9
$SURFV
 70
     6
  9
$UCSNAME
  2

  9
$UCSORG
 10
0.0
 20
0.0
 30
0.0
  9
$UCSXDIR
 10
1.0
 20
0.0
 30
0.0
  9
$UCSYDIR
 10
0.0
 20
1.0
 30
0.0
  9
$USERI1
 70
     0
  9
$USERI2
 70
     0
  9
$USERI3
 70
     0
  9
$USERI4
 70
     0
  9
$USERI5
 70
     0
  9
$USERR1
 40
0.0
  9
$USERR2
 40
0.0
  9
$USERR3
 40
0.0
  9
$USERR4
 40
0.0
  9
$USERR5
 40
0.0
  9
$WORLDVIEW
 70
     1
  0
ENDSEC
  0
SECTION
  2
TABLES
  0
TABLE
  2
VPORT
 70
     1
  0
VPORT
  2
*ACTIVE
 70
     0
 10
0.0
 20
0.0
 11
1.0
 21
1.0
 12
207.9999999999999
 22
111.9651405985369
 13
0.0
 23
0.0
 14
0.5
 24
0.5
 15
0.5
 25
0.5
 16
0.0
 26
0.0
 36
1.0
 17
0.0
 27
0.0
 37
0.0
 40
105.2718968029261
 41
1.6
 42
50.0
 43
0.0
 44
0.0
 50
0.0
 51
0.0
 71
     0
 72
   100
 73
     1
 74
     3
 75
     0
 76
     0
 77
     0
 78
     0
  0
ENDTAB
  0
TABLE
  2
LTYPE
 70
     2
  0
LTYPE
  2
CONTINUOUS
 70
     0
  3
Solid line
 72
    65
 73
     0
 40
0.0
  0
LTYPE
  2
CENTER
 70
     0
  3

 72
    65
 73
     0
 40
0.0
  0
ENDTAB
  0
TABLE
  2
LAYER
 70
     2
  0
LAYER
  2
0
 70
     0
 62
     7
  6
CONTINUOUS
  0
LAYER
  2
1
 70
     0
 62
     7
  6
CONTINUOUS
  0
ENDTAB
  0
TABLE
  2
STYLE
 70
     2
  0
STYLE
  2
STANDARD
 70
     0
 40
0.0
 41
1.0
 50
0.0
 71
     0
 42
0.2
  3
txt
  4

  0
STYLE
  2
ＭＳ_ゴシック
 70
     0
 40
0.0
 41
1.0
 50
0.0
 71
     0
 42
0.2
  3
ＭＳ ゴシック.shx
  4

  0
ENDTAB
  0
TABLE
  2
VIEW
 70
     0
  0
ENDTAB
  0
TABLE
  2
UCS
 70
     0
  0
ENDTAB
  0
ENDSEC
  0
SECTION
  2
BLOCKS
  0
ENDSEC
  0
SECTION
  2
ENTITIES
  0
LINE
  5
70
  8
0
  6
CENTER
 62
     1
 10
189.9999999999999
 20
118.101089
 30
0.0
 11
339.9999999999998
 21
118.101089
 31
0.0
  0
LINE
  5
72
  8
0
  6
CENTER
 62
     1
 10
127.5
 20
71.601089
 30
0.0
 11
127.5
 21
164.6010889999999
 31
0.0
  0
LINE
  5
73
  8
0
  6
CENTER
 62
     1
 10
76.0
 20
118.101089
 30
0.0
 11
179.0000000000001
 21
118.101089
 31
0.0
  0
LINE
  5
74
  8
1
  6
CONTINUOUS
 62
     7
 10
116.684919
 20
88.995479
 30
0.0
 11
114.991542
 21
84.077554
 31
0.0
  0
ARC
  5
75
  8
1
  6
CONTINUOUS
 62
     7
 10
127.5
 20
118.101089
 30
0.0
 40
35.6
 50
343.266449
 51
345.540497
  0
ARC
  5
76
  8
1
  6
CONTINUOUS
 62
     7
 10
127.5
 20
118.101089
 30
0.0
 40
35.6
 50
14.459503
 51
16.733551
  0
LINE
  5
77
  8
1
  6
CONTINUOUS
 62
     7
 10
95.93672
 20
108.469923
 30
0.0
 11
92.806725
 21
107.592086
 31
0.0
  0
LINE
  5
78
  8
1
  6
CONTINUOUS
 62
     7
 10
105.778057
 20
89.080068
 30
0.0
 11
108.980297
 21
93.178748
 31
0.0
  0
ARC
  5
79
  8
1
  6
CONTINUOUS
 62
     7
 10
127.5
 20
118.101089
 30
0.0
 40
35.6
 50
163.266449
 51
165.540497
  0
ARC
  5
7A
  8
1
  6
CONTINUOUS
 62
     7
 10
127.5
 20
118.101089
 30
0.0
 40
36.0
 50
325.806252
 51
328.193748
  0
LINE
  5
7B
  8
1
  6
CONTINUOUS
 62
     7
 10
112.02943
 20
91.179648
 30
0.0
 11
109.547585
 21
86.608657
 31
0.0
  0
ARC
  5
7C
  8
1
  6
CONTINUOUS
 62
     7
 10
127.5
 20
118.101089
 30
0.0
 40
36.0
 50
126.806252
 51
129.193748
  0
LINE
  5
7D
  8
1
  6
CONTINUOUS
 62
     7
 10
97.513179
 20
97.733147
 30
0.0
 11
101.875356
 21
100.565978
 31
0.0
  0
ARC
  5
7E
  8
1
  6
CONTINUOUS
 62
     7
 10
127.5
 20
118.101089
 30
0.0
 40
36.0
 50
306.806252
 51
309.193748
  0
LINE
  5
7F
  8
1
  6
CONTINUOUS
 62
     7
 10
107.798281
 20
94.10224
 30
0.0
 11
104.596041
 21
90.00356
 31
0.0
  0
LINE
  5
80
  8
1
  6
CONTINUOUS
 62
     7
 10
104.107525
 20
138.519087
 30
0.0
 11
100.272725
 21
142.033034
 31
0.0
  0
ARC
  5
81
  8
1
  6
CONTINUOUS
 62
     7
 10
127.5
 20
118.101089
 30
0.0
 40
35.6
 50
178.792837
 51
181.207163
  0
LINE
  5
82
  8
1
  6
CONTINUOUS
 62
     7
 10
122.258019
 20
153.970075
 30
0.0
 11
123.116481
 21
148.840108
 31
0.0
  0
LINE
  5
83
  8
1
  6
CONTINUOUS
 62
     7
 10
107.798281
 20
142.099938
 30
0.0
 11
104.596041
 21
146.198618
 31
0.0
  0
LINE
  5
84
  8
1
  6
CONTINUOUS
 62
     7
 10
116.684919
 20
147.206699
 30
0.0
 11
114.991542
 21
152.124625
 31
0.0
  0
LINE
  5
85
  8
1
  6
CONTINUOUS
 62
     7
 10
125.0
 20
77.227473
 30
0.0
 11
125.0
 21
78.765323
 31
0.0
  0
ARC
  5
86
  8
1
  6
CONTINUOUS
 62
     7
 10
127.5
 20
118.101089
 30
0.0
 40
36.0
 50
230.806252
 51
233.1937480000001
  0
LINE
  5
87
  8
1
  6
CONTINUOUS
 62
     7
 10
91.257759
 20
118.851089
 30
0.0
 11
94.508524
 21
118.851089
 31
0.0
  0
ARC
  5
88
  8
1
  6
CONTINUOUS
 62
     7
 10
127.5
 20
118.101089
 30
0.0
 40
36.0
 50
145.806252
 51
148.193748
  0
POINT
  5
89
  8
0
 62
     1
 10
205.245545
 20
118.101089
 30
0.0
  0
TEXT
  5
8A
  8
1
  6
CONTINUOUS
 62
     7
 10
177.8386722440916
 20
58.53111166687506
 30
0.0
 40
7.0
  1
MFSK-54GFP
 41
1.409504
  0
ARC
  5
8B
  8
1
  6
CONTINUOUS
 62
     7
 10
127.5
 20
118.101089
 30
0.0
 40
32.5
 50
278.177185
 51
280.822815
  0
ARC
  5
8C
  8
1
  6
CONTINUOUS
 62
     7
 10
127.5
 20
118.101089
 30
0.0
 40
32.5
 50
69.677185
 51
72.322815
  0
ARC
  5
8D
  8
1
  6
CONTINUOUS
 62
     7
 10
127.5
 20
118.101089
 30
0.0
 40
36.0
 50
117.306252
 51
119.693748
  0
LINE
  5
8E
  8
1
  6
CONTINUOUS
 62
     7
 10
92.401664
 20
109.036359
 30
0.0
 11
95.53166
 21
109.914197
 31
0.0
  0
LINE
  5
8F
  8
1
  6
CONTINUOUS
 62
     7
 10
101.28611
 20
143.13895
 30
0.0
 11
105.120911
 21
139.625003
 31
0.0
  0
LINE
  5
90
  8
1
  6
CONTINUOUS
 62
     7
 10
101.058397
 20
134.378194
 30
0.0
 11
96.69622
 21
137.211025
 31
0.0
  0
LINE
  5
91
  8
1
  6
CONTINUOUS
 62
     7
 10
105.778057
 20
147.12211
 30
0.0
 11
108.980297
 21
143.02343
 31
0.0
  0
LINE
  5
92
  8
1
  6
CONTINUOUS
 62
     7
 10
132.741981
 20
82.232103
 30
0.0
 11
131.883519
 21
87.36207
 31
0.0
  0
LINE
  5
93
  8
1
  6
CONTINUOUS
 62
     7
 10
128.25
 20
87.060148
 30
0.0
 11
128.25
 21
81.858849
 31
0.0
  0
LINE
  5
94
  8
1
  6
CONTINUOUS
 62
     7
 10
110.86581
 20
150.309259
 30
0.0
 11
113.347656
 21
145.738268
 31
0.0
  0
ARC
  5
95
  8
1
  6
CONTINUOUS
 62
     7
 10
127.5
 20
118.101089
 30
0.0
 40
36.0
 50
211.806252
 51
214.193748
  0
ARC
  5
96
  8
1
  6
CONTINUOUS
 62
     7
 10
127.5
 20
118.101089
 30
0.0
 40
36.0
 50
287.8062519999999
 51
290.193748
  0
ARC
  5
97
  8
1
  6
CONTINUOUS
 62
     7
 10
127.5
 20
118.101089
 30
0.0
 40
36.0
 50
136.306252
 51
138.693748
  0
LINE
  5
98
  8
1
  6
CONTINUOUS
 62
     7
 10
96.945773
 20
130.568614
 30
0.0
 11
93.964626
 21
131.864854
 31
0.0
  0
LINE
  5
99
  8
1
  6
CONTINUOUS
 62
     7
 10
91.698165
 20
123.783616
 30
0.0
 11
94.918596
 21
123.340563
 31
0.0
  0
ARC
  5
9A
  8
1
  6
CONTINUOUS
 62
     7
 10
127.5
 20
118.101089
 30
0.0
 40
36.0
 50
155.306252
 51
157.693748
  0
ARC
  5
9B
  8
1
  6
CONTINUOUS
 62
     7
 10
127.5
 20
118.101089
 30
0.0
 40
36.0
 50
316.306252
 51
318.693748
  0
ARC
  5
9C
  8
1
  6
CONTINUOUS
 62
     7
 10
127.5
 20
118.101089
 30
0.0
 40
35.6
 50
350.959503
 51
353.37383
  0
CIRCLE
  5
9D
  8
1
  6
CONTINUOUS
 62
     7
 10
127.5
 20
118.101089
 30
0.0
 40
25.5
  0
ARC
  5
9E
  8
1
  6
CONTINUOUS
 62
     7
 10
127.5
 20
118.101089
 30
0.0
 40
36.0
 50
335.306252
 51
337.693748
  0
ARC
  5
9F
  8
1
  6
CONTINUOUS
 62
     7
 10
127.5
 20
118.101089
 30
0.0
 40
32.5
 50
155.177395
 51
204.822815
  0
LINE
  5
A0
  8
1
  6
CONTINUOUS
 62
     7
 10
230.245545
 20
77.151089
 30
0.0
 11
230.245545
 21
159.051089
 31
0.0
  0
ARC
  5
A1
  8
1
  6
CONTINUOUS
 62
     7
 10
127.5
 20
118.101089
 30
0.0
 40
35.6
 50
6.62617
 51
9.040497
  0
LINE
  5
A2
  8
1
  6
CONTINUOUS
 62
     7
 10
94.56275
 20
133.240444
 30
0.0
 11
99.332654
 21
131.16643
 31
0.0
  0
LINE
  5
A3
  8
1
  6
CONTINUOUS
 62
     7
 10
311.538472
 20
83.601089
 30
0.0
 11
311.538472
 21
152.601089
 31
0.0
  0
CIRCLE
  5
A4
  8
1
  6
CONTINUOUS
 62
     7
 10
127.5
 20
118.101089
 30
0.0
 40
38.95
  0
ARC
  5
A5
  8
1
  6
CONTINUOUS
 62
     7
 10
127.5
 20
118.101089
 30
0.0
 40
36.0
 50
278.306252
 51
280.693748
  0
ARC
  5
A6
  8
1
  6
CONTINUOUS
 62
     7
 10
127.5
 20
118.101089
 30
0.0
 40
36.0
 50
249.806252
 51
252.193748
  0
ARC
  5
A7
  8
1
  6
CONTINUOUS
 62
     7
 10
127.5
 20
118.101089
 30
0.0
 40
32.5
 50
126.677185
 51
129.322815
  0
LINE
  5
A8
  8
1
  6
CONTINUOUS
 62
     7
 10
101.28611
 20
93.063228
 30
0.0
 11
105.120911
 21
96.577175
 31
0.0
  0
LINE
  5
A9
  8
1
  6
CONTINUOUS
 62
     7
 10
101.058397
 20
101.823984
 30
0.0
 11
96.69622
 21
98.991153
 31
0.0
  0
LINE
  5
AA
  8
1
  6
CONTINUOUS
 62
     7
 10
97.513179
 20
138.469031
 30
0.0
 11
101.875356
 21
135.6362
 31
0.0
  0
LINE
  5
AB
  8
1
  6
CONTINUOUS
 62
     7
 10
95.53166
 20
126.287981
 30
0.0
 11
92.401664
 21
127.165819
 31
0.0
  0
LINE
  5
AC
  8
1
  6
CONTINUOUS
 62
     7
 10
116.40982
 20
152.612977
 30
0.0
 11
118.103197
 21
147.695051
 31
0.0
  0
LINE
  5
AD
  8
1
  6
CONTINUOUS
 62
     7
 10
159.46834
 20
126.287981
 30
0.0
 11
162.598336
 21
127.165819
 31
0.0
  0
ARC
  5
AE
  8
1
  6
CONTINUOUS
 62
     7
 10
127.5
 20
118.101089
 30
0.0
 40
35.6
 50
170.959503
 51
173.37383
  0
LINE
  5
AF
  8
1
  6
CONTINUOUS
 62
     7
 10
160.285842
 20
121.85456
 30
0.0
 11
163.506273
 21
122.297613
 31
0.0
  0
ARC
  5
B0
  8
1
  6
CONTINUOUS
 62
     7
 10
127.5
 20
118.101089
 30
0.0
 40
32.5
 50
259.177185
 51
261.8228149999999
  0
ARC
  5
B1
  8
1
  6
CONTINUOUS
 62
     7
 10
127.5
 20
118.101089
 30
0.0
 40
36.0
 50
202.306252
 51
204.693748
  0
LINE
  5
B2
  8
1
  6
CONTINUOUS
 62
     7
 10
110.86581
 20
85.892919
 30
0.0
 11
113.347656
 21
90.46391
 31
0.0
  0
LINE
  5
B3
  8
1
  6
CONTINUOUS
 62
     7
 10
160.081404
 20
112.861615
 30
0.0
 11
163.301835
 21
112.418562
 31
0.0
  0
ARC
  5
B4
  8
1
  6
CONTINUOUS
 62
     7
 10
127.5
 20
118.101089
 30
0.0
 40
36.0
 50
221.306252
 51
223.693748
  0
ARC
  5
B5
  8
1
  6
CONTINUOUS
 62
     7
 10
127.5
 20
118.101089
 30
0.0
 40
36.0
 50
22.306252
 51
24.693748
  0
ARC
  5
B6
  8
1
  6
CONTINUOUS
 62
     7
 10
127.5
 20
118.101089
 30
0.0
 40
36.0
 50
240.3062520000001
 51
242.693748
  0
ARC
  5
B7
  8
1
  6
CONTINUOUS
 62
     7
 10
127.5
 20
118.101089
 30
0.0
 40
36.0
 50
268.806252
 51
271.193748
  0
ARC
  5
B8
  8
1
  6
CONTINUOUS
 62
     7
 10
127.5
 20
118.101089
 30
0.0
 40
35.6
 50
186.62617
 51
189.040497
  0
LINE
  5
B9
  8
1
  6
CONTINUOUS
 62
     7
 10
129.25
 20
77.188499
 30
0.0
 11
129.25
 21
79.190422
 31
0.0
  0
ARC
  5
BA
  8
1
  6
CONTINUOUS
 62
     7
 10
127.5
 20
118.101089
 30
0.0
 40
32.5
 50
31.677185
 51
34.32281499999999
  0
ARC
  5
BB
  8
1
  6
CONTINUOUS
 62
     7
 10
127.5
 20
118.101089
 30
0.0
 40
40.95
 50
86.49991299999999
 51
92.449283
  0
LINE
  5
BC
  8
1
  6
CONTINUOUS
 62
     7
 10
112.02943
 20
145.02253
 30
0.0
 11
109.547585
 21
149.593521
 31
0.0
  0
ARC
  5
BD
  8
1
  6
CONTINUOUS
 62
     7
 10
127.5
 20
118.101089
 30
0.0
 40
32.5
 50
249.677185
 51
252.322815
  0
LINE
  5
BE
  8
1
  6
CONTINUOUS
 62
     7
 10
121.637053
 20
148.592536
 30
0.0
 11
120.778591
 21
153.722503
 31
0.0
  0
LINE
  5
BF
  8
1
  6
CONTINUOUS
 62
     7
 10
104.107525
 20
97.683092
 30
0.0
 11
100.272725
 21
94.169144
 31
0.0
  0
LINE
  5
C0
  8
1
  6
CONTINUOUS
 62
     7
 10
94.56275
 20
102.961734
 30
0.0
 11
99.332654
 21
105.035748
 31
0.0
  0
LINE
  5
C1
  8
1
  6
CONTINUOUS
 62
     7
 10
125.75
 20
157.011756
 30
0.0
 11
125.75
 21
159.013679
 31
0.0
  0
ARC
  5
C2
  8
1
  6
CONTINUOUS
 62
     7
 10
127.5
 20
118.101089
 30
0.0
 40
36.0
 50
297.306252
 51
299.693748
  0
ARC
  5
C3
  8
1
  6
CONTINUOUS
 62
     7
 10
127.5
 20
118.101089
 30
0.0
 40
36.0
 50
107.806252
 51
110.193748
  0
ARC
  5
C4
  8
1
  6
CONTINUOUS
 62
     7
 10
127.5
 20
118.101089
 30
0.0
 40
35.6
 50
358.792837
 51
1.20716299999998
  0
LINE
  5
C5
  8
1
  6
CONTINUOUS
 62
     7
 10
91.493727
 20
113.904565
 30
0.0
 11
94.714158
 21
114.347618
 31
0.0
  0
LINE
  5
C6
  8
1
  6
CONTINUOUS
 62
     7
 10
228.245545
 20
157.436855
 30
0.0
 11
228.245545
 21
78.679617
 31
0.0
  0
LINE
  5
C7
  8
1
  6
CONTINUOUS
 62
     7
 10
92.806725
 20
128.610092
 30
0.0
 11
95.93672
 21
127.732255
 31
0.0
  0
LINE
  5
C8
  8
1
  6
CONTINUOUS
 62
     7
 10
317.645545
 20
78.601089
 30
0.0
 11
317.645545
 21
157.601089
 31
0.0
  0
ARC
  5
C9
  8
1
  6
CONTINUOUS
 62
     7
 10
127.5
 20
118.101089
 30
0.0
 40
35.6
 50
194.459503
 51
196.733551
  0
ARC
  5
CA
  8
1
  6
CONTINUOUS
 62
     7
 10
127.5
 20
118.101089
 30
0.0
 40
36.0
 50
259.306252
 51
261.693748
  0
LINE
  5
CB
  8
1
  6
CONTINUOUS
 62
     7
 10
230.645545
 20
159.051089
 30
0.0
 11
230.645545
 21
77.151089
 31
0.0
  0
LINE
  5
CC
  8
1
  6
CONTINUOUS
 62
     7
 10
325.645545
 20
157.601089
 30
0.0
 11
314.412872
 21
157.601089
 31
0.0
  0
LINE
  5
CD
  8
1
  6
CONTINUOUS
 62
     7
 10
104.117314
 20
156.601089
 30
0.0
 11
82.466679
 21
119.101089
 31
0.0
  0
LINE
  5
CE
  8
1
  6
CONTINUOUS
 62
     7
 10
314.412872
 20
78.601089
 30
0.0
 11
325.645545
 21
78.601089
 31
0.0
  0
LINE
  5
CF
  8
1
  6
CONTINUOUS
 62
     7
 10
326.845545
 20
87.101089
 30
0.0
 11
326.845545
 21
149.101089
 31
0.0
  0
ARC
  5
D0
  8
1
  6
CONTINUOUS
 62
     7
 10
127.5
 20
118.101089
 30
0.0
 40
32.5
 50
60.17718499999999
 51
62.822815
  0
LINE
  5
D1
  8
1
  6
CONTINUOUS
 62
     7
 10
158.054227
 20
130.568614
 30
0.0
 11
161.035374
 21
131.864854
 31
0.0
  0
ARC
  5
D2
  8
1
  6
CONTINUOUS
 62
     7
 10
127.5
 20
118.101089
 30
0.0
 40
32.5
 50
287.677185
 51
290.322815
  0
LINE
  5
D3
  8
1
  6
CONTINUOUS
 62
     7
 10
313.446946
 20
79.34227
 30
0.0
 11
313.446946
 21
156.859908
 31
0.0
  0
ARC
  5
D4
  8
1
  6
CONTINUOUS
 62
     7
 10
127.5
 20
118.101089
 30
0.0
 40
32.5
 50
221.177185
 51
223.822815
  0
ARC
  5
D5
  8
1
  6
CONTINUOUS
 62
     7
 10
127.5
 20
118.101089
 30
0.0
 40
32.5
 50
240.177185
 51
242.822815
  0
ARC
  5
D6
  8
1
  6
CONTINUOUS
 62
     7
 10
127.5
 20
118.101089
 30
0.0
 40
32.5
 50
211.677185
 51
214.322815
  0
ARC
  5
D7
  8
1
  6
CONTINUOUS
 62
     7
 10
127.5
 20
118.101089
 30
0.0
 40
32.5
 50
136.177185
 51
138.822815
  0
ARC
  5
D8
  8
1
  6
CONTINUOUS
 62
     7
 10
127.5
 20
118.101089
 30
0.0
 40
32.5
 50
316.177185
 51
318.822815
  0
ARC
  5
D9
  8
1
  6
CONTINUOUS
 62
     7
 10
127.5
 20
118.101089
 30
0.0
 40
32.5
 50
117.177185
 51
119.822815
  0
CIRCLE
  5
DA
  8
1
  6
CONTINUOUS
 62
     7
 10
127.5
 20
118.101089
 30
0.0
 40
24.4
  0
ARC
  5
DB
  8
1
  6
CONTINUOUS
 62
     7
 10
127.5
 20
118.101089
 30
0.0
 40
32.5
 50
145.677185
 51
148.322815
  0
ARC
  5
DC
  8
1
  6
CONTINUOUS
 62
     7
 10
127.5
 20
118.101089
 30
0.0
 40
32.5
 50
50.677185
 51
53.322815
  0
ARC
  5
DD
  8
1
  6
CONTINUOUS
 62
     7
 10
321.845545
 20
118.101089
 30
0.0
 40
5.0
 50
319.464198
 51
40.53580199999999
  0
LINE
  5
DE
  8
1
  6
CONTINUOUS
 62
     7
 10
225.245545
 20
117.101089
 30
0.0
 11
230.245545
 21
117.101089
 31
0.0
  0
LINE
  5
DF
  8
1
  6
CONTINUOUS
 62
     7
 10
325.645545
 20
78.601089
 30
0.0
 11
325.645545
 21
157.601089
 31
0.0
  0
ARC
  5
E0
  8
1
  6
CONTINUOUS
 62
     7
 10
127.5
 20
118.101089
 30
0.0
 40
40.95
 50
266.499913
 51
272.449283
  0
ARC
  5
E1
  8
1
  6
CONTINUOUS
 62
     7
 10
127.5
 20
118.101089
 30
0.0
 40
32.5
 50
230.677185
 51
233.322815
  0
ARC
  5
E2
  8
1
  6
CONTINUOUS
 62
     7
 10
127.5
 20
118.101089
 30
0.0
 40
32.5
 50
335.1773949999999
 51
24.82281499999999
  0
LINE
  5
E3
  8
1
  6
CONTINUOUS
 62
     7
 10
205.245545
 20
81.151089
 30
0.0
 11
205.245545
 21
155.051089
 31
0.0
  0
ARC
  5
E4
  8
1
  6
CONTINUOUS
 62
     7
 10
127.5
 20
118.101089
 30
0.0
 40
32.5
 50
41.177185
 51
43.82281500000001
  0
ARC
  5
E5
  8
1
  6
CONTINUOUS
 62
     7
 10
127.5
 20
118.101089
 30
0.0
 40
32.5
 50
98.17718500000001
 51
100.822815
  0
ARC
  5
E6
  8
1
  6
CONTINUOUS
 62
     7
 10
127.5
 20
118.101089
 30
0.0
 40
32.5
 50
79.177185
 51
81.822815
  0
ARC
  5
E7
  8
1
  6
CONTINUOUS
 62
     7
 10
127.5
 20
118.101089
 30
0.0
 40
32.5
 50
107.677185
 51
110.322815
  0
LINE
  5
E8
  8
1
  6
CONTINUOUS
 62
     7
 10
172.533321
 20
119.101089
 30
0.0
 11
150.882686
 21
156.601089
 31
0.0
  0
ARC
  5
E9
  8
1
  6
CONTINUOUS
 62
     7
 10
127.5
 20
118.101089
 30
0.0
 40
32.5
 50
268.677185
 51
271.322815
  0
ARC
  5
EA
  8
1
  6
CONTINUOUS
 62
     7
 10
127.5
 20
118.101089
 30
0.0
 40
32.5
 50
325.677185
 51
328.322815
  0
ARC
  5
EB
  8
1
  6
CONTINUOUS
 62
     7
 10
127.5
 20
118.101089
 30
0.0
 40
32.5
 50
297.177185
 51
299.822815
  0
ARC
  5
EC
  8
1
  6
CONTINUOUS
 62
     7
 10
127.5
 20
118.101089
 30
0.0
 40
32.5
 50
306.677185
 51
309.3228149999999
  0
LINE
  5
ED
  8
1
  6
CONTINUOUS
 62
     7
 10
320.145545
 20
157.601089
 30
0.0
 11
320.145545
 21
78.601089
 31
0.0
  0
ARC
  5
EE
  8
1
  6
CONTINUOUS
 62
     7
 10
127.5
 20
118.101089
 30
0.0
 40
39.5
 50
92.53925199999999
 51
266.370301
  0
ARC
  5
EF
  8
1
  6
CONTINUOUS
 62
     7
 10
127.5
 20
118.101089
 30
0.0
 40
39.5
 50
272.539252
 51
86.37030100000003
  0
LINE
  5
F0
  8
1
  6
CONTINUOUS
 62
     7
 10
82.466679
 20
117.101089
 30
0.0
 11
104.117314
 21
79.601089
 31
0.0
  0
LINE
  5
F1
  8
1
  6
CONTINUOUS
 62
     7
 10
126.75
 20
149.14203
 30
0.0
 11
126.75
 21
154.34333
 31
0.0
  0
LINE
  5
F2
  8
1
  6
CONTINUOUS
 62
     7
 10
149.221943
 20
89.080068
 30
0.0
 11
146.019703
 21
93.178748
 31
0.0
  0
LINE
  5
F3
  8
1
  6
CONTINUOUS
 62
     7
 10
128.5
 20
78.679617
 30
0.0
 11
128.5
 21
77.163301
 31
0.0
  0
LINE
  5
F4
  8
1
  6
CONTINUOUS
 62
     7
 10
163.742241
 20
118.851089
 30
0.0
 11
160.491476
 21
118.851089
 31
0.0
  0
LINE
  5
F5
  8
1
  6
CONTINUOUS
 62
     7
 10
138.59018
 20
152.612977
 30
0.0
 11
136.896803
 21
147.695051
 31
0.0
  0
LINE
  5
F6
  8
1
  6
CONTINUOUS
 62
     7
 10
144.13419
 20
85.892919
 30
0.0
 11
141.652344
 21
90.46391
 31
0.0
  0
LINE
  5
F7
  8
1
  6
CONTINUOUS
 62
     7
 10
160.43725
 20
102.961734
 30
0.0
 11
155.667346
 21
105.035748
 31
0.0
  0
LINE
  5
F8
  8
1
  6
CONTINUOUS
 62
     7
 10
138.59018
 20
83.589201
 30
0.0
 11
136.896803
 21
88.507127
 31
0.0
  0
LINE
  5
F9
  8
1
  6
CONTINUOUS
 62
     7
 10
147.201719
 20
94.10224
 30
0.0
 11
150.403959
 21
90.00356
 31
0.0
  0
LINE
  5
FA
  8
1
  6
CONTINUOUS
 62
     7
 10
149.221943
 20
147.12211
 30
0.0
 11
146.019703
 21
143.02343
 31
0.0
  0
LINE
  5
FB
  8
1
  6
CONTINUOUS
 62
     7
 10
160.43725
 20
133.240444
 30
0.0
 11
155.667346
 21
131.16643
 31
0.0
  0
LINE
  5
FC
  8
1
  6
CONTINUOUS
 62
     7
 10
161.035374
 20
104.337324
 30
0.0
 11
158.054227
 21
105.633564
 31
0.0
  0
LINE
  5
FD
  8
1
  6
CONTINUOUS
 62
     7
 10
126.5
 20
157.522562
 30
0.0
 11
126.5
 21
159.038877
 31
0.0
  0
LINE
  5
FE
  8
1
  6
CONTINUOUS
 62
     7
 10
162.598336
 20
109.036359
 30
0.0
 11
159.46834
 21
109.914197
 31
0.0
  0
LINE
  5
FF
  8
1
  6
CONTINUOUS
 62
     7
 10
150.892475
 20
138.519087
 30
0.0
 11
154.727275
 21
142.033034
 31
0.0
  0
LINE
  5
100
  8
1
  6
CONTINUOUS
 62
     7
 10
144.13419
 20
150.309259
 30
0.0
 11
141.652344
 21
145.738268
 31
0.0
  0
LINE
  5
101
  8
1
  6
CONTINUOUS
 62
     7
 10
157.486821
 20
138.469031
 30
0.0
 11
153.124644
 21
135.6362
 31
0.0
  0
LINE
  5
102
  8
1
  6
CONTINUOUS
 62
     7
 10
93.964626
 20
104.337324
 30
0.0
 11
96.945773
 21
105.633564
 31
0.0
  0
ARC
  5
103
  8
1
  6
CONTINUOUS
 62
     7
 10
84.19873
 20
118.101089
 30
0.0
 40
2.0
 50
150.0
 51
210.0
  0
ARC
  5
104
  8
1
  6
CONTINUOUS
 62
     7
 10
127.5
 20
118.101089
 30
0.0
 40
33.0
 50
353.468956
 51
358.697711
  0
ARC
  5
105
  8
1
  6
CONTINUOUS
 62
     7
 10
127.5
 20
118.101089
 30
0.0
 40
36.25
 50
126.814485
 51
129.185515
  0
ARC
  5
106
  8
1
  6
CONTINUOUS
 62
     7
 10
127.5
 20
118.101089
 30
0.0
 40
36.25
 50
221.314485
 51
223.685515
  0
ARC
  5
107
  8
1
  6
CONTINUOUS
 62
     7
 10
127.5
 20
118.101089
 30
0.0
 40
36.25
 50
240.314485
 51
242.685515
  0
ARC
  5
108
  8
1
  6
CONTINUOUS
 62
     7
 10
127.5
 20
118.101089
 30
0.0
 40
36.25
 50
155.314485
 51
157.685515
  0
ARC
  5
109
  8
1
  6
CONTINUOUS
 62
     7
 10
105.849365
 20
80.601089
 30
0.0
 40
2.0
 50
210.0
 51
270.0
  0
ARC
  5
10A
  8
1
  6
CONTINUOUS
 62
     7
 10
127.5
 20
118.101089
 30
0.0
 40
33.0
 50
9.135622
 51
14.364378
  0
ARC
  5
10B
  8
1
  6
CONTINUOUS
 62
     7
 10
127.5
 20
118.101089
 30
0.0
 40
36.25
 50
170.981152
 51
173.352181
  0
CIRCLE
  5
10C
  8
1
  6
CONTINUOUS
 62
     7
 10
127.5
 20
118.101089
 30
0.0
 40
22.80718
  0
ARC
  5
10D
  8
1
  6
CONTINUOUS
 62
     7
 10
127.5
 20
118.101089
 30
0.0
 40
33.0
 50
173.468956
 51
178.697711
  0
ARC
  5
10E
  8
1
  6
CONTINUOUS
 62
     7
 10
170.80127
 20
118.101089
 30
0.0
 40
2.0
 50
330.0
 51
30.0
  0
ARC
  5
10F
  8
1
  6
CONTINUOUS
 62
     7
 10
127.5
 20
118.101089
 30
0.0
 40
36.25
 50
22.314485
 51
24.68551499999999
  0
ARC
  5
110
  8
1
  6
CONTINUOUS
 62
     7
 10
124.499999
 20
78.765322
 30
0.0
 40
0.500001
 50
0.000136
 51
85.63856
  0
ARC
  5
111
  8
1
  6
CONTINUOUS
 62
     7
 10
127.5
 20
118.101089
 30
0.0
 40
36.25
 50
316.314485
 51
318.6855150000001
  0
ARC
  5
112
  8
1
  6
CONTINUOUS
 62
     7
 10
127.5
 20
118.101089
 30
0.0
 40
33.0
 50
196.968956
 51
202.197711
  0
ARC
  5
113
  8
1
  6
CONTINUOUS
 62
     7
 10
127.5
 20
118.101089
 30
0.0
 40
36.25
 50
202.314485
 51
204.685515
  0
ARC
  5
114
  8
1
  6
CONTINUOUS
 62
     7
 10
127.5
 20
118.101089
 30
0.0
 40
36.25
 50
6.647819
 51
9.018848
  0
ARC
  5
115
  8
1
  6
CONTINUOUS
 62
     7
 10
127.5
 20
118.101089
 30
0.0
 40
33.0
 50
1.302289
 51
6.531044
  0
ARC
  5
116
  8
1
  6
CONTINUOUS
 62
     7
 10
127.5
 20
118.101089
 30
0.0
 40
31.05
 50
309.384091
 51
316.115909
  0
ARC
  5
117
  8
1
  6
CONTINUOUS
 62
     7
 10
127.5
 20
118.101089
 30
0.0
 40
36.25
 50
14.481152
 51
16.852181
  0
ARC
  5
118
  8
1
  6
CONTINUOUS
 62
     7
 10
127.5
 20
118.101089
 30
0.0
 40
36.25
 50
230.814485
 51
233.185515
  0
ARC
  5
119
  8
1
  6
CONTINUOUS
 62
     7
 10
127.5
 20
118.101089
 30
0.0
 40
36.25
 50
278.314485
 51
280.685515
  0
ARC
  5
11A
  8
1
  6
CONTINUOUS
 62
     7
 10
127.5
 20
118.101089
 30
0.0
 40
36.25
 50
287.814485
 51
290.185515
  0
ARC
  5
11B
  8
1
  6
CONTINUOUS
 62
     7
 10
129.000002
 20
78.679615
 30
0.0
 40
0.500002
 50
92.17927
 51
179.999802
  0
CIRCLE
  5
11C
  8
1
  6
CONTINUOUS
 62
     7
 10
127.5
 20
118.101089
 30
0.0
 40
23.5
  0
ARC
  5
11D
  8
1
  6
CONTINUOUS
 62
     7
 10
127.5
 20
118.101089
 30
0.0
 40
33.0
 50
189.135622
 51
194.364378
  0
ARC
  5
11E
  8
1
  6
CONTINUOUS
 62
     7
 10
127.5
 20
118.101089
 30
0.0
 40
36.25
 50
60.31448499999998
 51
62.68551500000001
  0
ARC
  5
11F
  8
1
  6
CONTINUOUS
 62
     7
 10
127.5
 20
118.101089
 30
0.0
 40
33.0
 50
181.302289
 51
186.531044
  0
ARC
  5
120
  8
1
  6
CONTINUOUS
 62
     7
 10
127.5
 20
118.101089
 30
0.0
 40
36.25
 50
178.814485
 51
181.185515
  0
ARC
  5
121
  8
1
  6
CONTINUOUS
 62
     7
 10
127.5
 20
118.101089
 30
0.0
 40
36.25
 50
69.81448500000002
 51
72.18551500000001
  0
ARC
  5
122
  8
1
  6
CONTINUOUS
 62
     7
 10
127.5
 20
118.101089
 30
0.0
 40
36.25
 50
306.814485
 51
309.185515
  0
ARC
  5
123
  8
1
  6
CONTINUOUS
 62
     7
 10
127.5
 20
118.101089
 30
0.0
 40
36.25
 50
268.814485
 51
271.185515
  0
ARC
  5
124
  8
1
  6
CONTINUOUS
 62
     7
 10
127.5
 20
118.101089
 30
0.0
 40
33.0
 50
16.968956
 51
22.19771100000001
  0
ARC
  5
125
  8
1
  6
CONTINUOUS
 62
     7
 10
127.5
 20
118.101089
 30
0.0
 40
36.25
 50
343.147819
 51
345.5188479999999
  0
ARC
  5
126
  8
1
  6
CONTINUOUS
 62
     7
 10
127.5
 20
118.101089
 30
0.0
 40
36.25
 50
325.814485
 51
328.185515
  0
ARC
  5
127
  8
1
  6
CONTINUOUS
 62
     7
 10
127.5
 20
118.101089
 30
0.0
 40
31.05
 50
290.384091
 51
297.115909
  0
ARC
  5
128
  8
1
  6
CONTINUOUS
 62
     7
 10
127.5
 20
118.101089
 30
0.0
 40
39.45
 50
178.54748
 51
181.45252
  0
ARC
  5
129
  8
1
  6
CONTINUOUS
 62
     7
 10
127.5
 20
118.101089
 30
0.0
 40
36.25
 50
335.314485
 51
337.685515
  0
ARC
  5
12A
  8
1
  6
CONTINUOUS
 62
     7
 10
127.5
 20
118.101089
 30
0.0
 40
31.05
 50
204.884091
 51
211.615909
  0
LINE
  5
12B
  8
1
  6
CONTINUOUS
 62
     7
 10
88.062676
 20
119.101089
 30
0.0
 11
88.562839
 21
119.101089
 31
0.0
  0
ARC
  5
12C
  8
1
  6
CONTINUOUS
 62
     7
 10
127.5
 20
118.101089
 30
0.0
 40
36.0
 50
41.306252
 51
43.69374800000001
  0
ARC
  5
12D
  8
1
  6
CONTINUOUS
 62
     7
 10
127.5
 20
118.101089
 30
0.0
 40
36.25
 50
163.147819
 51
165.518848
  0
ARC
  5
12E
  8
1
  6
CONTINUOUS
 62
     7
 10
127.5
 20
118.101089
 30
0.0
 40
36.25
 50
297.314485
 51
299.685515
  0
ARC
  5
12F
  8
1
  6
CONTINUOUS
 62
     7
 10
127.5
 20
118.101089
 30
0.0
 40
33.0
 50
157.802289
 51
163.031044
  0
ARC
  5
130
  8
1
  6
CONTINUOUS
 62
     7
 10
125.999998
 20
157.522563
 30
0.0
 40
0.500002
 50
272.17927
 51
0.0
  0
ARC
  5
131
  8
1
  6
CONTINUOUS
 62
     7
 10
127.5
 20
118.101089
 30
0.0
 40
36.25
 50
350.981152
 51
353.352181
  0
CIRCLE
  5
132
  8
1
  6
CONTINUOUS
 62
     7
 10
92.743886
 20
110.871807
 30
0.0
 40
0.75
  0
ARC
  5
133
  8
1
  6
CONTINUOUS
 62
     7
 10
127.5
 20
118.101089
 30
0.0
 40
36.25
 50
50.814485
 51
53.185515
  0
ARC
  5
134
  8
1
  6
CONTINUOUS
 62
     7
 10
127.5
 20
118.101089
 30
0.0
 40
36.25
 50
98.314485
 51
100.685515
  0
ARC
  5
135
  8
1
  6
CONTINUOUS
 62
     7
 10
127.5
 20
118.101089
 30
0.0
 40
36.25
 50
186.647819
 51
189.018848
  0
ARC
  5
136
  8
1
  6
CONTINUOUS
 62
     7
 10
127.5
 20
118.101089
 30
0.0
 40
36.25
 50
107.814485
 51
110.185515
  0
ARC
  5
137
  8
1
  6
CONTINUOUS
 62
     7
 10
127.5
 20
118.101089
 30
0.0
 40
36.25
 50
41.31448499999999
 51
43.68551500000001
  0
ARC
  5
138
  8
1
  6
CONTINUOUS
 62
     7
 10
127.5
 20
118.101089
 30
0.0
 40
36.25
 50
211.814485
 51
214.185515
  0
ARC
  5
139
  8
1
  6
CONTINUOUS
 62
     7
 10
127.5
 20
118.101089
 30
0.0
 40
33.0
 50
165.635622
 51
170.864378
  0
ARC
  5
13A
  8
1
  6
CONTINUOUS
 62
     7
 10
127.5
 20
118.101089
 30
0.0
 40
36.25
 50
88.814485
 51
91.185515
  0
ARC
  5
13B
  8
1
  6
CONTINUOUS
 62
     7
 10
127.5
 20
118.101089
 30
0.0
 40
36.25
 50
79.314485
 51
81.685515
  0
ARC
  5
13C
  8
1
  6
CONTINUOUS
 62
     7
 10
130.5
 20
157.436856
 30
0.0
 40
0.5
 50
180.00005
 51
265.638646
  0
ARC
  5
13D
  8
1
  6
CONTINUOUS
 62
     7
 10
127.5
 20
118.101089
 30
0.0
 40
31.05
 50
34.384091
 51
41.115909
  0
ARC
  5
13E
  8
1
  6
CONTINUOUS
 62
     7
 10
127.5
 20
118.101089
 30
0.0
 40
36.25
 50
249.8144849999999
 51
252.185515
  0
ARC
  5
13F
  8
1
  6
CONTINUOUS
 62
     7
 10
127.5
 20
118.101089
 30
0.0
 40
31.05
 50
233.384091
 51
240.115909
  0
LINE
  5
140
  8
1
  6
CONTINUOUS
 62
     7
 10
88.062676
 20
117.101089
 30
0.0
 11
88.562839
 21
117.101089
 31
0.0
  0
ARC
  5
141
  8
1
  6
CONTINUOUS
 62
     7
 10
127.5
 20
118.101089
 30
0.0
 40
31.05
 50
100.884091
 51
107.615909
  0
ARC
  5
142
  8
1
  6
CONTINUOUS
 62
     7
 10
127.5
 20
118.101089
 30
0.0
 40
31.05
 50
242.884091
 51
249.615909
  0
LINE
  5
143
  8
1
  6
CONTINUOUS
 62
     7
 10
166.937324
 20
119.101089
 30
0.0
 11
166.437161
 21
119.101089
 31
0.0
  0
ARC
  5
144
  8
1
  6
CONTINUOUS
 62
     7
 10
127.5
 20
118.101089
 30
0.0
 40
36.0
 50
69.806252
 51
72.193748
  0
LINE
  5
145
  8
1
  6
CONTINUOUS
 62
     7
 10
160.514163
 20
132.456056
 30
0.0
 11
157.304452
 21
131.060434
 31
0.0
  0
LINE
  5
146
  8
1
  6
CONTINUOUS
 62
     7
 10
94.485837
 20
103.746123
 30
0.0
 11
97.695548
 21
105.141744
 31
0.0
  0
ARC
  5
147
  8
1
  6
CONTINUOUS
 62
     7
 10
127.5
 20
118.101089
 30
0.0
 40
33.7
 50
170.891013
 51
173.44239
  0
ARC
  5
148
  8
1
  6
CONTINUOUS
 62
     7
 10
127.5
 20
118.101089
 30
0.0
 40
36.0
 50
31.806252
 51
34.19374800000001
  0
ARC
  5
149
  8
1
  6
CONTINUOUS
 62
     7
 10
127.5
 20
118.101089
 30
0.0
 40
39.45
 50
358.54748
 51
1.452519999999993
  0
ARC
  5
14A
  8
1
  6
CONTINUOUS
 62
     7
 10
127.5
 20
118.101089
 30
0.0
 40
31.05
 50
24.884091
 51
31.615909
  0
ARC
  5
14B
  8
1
  6
CONTINUOUS
 62
     7
 10
127.5
 20
118.101089
 30
0.0
 40
31.05
 50
91.38409099999998
 51
98.115909
  0
ARC
  5
14C
  8
1
  6
CONTINUOUS
 62
     7
 10
127.5
 20
118.101089
 30
0.0
 40
33.7
 50
335.224563
 51
337.775498
  0
ARC
  5
14D
  8
1
  6
CONTINUOUS
 62
     7
 10
127.5
 20
118.101089
 30
0.0
 40
36.0
 50
79.30625199999999
 51
81.693748
  0
ARC
  5
14E
  8
1
  6
CONTINUOUS
 62
     7
 10
127.5
 20
118.101089
 30
0.0
 40
33.7
 50
163.057778
 51
165.608803
  0
ARC
  5
14F
  8
1
  6
CONTINUOUS
 62
     7
 10
127.5
 20
118.101089
 30
0.0
 40
31.05
 50
299.884091
 51
306.615909
  0
ARC
  5
150
  8
1
  6
CONTINUOUS
 62
     7
 10
127.5
 20
118.101089
 30
0.0
 40
31.05
 50
119.884091
 51
126.615909
  0
ARC
  5
151
  8
1
  6
CONTINUOUS
 62
     7
 10
127.5
 20
118.101089
 30
0.0
 40
31.05
 50
81.884091
 51
88.615909
  0
ARC
  5
152
  8
1
  6
CONTINUOUS
 62
     7
 10
127.5
 20
118.101089
 30
0.0
 40
31.05
 50
138.884091
 51
145.615909
  0
ARC
  5
153
  8
1
  6
CONTINUOUS
 62
     7
 10
127.5
 20
118.101089
 30
0.0
 40
31.05
 50
318.884091
 51
325.615909
  0
ARC
  5
154
  8
1
  6
CONTINUOUS
 62
     7
 10
127.5
 20
118.101089
 30
0.0
 40
36.0
 50
60.306252
 51
62.693748
  0
ARC
  5
155
  8
1
  6
CONTINUOUS
 62
     7
 10
127.5
 20
118.101089
 30
0.0
 40
31.05
 50
252.384091
 51
259.115909
  0
ARC
  5
156
  8
1
  6
CONTINUOUS
 62
     7
 10
127.5
 20
118.101089
 30
0.0
 40
31.05
 50
223.884091
 51
230.615909
  0
ARC
  5
157
  8
1
  6
CONTINUOUS
 62
     7
 10
127.5
 20
118.101089
 30
0.0
 40
36.0
 50
88.806252
 51
91.193748
  0
ARC
  5
158
  8
1
  6
CONTINUOUS
 62
     7
 10
127.5
 20
118.101089
 30
0.0
 40
31.05
 50
148.384091
 51
155.115909
  0
ARC
  5
159
  8
1
  6
CONTINUOUS
 62
     7
 10
127.5
 20
118.101089
 30
0.0
 40
31.05
 50
72.384091
 51
79.11590900000002
  0
ARC
  5
15A
  8
1
  6
CONTINUOUS
 62
     7
 10
127.5
 20
118.101089
 30
0.0
 40
31.05
 50
53.38409100000001
 51
60.11590900000001
  0
ARC
  5
15B
  8
1
  6
CONTINUOUS
 62
     7
 10
127.5
 20
118.101089
 30
0.0
 40
31.05
 50
62.884091
 51
69.615909
  0
ARC
  5
15C
  8
1
  6
CONTINUOUS
 62
     7
 10
127.5
 20
118.101089
 30
0.0
 40
36.0
 50
98.306252
 51
100.693748
  0
ARC
  5
15D
  8
1
  6
CONTINUOUS
 62
     7
 10
127.5
 20
118.101089
 30
0.0
 40
33.7
 50
155.224563
 51
157.775498
  0
ARC
  5
15E
  8
1
  6
CONTINUOUS
 62
     7
 10
127.5
 20
118.101089
 30
0.0
 40
36.0
 50
50.806252
 51
53.193748
  0
LINE
  5
15F
  8
1
  6
CONTINUOUS
 62
     7
 10
166.937324
 20
117.101089
 30
0.0
 11
166.437161
 21
117.101089
 31
0.0
  0
ARC
  5
160
  8
1
  6
CONTINUOUS
 62
     7
 10
127.5
 20
118.101089
 30
0.0
 40
31.05
 50
261.884091
 51
268.6159089999999
  0
ARC
  5
161
  8
1
  6
CONTINUOUS
 62
     7
 10
127.5
 20
118.101089
 30
0.0
 40
31.05
 50
110.384091
 51
117.115909
  0
ARC
  5
162
  8
1
  6
CONTINUOUS
 62
     7
 10
127.5
 20
118.101089
 30
0.0
 40
31.05
 50
129.384091
 51
136.115909
  0
ARC
  5
163
  8
1
  6
CONTINUOUS
 62
     7
 10
127.5
 20
118.101089
 30
0.0
 40
32.5
 50
88.677185
 51
91.32281500000002
  0
ARC
  5
164
  8
1
  6
CONTINUOUS
 62
     7
 10
127.5
 20
118.101089
 30
0.0
 40
31.05
 50
43.88409099999999
 51
50.615909
  0
LINE
  5
165
  8
1
  6
CONTINUOUS
 62
     7
 10
150.882686
 20
79.601089
 30
0.0
 11
172.533321
 21
117.101089
 31
0.0
  0
LINE
  5
166
  8
1
  6
CONTINUOUS
 62
     7
 10
289.116819
 20
82.859908
 30
0.0
 11
289.116819
 21
153.34227
 31
0.0
  0
LINE
  5
167
  8
1
  6
CONTINUOUS
 62
     7
 10
230.245545
 20
119.101089
 30
0.0
 11
225.245545
 21
119.101089
 31
0.0
  0
LINE
  5
168
  8
1
  6
CONTINUOUS
 62
     7
 10
318.145545
 20
78.601089
 30
0.0
 11
318.145545
 21
157.601089
 31
0.0
  0
ARC
  5
169
  8
1
  6
CONTINUOUS
 62
     7
 10
127.5
 20
118.101089
 30
0.0
 40
31.05
 50
280.884091
 51
287.615909
  0
ARC
  5
16A
  8
1
  6
CONTINUOUS
 62
     7
 10
127.5
 20
118.101089
 30
0.0
 40
33.7
 50
178.724717
 51
181.275266
  0
ARC
  5
16B
  8
1
  6
CONTINUOUS
 62
     7
 10
127.5
 20
118.101089
 30
0.0
 40
33.7
 50
358.7247169999999
 51
1.275265999999988
  0
ARC
  5
16C
  8
1
  6
CONTINUOUS
 62
     7
 10
127.5
 20
118.101089
 30
0.0
 40
31.05
 50
271.384091
 51
278.115909
  0
ARC
  5
16D
  8
1
  6
CONTINUOUS
 62
     7
 10
127.5
 20
118.101089
 30
0.0
 40
33.7
 50
14.391171
 51
16.941977
  0
ARC
  5
16E
  8
1
  6
CONTINUOUS
 62
     7
 10
127.5
 20
118.101089
 30
0.0
 40
31.05
 50
214.384091
 51
221.115909
  0
ARC
  5
16F
  8
1
  6
CONTINUOUS
 62
     7
 10
127.5
 20
118.101089
 30
0.0
 40
31.05
 50
328.384091
 51
335.115909
  0
LINE
  5
170
  8
1
  6
CONTINUOUS
 62
     7
 10
250.172221
 20
80.66865
 30
0.0
 11
230.645545
 21
80.66865
 31
0.0
  0
LINE
  5
171
  8
1
  6
CONTINUOUS
 62
     7
 10
320.145545
 20
119.101089
 30
0.0
 11
325.645545
 21
119.101089
 31
0.0
  0
LINE
  5
172
  8
1
  6
CONTINUOUS
 62
     7
 10
245.452904
 20
159.013679
 30
0.0
 11
230.645545
 21
159.013679
 31
0.0
  0
LINE
  5
173
  8
1
  6
CONTINUOUS
 62
     7
 10
207.245545
 20
79.151089
 30
0.0
 11
207.245545
 21
157.051089
 31
0.0
  0
LINE
  5
174
  8
1
  6
CONTINUOUS
 62
     7
 10
207.710675
 20
157.436855
 30
0.0
 11
228.245545
 21
157.436855
 31
0.0
  0
ARC
  5
175
  8
1
  6
CONTINUOUS
 62
     7
 10
245.452584
 20
80.187291
 30
0.0
 40
2.998792
 50
270.006114
 51
315.03174
  0
LINE
  5
176
  8
1
  6
CONTINUOUS
 62
     7
 10
250.645545
 20
81.167749
 30
0.0
 11
250.645545
 21
81.101089
 31
0.0
  0
ARC
  5
177
  8
1
  6
CONTINUOUS
 62
     7
 10
228.245273
 20
81.179046
 30
0.0
 40
2.49943
 50
270.006223
 51
323.157907
  0
LINE
  5
178
  8
1
  6
CONTINUOUS
 62
     7
 10
208.366865
 20
158.172409
 30
0.0
 11
207.245545
 21
157.051089
 31
0.0
  0
LINE
  5
179
  8
1
  6
CONTINUOUS
 62
     7
 10
245.452904
 20
77.188499
 30
0.0
 11
230.645545
 21
77.188499
 31
0.0
  0
LINE
  5
17A
  8
1
  6
CONTINUOUS
 62
     7
 10
247.574225
 20
78.068
 30
0.0
 11
247.574225
 21
78.029769
 31
0.0
  0
LINE
  5
17B
  8
1
  6
CONTINUOUS
 62
     7
 10
288.844144
 20
154.359908
 30
0.0
 11
288.844144
 21
81.84227
 31
0.0
  0
LINE
  5
17C
  8
1
  6
CONTINUOUS
 62
     7
 10
228.245545
 20
78.679617
 30
0.0
 11
207.729699
 21
78.679617
 31
0.0
  0
LINE
  5
17D
  8
1
  6
CONTINUOUS
 62
     7
 10
287.878218
 20
81.101089
 30
0.0
 11
287.878218
 21
155.101089
 31
0.0
  0
LINE
  5
17E
  8
1
  6
CONTINUOUS
 62
     7
 10
320.145545
 20
117.101089
 30
0.0
 11
325.645545
 21
117.101089
 31
0.0
  0
LINE
  5
17F
  8
1
  6
CONTINUOUS
 62
     7
 10
207.245545
 20
79.179255
 30
0.0
 11
228.245545
 21
79.179255
 31
0.0
  0
LINE
  5
180
  8
1
  6
CONTINUOUS
 62
     7
 10
208.366865
 20
78.029769
 30
0.0
 11
208.366865
 21
78.042248
 31
0.0
  0
LINE
  5
181
  8
1
  6
CONTINUOUS
 62
     7
 10
320.145545
 20
79.601089
 30
0.0
 11
325.645545
 21
79.601089
 31
0.0
  0
LINE
  5
182
  8
1
  6
CONTINUOUS
 62
     7
 10
210.488186
 20
158.974705
 30
0.0
 11
210.488186
 21
159.051089
 31
0.0
  0
LINE
  5
183
  8
1
  6
CONTINUOUS
 62
     7
 10
250.645545
 20
155.034429
 30
0.0
 11
250.645545
 21
155.101089
 31
0.0
  0
LINE
  5
184
  8
1
  6
CONTINUOUS
 62
     7
 10
312.504398
 20
153.34227
 30
0.0
 11
312.504398
 21
82.859908
 31
0.0
  0
LINE
  5
185
  8
1
  6
CONTINUOUS
 62
     7
 10
207.245545
 20
156.938303
 30
0.0
 11
207.710675
 21
157.436855
 31
0.0
  0
ARC
  5
186
  8
1
  6
CONTINUOUS
 62
     7
 10
228.241572
 20
154.934327
 30
0.0
 40
2.00398
 50
359.8506029999999
 51
89.886397
  0
LINE
  5
187
  8
1
  6
CONTINUOUS
 62
     7
 10
250.645545
 20
155.034429
 30
0.0
 11
230.645545
 21
155.034429
 31
0.0
  0
LINE
  5
188
  8
1
  6
CONTINUOUS
 62
     7
 10
230.645545
 20
155.533528
 30
0.0
 11
250.172221
 21
155.533528
 31
0.0
  0
CIRCLE
  5
189
  8
1
  6
CONTINUOUS
 62
     7
 10
232.145545
 20
118.101073
 30
0.0
 40
0.75
  0
LINE
  5
18A
  8
1
  6
CONTINUOUS
 62
     7
 10
247.574225
 20
158.134178
 30
0.0
 11
247.574225
 21
158.172409
 31
0.0
  0
LINE
  5
18B
  8
1
  6
CONTINUOUS
 62
     7
 10
314.412872
 20
157.601089
 30
0.0
 11
314.412872
 21
78.601089
 31
0.0
  0
LINE
  5
18C
  8
1
  6
CONTINUOUS
 62
     7
 10
250.172221
 20
155.533528
 30
0.0
 11
250.645545
 21
155.034429
 31
0.0
  0
LINE
  5
18D
  8
1
  6
CONTINUOUS
 62
     7
 10
228.245545
 20
156.938303
 30
0.0
 11
207.245545
 21
156.938303
 31
0.0
  0
CIRCLE
  5
18E
  8
1
  6
CONTINUOUS
 62
     7
 10
232.145545
 20
123.101072
 30
0.0
 40
0.75
  0
LINE
  5
18F
  8
1
  6
CONTINUOUS
 62
     7
 10
230.645545
 20
81.167749
 30
0.0
 11
250.645545
 21
81.167749
 31
0.0
  0
LINE
  5
190
  8
1
  6
CONTINUOUS
 62
     7
 10
207.729699
 20
78.679617
 30
0.0
 11
208.366865
 21
78.042248
 31
0.0
  0
LINE
  5
191
  8
1
  6
CONTINUOUS
 62
     7
 10
290.082745
 20
152.601089
 30
0.0
 11
290.082745
 21
83.601089
 31
0.0
  0
LINE
  5
192
  8
1
  6
CONTINUOUS
 62
     7
 10
210.488186
 20
77.163301
 30
0.0
 11
230.245545
 21
77.163301
 31
0.0
  0
LINE
  5
193
  8
1
  6
CONTINUOUS
 62
     7
 10
230.245545
 20
158.974705
 30
0.0
 11
210.488186
 21
158.974705
 31
0.0
  0
LINE
  5
194
  8
1
  6
CONTINUOUS
 62
     7
 10
250.645545
 20
81.167749
 30
0.0
 11
250.172221
 21
80.66865
 31
0.0
  0
LINE
  5
195
  8
1
  6
CONTINUOUS
 62
     7
 10
250.172221
 20
155.533528
 30
0.0
 11
247.574225
 21
158.134178
 31
0.0
  0
LINE
  5
196
  8
1
  6
CONTINUOUS
 62
     7
 10
250.172221
 20
80.66865
 30
0.0
 11
247.574225
 21
78.068
 31
0.0
  0
ARC
  5
197
  8
1
  6
CONTINUOUS
 62
     7
 10
228.244552
 20
154.939326
 30
0.0
 40
2.497529
 50
36.756179
 51
89.97721
  0
LINE
  5
198
  8
1
  6
CONTINUOUS
 62
     7
 10
245.452904
 20
77.188499
 30
0.0
 11
245.452904
 21
77.151089
 31
0.0
  0
LINE
  5
199
  8
1
  6
CONTINUOUS
 62
     7
 10
225.245545
 20
119.101089
 30
0.0
 11
225.245545
 21
117.101089
 31
0.0
  0
LINE
  5
19A
  8
1
  6
CONTINUOUS
 62
     7
 10
326.845545
 20
149.101089
 30
0.0
 11
325.645545
 21
149.101089
 31
0.0
  0
ARC
  5
19B
  8
1
  6
CONTINUOUS
 62
     7
 10
245.645545
 20
79.701089
 30
0.0
 40
1.0
 50
270.0
 51
75.36632700000001
  0
LINE
  5
19C
  8
1
  6
CONTINUOUS
 62
     7
 10
313.446946
 20
156.859908
 30
0.0
 11
312.504398
 21
153.34227
 31
0.0
  0
ARC
  5
19D
  8
1
  6
CONTINUOUS
 62
     7
 10
245.452904
 20
156.051089
 30
0.0
 40
3.0
 50
45.0
 51
90.0
  0
ARC
  5
19E
  8
1
  6
CONTINUOUS
 62
     7
 10
234.645545
 20
156.501089
 30
0.0
 40
1.0
 50
90.0
 51
255.366327
  0
ARC
  5
19F
  8
1
  6
CONTINUOUS
 62
     7
 10
207.245545
 20
155.051089
 30
0.0
 40
2.0
 50
90.0
 51
180.0
  0
LINE
  5
1A0
  8
1
  6
CONTINUOUS
 62
     7
 10
234.645545
 20
78.701089
 30
0.0
 11
245.645545
 21
78.701089
 31
0.0
  0
LINE
  5
1A1
  8
1
  6
CONTINUOUS
 62
     7
 10
208.366865
 20
158.094347
 30
0.0
 11
208.366865
 21
158.172409
 31
0.0
  0
ARC
  5
1A2
  8
1
  6
CONTINUOUS
 62
     7
 10
314.412872
 20
79.601089
 30
0.0
 40
1.0
 50
195.0
 51
270.0
  0
LINE
  5
1A3
  8
1
  6
CONTINUOUS
 62
     7
 10
320.145545
 20
156.601089
 30
0.0
 11
325.645545
 21
156.601089
 31
0.0
  0
ARC
  5
1A4
  8
1
  6
CONTINUOUS
 62
     7
 10
314.412872
 20
156.601089
 30
0.0
 40
1.0
 50
90.0
 51
165.0
  0
ARC
  5
1A5
  8
1
  6
CONTINUOUS
 62
     7
 10
287.878218
 20
154.101089
 30
0.0
 40
1.0
 50
15.0
 51
90.0
  0
ARC
  5
1A6
  8
1
  6
CONTINUOUS
 62
     7
 10
311.538472
 20
82.601089
 30
0.0
 40
1.0
 50
15.0
 51
90.0
  0
LINE
  5
1A7
  8
1
  6
CONTINUOUS
 62
     7
 10
230.645545
 20
77.151089
 30
0.0
 11
245.452904
 21
77.151089
 31
0.0
  0
LINE
  5
1A8
  8
1
  6
CONTINUOUS
 62
     7
 10
210.488186
 20
77.151089
 30
0.0
 11
210.488186
 21
77.163301
 31
0.0
  0
ARC
  5
1A9
  8
1
  6
CONTINUOUS
 62
     7
 10
210.488308
 20
80.162949
 30
0.0
 40
2.999648
 50
224.989981
 51
269.997669
  0
LINE
  5
1AA
  8
1
  6
CONTINUOUS
 62
     7
 10
234.645545
 20
157.501089
 30
0.0
 11
245.645545
 21
157.501089
 31
0.0
  0
ARC
  5
1AB
  8
1
  6
CONTINUOUS
 62
     7
 10
210.488608
 20
155.977731
 30
0.0
 40
2.996974
 50
90.00806600000001
 51
135.06929
  0
ARC
  5
1AC
  8
1
  6
CONTINUOUS
 62
     7
 10
245.452584
 20
156.014887
 30
0.0
 40
2.998792
 50
44.96826
 51
89.99388600000002
  0
ARC
  5
1AD
  8
1
  6
CONTINUOUS
 62
     7
 10
228.244386
 20
81.180414
 30
0.0
 40
2.001159
 50
270.033186
 51
0.0324729999999818
  0
LINE
  5
1AE
  8
1
  6
CONTINUOUS
 62
     7
 10
207.729699
 20
78.679617
 30
0.0
 11
207.245545
 21
79.179255
 31
0.0
  0
LINE
  5
1AF
  8
1
  6
CONTINUOUS
 62
     7
 10
208.366865
 20
158.094347
 30
0.0
 11
207.710675
 21
157.436855
 31
0.0
  0
LINE
  5
1B0
  8
1
  6
CONTINUOUS
 62
     7
 10
288.844144
 20
81.84227
 30
0.0
 11
289.116819
 21
82.859908
 31
0.0
  0
LINE
  5
1B1
  8
1
  6
CONTINUOUS
 62
     7
 10
105.849365
 20
78.601089
 30
0.0
 11
125.0
 21
78.601089
 31
0.0
  0
ARC
  5
1B2
  8
1
  6
CONTINUOUS
 62
     7
 10
149.150635
 20
80.601089
 30
0.0
 40
2.0
 50
270.0
 51
330.0
  0
LINE
  5
1B3
  8
1
  6
CONTINUOUS
 62
     7
 10
210.488186
 20
77.151089
 30
0.0
 11
230.245545
 21
77.151089
 31
0.0
  0
ARC
  5
1B4
  8
1
  6
CONTINUOUS
 62
     7
 10
234.645545
 20
79.701089
 30
0.0
 40
1.0
 50
104.633673
 51
270.0
  0
ARC
  5
1B5
  8
1
  6
CONTINUOUS
 62
     7
 10
127.5
 20
118.101089
 30
0.0
 40
33.0
 50
345.635622
 51
350.864378
  0
LINE
  5
1B6
  8
1
  6
CONTINUOUS
 62
     7
 10
247.574225
 20
78.029769
 30
0.0
 11
250.645545
 21
81.101089
 31
0.0
  0
ARC
  5
1B7
  8
1
  6
CONTINUOUS
 62
     7
 10
127.5
 20
118.101089
 30
0.0
 40
36.25
 50
194.481152
 51
196.852181
  0
ARC
  5
1B8
  8
1
  6
CONTINUOUS
 62
     7
 10
127.5
 20
118.101089
 30
0.0
 40
36.25
 50
358.814485
 51
1.18551500000001
  0
ARC
  5
1B9
  8
1
  6
CONTINUOUS
 62
     7
 10
127.5
 20
118.101089
 30
0.0
 40
36.25
 50
259.314485
 51
261.685515
  0
LINE
  5
1BA
  8
1
  6
CONTINUOUS
 62
     7
 10
230.245545
 20
82.101089
 30
0.0
 11
230.645545
 21
82.101089
 31
0.0
  0
ARC
  5
1BB
  8
1
  6
CONTINUOUS
 62
     7
 10
245.645545
 20
156.501089
 30
0.0
 40
1.0
 50
284.633673
 51
90.0
  0
LINE
  5
1BC
  8
1
  6
CONTINUOUS
 62
     7
 10
326.845545
 20
142.501089
 30
0.0
 11
325.645545
 21
142.501089
 31
0.0
  0
LINE
  5
1BD
  8
1
  6
CONTINUOUS
 62
     7
 10
290.082745
 20
83.601089
 30
0.0
 11
311.538472
 21
83.601089
 31
0.0
  0
ARC
  5
1BE
  8
1
  6
CONTINUOUS
 62
     7
 10
149.150635
 20
155.601089
 30
0.0
 40
2.0
 50
30.0
 51
90.0
  0
LINE
  5
1BF
  8
1
  6
CONTINUOUS
 62
     7
 10
287.878218
 20
155.101089
 30
0.0
 11
250.645545
 21
155.101089
 31
0.0
  0
ARC
  5
1C0
  8
1
  6
CONTINUOUS
 62
     7
 10
127.5
 20
118.101089
 30
0.0
 40
36.25
 50
136.314485
 51
138.685515
  0
LINE
  5
1C1
  8
1
  6
CONTINUOUS
 62
     7
 10
250.645545
 20
155.101089
 30
0.0
 11
247.574225
 21
158.172409
 31
0.0
  0
LINE
  5
1C2
  8
1
  6
CONTINUOUS
 62
     7
 10
311.538472
 20
152.601089
 30
0.0
 11
290.082745
 21
152.601089
 31
0.0
  0
ARC
  5
1C3
  8
1
  6
CONTINUOUS
 62
     7
 10
210.488186
 20
80.151089
 30
0.0
 40
3.0
 50
225.0
 51
270.0
  0
LINE
  5
1C4
  8
1
  6
CONTINUOUS
 62
     7
 10
289.116819
 20
153.34227
 30
0.0
 11
288.844144
 21
154.359908
 31
0.0
  0
LINE
  5
1C5
  8
1
  6
CONTINUOUS
 62
     7
 10
149.150635
 20
157.601089
 30
0.0
 11
130.0
 21
157.601089
 31
0.0
  0
ARC
  5
1C6
  8
1
  6
CONTINUOUS
 62
     7
 10
127.5
 20
118.101089
 30
0.0
 40
36.25
 50
117.314485
 51
119.685515
  0
ARC
  5
1C7
  8
1
  6
CONTINUOUS
 62
     7
 10
127.5
 20
118.101089
 30
0.0
 40
36.25
 50
31.814485
 51
34.185515
  0
ARC
  5
1C8
  8
1
  6
CONTINUOUS
 62
     7
 10
287.878218
 20
82.101089
 30
0.0
 40
1.0
 50
270.0
 51
345.0
  0
ARC
  5
1C9
  8
1
  6
CONTINUOUS
 62
     7
 10
290.082745
 20
82.601089
 30
0.0
 40
1.0
 50
90.0
 51
165.0
  0
LINE
  5
1CA
  8
1
  6
CONTINUOUS
 62
     7
 10
312.504398
 20
82.859908
 30
0.0
 11
313.446946
 21
79.34227
 31
0.0
  0
LINE
  5
1CB
  8
1
  6
CONTINUOUS
 62
     7
 10
230.245545
 20
159.051089
 30
0.0
 11
210.488186
 21
159.051089
 31
0.0
  0
LINE
  5
1CC
  8
1
  6
CONTINUOUS
 62
     7
 10
125.75
 20
157.601089
 30
0.0
 11
105.849365
 21
157.601089
 31
0.0
  0
ARC
  5
1CD
  8
1
  6
CONTINUOUS
 62
     7
 10
127.5
 20
118.101089
 30
0.0
 40
33.0
 50
337.8022889999999
 51
343.031044
  0
ARC
  5
1CE
  8
1
  6
CONTINUOUS
 62
     7
 10
127.5
 20
118.101089
 30
0.0
 40
36.25
 50
145.814485
 51
148.185515
  0
LINE
  5
1CF
  8
1
  6
CONTINUOUS
 62
     7
 10
250.645545
 20
81.101089
 30
0.0
 11
287.878218
 21
81.101089
 31
0.0
  0
LINE
  5
1D0
  8
1
  6
CONTINUOUS
 62
     7
 10
129.25
 20
78.601089
 30
0.0
 11
149.150635
 21
78.601089
 31
0.0
  0
ARC
  5
1D1
  8
1
  6
CONTINUOUS
 62
     7
 10
210.488186
 20
156.051089
 30
0.0
 40
3.0
 50
90.0
 51
135.0
  0
ARC
  5
1D2
  8
1
  6
CONTINUOUS
 62
     7
 10
311.538472
 20
153.601089
 30
0.0
 40
1.0
 50
270.0
 51
345.0
  0
ARC
  5
1D3
  8
1
  6
CONTINUOUS
 62
     7
 10
207.245545
 20
81.151089
 30
0.0
 40
2.0
 50
180.0
 51
270.0
  0
ARC
  5
1D4
  8
1
  6
CONTINUOUS
 62
     7
 10
245.452904
 20
80.151089
 30
0.0
 40
3.0
 50
270.0
 51
315.0
  0
ARC
  5
1D5
  8
1
  6
CONTINUOUS
 62
     7
 10
290.082745
 20
153.601089
 30
0.0
 40
1.0
 50
195.0
 51
270.0
  0
LINE
  5
1D6
  8
1
  6
CONTINUOUS
 62
     7
 10
325.645545
 20
87.101089
 30
0.0
 11
326.845545
 21
87.101089
 31
0.0
  0
LINE
  5
1D7
  8
1
  6
CONTINUOUS
 62
     7
 10
245.452904
 20
159.051089
 30
0.0
 11
230.645545
 21
159.051089
 31
0.0
  0
LINE
  5
1D8
  8
1
  6
CONTINUOUS
 62
     7
 10
207.245545
 20
79.151089
 30
0.0
 11
208.366865
 21
78.029769
 31
0.0
  0
LINE
  5
1D9
  8
1
  6
CONTINUOUS
 62
     7
 10
245.452904
 20
159.013679
 30
0.0
 11
245.452904
 21
159.051089
 31
0.0
  0
LINE
  5
1DA
  8
1
  6
CONTINUOUS
 62
     7
 10
325.645545
 20
93.701089
 30
0.0
 11
326.845545
 21
93.701089
 31
0.0
  0
LINE
  5
1DB
  8
1
  6
CONTINUOUS
 62
     7
 10
230.645545
 20
154.101089
 30
0.0
 11
230.245545
 21
154.101089
 31
0.0
  0
ARC
  5
1DC
  8
1
  6
CONTINUOUS
 62
     7
 10
105.849365
 20
155.601089
 30
0.0
 40
2.0
 50
90.0
 51
150.0
  0
LINE
  5
1DD
  8
1
  6
CONTINUOUS
 62
     7
 10
162.193275
 20
128.610092
 30
0.0
 11
159.06328
 21
127.732255
 31
0.0
  0
LINE
  5
1DE
  8
1
  6
CONTINUOUS
 62
     7
 10
138.315081
 20
88.995479
 30
0.0
 11
140.008458
 21
84.077554
 31
0.0
  0
LINE
  5
1DF
  8
1
  6
CONTINUOUS
 62
     7
 10
121.637053
 20
87.609642
 30
0.0
 11
120.778591
 21
82.479675
 31
0.0
  0
LINE
  5
1E0
  8
1
  6
CONTINUOUS
 62
     7
 10
157.486821
 20
97.733147
 30
0.0
 11
153.124644
 21
100.565978
 31
0.0
  0
LINE
  5
1E1
  8
1
  6
CONTINUOUS
 62
     7
 10
126.75
 20
87.060148
 30
0.0
 11
126.75
 21
81.858849
 31
0.0
  0
LINE
  5
1E2
  8
1
  6
CONTINUOUS
 62
     7
 10
94.918596
 20
112.861615
 30
0.0
 11
91.698165
 21
112.418562
 31
0.0
  0
LINE
  5
1E3
  8
1
  6
CONTINUOUS
 62
     7
 10
153.71389
 20
143.13895
 30
0.0
 11
149.879089
 21
139.625003
 31
0.0
  0
LINE
  5
1E4
  8
1
  6
CONTINUOUS
 62
     7
 10
133.362947
 20
148.592536
 30
0.0
 11
134.221409
 21
153.722503
 31
0.0
  0
LINE
  5
1E5
  8
1
  6
CONTINUOUS
 62
     7
 10
94.714158
 20
121.85456
 30
0.0
 11
91.493727
 21
122.297613
 31
0.0
  0
LINE
  5
1E6
  8
1
  6
CONTINUOUS
 62
     7
 10
142.97057
 20
91.179648
 30
0.0
 11
145.452415
 21
86.608657
 31
0.0
  0
LINE
  5
1E7
  8
1
  6
CONTINUOUS
 62
     7
 10
128.25
 20
149.14203
 30
0.0
 11
128.25
 21
154.34333
 31
0.0
  0
LINE
  5
1E8
  8
1
  6
CONTINUOUS
 62
     7
 10
147.201719
 20
142.099938
 30
0.0
 11
150.403959
 21
146.198618
 31
0.0
  0
LINE
  5
1E9
  8
1
  6
CONTINUOUS
 62
     7
 10
138.315081
 20
147.206699
 30
0.0
 11
140.008458
 21
152.124625
 31
0.0
  0
LINE
  5
1EA
  8
1
  6
CONTINUOUS
 62
     7
 10
150.892475
 20
97.683092
 30
0.0
 11
154.727275
 21
94.169144
 31
0.0
  0
LINE
  5
1EB
  8
1
  6
CONTINUOUS
 62
     7
 10
153.71389
 20
93.063228
 30
0.0
 11
149.879089
 21
96.577175
 31
0.0
  0
LINE
  5
1EC
  8
1
  6
CONTINUOUS
 62
     7
 10
130.0
 20
158.974705
 30
0.0
 11
130.0
 21
157.436855
 31
0.0
  0
LINE
  5
1ED
  8
1
  6
CONTINUOUS
 62
     7
 10
163.506273
 20
113.904565
 30
0.0
 11
160.285842
 21
114.347618
 31
0.0
  0
LINE
  5
1EE
  8
1
  6
CONTINUOUS
 62
     7
 10
94.508524
 20
117.351089
 30
0.0
 11
91.257759
 21
117.351089
 31
0.0
  0
LINE
  5
1EF
  8
1
  6
CONTINUOUS
 62
     7
 10
163.301835
 20
123.783616
 30
0.0
 11
160.081404
 21
123.340563
 31
0.0
  0
LINE
  5
1F0
  8
1
  6
CONTINUOUS
 62
     7
 10
159.06328
 20
108.469923
 30
0.0
 11
162.193275
 21
107.592086
 31
0.0
  0
LINE
  5
1F1
  8
1
  6
CONTINUOUS
 62
     7
 10
133.362947
 20
87.609642
 30
0.0
 11
134.221409
 21
82.479675
 31
0.0
  0
LINE
  5
1F2
  8
1
  6
CONTINUOUS
 62
     7
 10
160.491476
 20
117.351089
 30
0.0
 11
163.742241
 21
117.351089
 31
0.0
  0
LINE
  5
1F3
  8
1
  6
CONTINUOUS
 62
     7
 10
116.40982
 20
83.589201
 30
0.0
 11
118.103197
 21
88.507127
 31
0.0
  0
LINE
  5
1F4
  8
1
  6
CONTINUOUS
 62
     7
 10
142.97057
 20
145.02253
 30
0.0
 11
145.452415
 21
149.593521
 31
0.0
  0
LINE
  5
1F5
  8
1
  6
CONTINUOUS
 62
     7
 10
122.258019
 20
82.232103
 30
0.0
 11
123.116481
 21
87.36207
 31
0.0
  0
LINE
  5
1F6
  8
1
  6
CONTINUOUS
 62
     7
 10
153.941603
 20
134.378194
 30
0.0
 11
158.30378
 21
137.211025
 31
0.0
  0
LINE
  5
1F7
  8
1
  6
CONTINUOUS
 62
     7
 10
153.941603
 20
101.823984
 30
0.0
 11
158.30378
 21
98.991153
 31
0.0
  0
LINE
  5
1F8
  8
1
  6
CONTINUOUS
 62
     7
 10
132.741981
 20
153.970075
 30
0.0
 11
131.883519
 21
148.840108
 31
0.0
  0
ENDSEC
  0
EOF
