  0
SECTION
  2
HEADER
  9
$ACADVER
  1
AC1004
  9
$INSBASE
 10
0.0
 20
0.0
  9
$EXTMIN
 10
-230.1473376623
 20
81.39604343419589
  9
$EXTMAX
 10
-72.5160530381
 20
146.85
  9
$LIMMIN
 10
0.0
 20
0.0
  9
$LIMMAX
 10
12.0
 20
9.0
  9
$ORTHOMODE
 70
     0
  9
$REGENMODE
 70
     1
  9
$FILLMODE
 70
     1
  9
$QTEXTMODE
 70
     0
  9
$DRAGMODE
 70
     2
  9
$LTSCALE
 40
1.0
  9
$OSMODE
 70
    37
  9
$ATTMODE
 70
     1
  9
$TEXTSIZE
 40
0.2
  9
$TRACEWID
 40
0.05
  9
$TEXTSTYLE
  7
STANDARD
  9
$CLAYER
  8
0
  9
$CELTYPE
  6
BYLAYER
  9
$CECOLOR
 62
   256
  9
$DIMSCALE
 40
1.0
  9
$DIMASZ
 40
3.0
  9
$DIMEXO
 40
0.0625
  9
$DIMDLI
 40
0.38
  9
$DIMRND
 40
0.0
  9
$DIMDLE
 40
0.0
  9
$DIMEXE
 40
1.5
  9
$DIMTP
 40
0.0
  9
$DIMTM
 40
0.0
  9
$DIMTXT
 40
3.5
  9
$DIMCEN
 40
0.09
  9
$DIMTSZ
 40
0.0
  9
$DIMTOL
 70
     0
  9
$DIMLIM
 70
     0
  9
$DIMTIH
 70
     1
  9
$DIMTOH
 70
     1
  9
$DIMSE1
 70
     0
  9
$DIMSE2
 70
     0
  9
$DIMTAD
 70
     1
  9
$DIMZIN
 70
     0
  9
$DIMBLK
  1

  9
$DIMASO
 70
     1
  9
$DIMSHO
 70
     1
  9
$DIMPOST
  1

  9
$DIMAPOST
  1

  9
$DIMALT
 70
     0
  9
$DIMALTD
 70
     2
  9
$DIMALTF
 40
25.4
  9
$DIMLFAC
 40
1.0
  9
$DIMTOFL
 70
     0
  9
$DIMTVP
 40
0.0
  9
$DIMTIX
 70
     0
  9
$DIMSOXD
 70
     0
  9
$DIMSAH
 70
     0
  9
$DIMBLK1
  1

  9
$DIMBLK2
  1

  9
$LUNITS
 70
     2
  9
$LUPREC
 70
     4
  9
$SKETCHINC
 40
0.1
  9
$FILLETRAD
 40
0.5
  9
$AUNITS
 70
     0
  9
$AUPREC
 70
     0
  9
$MENU
  1
.
  9
$ELEVATION
 40
0.0
  9
$THICKNESS
 40
0.0
  9
$LIMCHECK
 70
     0
  9
$CHAMFERA
 40
0.0
  9
$CHAMFERB
 40
0.0
  9
$SKPOLY
 70
     0
  9
$TDCREATE
 40
2459299.404952998
  9
$TDUPDATE
 40
2459299.404953287
  9
$TDINDWG
 40
0.0000000116
  9
$TDUSRTIMER
 40
0.0000000116
  9
$USRTIMER
 70
     1
  9
$ANGBASE
 50
0.0
  9
$ANGDIR
 70
     0
  9
$PDMODE
 70
     0
  9
$PDSIZE
 40
0.0
  9
$PLINEWID
 40
0.0
  9
$COORDS
 70
     1
  9
$SPLFRAME
 70
     0
  9
$SPLINETYPE
 70
     6
  9
$SPLINESEGS
 70
     8
  9
$ATTDIA
 70
     0
  9
$ATTREQ
 70
     1
  9
$SURFTAB1
 70
     6
  9
$SURFTAB2
 70
     6
  9
$SURFTYPE
 70
     6
  9
$SURFU
 70
     6
  9
$SURFV
 70
     6
  9
$UCSNAME
  2

  9
$UCSORG
 10
0.0
 20
0.0
 30
0.0
  9
$UCSXDIR
 10
1.0
 20
0.0
 30
0.0
  9
$UCSYDIR
 10
0.0
 20
1.0
 30
0.0
  9
$USERI1
 70
     0
  9
$USERI2
 70
     0
  9
$USERI3
 70
     0
  9
$USERI4
 70
     0
  9
$USERI5
 70
     0
  9
$USERR1
 40
0.0
  9
$USERR2
 40
0.0
  9
$USERR3
 40
0.0
  9
$USERR4
 40
0.0
  9
$USERR5
 40
0.0
  9
$WORLDVIEW
 70
     1
  0
ENDSEC
  0
SECTION
  2
TABLES
  0
TABLE
  2
LTYPE
 70
     2
  0
LTYPE
  2
CONTINUOUS
 70
     0
  3
Solid line
 72
    65
 73
     0
 40
0.0
  0
LTYPE
  2
CENTER
 70
     0
  3

 72
    65
 73
     0
 40
0.0
  0
ENDTAB
  0
TABLE
  2
LAYER
 70
     2
  0
LAYER
  2
0
 70
     0
 62
     7
  6
CONTINUOUS
  0
LAYER
  2
1
 70
     0
 62
     7
  6
CONTINUOUS
  0
ENDTAB
  0
TABLE
  2
STYLE
 70
     2
  0
STYLE
  2
STANDARD
 70
     0
 40
0.0
 41
1.0
 50
0.0
 71
     0
 42
0.2
  3
txt
  4

  0
STYLE
  2
ＭＳ_ゴシック
 70
     0
 40
0.0
 41
1.0
 50
0.0
 71
     0
 42
0.2
  3
ＭＳ ゴシック.shx
  4

  0
ENDTAB
  0
TABLE
  2
VIEW
 70
     0
  0
ENDTAB
  0
ENDSEC
  0
SECTION
  2
BLOCKS
  0
ENDSEC
  0
SECTION
  2
ENTITIES
  0
LINE
  8
1
  6
CONTINUOUS
 62
     7
 10
-139.6
 20
141.85
 11
-139.6
 21
137.45
  0
LINE
  8
1
  6
CONTINUOUS
 62
     7
 10
-83.4
 20
104.0
 11
-84.4
 21
104.0
  0
ARC
  8
1
  6
CONTINUOUS
 62
     7
 10
-205.4973376623
 20
119.5
 40
18.15
 50
168.6119845367
 51
173.3880154633
  0
LINE
  8
1
  6
CONTINUOUS
 62
     7
 10
-83.4
 20
135.0
 11
-84.4
 21
135.0
  0
ARC
  8
1
  6
CONTINUOUS
 62
     7
 10
-83.4
 20
134.5
 40
0.5
 50
0.0
 51
90.0
  0
ARC
  8
1
  6
CONTINUOUS
 62
     7
 10
-205.4973376623
 20
119.5
 40
18.15
 50
45.6317314959
 51
50.3682685041
  0
LINE
  8
1
  6
CONTINUOUS
 62
     7
 10
-130.1213203436
 20
140.9713203436
 11
-126.6
 21
137.45
  0
LINE
  8
1
  6
CONTINUOUS
 62
     7
 10
-187.7034317562
 20
115.9223733275
 11
-190.2739843541
 21
116.3295088621
  0
ARC
  8
1
  6
CONTINUOUS
 62
     7
 10
-132.2426406871
 20
138.85
 40
3.0
 50
45.0
 51
90.0
  0
ARC
  8
1
  6
CONTINUOUS
 62
     7
 10
-205.4973376623
 20
119.5
 40
18.15
 50
348.6119845367
 51
353.3880154633
  0
LINE
  8
1
  6
CONTINUOUS
 62
     7
 10
-130.1213203436
 20
98.0286796564
 11
-126.6
 21
101.55
  0
LINE
  8
1
  6
CENTER
 62
     7
 10
-205.4973376623
 20
146.85
 11
-205.4973376623
 21
92.15
  0
CIRCLE
  8
1
  6
CONTINUOUS
 62
     7
 10
-205.4973376623
 20
119.5
 40
19.65
  0
LINE
  8
1
  6
CONTINUOUS
 62
     7
 10
-188.9988891917
 20
111.9353653053
 11
-191.3178181912
 21
113.1169186461
  0
ARC
  8
1
  6
CONTINUOUS
 62
     7
 10
-205.4973376623
 20
119.5
 40
15.0
 50
92.8659839826
 51
108.1340160174
  0
LINE
  8
1
  6
CONTINUOUS
 62
     7
 10
-199.6987002929
 20
102.3012121166
 11
-201.1516882538
 21
106.0863751648
  0
LINE
  8
1
  6
CONTINUOUS
 62
     7
 10
-218.1890435974
 20
106.5252899664
 11
-215.4760813568
 21
109.538339783
  0
ARC
  8
1
  6
CONTINUOUS
 62
     7
 10
-84.4
 20
134.5
 40
0.5
 50
90.0
 51
180.0
  0
LINE
  8
1
  6
CONTINUOUS
 62
     7
 10
-198.2983296531
 20
136.1612359591
 11
-199.7513176141
 21
132.3760729108
  0
ARC
  8
1
  6
CONTINUOUS
 62
     7
 10
-205.4973376623
 20
119.5
 40
14.1
 50
114.0490868152
 51
128.9509131848
  0
ARC
  8
1
  6
CONTINUOUS
 62
     7
 10
-205.4973376623
 20
119.5
 40
14.1
 50
252.0490868152
 51
266.9509131848
  0
ARC
  8
1
  6
CONTINUOUS
 62
     7
 10
-205.4973376623
 20
119.5
 40
15.0
 50
134.8659839826
 51
150.1340160174
  0
ARC
  8
1
  6
CONTINUOUS
 62
     7
 10
-205.4973376623
 20
119.5
 40
15.0
 50
230.8659839826
 51
246.1340160174
  0
ARC
  8
1
  6
CONTINUOUS
 62
     7
 10
-205.4973376623
 20
119.5
 40
15.0
 50
293.8659839826
 51
309.1340160174
  0
ARC
  8
1
  6
CONTINUOUS
 62
     7
 10
-205.4973376623
 20
119.5
 40
15.0
 50
251.8659839826
 51
267.1340160173999
  0
LINE
  8
1
  6
CONTINUOUS
 62
     7
 10
-217.0743263591
 20
105.5215940568
 11
-214.3613641186
 21
108.5346438734
  0
LINE
  8
1
  6
CONTINUOUS
 62
     7
 10
-192.8056317272
 20
132.4747100336
 11
-195.5185939678
 21
129.461660217
  0
ARC
  8
1
  6
CONTINUOUS
 62
     7
 10
-205.4973376623
 20
119.5
 40
18.15
 50
246.6317314959
 51
251.3682685041
  0
ARC
  8
1
  6
CONTINUOUS
 62
     7
 10
-205.4973376623
 20
119.5
 40
14.1
 50
294.0490868151999
 51
308.9509131848
  0
LINE
  8
1
  6
CONTINUOUS
 62
     7
 10
-156.2786796565
 20
98.0286796564
 11
-158.1
 21
99.85
  0
ARC
  8
1
  6
CONTINUOUS
 62
     7
 10
-205.4973376623
 20
119.5
 40
15.0
 50
272.8659839826
 51
288.1340160174
  0
LINE
  8
1
  6
CONTINUOUS
 62
     7
 10
-160.1
 20
137.9
 11
-160.1
 21
101.1
  0
ARC
  8
1
  6
CONTINUOUS
 62
     7
 10
-205.4973376623
 20
119.5
 40
14.1
 50
273.0490868152
 51
287.9509131848
  0
LINE
  8
1
  6
CONTINUOUS
 62
     7
 10
-204.7473376623
 20
137.6344975116
 11
-204.7473376623
 21
133.5800390624
  0
ARC
  8
1
  6
CONTINUOUS
 62
     7
 10
-205.4973376623
 20
119.5
 40
18.15
 50
225.6317314959
 51
230.3682685041
  0
LINE
  8
1
  6
CONTINUOUS
 62
     7
 10
-207.9973376623
 20
99.5745765415
 11
-207.9973376623
 21
97.2902611452
  0
CIRCLE
  8
1
  6
CONTINUOUS
 62
     7
 10
-205.4973376623
 20
119.5
 40
11.0
  0
ARC
  8
1
  6
CONTINUOUS
 62
     7
 10
-205.4973376623
 20
119.5
 40
22.35
 50
83.57763561560002
 51
92.5644256647
  0
ARC
  8
1
  6
CONTINUOUS
 62
     7
 10
-205.4973376623
 20
119.5
 40
14.1
 50
30.0490868152
 51
44.95091318480001
  0
ARC
  8
1
  6
CONTINUOUS
 62
     7
 10
-205.4973376623
 20
119.5
 40
15.0
 50
29.8659839826
 51
45.13401601740001
  0
ARC
  8
1
  6
CONTINUOUS
 62
     7
 10
-205.4973376623
 20
119.5
 40
14.1
 50
135.0490868152
 51
149.9509131848
  0
LINE
  8
1
  6
CONTINUOUS
 62
     7
 10
-211.2959750317
 20
102.3012121166
 11
-209.8429870707
 21
106.0863751648
  0
LINE
  8
1
  6
CONTINUOUS
 62
     7
 10
-193.9203489654
 20
133.4784059432
 11
-196.633311206
 21
130.4653561265
  0
LINE
  8
1
  6
CONTINUOUS
 62
     7
 10
-204.7473376623
 20
101.3655024884
 11
-204.7473376623
 21
105.4199609375
  0
ARC
  8
1
  6
CONTINUOUS
 62
     7
 10
-205.4973376623
 20
119.5
 40
15.0
 50
50.86598398260001
 51
66.1340160174
  0
LINE
  8
1
  6
CONTINUOUS
 62
     7
 10
-189.6798749413
 20
128.401144481
 11
-193.2924238716
 21
126.5604588635
  0
LINE
  8
1
  6
CONTINUOUS
 62
     7
 10
-198.2983296531
 20
102.8387640409
 11
-199.7513176141
 21
106.6239270891
  0
LINE
  8
1
  6
CONTINUOUS
 62
     7
 10
-206.2473376623
 20
137.6344975116
 11
-206.2473376623
 21
133.5800390624
  0
ARC
  8
1
  6
CONTINUOUS
 62
     7
 10
-205.4973376623
 20
119.5
 40
14.1
 50
51.0490868152
 51
65.9509131848
  0
LINE
  8
1
  6
CONTINUOUS
 62
     7
 10
-218.1890435974
 20
132.4747100336
 11
-215.4760813568
 21
129.461660217
  0
ARC
  8
1
  6
CONTINUOUS
 62
     7
 10
-205.4973376623
 20
119.5
 40
18.15
 50
204.6317314959
 51
209.3682685041
  0
LINE
  8
1
  6
CONTINUOUS
 62
     7
 10
-193.9203489654
 20
105.5215940568
 11
-196.633311206
 21
108.5346438735
  0
ARC
  8
1
  6
CONTINUOUS
 62
     7
 10
-205.4973376623
 20
119.5
 40
14.1
 50
93.0490868152
 51
107.9509131848
  0
ARC
  8
1
  6
CONTINUOUS
 62
     7
 10
-205.4973376623
 20
119.5
 40
14.1
 50
315.0490868152
 51
329.9509131848
  0
LINE
  8
1
  6
CONTINUOUS
 62
     7
 10
-192.8056317272
 20
106.5252899664
 11
-195.5185939678
 21
109.538339783
  0
LINE
  8
1
  6
CONTINUOUS
 62
     7
 10
-206.2473376623
 20
101.3655024884
 11
-206.2473376623
 21
105.4199609376
  0
LINE
  8
1
  6
CONTINUOUS
 62
     7
 10
-212.6963456714
 20
102.8387640409
 11
-211.2433577105
 21
106.6239270891
  0
LINE
  8
1
  6
CONTINUOUS
 62
     7
 10
-211.2959750317
 20
136.6987878834
 11
-209.8429870707
 21
132.9136248352
  0
LINE
  8
1
  6
CONTINUOUS
 62
     7
 10
-221.3148003832
 20
128.401144481
 11
-217.7022514529
 21
126.5604588635
  0
LINE
  8
1
  6
CONTINUOUS
 62
     7
 10
-217.0743263591
 20
133.4784059432
 11
-214.3613641186
 21
130.4653561265
  0
LINE
  8
1
  6
CONTINUOUS
 62
     7
 10
-189.6798749413
 20
110.598855519
 11
-193.2924238716
 21
112.4395411365
  0
ARC
  8
1
  6
CONTINUOUS
 62
     7
 10
-205.4973376623
 20
119.5
 40
15.0
 50
314.8659839826
 51
330.1340160174
  0
ARC
  8
1
  6
CONTINUOUS
 62
     7
 10
-205.4973376623
 20
119.5
 40
14.1
 50
72.0490868152
 51
86.95091318480002
  0
ARC
  8
1
  6
CONTINUOUS
 62
     7
 10
-205.4973376623
 20
119.5
 40
14.1
 50
210.0490868152
 51
224.9509131848
  0
ARC
  8
1
  6
CONTINUOUS
 62
     7
 10
-205.4973376623
 20
119.5
 40
18.15
 50
267.6317314959
 51
272.3682685041
  0
LINE
  8
1
  6
CONTINUOUS
 62
     7
 10
-199.6987002929
 20
136.6987878834
 11
-201.1516882538
 21
132.9136248352
  0
ARC
  8
1
  6
CONTINUOUS
 62
     7
 10
-205.4973376623
 20
119.5
 40
15.0
 50
113.8659839826
 51
129.1340160174
  0
ARC
  8
1
  6
CONTINUOUS
 62
     7
 10
-205.4973376623
 20
119.5
 40
15.0
 50
209.8659839826
 51
225.1340160174
  0
ARC
  8
1
  6
CONTINUOUS
 62
     7
 10
-205.4973376623
 20
119.5
 40
15.0
 50
71.86598398260001
 51
87.13401601739999
  0
ARC
  8
1
  6
CONTINUOUS
 62
     7
 10
-205.4973376623
 20
119.5
 40
14.1
 50
231.0490868152
 51
245.9509131848
  0
ARC
  8
1
  6
CONTINUOUS
 62
     7
 10
-203.9973376623
 20
99.4059088288
 40
0.5
 50
94.2691436693
 51
180.0
  0
LINE
  8
1
  6
CONTINUOUS
 62
     7
 10
-221.3148003832
 20
110.598855519
 11
-217.7022514529
 21
112.4395411365
  0
LINE
  8
1
  6
CONTINUOUS
 62
     7
 10
-212.6963456714
 20
136.1612359591
 11
-211.2433577105
 21
132.3760729109
  0
LINE
  8
1
  6
CONTINUOUS
 62
     7
 10
-82.9
 20
104.5
 11
-82.9
 21
134.5
  0
ARC
  8
1
  6
CONTINUOUS
 62
     7
 10
-205.4973376623
 20
119.5
 40
18.15
 50
186.6119845367
 51
191.3880154633
  0
LINE
  8
1
  6
CENTER
 62
     7
 10
-120.4
 20
99.6213909736
 11
-120.4
 21
139.7865869773
  0
LINE
  8
1
  6
CONTINUOUS
 62
     7
 10
-84.9
 20
134.5
 11
-84.9
 21
104.5
  0
LINE
  8
1
  6
CONTINUOUS
 62
     7
 10
-187.4687800587
 20
121.5960941616
 11
-190.0393326566
 21
121.188958627
  0
LINE
  8
1
  6
CONTINUOUS
 62
     7
 10
-223.5258952659
 20
117.4039058384
 11
-220.955342668
 21
117.811041373
  0
LINE
  8
1
  6
CONTINUOUS
 62
     7
 10
-223.2912435683
 20
115.9223733275
 11
-220.7206909704
 21
116.3295088621
  0
LINE
  8
1
  6
CONTINUOUS
 62
     7
 10
-121.9
 20
137.45
 11
-118.9000000004
 21
134.5
  0
ARC
  8
1
  6
CONTINUOUS
 62
     7
 10
-205.4973376623
 20
119.5
 40
15.55
 50
353.764534588
 51
6.235465411999996
  0
ARC
  8
1
  6
CONTINUOUS
 62
     7
 10
-83.4
 20
104.5
 40
0.5
 50
270.0
 51
0.0
  0
ARC
  8
1
  6
CONTINUOUS
 62
     7
 10
-132.2426406871
 20
100.15
 40
3.0
 50
270.0
 51
315.0
  0
LINE
  8
1
  6
CONTINUOUS
 62
     7
 10
-141.35
 20
139.15
 11
-158.85
 21
139.15
  0
ARC
  8
1
  6
CONTINUOUS
 62
     7
 10
-205.4973376623
 20
119.5
 40
18.15
 50
330.6317314959
 51
335.3880154633
  0
LINE
  8
1
  6
CONTINUOUS
 62
     7
 10
-223.5258952659
 20
121.5960941616
 11
-220.955342668
 21
121.188958627
  0
ARC
  8
1
  6
CONTINUOUS
 62
     7
 10
-158.85
 20
137.9
 40
1.25
 50
90.0
 51
180.0
  0
ARC
  8
1
  6
CONTINUOUS
 62
     7
 10
-141.35
 20
101.1
 40
1.25
 50
270.0
 51
0.0
  0
LINE
  8
1
  6
CENTER
 62
     7
 10
-230.1473376623
 20
119.5
 11
-180.8473376623
 21
119.5
  0
ARC
  8
1
  6
CONTINUOUS
 62
     7
 10
-205.4973376623
 20
119.5
 40
18.15
 50
129.6317314959
 51
134.3682685041
  0
ARC
  8
1
  6
CONTINUOUS
 62
     7
 10
-205.4973376623
 20
119.5
 40
15.55
 50
173.764534588
 51
186.235465412
  0
ARC
  8
1
  6
CONTINUOUS
 62
     7
 10
-205.4973376623
 20
119.5
 40
15.55
 50
191.764534588
 51
204.235465412
  0
ARC
  8
1
  6
CONTINUOUS
 62
     7
 10
-205.4973376623
 20
119.5
 40
18.15
 50
309.6317314959
 51
314.3682685041
  0
ARC
  8
1
  6
CONTINUOUS
 62
     7
 10
-205.4973376623
 20
119.5
 40
18.15
 50
288.6317314959001
 51
293.3682685041
  0
LINE
  8
1
  6
CONTINUOUS
 62
     7
 10
-140.1
 20
141.85
 11
-140.1000000001
 21
97.15
  0
ARC
  8
1
  6
CONTINUOUS
 62
     7
 10
-158.85
 20
101.1
 40
1.25
 50
180.0
 51
270.0
  0
ARC
  8
1
  6
CONTINUOUS
 62
     7
 10
-205.4973376623
 20
119.5
 40
18.15
 50
6.6119845367
 51
11.3880154633
  0
LINE
  8
1
  6
CONTINUOUS
 62
     7
 10
-187.4687800587
 20
117.4039058384
 11
-190.0393326566
 21
117.811041373
  0
LINE
  8
1
  6
CONTINUOUS
 62
     7
 10
-221.9957861328
 20
127.0646346947
 11
-219.6768571333
 21
125.8830813539
  0
ARC
  8
1
  6
CONTINUOUS
 62
     7
 10
-141.35
 20
137.9
 40
1.25
 50
0.0
 51
90.0
  0
LINE
  8
1
  6
CENTER
 62
     7
 10
-72.5160530381
 20
119.5
 11
-165.1
 21
119.5
  0
LINE
  8
1
  6
CONTINUOUS
 62
     7
 10
-221.9957861328
 20
111.9353653053
 11
-219.6768571333
 21
113.1169186461
  0
LINE
  8
1
  6
CONTINUOUS
 62
     7
 10
-118.9
 20
134.5
 11
-118.9
 21
104.5
  0
LINE
  8
1
  6
CONTINUOUS
 62
     7
 10
-121.9
 20
101.55
 11
-118.9
 21
104.5
  0
LINE
  8
1
  6
CONTINUOUS
 62
     7
 10
-141.35
 20
99.85
 11
-158.85
 21
99.85
  0
LINE
  8
1
  6
CONTINUOUS
 62
     7
 10
-132.2426406871
 20
141.85
 11
-139.6
 21
141.85
  0
LINE
  8
1
  6
CONTINUOUS
 62
     7
 10
-84.9
 20
104.5
 11
-118.9
 21
104.5
  0
LINE
  8
1
  6
CONTINUOUS
 62
     7
 10
-187.7034317562
 20
123.0776266725
 11
-190.2739843541
 21
122.6704911379
  0
LINE
  8
1
  6
CONTINUOUS
 62
     7
 10
-118.9
 20
134.5
 11
-84.9
 21
134.5
  0
ARC
  8
1
  6
CONTINUOUS
 62
     7
 10
-205.4973376623
 20
119.5
 40
15.55
 50
335.7645345880001
 51
348.235465412
  0
LINE
  8
1
  6
CONTINUOUS
 62
     7
 10
-132.2426406871
 20
97.15
 11
-139.6
 21
97.15
  0
ARC
  8
1
  6
CONTINUOUS
 62
     7
 10
-205.4973376623
 20
119.5
 40
18.15
 50
108.6317314959
 51
113.3682685041
  0
ARC
  8
1
  6
CONTINUOUS
 62
     7
 10
-205.4973376623
 20
119.5
 40
18.15
 50
150.6317314959
 51
155.3682685041
  0
LINE
  8
1
  6
CONTINUOUS
 62
     7
 10
-223.2912435683
 20
123.0776266725
 11
-220.7206909704
 21
122.6704911379
  0
ARC
  8
1
  6
CONTINUOUS
 62
     7
 10
-205.4973376623
 20
119.5
 40
15.55
 50
155.764534588
 51
168.235465412
  0
LINE
  8
1
  6
CONTINUOUS
 62
     7
 10
-188.9988891917
 20
127.0646346947
 11
-191.3178181912
 21
125.8830813539
  0
ARC
  8
1
  6
CONTINUOUS
 62
     7
 10
-84.4
 20
104.5
 40
0.5
 50
180.0
 51
270.0
  0
ARC
  8
1
  6
CONTINUOUS
 62
     7
 10
-205.4973376623
 20
119.5
 40
18.15
 50
87.63173149589998
 51
92.3682685041
  0
ARC
  8
1
  6
CONTINUOUS
 62
     7
 10
-205.4973376623
 20
119.5
 40
18.15
 50
24.6119845367
 51
29.3682685041
  0
LINE
  8
1
  6
CONTINUOUS
 62
     7
 10
-139.6
 20
97.15
 11
-139.6
 21
101.55
  0
ARC
  8
1
  6
CONTINUOUS
 62
     7
 10
-205.4973376623
 20
119.5
 40
18.15
 50
66.6317314959
 51
71.3682685041
  0
ARC
  8
1
  6
CONTINUOUS
 62
     7
 10
-205.4973376623
 20
119.5
 40
15.55
 50
11.764534588
 51
24.235465412
  0
TEXT
  8
1
  6
CONTINUOUS
 62
     5
 10
-221.5314029668329
 20
81.03013434328679
 40
3.5
  1
ＭＦＳＶＥ－２２Ｇ
 41
0.745988
 51
15.0
  0
LINE
  8
1
  6
CONTINUOUS
 62
     7
 10
-202.9973376623
 20
139.4254234585
 11
-202.9973376623
 21
141.7097388548
  0
ARC
  8
1
  6
CONTINUOUS
 62
     7
 10
-208.4973376623
 20
99.5745765415
 40
0.5
 50
0.0
 51
81.4377779593
  0
LINE
  8
1
  6
CONTINUOUS
 62
   253
 10
-121.9
 20
138.0
 11
-121.9
 21
101.0
  0
LINE
  8
0
  6
CONTINUOUS
 62
     7
 10
-121.9
 20
138.0
 11
-123.9
 21
138.0
  0
LINE
  8
1
  6
CONTINUOUS
 62
     7
 10
-204.4973376623
 20
99.4059088288
 11
-204.4973376623
 21
97.1723825723
  0
LINE
  8
0
  6
CONTINUOUS
 62
     7
 10
-121.9
 20
101.0
 11
-123.9
 21
101.0
  0
LINE
  8
1
  6
CONTINUOUS
 62
     7
 10
-154.1573593129
 20
97.15
 11
-140.1000000001
 21
97.15
  0
LINE
  8
1
  6
CONTINUOUS
 62
     7
 10
-154.1573593129
 20
141.85
 11
-140.1000000001
 21
141.85
  0
LINE
  8
1
  6
CONTINUOUS
 62
     7
 10
-206.4973376623
 20
139.5940911712
 11
-206.4973376623
 21
141.8276174277
  0
LINE
  8
1
  6
CONTINUOUS
 62
     7
 10
-156.2786796565
 20
140.9713203436
 11
-158.1
 21
139.15
  0
LINE
  8
1
  6
CONTINUOUS
 62
     7
 10
-123.9
 20
137.45
 11
-140.1000000005
 21
137.45
  0
ARC
  8
1
  6
CONTINUOUS
 62
     7
 10
-154.1573593129
 20
138.85
 40
3.0
 50
90.0
 51
135.0
  0
LINE
  8
0
  6
CONTINUOUS
 62
     7
 10
-123.9
 20
138.0
 11
-123.9
 21
101.0
  0
ARC
  8
1
  6
CONTINUOUS
 62
     7
 10
-205.4973376623
 20
119.5
 40
22.35
 50
263.5776356156
 51
272.5644256647001
  0
LINE
  8
1
  6
CONTINUOUS
 62
     7
 10
-123.9
 20
101.55
 11
-140.1000000005
 21
101.55
  0
ARC
  8
1
  6
CONTINUOUS
 62
     7
 10
-154.1573593129
 20
100.15
 40
3.0
 50
225.0
 51
270.0
  0
ARC
  8
1
  6
CONTINUOUS
 62
     7
 10
-206.9973376623
 20
139.5940911712
 40
0.5
 50
274.2691436693
 51
0.0
  0
ARC
  8
1
  6
CONTINUOUS
 62
     7
 10
-202.4973376623
 20
139.4254234585
 40
0.5
 50
180.0
 51
261.4377779593
  0
ENDSEC
  0
EOF
