  0
SECTION
  2
HEADER
  9
$ACADVER
  1
AC1006
  9
$DWGCODEPAGE
  3
ansi_932
  9
$INSBASE
 10
0.0
 20
0.0
 30
0.0
  9
$EXTMIN
 10
32.6032864951142
 20
-153.3704545453545
  9
$EXTMAX
 10
177.5
 20
-70.00000000000011
  9
$LIMMIN
 10
0.0
 20
0.0
  9
$LIMMAX
 10
12.0
 20
9.0
  9
$ORTHOMODE
 70
     0
  9
$REGENMODE
 70
     1
  9
$FILLMODE
 70
     1
  9
$QTEXTMODE
 70
     0
  9
$MIRRTEXT
 70
     1
  9
$DRAGMODE
 70
     2
  9
$LTSCALE
 40
1.0
  9
$OSMODE
 70
    37
  9
$ATTMODE
 70
     1
  9
$TEXTSIZE
 40
0.2
  9
$TRACEWID
 40
0.05
  9
$TEXTSTYLE
  7
STANDARD
  9
$CLAYER
  8
0
  9
$CELTYPE
  6
BYLAYER
  9
$CECOLOR
 62
   256
  9
$DIMSCALE
 40
1.0
  9
$DIMASZ
 40
3.0
  9
$DIMEXO
 40
0.0625
  9
$DIMDLI
 40
0.38
  9
$DIMRND
 40
0.0
  9
$DIMDLE
 40
0.0
  9
$DIMEXE
 40
1.5
  9
$DIMTP
 40
0.0
  9
$DIMTM
 40
0.0
  9
$DIMTXT
 40
3.0
  9
$DIMCEN
 40
0.09
  9
$DIMTSZ
 40
0.0
  9
$DIMTOL
 70
     0
  9
$DIMLIM
 70
     0
  9
$DIMTIH
 70
     1
  9
$DIMTOH
 70
     1
  9
$DIMSE1
 70
     0
  9
$DIMSE2
 70
     0
  9
$DIMTAD
 70
     1
  9
$DIMZIN
 70
     0
  9
$DIMBLK
  1

  9
$DIMASO
 70
     1
  9
$DIMSHO
 70
     1
  9
$DIMPOST
  1

  9
$DIMAPOST
  1

  9
$DIMALT
 70
     0
  9
$DIMALTD
 70
     2
  9
$DIMALTF
 40
25.4
  9
$DIMLFAC
 40
1.0
  9
$DIMTOFL
 70
     0
  9
$DIMTVP
 40
0.0
  9
$DIMTIX
 70
     0
  9
$DIMSOXD
 70
     0
  9
$DIMSAH
 70
     0
  9
$DIMBLK1
  1

  9
$DIMBLK2
  1

  9
$LUNITS
 70
     2
  9
$LUPREC
 70
     4
  9
$SKETCHINC
 40
0.1
  9
$FILLETRAD
 40
0.5
  9
$AUNITS
 70
     0
  9
$AUPREC
 70
     0
  9
$MENU
  1
.
  9
$ELEVATION
 40
0.0
  9
$THICKNESS
 40
0.0
  9
$LIMCHECK
 70
     0
  9
$CHAMFERA
 40
0.0
  9
$CHAMFERB
 40
0.0
  9
$SKPOLY
 70
     0
  9
$TDCREATE
 40
2460774.557885706
  9
$TDUPDATE
 40
2460774.557885891
  9
$TDINDWG
 40
0.0000000116
  9
$TDUSRTIMER
 40
0.0000000116
  9
$USRTIMER
 70
     1
  9
$ANGBASE
 50
0.0
  9
$ANGDIR
 70
     0
  9
$PDMODE
 70
     0
  9
$PDSIZE
 40
0.0
  9
$PLINEWID
 40
0.0
  9
$COORDS
 70
     1
  9
$SPLFRAME
 70
     0
  9
$SPLINETYPE
 70
     6
  9
$SPLINESEGS
 70
     8
  9
$ATTDIA
 70
     0
  9
$ATTREQ
 70
     1
  9
$HANDLING
 70
     1
  9
$HANDSEED
  5
AB
  9
$SURFTAB1
 70
     6
  9
$SURFTAB2
 70
     6
  9
$SURFTYPE
 70
     6
  9
$SURFU
 70
     6
  9
$SURFV
 70
     6
  9
$UCSNAME
  2

  9
$UCSORG
 10
0.0
 20
0.0
 30
0.0
  9
$UCSXDIR
 10
1.0
 20
0.0
 30
0.0
  9
$UCSYDIR
 10
0.0
 20
1.0
 30
0.0
  9
$USERI1
 70
     0
  9
$USERI2
 70
     0
  9
$USERI3
 70
     0
  9
$USERI4
 70
     0
  9
$USERI5
 70
     0
  9
$USERR1
 40
0.0
  9
$USERR2
 40
0.0
  9
$USERR3
 40
0.0
  9
$USERR4
 40
0.0
  9
$USERR5
 40
0.0
  9
$WORLDVIEW
 70
     1
  0
ENDSEC
  0
SECTION
  2
TABLES
  0
TABLE
  2
VPORT
 70
     1
  0
VPORT
  2
*ACTIVE
 70
     0
 10
0.0
 20
0.0
 11
1.0
 21
1.0
 12
105.0516432475571
 22
-111.6852272726773
 13
0.0
 23
0.0
 14
0.5
 24
0.5
 15
0.5
 25
0.5
 16
0.0
 26
0.0
 36
1.0
 17
0.0
 27
0.0
 37
0.0
 40
83.37045454535442
 41
1.6
 42
50.0
 43
0.0
 44
0.0
 50
0.0
 51
0.0
 71
     0
 72
   100
 73
     1
 74
     3
 75
     0
 76
     0
 77
     0
 78
     0
  0
ENDTAB
  0
TABLE
  2
LTYPE
 70
     2
  0
LTYPE
  2
CONTINUOUS
 70
     0
  3
Solid line
 72
    65
 73
     0
 40
0.0
  0
LTYPE
  2
CENTER
 70
     0
  3

 72
    65
 73
     0
 40
0.0
  0
ENDTAB
  0
TABLE
  2
LAYER
 70
     1
  0
LAYER
  2
0
 70
     0
 62
     7
  6
CONTINUOUS
  0
ENDTAB
  0
TABLE
  2
STYLE
 70
     2
  0
STYLE
  2
STANDARD
 70
     0
 40
0.0
 41
1.0
 50
0.0
 71
     0
 42
0.2
  3
txt
  4

  0
STYLE
  2
ＭＳ_ゴシック
 70
     0
 40
0.0
 41
1.0
 50
0.0
 71
     0
 42
0.2
  3
ＭＳ ゴシック.shx
  4

  0
ENDTAB
  0
TABLE
  2
VIEW
 70
     0
  0
ENDTAB
  0
TABLE
  2
UCS
 70
     0
  0
ENDTAB
  0
ENDSEC
  0
SECTION
  2
BLOCKS
  0
ENDSEC
  0
SECTION
  2
ENTITIES
  0
POINT
  5
6F
  8
0
 62
     1
 10
62.5
 20
-100.0
 30
0.0
  0
LINE
  5
70
  8
0
  6
CENTER
 62
     1
 10
126.5
 20
-100.0
 30
0.0
 11
138.5
 21
-100.0
 31
0.0
  0
ARC
  5
72
  8
0
  6
CONTINUOUS
 62
     7
 10
62.5
 20
-100.0
 30
0.0
 40
24.3967135048858
 50
195.23057802293
 51
344.76942197707
  0
ARC
  5
73
  8
0
  6
CONTINUOUS
 62
     7
 10
61.51899472950599
 20
-100.0
 30
0.0
 40
25.12692462931536
 50
345.5398188208159
 51
14.46018117918396
  0
LINE
  5
74
  8
0
  6
CENTER
 62
     1
 10
132.5
 20
-106.0
 30
0.0
 11
132.5
 21
-94.0
 31
0.0
  0
LINE
  5
75
  8
0
  6
CONTINUOUS
 62
     7
 10
86.03981383147142
 20
-106.4091180843501
 30
0.0
 11
85.84993389186322
 21
-106.2743717458378
 31
0.0
  0
LINE
  5
76
  8
0
  6
CONTINUOUS
 62
     7
 10
38.96018616852857
 20
-106.4091180843501
 30
0.0
 11
39.15006610813678
 21
-106.2743717458378
 31
0.0
  0
ARC
  5
77
  8
0
  6
CONTINUOUS
 62
     7
 10
62.5
 20
-100.0
 30
0.0
 40
24.39671350488581
 50
15.23057802293
 51
164.76942197707
  0
ARC
  5
78
  8
0
  6
CONTINUOUS
 62
     7
 10
63.48514426655585
 20
-100.0
 30
0.0
 40
25.1309325290832
 50
165.542175171641
 51
194.457824828359
  0
ARC
  5
79
  8
0
  6
CONTINUOUS
 62
     7
 10
43.40000000000001
 20
-100.0
 30
0.0
 40
7.796713504885797
 50
124.7116609034619
 51
235.2883390965382
  0
LINE
  5
7A
  8
0
  6
CONTINUOUS
 62
     7
 10
38.96018616852857
 20
-93.5908819156499
 30
0.0
 11
39.15006610813678
 21
-93.7256282541623
 31
0.0
  0
ARC
  5
7B
  8
0
  6
CONTINUOUS
 62
     7
 10
81.6
 20
-100.0
 30
0.0
 40
7.796713504885797
 50
304.711660903462
 51
55.28833909653809
  0
LINE
  5
7C
  8
0
  6
CONTINUOUS
 62
     7
 10
86.03981383147142
 20
-93.5908819156499
 30
0.0
 11
85.84993389186322
 21
-93.7256282541623
 31
0.0
  0
ARC
  5
7D
  8
0
  6
CONTINUOUS
 62
     7
 10
139.5
 20
-113.5
 30
0.0
 40
1.000000000000001
 50
359.9999999999998
 51
89.9999999999999
  0
LINE
  5
7E
  8
0
  6
CONTINUOUS
 62
     7
 10
174.5
 20
-93.5908819156499
 30
0.0
 11
174.5
 21
-75.60328649511422
 31
0.0
  0
LINE
  5
7F
  8
0
  6
CONTINUOUS
 62
     7
 10
140.5
 20
-120.1347551576201
 30
0.0
 11
140.5
 21
-114.237421909484
 31
0.0
  0
ARC
  5
80
  8
0
  6
CONTINUOUS
 62
     7
 10
128.5
 20
-109.5
 30
0.0
 40
3.000000000000003
 50
180.0
 51
270.0
  0
LINE
  5
81
  8
0
  6
CONTINUOUS
 62
     7
 10
139.5
 20
-112.5
 30
0.0
 11
128.5
 21
-112.5
 31
0.0
  0
LINE
  5
82
  8
0
  6
CONTINUOUS
 62
     7
 10
174.5
 20
-106.4091180843501
 30
0.0
 11
174.5
 21
-93.5908819156499
 31
0.0
  0
ARC
  5
83
  8
0
  6
CONTINUOUS
 62
     7
 10
155.4810301273398
 20
-100.0787611652961
 30
0.0
 40
9.805864368520295
 50
147.7865705380098
 51
196.9197008020549
  0
LINE
  5
84
  8
0
  6
CONTINUOUS
 62
     7
 10
174.5
 20
-93.5908819156499
 30
0.0
 11
149.4650938580065
 21
-93.7256282541623
 31
0.0
  0
ARC
  5
85
  8
0
  6
CONTINUOUS
 62
     7
 10
139.5
 20
-86.50000000000001
 30
0.0
 40
1.000000000000001
 50
270.0
 51
359.9999999999998
  0
LINE
  5
86
  8
0
  6
CONTINUOUS
 62
     7
 10
125.5
 20
-109.5
 30
0.0
 11
125.5
 21
-90.50000000000003
 31
0.0
  0
CIRCLE
  5
87
  8
0
  6
CONTINUOUS
 62
     7
 10
132.5
 20
-100.0
 30
0.0
 40
4.000000000000004
  0
ARC
  5
88
  8
0
  6
CONTINUOUS
 62
     7
 10
149.7761163817289
 20
-102.5955952818224
 30
0.0
 40
3.691900768229839
 50
185.236958487464
 51
265.1674149669332
  0
LINE
  5
89
  8
0
  6
CONTINUOUS
 62
     7
 10
174.5
 20
-124.3967135048858
 30
0.0
 11
174.5
 21
-106.4091180843501
 31
0.0
  0
LINE
  5
8A
  8
0
  6
CONTINUOUS
 62
     7
 10
174.5
 20
-106.4091180843501
 30
0.0
 11
149.4650938580065
 21
-106.2743717458378
 31
0.0
  0
LINE
  5
8B
  8
0
  6
CONTINUOUS
 62
     7
 10
140.5
 20
-114.237421909484
 30
0.0
 11
140.5
 21
-79.8652448423799
 31
0.0
  0
ARC
  5
8C
  8
0
  6
CONTINUOUS
 62
     7
 10
149.5412797404722
 20
-96.75248667502312
 30
0.0
 40
3.027817066571708
 50
91.44182761753991
 51
141.109106306763
  0
LINE
  5
8D
  8
0
  6
CONTINUOUS
 62
     7
 10
144.4650938580063
 20
-124.1346028498768
 30
0.0
 11
174.5
 21
-124.3967135048858
 31
0.0
  0
ARC
  5
8E
  8
0
  6
CONTINUOUS
 62
     7
 10
128.5
 20
-90.50000000000003
 30
0.0
 40
3.000000000000003
 50
90.0
 51
180.0
  0
LINE
  5
8F
  8
0
  6
CONTINUOUS
 62
     7
 10
128.5
 20
-87.50000000000001
 30
0.0
 11
139.5
 21
-87.50000000000001
 31
0.0
  0
ARC
  5
90
  8
0
  6
CONTINUOUS
 62
     7
 10
144.5
 20
-120.1347551576201
 30
0.0
 40
4.000000000000004
 50
180.0
 51
269.4999999999964
  0
LINE
  5
91
  8
0
  6
CONTINUOUS
 62
     7
 10
174.5
 20
-75.60328649511422
 30
0.0
 11
144.4650938580063
 21
-75.86539715012324
 31
0.0
  0
ARC
  5
92
  8
0
  6
CONTINUOUS
 62
     7
 10
144.5
 20
-79.8652448423799
 30
0.0
 40
4.000000000000004
 50
90.50000000000361
 51
180.0
  0
LINE
  5
93
  8
0
  6
CONTINUOUS
 62
     7
 10
63.5
 20
-90.50000000000003
 30
0.0
 11
63.5
 21
-109.5
 31
0.0
  0
LINE
  5
94
  8
0
  6
CONTINUOUS
 62
     7
 10
63.5
 20
-109.5
 30
0.0
 11
63.5
 21
-112.0
 31
0.0
  0
ARC
  5
95
  8
0
  6
CONTINUOUS
 62
     7
 10
63.0
 20
-112.0
 30
0.0
 40
0.5000000000000004
 50
270.0
 51
0.0
  0
LINE
  5
96
  8
0
  6
CONTINUOUS
 62
     7
 10
63.0
 20
-112.5
 30
0.0
 11
62.0
 21
-112.5
 31
0.0
  0
LINE
  5
97
  8
0
  6
CONTINUOUS
 62
     7
 10
62.0
 20
-87.50000000000001
 30
0.0
 11
63.0
 21
-87.50000000000001
 31
0.0
  0
ARC
  5
98
  8
0
  6
CONTINUOUS
 62
     7
 10
62.0
 20
-112.0
 30
0.0
 40
0.5000000000000004
 50
180.0000000000004
 51
270.0
  0
LINE
  5
99
  8
0
  6
CONTINUOUS
 62
     7
 10
61.5
 20
-112.0
 30
0.0
 11
61.5
 21
-109.5
 31
0.0
  0
ARC
  5
9A
  8
0
  6
CONTINUOUS
 62
     7
 10
62.0
 20
-88.00000000000001
 30
0.0
 40
0.5000000000000004
 50
90.0
 51
180.0
  0
LINE
  5
9B
  8
0
  6
CONTINUOUS
 62
     7
 10
61.5
 20
-109.5
 30
0.0
 11
61.5
 21
-90.50000000000003
 31
0.0
  0
LINE
  5
9C
  8
0
  6
CONTINUOUS
 62
     7
 10
61.5
 20
-90.50000000000003
 30
0.0
 11
61.5
 21
-88.00000000000001
 31
0.0
  0
LINE
  5
9D
  8
0
  6
CENTER
 62
     1
 10
32.6032864951142
 20
-100.0
 30
0.0
 11
92.3967135048858
 21
-100.0
 31
0.0
  0
LINE
  5
9E
  8
0
  6
CENTER
 62
     1
 10
62.5
 20
-135.0
 30
0.0
 11
62.5
 21
-70.00000000000011
 31
0.0
  0
LINE
  5
9F
  8
0
  6
CENTER
 62
     1
 10
64.75
 20
-100.0
 30
0.0
 11
70.25
 21
-100.0
 31
0.0
  0
TEXT
  5
A0
  8
0
  6
CONTINUOUS
 62
     7
 10
147.2420588266158
 20
-153.6840909089909
 30
0.0
 40
3.0
  1
ＭＦＸ３６－Ｃ
  0
LINE
  5
A1
  8
0
  6
CONTINUOUS
 62
     7
 10
63.5
 20
-88.00000000000001
 30
0.0
 11
63.5
 21
-90.50000000000003
 31
0.0
  0
LINE
  5
A2
  8
0
  6
CENTER
 62
     1
 10
122.5
 20
-100.0
 30
0.0
 11
177.5
 21
-100.0
 31
0.0
  0
ARC
  5
A3
  8
0
  6
CONTINUOUS
 62
     7
 10
63.0
 20
-88.00000000000001
 30
0.0
 40
0.5000000000000004
 50
0.0000000000000035
 51
90.00000000000001
  0
ENDSEC
  0
EOF
