  0
SECTION
  2
HEADER
  9
$ACADVER
  1
AC1006
  9
$DWGCODEPAGE
  3
ansi_932
  9
$INSBASE
 10
0.0
 20
0.0
 30
0.0
  9
$EXTMIN
 10
19.82710589174194
 20
-185.8431818180818
  9
$EXTMAX
 10
181.4146047813488
 20
-92.327105891742
  9
$LIMMIN
 10
0.0
 20
0.0
  9
$LIMMAX
 10
12.0
 20
9.0
  9
$ORTHOMODE
 70
     0
  9
$REGENMODE
 70
     1
  9
$FILLMODE
 70
     1
  9
$QTEXTMODE
 70
     0
  9
$MIRRTEXT
 70
     1
  9
$DRAGMODE
 70
     2
  9
$LTSCALE
 40
1.0
  9
$OSMODE
 70
    37
  9
$ATTMODE
 70
     1
  9
$TEXTSIZE
 40
0.2
  9
$TRACEWID
 40
0.05
  9
$TEXTSTYLE
  7
STANDARD
  9
$CLAYER
  8
0
  9
$CELTYPE
  6
BYLAYER
  9
$CECOLOR
 62
   256
  9
$DIMSCALE
 40
1.0
  9
$DIMASZ
 40
3.0
  9
$DIMEXO
 40
0.0625
  9
$DIMDLI
 40
0.38
  9
$DIMRND
 40
0.0
  9
$DIMDLE
 40
0.0
  9
$DIMEXE
 40
1.5
  9
$DIMTP
 40
0.0
  9
$DIMTM
 40
0.0
  9
$DIMTXT
 40
3.0
  9
$DIMCEN
 40
0.09
  9
$DIMTSZ
 40
0.0
  9
$DIMTOL
 70
     0
  9
$DIMLIM
 70
     0
  9
$DIMTIH
 70
     1
  9
$DIMTOH
 70
     1
  9
$DIMSE1
 70
     0
  9
$DIMSE2
 70
     0
  9
$DIMTAD
 70
     1
  9
$DIMZIN
 70
     0
  9
$DIMBLK
  1

  9
$DIMASO
 70
     1
  9
$DIMSHO
 70
     1
  9
$DIMPOST
  1

  9
$DIMAPOST
  1

  9
$DIMALT
 70
     0
  9
$DIMALTD
 70
     2
  9
$DIMALTF
 40
25.4
  9
$DIMLFAC
 40
1.0
  9
$DIMTOFL
 70
     0
  9
$DIMTVP
 40
0.0
  9
$DIMTIX
 70
     0
  9
$DIMSOXD
 70
     0
  9
$DIMSAH
 70
     0
  9
$DIMBLK1
  1

  9
$DIMBLK2
  1

  9
$LUNITS
 70
     2
  9
$LUPREC
 70
     4
  9
$SKETCHINC
 40
0.1
  9
$FILLETRAD
 40
0.5
  9
$AUNITS
 70
     0
  9
$AUPREC
 70
     0
  9
$MENU
  1
.
  9
$ELEVATION
 40
0.0
  9
$THICKNESS
 40
0.0
  9
$LIMCHECK
 70
     0
  9
$CHAMFERA
 40
0.0
  9
$CHAMFERB
 40
0.0
  9
$SKPOLY
 70
     0
  9
$TDCREATE
 40
2460774.583435984
  9
$TDUPDATE
 40
2460774.583436146
  9
$TDINDWG
 40
0.0000000116
  9
$TDUSRTIMER
 40
0.0000000116
  9
$USRTIMER
 70
     1
  9
$ANGBASE
 50
0.0
  9
$ANGDIR
 70
     0
  9
$PDMODE
 70
     0
  9
$PDSIZE
 40
0.0
  9
$PLINEWID
 40
0.0
  9
$COORDS
 70
     1
  9
$SPLFRAME
 70
     0
  9
$SPLINETYPE
 70
     6
  9
$SPLINESEGS
 70
     8
  9
$ATTDIA
 70
     0
  9
$ATTREQ
 70
     1
  9
$HANDLING
 70
     1
  9
$HANDSEED
  5
AA
  9
$SURFTAB1
 70
     6
  9
$SURFTAB2
 70
     6
  9
$SURFTYPE
 70
     6
  9
$SURFU
 70
     6
  9
$SURFV
 70
     6
  9
$UCSNAME
  2

  9
$UCSORG
 10
0.0
 20
0.0
 30
0.0
  9
$UCSXDIR
 10
1.0
 20
0.0
 30
0.0
  9
$UCSYDIR
 10
0.0
 20
1.0
 30
0.0
  9
$USERI1
 70
     0
  9
$USERI2
 70
     0
  9
$USERI3
 70
     0
  9
$USERI4
 70
     0
  9
$USERI5
 70
     0
  9
$USERR1
 40
0.0
  9
$USERR2
 40
0.0
  9
$USERR3
 40
0.0
  9
$USERR4
 40
0.0
  9
$USERR5
 40
0.0
  9
$WORLDVIEW
 70
     1
  0
ENDSEC
  0
SECTION
  2
TABLES
  0
TABLE
  2
VPORT
 70
     1
  0
VPORT
  2
*ACTIVE
 70
     0
 10
0.0
 20
0.0
 11
1.0
 21
1.0
 12
100.6208553365454
 22
-139.0851438549119
 13
0.0
 23
0.0
 14
0.5
 24
0.5
 15
0.5
 25
0.5
 16
0.0
 26
0.0
 36
1.0
 17
0.0
 27
0.0
 37
0.0
 40
93.51607592633981
 41
1.6
 42
50.0
 43
0.0
 44
0.0
 50
0.0
 51
0.0
 71
     0
 72
   100
 73
     1
 74
     3
 75
     0
 76
     0
 77
     0
 78
     0
  0
ENDTAB
  0
TABLE
  2
LTYPE
 70
     2
  0
LTYPE
  2
CONTINUOUS
 70
     0
  3
Solid line
 72
    65
 73
     0
 40
0.0
  0
LTYPE
  2
CENTER
 70
     0
  3

 72
    65
 73
     0
 40
0.0
  0
ENDTAB
  0
TABLE
  2
LAYER
 70
     1
  0
LAYER
  2
0
 70
     0
 62
     7
  6
CONTINUOUS
  0
ENDTAB
  0
TABLE
  2
STYLE
 70
     2
  0
STYLE
  2
STANDARD
 70
     0
 40
0.0
 41
1.0
 50
0.0
 71
     0
 42
0.2
  3
txt
  4

  0
STYLE
  2
ＭＳ_ゴシック
 70
     0
 40
0.0
 41
1.0
 50
0.0
 71
     0
 42
0.2
  3
ＭＳ ゴシック.shx
  4

  0
ENDTAB
  0
TABLE
  2
VIEW
 70
     0
  0
ENDTAB
  0
TABLE
  2
UCS
 70
     0
  0
ENDTAB
  0
ENDSEC
  0
SECTION
  2
BLOCKS
  0
ENDSEC
  0
SECTION
  2
ENTITIES
  0
POINT
  5
6F
  8
0
 62
     1
 10
52.50000000000001
 20
-127.5
 30
0.0
  0
TEXT
  5
70
  8
0
  6
CONTINUOUS
 62
     7
 10
157.2420588266158
 20
-186.1704545453545
 30
0.0
 40
3.0
  1
ＭＦＸ４２－Ｃ
  0
LINE
  5
71
  8
0
  6
CENTER
 62
     1
 10
115.0
 20
-127.5
 30
0.0
 11
127.0
 21
-127.5
 31
0.0
  0
LINE
  5
73
  8
0
  6
CENTER
 62
     1
 10
121.0
 20
-133.5
 30
0.0
 11
121.0
 21
-121.5
 31
0.0
  0
LINE
  5
74
  8
0
  6
CENTER
 62
     1
 10
54.75000000000001
 20
-127.5
 30
0.0
 11
60.25000000000001
 21
-127.5
 31
0.0
  0
LINE
  5
75
  8
0
  6
CENTER
 62
     1
 10
52.50000000000001
 20
-162.672894108258
 30
0.0
 11
52.50000000000001
 21
-92.327105891742
 31
0.0
  0
LINE
  5
76
  8
0
  6
CENTER
 62
     1
 10
111.0
 20
-127.5
 30
0.0
 11
169.0
 21
-127.5
 31
0.0
  0
LINE
  5
77
  8
0
  6
CENTER
 62
     1
 10
19.82710589174194
 20
-127.5
 30
0.0
 11
85.17289410825808
 21
-127.5
 31
0.0
  0
ARC
  5
78
  8
0
  6
CONTINUOUS
 62
     7
 10
52.0
 20
-139.5
 30
0.0
 40
0.5000000000000004
 50
180.0000000000004
 51
270.0
  0
LINE
  5
79
  8
0
  6
CONTINUOUS
 62
     7
 10
52.0
 20
-115.0
 30
0.0
 11
53.00000000000001
 21
-115.0
 31
0.0
  0
LINE
  5
7A
  8
0
  6
CONTINUOUS
 62
     7
 10
79.81783093714857
 20
-123.081269275433
 30
0.0
 11
79.59326904190401
 21
-123.2264806178334
 31
0.0
  0
LINE
  5
7B
  8
0
  6
CONTINUOUS
 62
     7
 10
51.5
 20
-139.5
 30
0.0
 11
51.5
 21
-137.0
 31
0.0
  0
ARC
  5
7C
  8
0
  6
CONTINUOUS
 62
     7
 10
53.00000000000001
 20
-115.5
 30
0.0
 40
0.5000000000000004
 50
0.0000000000000035
 51
90.00000000000001
  0
LINE
  5
7D
  8
0
  6
CONTINUOUS
 62
     7
 10
25.18216906285141
 20
-123.0812692754331
 30
0.0
 11
25.40673095809597
 21
-123.2264806178336
 31
0.0
  0
ARC
  5
7E
  8
0
  6
CONTINUOUS
 62
     7
 10
53.00000000000001
 20
-139.5
 30
0.0
 40
0.5000000000000004
 50
270.0
 51
0.0
  0
LINE
  5
7F
  8
0
  6
CONTINUOUS
 62
     7
 10
79.81783093714859
 20
-131.9187307245669
 30
0.0
 11
79.59326904190404
 21
-131.7735193821664
 31
0.0
  0
ARC
  5
80
  8
0
  6
CONTINUOUS
 62
     7
 10
28.15000000000001
 20
-127.5000000000001
 30
0.0
 40
5.322894108258074
 50
123.8871982168468
 51
236.1128017831536
  0
ARC
  5
81
  8
0
  6
CONTINUOUS
 62
     7
 10
52.50000000000001
 20
-127.5
 30
0.0
 40
27.67289410825805
 50
9.188161259808087
 51
170.8118387401922
  0
ARC
  5
82
  8
0
  6
CONTINUOUS
 62
     7
 10
76.84999999999998
 20
-127.4999999999999
 30
0.0
 40
5.322894108258091
 50
303.8871982168468
 51
56.11280178315354
  0
LINE
  5
83
  8
0
  6
CONTINUOUS
 62
     7
 10
53.50000000000001
 20
-137.0
 30
0.0
 11
53.50000000000001
 21
-139.5
 31
0.0
  0
LINE
  5
84
  8
0
  6
CONTINUOUS
 62
     7
 10
53.50000000000001
 20
-115.5
 30
0.0
 11
53.50000000000001
 21
-118.0
 31
0.0
  0
LINE
  5
85
  8
0
  6
CONTINUOUS
 62
     7
 10
51.5
 20
-137.0
 30
0.0
 11
51.5
 21
-118.0
 31
0.0
  0
LINE
  5
86
  8
0
  6
CONTINUOUS
 62
     7
 10
53.50000000000001
 20
-118.0
 30
0.0
 11
53.50000000000001
 21
-137.0
 31
0.0
  0
LINE
  5
87
  8
0
  6
CONTINUOUS
 62
     7
 10
53.00000000000001
 20
-140.0
 30
0.0
 11
52.0
 21
-140.0
 31
0.0
  0
LINE
  5
88
  8
0
  6
CONTINUOUS
 62
     7
 10
25.18216906285145
 20
-131.9187307245671
 30
0.0
 11
25.40673095809599
 21
-131.7735193821666
 31
0.0
  0
ARC
  5
89
  8
0
  6
CONTINUOUS
 62
     7
 10
49.79574212921765
 20
-127.5
 30
0.0
 40
30.10241814243536
 50
351.8383747824647
 51
8.161625217535573
  0
LINE
  5
8A
  8
0
  6
CONTINUOUS
 62
     7
 10
51.5
 20
-118.0
 30
0.0
 11
51.5
 21
-115.5
 31
0.0
  0
ARC
  5
8B
  8
0
  6
CONTINUOUS
 62
     7
 10
52.0
 20
-115.5
 30
0.0
 40
0.5000000000000004
 50
90.0
 51
180.0
  0
ARC
  5
8C
  8
0
  6
CONTINUOUS
 62
     7
 10
55.20425787078131
 20
-127.5
 30
0.0
 40
30.10241814243433
 50
171.8383747824644
 51
188.1616252175359
  0
ARC
  5
8D
  8
0
  6
CONTINUOUS
 62
     7
 10
52.50000000000001
 20
-127.5
 30
0.0
 40
27.67289410825805
 50
189.1881612598082
 51
350.8118387401923
  0
LINE
  5
8E
  8
0
  6
CONTINUOUS
 62
     7
 10
166.0
 20
-131.9187307245669
 30
0.0
 11
166.0
 21
-123.081269275433
 31
0.0
  0
LINE
  5
8F
  8
0
  6
CONTINUOUS
 62
     7
 10
166.0
 20
-131.9187307245669
 30
0.0
 11
137.9650938580065
 21
-131.7735193821664
 31
0.0
  0
LINE
  5
90
  8
0
  6
CONTINUOUS
 62
     7
 10
166.0
 20
-123.081269275433
 30
0.0
 11
137.9650938580065
 21
-123.2264806178334
 31
0.0
  0
ARC
  5
91
  8
0
  6
CONTINUOUS
 62
     7
 10
138.3119799074095
 20
-127.9358957701645
 30
0.0
 40
3.853269380495628
 50
169.3687383649283
 51
264.8350222582103
  0
ARC
  5
92
  8
0
  6
CONTINUOUS
 62
     7
 10
117.0
 20
-137.0
 30
0.0
 40
3.000000000000003
 50
180.0
 51
270.0
  0
LINE
  5
93
  8
0
  6
CONTINUOUS
 62
     7
 10
166.0
 20
-99.82710589174198
 30
0.0
 11
132.9650938580049
 21
-100.1153971501232
 31
0.0
  0
LINE
  5
94
  8
0
  6
CONTINUOUS
 62
     7
 10
132.9650938580049
 20
-154.8846028498768
 30
0.0
 11
166.0
 21
-155.1728941082581
 31
0.0
  0
ARC
  5
95
  8
0
  6
CONTINUOUS
 62
     7
 10
133.0
 20
-150.8847551576201
 30
0.0
 40
4.000000000000004
 50
180.0
 51
269.4999999999774
  0
ARC
  5
96
  8
0
  6
CONTINUOUS
 62
     7
 10
133.0
 20
-104.11524484238
 30
0.0
 40
3.999999999999976
 50
90.50000000002268
 51
179.9999999999999
  0
LINE
  5
97
  8
0
  6
CONTINUOUS
 62
     7
 10
117.0
 20
-115.0
 30
0.0
 11
128.0
 21
-115.0
 31
0.0
  0
ARC
  5
98
  8
0
  6
CONTINUOUS
 62
     7
 10
138.2328080062703
 20
-126.9360323507041
 30
0.0
 40
3.719199500433479
 50
94.12781509577428
 51
184.4563905074658
  0
LINE
  5
99
  8
0
  6
CONTINUOUS
 62
     7
 10
129.0
 20
-150.8847551576201
 30
0.0
 11
129.0
 21
-144.0355189483403
 31
0.0
  0
ARC
  5
9A
  8
0
  6
CONTINUOUS
 62
     7
 10
128.0
 20
-141.0
 30
0.0
 40
1.000000000000001
 50
359.9999999999998
 51
89.9999999999999
  0
ARC
  5
9B
  8
0
  6
CONTINUOUS
 62
     7
 10
128.0
 20
-114.0
 30
0.0
 40
1.000000000000001
 50
270.0
 51
359.9999999999998
  0
LINE
  5
9C
  8
0
  6
CONTINUOUS
 62
     7
 10
166.0
 20
-123.0812692754329
 30
0.0
 11
166.0
 21
-99.82710589174198
 31
0.0
  0
LINE
  5
9D
  8
0
  6
CONTINUOUS
 62
     7
 10
128.0
 20
-140.0
 30
0.0
 11
117.0
 21
-140.0
 31
0.0
  0
LINE
  5
9E
  8
0
  6
CONTINUOUS
 62
     7
 10
114.0
 20
-137.0
 30
0.0
 11
114.0
 21
-118.0
 31
0.0
  0
CIRCLE
  5
9F
  8
0
  6
CONTINUOUS
 62
     7
 10
121.0
 20
-127.5
 30
0.0
 40
3.99999999999999
  0
LINE
  5
A0
  8
0
  6
CONTINUOUS
 62
     7
 10
166.0
 20
-155.1728941082581
 30
0.0
 11
166.0
 21
-131.9187307245669
 31
0.0
  0
ARC
  5
A1
  8
0
  6
CONTINUOUS
 62
     7
 10
117.0
 20
-118.0
 30
0.0
 40
3.000000000000003
 50
90.0
 51
180.0
  0
LINE
  5
A2
  8
0
  6
CONTINUOUS
 62
     7
 10
129.0
 20
-144.0355189483403
 30
0.0
 11
129.0
 21
-104.11524484238
 31
0.0
  0
ENDSEC
  0
EOF
