  0
SECTION
  2
HEADER
  9
$ACADVER
  1
AC1006
  9
$DWGCODEPAGE
  3
ansi_932
  9
$INSBASE
 10
0.0
 20
0.0
 30
0.0
  9
$EXTMIN
 10
-39.63634338953793
 20
-190.8568181817182
  9
$EXTMAX
 10
133.0
 20
-85.863656610462
  9
$LIMMIN
 10
0.0
 20
0.0
  9
$LIMMAX
 10
12.0
 20
9.0
  9
$ORTHOMODE
 70
     0
  9
$REGENMODE
 70
     1
  9
$FILLMODE
 70
     1
  9
$QTEXTMODE
 70
     0
  9
$MIRRTEXT
 70
     1
  9
$DRAGMODE
 70
     2
  9
$LTSCALE
 40
1.0
  9
$OSMODE
 70
    37
  9
$ATTMODE
 70
     1
  9
$TEXTSIZE
 40
0.2
  9
$TRACEWID
 40
0.05
  9
$TEXTSTYLE
  7
STANDARD
  9
$CLAYER
  8
0
  9
$CELTYPE
  6
BYLAYER
  9
$CECOLOR
 62
   256
  9
$DIMSCALE
 40
1.0
  9
$DIMASZ
 40
3.0
  9
$DIMEXO
 40
0.0625
  9
$DIMDLI
 40
0.38
  9
$DIMRND
 40
0.0
  9
$DIMDLE
 40
0.0
  9
$DIMEXE
 40
1.5
  9
$DIMTP
 40
0.0
  9
$DIMTM
 40
0.0
  9
$DIMTXT
 40
3.0
  9
$DIMCEN
 40
0.09
  9
$DIMTSZ
 40
0.0
  9
$DIMTOL
 70
     0
  9
$DIMLIM
 70
     0
  9
$DIMTIH
 70
     1
  9
$DIMTOH
 70
     1
  9
$DIMSE1
 70
     0
  9
$DIMSE2
 70
     0
  9
$DIMTAD
 70
     1
  9
$DIMZIN
 70
     0
  9
$DIMBLK
  1

  9
$DIMASO
 70
     1
  9
$DIMSHO
 70
     1
  9
$DIMPOST
  1

  9
$DIMAPOST
  1

  9
$DIMALT
 70
     0
  9
$DIMALTD
 70
     2
  9
$DIMALTF
 40
25.4
  9
$DIMLFAC
 40
1.0
  9
$DIMTOFL
 70
     0
  9
$DIMTVP
 40
0.0
  9
$DIMTIX
 70
     0
  9
$DIMSOXD
 70
     0
  9
$DIMSAH
 70
     0
  9
$DIMBLK1
  1

  9
$DIMBLK2
  1

  9
$LUNITS
 70
     2
  9
$LUPREC
 70
     4
  9
$SKETCHINC
 40
0.1
  9
$FILLETRAD
 40
0.5
  9
$AUNITS
 70
     0
  9
$AUPREC
 70
     0
  9
$MENU
  1
.
  9
$ELEVATION
 40
0.0
  9
$THICKNESS
 40
0.0
  9
$LIMCHECK
 70
     0
  9
$CHAMFERA
 40
0.0
  9
$CHAMFERB
 40
0.0
  9
$SKPOLY
 70
     0
  9
$TDCREATE
 40
2460774.587561366
  9
$TDUPDATE
 40
2460774.587561539
  9
$TDINDWG
 40
0.0000000116
  9
$TDUSRTIMER
 40
0.0000000116
  9
$USRTIMER
 70
     1
  9
$ANGBASE
 50
0.0
  9
$ANGDIR
 70
     0
  9
$PDMODE
 70
     0
  9
$PDSIZE
 40
0.0
  9
$PLINEWID
 40
0.0
  9
$COORDS
 70
     1
  9
$SPLFRAME
 70
     0
  9
$SPLINETYPE
 70
     6
  9
$SPLINESEGS
 70
     8
  9
$ATTDIA
 70
     0
  9
$ATTREQ
 70
     1
  9
$HANDLING
 70
     1
  9
$HANDSEED
  5
AA
  9
$SURFTAB1
 70
     6
  9
$SURFTAB2
 70
     6
  9
$SURFTYPE
 70
     6
  9
$SURFU
 70
     6
  9
$SURFV
 70
     6
  9
$UCSNAME
  2

  9
$UCSORG
 10
0.0
 20
0.0
 30
0.0
  9
$UCSXDIR
 10
1.0
 20
0.0
 30
0.0
  9
$UCSYDIR
 10
0.0
 20
1.0
 30
0.0
  9
$USERI1
 70
     0
  9
$USERI2
 70
     0
  9
$USERI3
 70
     0
  9
$USERI4
 70
     0
  9
$USERI5
 70
     0
  9
$USERR1
 40
0.0
  9
$USERR2
 40
0.0
  9
$USERR3
 40
0.0
  9
$USERR4
 40
0.0
  9
$USERR5
 40
0.0
  9
$WORLDVIEW
 70
     1
  0
ENDSEC
  0
SECTION
  2
TABLES
  0
TABLE
  2
VPORT
 70
     1
  0
VPORT
  2
*ACTIVE
 70
     0
 10
0.0
 20
0.0
 11
1.0
 21
1.0
 12
46.68182830523104
 22
-138.3602373960901
 13
0.0
 23
0.0
 14
0.5
 24
0.5
 15
0.5
 25
0.5
 16
0.0
 26
0.0
 36
1.0
 17
0.0
 27
0.0
 37
0.0
 40
104.9931615712562
 41
1.6
 42
50.0
 43
0.0
 44
0.0
 50
0.0
 51
0.0
 71
     0
 72
   100
 73
     1
 74
     3
 75
     0
 76
     0
 77
     0
 78
     0
  0
ENDTAB
  0
TABLE
  2
LTYPE
 70
     2
  0
LTYPE
  2
CONTINUOUS
 70
     0
  3
Solid line
 72
    65
 73
     0
 40
0.0
  0
LTYPE
  2
CENTER
 70
     0
  3

 72
    65
 73
     0
 40
0.0
  0
ENDTAB
  0
TABLE
  2
LAYER
 70
     1
  0
LAYER
  2
0
 70
     0
 62
     7
  6
CONTINUOUS
  0
ENDTAB
  0
TABLE
  2
STYLE
 70
     2
  0
STYLE
  2
STANDARD
 70
     0
 40
0.0
 41
1.0
 50
0.0
 71
     0
 42
0.2
  3
txt
  4

  0
STYLE
  2
ＭＳ_ゴシック
 70
     0
 40
0.0
 41
1.0
 50
0.0
 71
     0
 42
0.2
  3
ＭＳ ゴシック.shx
  4

  0
ENDTAB
  0
TABLE
  2
VIEW
 70
     0
  0
ENDTAB
  0
TABLE
  2
UCS
 70
     0
  0
ENDTAB
  0
ENDSEC
  0
SECTION
  2
BLOCKS
  0
ENDSEC
  0
SECTION
  2
ENTITIES
  0
TEXT
  5
6F
  8
0
  6
CONTINUOUS
 62
     7
 10
104.7420588266157
 20
-191.1704545453545
 30
0.0
 40
3.0
  1
ＭＦＸ５４－Ｃ
  0
LINE
  5
70
  8
0
  6
CONTINUOUS
 62
     7
 10
0.4999999999999935
 20
-140.0
 30
0.0
 11
-0.5000000000000073
 21
-140.0
 31
0.0
  0
ARC
  5
71
  8
0
  6
CONTINUOUS
 62
     7
 10
-0.5000000000000073
 20
-139.5
 30
0.0
 40
0.5000000000000004
 50
180.0000000000004
 51
270.0
  0
LINE
  5
72
  8
0
  6
CONTINUOUS
 62
     7
 10
-1.000000000000008
 20
-137.0
 30
0.0
 11
-1.000000000000008
 21
-118.0
 31
0.0
  0
ARC
  5
73
  8
0
  6
CONTINUOUS
 62
     7
 10
0.4999999999999935
 20
-115.5
 30
0.0
 40
0.5000000000000004
 50
0.0000000000000035
 51
90.00000000000001
  0
LINE
  5
74
  8
0
  6
CONTINUOUS
 62
     7
 10
0.9999999999999939
 20
-118.0
 30
0.0
 11
0.9999999999999939
 21
-137.0
 31
0.0
  0
LINE
  5
75
  8
0
  6
CONTINUOUS
 62
     7
 10
0.9999999999999939
 20
-137.0
 30
0.0
 11
0.9999999999999939
 21
-139.5
 31
0.0
  0
LINE
  5
76
  8
0
  6
CONTINUOUS
 62
     7
 10
-0.5000000000000073
 20
-115.0
 30
0.0
 11
0.4999999999999935
 21
-115.0
 31
0.0
  0
ARC
  5
77
  8
0
  6
CONTINUOUS
 62
     7
 10
0.4999999999999935
 20
-139.5
 30
0.0
 40
0.5000000000000004
 50
270.0
 51
0.0
  0
LINE
  5
78
  8
0
  6
CONTINUOUS
 62
     7
 10
-1.000000000000008
 20
-118.0
 30
0.0
 11
-1.000000000000008
 21
-115.5
 31
0.0
  0
LINE
  5
79
  8
0
  6
CONTINUOUS
 62
     7
 10
-1.000000000000008
 20
-139.5
 30
0.0
 11
-1.000000000000008
 21
-137.0
 31
0.0
  0
ARC
  5
7A
  8
0
  6
CONTINUOUS
 62
     7
 10
-0.5000000000000073
 20
-115.5
 30
0.0
 40
0.5000000000000004
 50
90.0
 51
180.0
  0
LINE
  5
7B
  8
0
  6
CONTINUOUS
 62
     7
 10
0.9999999999999939
 20
-115.5
 30
0.0
 11
0.9999999999999939
 21
-118.0
 31
0.0
  0
ARC
  5
7C
  8
0
  6
CONTINUOUS
 62
     7
 10
-3.958136982717998
 20
-127.5
 30
0.0
 40
37.7041857140476
 50
353.0812694306474
 51
6.918730569352589
  0
ARC
  5
7D
  8
0
  6
CONTINUOUS
 62
     7
 10
-31.19999999999999
 20
-127.5000000000001
 30
0.0
 40
5.436343389537936
 50
118.5827862094016
 51
241.4172137905986
  0
ARC
  5
7E
  8
0
  6
CONTINUOUS
 62
     7
 10
-0.0000000000000069
 20
-127.5
 30
0.0
 40
34.13634338953796
 50
188.0388799238673
 51
351.9611200761328
  0
ARC
  5
7F
  8
0
  6
CONTINUOUS
 62
     7
 10
31.19999999999997
 20
-127.5
 30
0.0
 40
5.436343389537954
 50
298.5827862094015
 51
61.41721379059851
  0
LINE
  5
80
  8
0
  6
CONTINUOUS
 62
     7
 10
33.80089920768393
 20
-132.2737985672252
 30
0.0
 11
33.47148741408451
 21
-132.0418980474772
 31
0.0
  0
LINE
  5
81
  8
0
  6
CONTINUOUS
 62
     7
 10
-33.80089920768395
 20
-132.2737985672253
 30
0.0
 11
-33.47148741408454
 21
-132.0418980474772
 31
0.0
  0
ARC
  5
82
  8
0
  6
CONTINUOUS
 62
     7
 10
-0.0000000000000069
 20
-127.5
 30
0.0
 40
34.13634338953792
 50
8.038879923867352
 51
171.9611200761327
  0
LINE
  5
83
  8
0
  6
CENTER
 62
     1
 10
62.0
 20
-127.5
 30
0.0
 11
133.0
 21
-127.5
 31
0.0
  0
LINE
  5
85
  8
0
  6
CENTER
 62
     1
 10
71.99999999999999
 20
-133.5
 30
0.0
 11
71.99999999999999
 21
-121.5
 31
0.0
  0
ARC
  5
86
  8
0
  6
CONTINUOUS
 62
     7
 10
3.958136982718213
 20
-127.5
 30
0.0
 40
37.70418571404783
 50
173.0812694306474
 51
186.9187305693526
  0
LINE
  5
87
  8
0
  6
CENTER
 62
     1
 10
2.249999999999995
 20
-127.5
 30
0.0
 11
7.75
 21
-127.5
 31
0.0
  0
LINE
  5
88
  8
0
  6
CONTINUOUS
 62
     7
 10
-33.80089920768395
 20
-122.7262014327748
 30
0.0
 11
-33.47148741408454
 21
-122.9581019525228
 31
0.0
  0
LINE
  5
89
  8
0
  6
CENTER
 62
     1
 10
-0.0000000000000069
 20
-169.136343389538
 30
0.0
 11
-0.0000000000000069
 21
-85.863656610462
 31
0.0
  0
LINE
  5
8A
  8
0
  6
CENTER
 62
     1
 10
65.99999999999997
 20
-127.5
 30
0.0
 11
77.99999999999999
 21
-127.5
 31
0.0
  0
LINE
  5
8B
  8
0
  6
CENTER
 62
     1
 10
-39.63634338953793
 20
-127.5
 30
0.0
 11
39.63634338953793
 21
-127.5
 31
0.0
  0
LINE
  5
8C
  8
0
  6
CONTINUOUS
 62
     7
 10
33.80089920768393
 20
-122.7262014327747
 30
0.0
 11
33.47148741408451
 21
-122.9581019525228
 31
0.0
  0
ARC
  5
8D
  8
0
  6
CONTINUOUS
 62
     7
 10
67.99999999999997
 20
-137.0
 30
0.0
 40
3.000000000000003
 50
180.0
 51
270.0
  0
LINE
  5
8E
  8
0
  6
CONTINUOUS
 62
     7
 10
64.99999999999997
 20
-137.0
 30
0.0
 11
64.99999999999997
 21
-118.0
 31
0.0
  0
LINE
  5
8F
  8
0
  6
CONTINUOUS
 62
     7
 10
79.99999999999999
 20
-156.2434439470251
 30
0.0
 11
79.99999999999999
 21
-147.8246841295969
 31
0.0
  0
LINE
  5
90
  8
0
  6
CONTINUOUS
 62
     7
 10
130.0
 20
-122.7262014327747
 30
0.0
 11
88.96509385800647
 21
-122.9581019525228
 31
0.0
  0
LINE
  5
91
  8
0
  6
CONTINUOUS
 62
     7
 10
130.0
 20
-132.2737985672252
 30
0.0
 11
130.0
 21
-122.7262014327747
 31
0.0
  0
ARC
  5
92
  8
0
  6
CONTINUOUS
 62
     7
 10
89.25586258419588
 20
-126.9597651252512
 30
0.0
 40
4.012213179792501
 50
94.15592034564624
 51
187.5015303327382
  0
LINE
  5
93
  8
0
  6
CONTINUOUS
 62
     7
 10
130.0
 20
-122.7262014327747
 30
0.0
 11
130.0
 21
-93.363656610462
 31
0.0
  0
LINE
  5
94
  8
0
  6
CONTINUOUS
 62
     7
 10
130.0
 20
-132.2737985672252
 30
0.0
 11
88.96509385800647
 21
-132.0418980474772
 31
0.0
  0
LINE
  5
95
  8
0
  6
CONTINUOUS
 62
     7
 10
79.99999999999999
 20
-147.8246841295969
 30
0.0
 11
79.99999999999999
 21
-98.75655605297487
 31
0.0
  0
ARC
  5
96
  8
0
  6
CONTINUOUS
 62
     7
 10
78.99999999999999
 20
-141.0
 30
0.0
 40
1.000000000000001
 50
359.9999999999998
 51
89.9999999999999
  0
LINE
  5
97
  8
0
  6
CONTINUOUS
 62
     7
 10
78.99999999999999
 20
-140.0
 30
0.0
 11
67.99999999999997
 21
-140.0
 31
0.0
  0
LINE
  5
98
  8
0
  6
CONTINUOUS
 62
     7
 10
67.99999999999997
 20
-115.0
 30
0.0
 11
78.99999999999999
 21
-115.0
 31
0.0
  0
ARC
  5
99
  8
0
  6
CONTINUOUS
 62
     7
 10
78.99999999999999
 20
-114.0
 30
0.0
 40
1.000000000000001
 50
270.0
 51
359.9999999999998
  0
LINE
  5
9A
  8
0
  6
CONTINUOUS
 62
     7
 10
130.0
 20
-93.36365661046212
 30
0.0
 11
84.95636732250789
 21
-93.756746437654
 31
0.0
  0
LINE
  5
9B
  8
0
  6
CONTINUOUS
 62
     7
 10
84.95636732250789
 20
-161.243253562346
 30
0.0
 11
130.0
 21
-161.636343389538
 31
0.0
  0
ARC
  5
9C
  8
0
  6
CONTINUOUS
 62
     7
 10
67.99999999999997
 20
-118.0
 30
0.0
 40
3.000000000000003
 50
90.0
 51
180.0
  0
CIRCLE
  5
9D
  8
0
  6
CONTINUOUS
 62
     7
 10
71.99999999999999
 20
-127.5
 30
0.0
 40
4.000000000000004
  0
ARC
  5
9E
  8
0
  6
CONTINUOUS
 62
     7
 10
84.99999999999999
 20
-156.2434439470251
 30
0.0
 40
5.000000000000004
 50
180.0
 51
269.4999999999977
  0
ARC
  5
9F
  8
0
  6
CONTINUOUS
 62
     7
 10
89.23634724434976
 20
-128.0521259241335
 30
0.0
 40
3.998982370030324
 50
171.8262715639938
 51
266.1106063068571
  0
ARC
  5
A0
  8
0
  6
CONTINUOUS
 62
     7
 10
84.99999999999999
 20
-98.75655605297487
 30
0.0
 40
5.000000000000004
 50
90.50000000000236
 51
180.0
  0
LINE
  5
A1
  8
0
  6
CONTINUOUS
 62
     7
 10
130.0
 20
-161.636343389538
 30
0.0
 11
130.0
 21
-132.2737985672252
 31
0.0
  0
POINT
  5
A2
  8
0
 62
     1
 10
-0.0000000000000069
 20
-127.5
 30
0.0
  0
ENDSEC
  0
EOF
