  0
SECTION
  2
HEADER
  9
$ACADVER
  1
AC1004
  9
$INSBASE
 10
0.0
 20
0.0
  9
$EXTMIN
 10
-29.60000000000002
 20
114.6204545454545
  9
$EXTMAX
 10
61.4
 20
166.45
  9
$LIMMIN
 10
0.0
 20
0.0
  9
$LIMMAX
 10
12.0
 20
9.0
  9
$ORTHOMODE
 70
     0
  9
$REGENMODE
 70
     1
  9
$FILLMODE
 70
     1
  9
$QTEXTMODE
 70
     0
  9
$DRAGMODE
 70
     2
  9
$LTSCALE
 40
1.0
  9
$OSMODE
 70
    37
  9
$ATTMODE
 70
     1
  9
$TEXTSIZE
 40
0.2
  9
$TRACEWID
 40
0.05
  9
$TEXTSTYLE
  7
STANDARD
  9
$CLAYER
  8
0
  9
$CELTYPE
  6
BYLAYER
  9
$CECOLOR
 62
   256
  9
$DIMSCALE
 40
1.0
  9
$DIMASZ
 40
3.0
  9
$DIMEXO
 40
0.0625
  9
$DIMDLI
 40
0.38
  9
$DIMRND
 40
0.0
  9
$DIMDLE
 40
0.0
  9
$DIMEXE
 40
1.5
  9
$DIMTP
 40
0.0
  9
$DIMTM
 40
0.0
  9
$DIMTXT
 40
3.0
  9
$DIMCEN
 40
0.09
  9
$DIMTSZ
 40
0.0
  9
$DIMTOL
 70
     0
  9
$DIMLIM
 70
     0
  9
$DIMTIH
 70
     1
  9
$DIMTOH
 70
     1
  9
$DIMSE1
 70
     0
  9
$DIMSE2
 70
     0
  9
$DIMTAD
 70
     1
  9
$DIMZIN
 70
     0
  9
$DIMBLK
  1

  9
$DIMASO
 70
     1
  9
$DIMSHO
 70
     1
  9
$DIMPOST
  1

  9
$DIMAPOST
  1

  9
$DIMALT
 70
     0
  9
$DIMALTD
 70
     2
  9
$DIMALTF
 40
25.4
  9
$DIMLFAC
 40
1.0
  9
$DIMTOFL
 70
     0
  9
$DIMTVP
 40
0.0
  9
$DIMTIX
 70
     0
  9
$DIMSOXD
 70
     0
  9
$DIMSAH
 70
     0
  9
$DIMBLK1
  1

  9
$DIMBLK2
  1

  9
$LUNITS
 70
     2
  9
$LUPREC
 70
     4
  9
$SKETCHINC
 40
0.1
  9
$FILLETRAD
 40
0.5
  9
$AUNITS
 70
     0
  9
$AUPREC
 70
     0
  9
$MENU
  1
.
  9
$ELEVATION
 40
0.0
  9
$THICKNESS
 40
0.0
  9
$LIMCHECK
 70
     0
  9
$CHAMFERA
 40
0.0
  9
$CHAMFERB
 40
0.0
  9
$SKPOLY
 70
     0
  9
$TDCREATE
 40
2460294.431218241
  9
$TDUPDATE
 40
2460294.431218299
  9
$TDINDWG
 40
0.0000000116
  9
$TDUSRTIMER
 40
0.0000000116
  9
$USRTIMER
 70
     1
  9
$ANGBASE
 50
0.0
  9
$ANGDIR
 70
     0
  9
$PDMODE
 70
     0
  9
$PDSIZE
 40
0.0
  9
$PLINEWID
 40
0.0
  9
$COORDS
 70
     1
  9
$SPLFRAME
 70
     0
  9
$SPLINETYPE
 70
     6
  9
$SPLINESEGS
 70
     8
  9
$ATTDIA
 70
     0
  9
$ATTREQ
 70
     1
  9
$SURFTAB1
 70
     6
  9
$SURFTAB2
 70
     6
  9
$SURFTYPE
 70
     6
  9
$SURFU
 70
     6
  9
$SURFV
 70
     6
  9
$UCSNAME
  2

  9
$UCSORG
 10
0.0
 20
0.0
 30
0.0
  9
$UCSXDIR
 10
1.0
 20
0.0
 30
0.0
  9
$UCSYDIR
 10
0.0
 20
1.0
 30
0.0
  9
$USERI1
 70
     0
  9
$USERI2
 70
     0
  9
$USERI3
 70
     0
  9
$USERI4
 70
     0
  9
$USERI5
 70
     0
  9
$USERR1
 40
0.0
  9
$USERR2
 40
0.0
  9
$USERR3
 40
0.0
  9
$USERR4
 40
0.0
  9
$USERR5
 40
0.0
  9
$WORLDVIEW
 70
     1
  0
ENDSEC
  0
SECTION
  2
TABLES
  0
TABLE
  2
LTYPE
 70
     2
  0
LTYPE
  2
CONTINUOUS
 70
     0
  3
Solid line
 72
    65
 73
     0
 40
0.0
  0
LTYPE
  2
CENTER
 70
     0
  3

 72
    65
 73
     0
 40
0.0
  0
ENDTAB
  0
TABLE
  2
LAYER
 70
     2
  0
LAYER
  2
0
 70
     0
 62
     7
  6
CONTINUOUS
  0
LAYER
  2
1
 70
     0
 62
     7
  6
CONTINUOUS
  0
ENDTAB
  0
TABLE
  2
STYLE
 70
     2
  0
STYLE
  2
STANDARD
 70
     0
 40
0.0
 41
1.0
 50
0.0
 71
     0
 42
0.2
  3
txt
  4

  0
STYLE
  2
ＭＳ_ゴシック
 70
     0
 40
0.0
 41
1.0
 50
0.0
 71
     0
 42
0.2
  3
ＭＳ ゴシック.shx
  4

  0
ENDTAB
  0
TABLE
  2
VIEW
 70
     0
  0
ENDTAB
  0
ENDSEC
  0
SECTION
  2
BLOCKS
  0
ENDSEC
  0
SECTION
  2
ENTITIES
  0
LINE
  8
1
  6
CONTINUOUS
 62
     7
 10
1.860155108391473
 20
132.9898448916085
 11
-0.5979779130825097
 21
132.9898448916085
  0
LINE
  8
1
  6
CONTINUOUS
 62
     7
 10
7.814213562373089
 20
144.5357864376269
 11
6.076051033830258
 21
142.7976239090841
  0
LINE
  8
1
  6
CONTINUOUS
 62
     7
 10
-5.947623909084098
 20
130.7739489661697
 11
-7.685786437626894
 21
129.0357864376269
  0
LINE
  8
1
  6
CONTINUOUS
 62
     7
 10
-10.51421356237311
 20
129.0357864376269
 11
-12.25237609091594
 21
130.7739489661697
  0
LINE
  8
1
  6
CONTINUOUS
 62
     7
 10
-22.06015510839149
 20
134.9898448916085
 11
-22.06015510839149
 21
137.4479779130825
  0
LINE
  8
1
  6
CONTINUOUS
 62
     7
 10
-17.60202208691755
 20
132.9898448916085
 11
-20.06015510839148
 21
132.9898448916085
  0
LINE
  8
1
  6
CONTINUOUS
 62
     7
 10
-26.0142135623731
 20
147.3642135623731
 11
-24.27605103383026
 21
149.1023760909159
  0
LINE
  8
1
  6
CONTINUOUS
 62
     7
 10
3.860155108391498
 20
137.4479779130824
 11
3.860155108391489
 21
134.9898448916085
  0
LINE
  8
1
  6
CONTINUOUS
 62
     7
 10
4.237500000000022
 20
145.95
 11
3.210400543414349
 21
145.95
  0
LINE
  8
1
  6
CONTINUOUS
 62
     7
 10
3.075502967598044
 20
146.0220986003886
 11
3.063898825923922
 21
145.4107966486048
  0
LINE
  8
1
  6
CONTINUOUS
 62
     7
 10
-16.48073232709798
 20
132.3200773914255
 11
-16.48073232709798
 21
132.3189380766535
  0
LINE
  8
1
  6
CONTINUOUS
 62
     7
 10
3.075699927032761
 20
145.9500000006854
 11
3.210411958551148
 21
145.9500000024548
  0
LINE
  8
1
  6
CONTINUOUS
 62
     7
 10
-0.5979779130824582
 20
158.9101551083915
 11
1.86015510839147
 21
158.9101551083915
  0
LINE
  8
1
  6
CONTINUOUS
 62
     7
 10
-22.06015510839151
 20
154.4520220869175
 11
-22.06015510839149
 21
156.9101551083915
  0
LINE
  8
1
  6
CONTINUOUS
 62
     7
 10
-24.27605103383031
 20
142.7976239090841
 11
-26.0142135623731
 21
144.5357864376269
  0
LINE
  8
1
  6
CONTINUOUS
 62
     7
 10
-20.06015510839148
 20
158.9101551083915
 11
-17.6020220869175
 21
158.9101551083915
  0
LINE
  8
1
  6
CONTINUOUS
 62
     7
 10
57.4
 20
145.95
 11
57.4
 21
136.7765
  0
LINE
  8
1
  6
CONTINUOUS
 62
     7
 10
56.4
 20
145.95
 11
56.4
 21
135.6145
  0
LINE
  8
1
  6
CONTINUOUS
 62
     7
 10
56.4
 20
145.95
 11
56.4
 21
156.2855
  0
LINE
  8
1
  6
CONTINUOUS
 62
     7
 10
-5.071264204545457
 20
130.775703051198
 11
-5.048969662165928
 21
130.7816397325903
  0
LINE
  8
1
  6
CONTINUOUS
 62
     7
 10
45.4
 20
156.2855
 11
56.4
 21
156.2855
  0
LINE
  8
1
  6
CENTER
 62
     7
 10
25.4
 20
145.95
 11
61.4
 21
145.95
  0
LINE
  8
1
  6
CONTINUOUS
 62
     7
 10
57.4
 20
145.95
 11
57.4
 21
136.7765
  0
LINE
  8
1
  6
CONTINUOUS
 62
     7
 10
57.4
 20
145.95
 11
57.4
 21
155.1235
  0
LINE
  8
1
  6
CONTINUOUS
 62
     7
 10
56.4
 20
135.6145
 11
57.4
 21
136.7765
  0
LINE
  8
1
  6
CENTER
 62
     7
 10
-29.60000000000002
 20
145.95
 11
11.40000000000001
 21
145.95
  0
LINE
  8
1
  6
CONTINUOUS
 62
     7
 10
-5.048969662165928
 20
130.7816397325903
 11
-5.047811449538405
 21
130.7819491050594
  0
LINE
  8
1
  6
CONTINUOUS
 62
     7
 10
57.4
 20
145.95
 11
57.4
 21
155.1235
  0
LINE
  8
1
  6
CONTINUOUS
 62
     7
 10
56.4
 20
156.2855
 11
57.4
 21
155.1235
  0
LINE
  8
1
  6
CONTINUOUS
 62
     7
 10
58.4
 20
145.95
 11
58.4
 21
136.7765
  0
LINE
  8
1
  6
CONTINUOUS
 62
     7
 10
45.4
 20
135.6145
 11
56.4
 21
135.6145
  0
LINE
  8
1
  6
CONTINUOUS
 62
     7
 10
58.4
 20
136.7765
 11
45.4
 21
136.7765
  0
LINE
  8
1
  6
CONTINUOUS
 62
     7
 10
-12.01317747162733
 20
161.3773587181605
 11
-12.17217045454546
 21
161.3464855956877
  0
LINE
  8
1
  6
CONTINUOUS
 62
     7
 10
33.40000000000001
 20
146.6571067811865
 11
33.40000000000001
 21
145.2428932188134
  0
ARC
  8
1
  6
CONTINUOUS
 62
     7
 10
-9.100000000000003
 20
145.95
 40
7.849999999999999
 50
0.0
 51
180.0
  0
ARC
  8
1
  6
CONTINUOUS
 62
     7
 10
-9.100000000000003
 20
145.95
 40
15.49999999999999
 50
236.7346296915327
 51
258.2653703084671
  0
ARC
  8
1
  6
CONTINUOUS
 62
     7
 10
-9.100000000000003
 20
145.95
 40
15.50000000000001
 50
326.7346296915327
 51
348.2653703084671
  0
ARC
  8
1
  6
CONTINUOUS
 62
     7
 10
-9.100000000000003
 20
145.95
 40
7.849999999999999
 50
180.0
 51
0.0
  0
ARC
  8
1
  6
CONTINUOUS
 62
     7
 10
-9.100000000000003
 20
145.95
 40
15.5
 50
11.73462969153274
 51
33.26537030846704
  0
ARC
  8
1
  6
CONTINUOUS
 62
     7
 10
-9.100000000000003
 20
145.95
 40
15.50000000000001
 50
146.7346296915327
 51
168.2653703084671
  0
ARC
  8
1
  6
CONTINUOUS
 62
     7
 10
-9.100000000000003
 20
145.95
 40
15.49999999999999
 50
281.7346296915327
 51
303.2653703084671
  0
ARC
  8
1
  6
CONTINUOUS
 62
     7
 10
-9.100000000000003
 20
145.95
 40
15.5
 50
191.7346296915327
 51
213.265370308467
  0
ARC
  8
1
  6
CONTINUOUS
 62
     7
 10
-9.098771772877026
 20
145.9371463192222
 40
12.17457113604602
 50
0.3998043640796847
 51
0.0051667320103093
  0
LINE
  8
1
  6
CONTINUOUS
 62
     7
 10
33.4
 20
130.5213550175548
 11
33.4
 21
129.7428932188134
  0
LINE
  8
1
  6
CONTINUOUS
 62
     7
 10
28.4
 20
130.7739489661697
 11
28.4
 21
129.0357864376269
  0
LINE
  8
1
  6
CONTINUOUS
 62
     7
 10
28.4
 20
162.8642135623731
 11
28.4
 21
161.1260510338303
  0
LINE
  8
1
  6
CONTINUOUS
 62
     7
 10
58.4
 20
136.7765
 11
58.4
 21
145.95
  0
LINE
  8
1
  6
CONTINUOUS
 62
     7
 10
28.4
 20
161.1260510338303
 11
32.4
 21
161.1260510338303
  0
LINE
  8
1
  6
CONTINUOUS
 62
     7
 10
33.4
 20
161.3786449824452
 11
33.32153044845796
 21
161.3060695922078
  0
LINE
  8
1
  6
CONTINUOUS
 62
     7
 10
58.4
 20
145.95
 11
58.4
 21
155.1235
  0
LINE
  8
1
  6
CONTINUOUS
 62
     7
 10
33.4
 20
162.1571067811865
 11
33.4
 21
161.3786449824452
  0
LINE
  8
1
  6
CONTINUOUS
 62
     7
 10
28.4
 20
147.3642135623731
 11
28.4
 21
144.5357864376269
  0
ARC
  8
1
  6
CONTINUOUS
 62
     7
 10
-9.100000000000003
 20
145.95
 40
15.49999999999999
 50
101.7346296915327
 51
123.2653703084671
  0
ARC
  8
1
  6
CONTINUOUS
 62
     7
 10
-9.100000000000003
 20
145.95
 40
15.49999999999999
 50
56.73462969153276
 51
78.26537030846711
  0
ARC
  8
1
  6
CONTINUOUS
 62
     7
 10
31.28093692554263
 20
144.4082784131205
 40
2.119806942558317
 50
318.5455910222193
 51
1.517924405291978
  0
ARC
  8
1
  6
CONTINUOUS
 62
     7
 10
31.23735034289973
 20
147.4878517507622
 40
2.163281551095103
 50
358.6151147395709
 51
38.30540896448736
  0
ARC
  8
1
  6
CONTINUOUS
 62
     7
 10
1.860155108391486
 20
134.9898448916085
 40
2.000000000000002
 50
269.9999999999997
 51
0.0
  0
ARC
  8
1
  6
CONTINUOUS
 62
     7
 10
32.43895332956526
 20
163.3753515991934
 40
2.249637836458871
 50
269.0078523360855
 51
293.0989117382899
  0
ARC
  8
1
  6
CONTINUOUS
 62
     7
 10
32.40000000000001
 20
157.9101551083915
 40
1.000000000000001
 50
0.0
 51
90.00000000000043
  0
ARC
  8
1
  6
CONTINUOUS
 62
     7
 10
32.4
 20
162.45
 40
1.000000000000001
 50
0.0
 51
90.0
  0
ARC
  8
1
  6
CONTINUOUS
 62
     7
 10
-9.100000000000005
 20
161.45
 40
1.999999999999974
 50
44.99999999999944
 51
135.0000000000006
  0
ARC
  8
1
  6
CONTINUOUS
 62
     7
 10
1.860155108391482
 20
156.9101551083915
 40
2.0
 50
0.0
 51
90.00000000000036
  0
ARC
  8
1
  6
CONTINUOUS
 62
     7
 10
-20.06015510839149
 20
134.9898448916085
 40
2.000000000000002
 50
180.0
 51
270.0000000000002
  0
ARC
  8
1
  6
CONTINUOUS
 62
     7
 10
32.4
 20
133.9898448916085
 40
1.000000000000001
 50
269.9999999999996
 51
0.0
  0
ARC
  8
1
  6
CONTINUOUS
 62
     7
 10
44.9
 20
160.95
 40
0.5000000000000004
 50
0.0
 51
90.0
  0
ARC
  8
1
  6
CONTINUOUS
 62
     7
 10
32.41939450898313
 20
128.3697745619221
 40
2.404252630864335
 50
69.22280362911735
 51
90.46219583925102
  0
ARC
  8
1
  6
CONTINUOUS
 62
     7
 10
-9.100000000000001
 20
130.45
 40
1.999999999999974
 50
224.9999999999994
 51
315.0000000000007
  0
ARC
  8
1
  6
CONTINUOUS
 62
     7
 10
32.4
 20
129.45
 40
1.000000000000001
 50
270.0
 51
0.0
  0
ARC
  8
1
  6
CONTINUOUS
 62
     7
 10
-24.60000000000001
 20
145.95
 40
2.000000000000015
 50
134.9999999999995
 51
225.0000000000005
  0
ARC
  8
1
  6
CONTINUOUS
 62
     7
 10
44.9
 20
130.95
 40
0.5000000000000004
 50
270.0
 51
0.0
  0
ARC
  8
1
  6
CONTINUOUS
 62
     7
 10
31.76610829474557
 20
155.8186076251241
 40
1.633918536622605
 50
320.763351826104
 51
359.6716443950905
  0
ARC
  8
1
  6
CONTINUOUS
 62
     7
 10
6.399999999999999
 20
145.95
 40
2.000000000000015
 50
314.9999999999995
 51
45.00000000000051
  0
ARC
  8
1
  6
CONTINUOUS
 62
     7
 10
-20.06015510839149
 20
156.9101551083915
 40
2.000000000000002
 50
89.99999999999962
 51
180.0
  0
LINE
  8
1
  6
CONTINUOUS
 62
     7
 10
43.4
 20
130.45
 11
44.9
 21
130.45
  0
LINE
  8
1
  6
CONTINUOUS
 62
     7
 10
33.4
 20
130.45
 11
34.4
 21
130.45
  0
LINE
  8
1
  6
CONTINUOUS
 62
     7
 10
44.89999999999998
 20
161.4500000000002
 11
34.4
 21
161.45
  0
LINE
  8
1
  6
CONTINUOUS
 62
     7
 10
32.4
 20
163.45
 11
28.4
 21
163.45
  0
LINE
  8
1
  6
CONTINUOUS
 62
     7
 10
28.4
 20
163.45
 11
28.4
 21
162.8642135623731
  0
LINE
  8
1
  6
CONTINUOUS
 62
     7
 10
58.4
 20
155.1235
 11
45.4
 21
155.1235
  0
LINE
  8
1
  6
CONTINUOUS
 62
     7
 10
42.3055681818182
 20
130.45
 11
43.4
 21
130.45
  0
LINE
  8
1
  6
CONTINUOUS
 62
     7
 10
28.4
 20
128.45
 11
32.39999999999999
 21
128.45
  0
LINE
  8
1
  6
CONTINUOUS
 62
     7
 10
-12.2523760909159
 20
161.1260510338303
 11
-10.51421356237311
 21
162.8642135623731
  0
LINE
  8
1
  6
CONTINUOUS
 62
     7
 10
-7.685786437626901
 20
162.8642135623731
 11
-5.947623909084068
 21
161.1260510338303
  0
LINE
  8
1
  6
CONTINUOUS
 62
     7
 10
3.860155108391485
 20
156.9101551083915
 11
3.860155108391489
 21
154.4520220869175
  0
LINE
  8
1
  6
CONTINUOUS
 62
     7
 10
34.4
 20
161.45
 11
33.4
 21
161.45
  0
LINE
  8
1
  6
CONTINUOUS
 62
     7
 10
33.4
 20
162.45
 11
33.4
 21
162.1571067811865
  0
LINE
  8
1
  6
CONTINUOUS
 62
     7
 10
57.40155342450588
 20
136.7765
 11
58.4
 21
136.7765
  0
LINE
  8
1
  6
CONTINUOUS
 62
     7
 10
28.4
 20
129.0357864376269
 11
28.4
 21
128.45
  0
LINE
  8
1
  6
CONTINUOUS
 62
     7
 10
34.4
 20
130.45
 11
44.9
 21
130.45
  0
LINE
  8
1
  6
CONTINUOUS
 62
     7
 10
6.0760510338303
 20
149.1023760909159
 11
7.814213562373089
 21
147.3642135623731
  0
LINE
  8
1
  6
CONTINUOUS
 62
     7
 10
28.4
 20
149.1023760909159
 11
32.4
 21
149.1023760909159
  0
LINE
  8
1
  6
CONTINUOUS
 62
     7
 10
28.4
 20
149.1023760909159
 11
28.4
 21
147.3642135623731
  0
LINE
  8
1
  6
CONTINUOUS
 62
     7
 10
28.4
 20
142.7976239090841
 11
32.4
 21
142.7976239090841
  0
LINE
  8
1
  6
CONTINUOUS
 62
     7
 10
28.4
 20
144.5357864376269
 11
28.4
 21
142.7976239090841
  0
LINE
  8
1
  6
CONTINUOUS
 62
     7
 10
33.40000000000001
 20
147.4355685799279
 11
33.4
 21
146.6571067811865
  0
LINE
  8
1
  6
CONTINUOUS
 62
     7
 10
33.4
 20
145.2428932188134
 11
33.4
 21
144.4644314200721
  0
LINE
  8
1
  6
CONTINUOUS
 62
     7
 10
28.4
 20
130.7739489661697
 11
32.4
 21
130.7739489661697
  0
LINE
  8
1
  6
CONTINUOUS
 62
     7
 10
45.4
 20
145.95
 11
45.4
 21
130.95
  0
LINE
  8
1
  6
CONTINUOUS
 62
     7
 10
28.4
 20
158.9101551083915
 11
28.4
 21
161.1260510338303
  0
LINE
  8
1
  6
CONTINUOUS
 62
     7
 10
28.4
 20
132.9898448916085
 11
32.4
 21
132.9898448916085
  0
LINE
  8
1
  6
CONTINUOUS
 62
     7
 10
28.4
 20
137.4479779130824
 11
28.4
 21
142.7976239090841
  0
LINE
  8
1
  6
CONTINUOUS
 62
     7
 10
28.4
 20
134.9898448916085
 11
28.4
 21
132.9898448916085
  0
LINE
  8
1
  6
CONTINUOUS
 62
     7
 10
28.4
 20
137.4479779130824
 11
32.4
 21
137.4479779130825
  0
LINE
  8
1
  6
CONTINUOUS
 62
     7
 10
28.4
 20
156.9101551083915
 11
28.4
 21
154.4520220869175
  0
LINE
  8
1
  6
CONTINUOUS
 62
     7
 10
28.4
 20
149.1023760909159
 11
28.4
 21
154.4520220869175
  0
LINE
  8
1
  6
CONTINUOUS
 62
     7
 10
28.4
 20
130.7739489661697
 11
28.4
 21
132.9898448916085
  0
LINE
  8
1
  6
CONTINUOUS
 62
     7
 10
28.4
 20
137.4479779130824
 11
28.4
 21
134.9898448916085
  0
LINE
  8
1
  6
CONTINUOUS
 62
     7
 10
45.4
 20
160.95
 11
45.4
 21
145.95
  0
LINE
  8
1
  6
CONTINUOUS
 62
     7
 10
33.4
 20
134.9898448916085
 11
33.4
 21
133.9898448916085
  0
LINE
  8
1
  6
CONTINUOUS
 62
     7
 10
33.4
 20
136.0907561251779
 11
33.4
 21
134.9898448916085
  0
LINE
  8
1
  6
CONTINUOUS
 62
     7
 10
33.40000000000001
 20
157.9101551083915
 11
33.40000000000001
 21
156.9101551083915
  0
LINE
  8
1
  6
CENTER
 62
     7
 10
-9.100000000000005
 20
125.45
 11
-9.100000000000001
 21
166.45
  0
LINE
  8
1
  6
CONTINUOUS
 62
     7
 10
28.4
 20
158.9101551083915
 11
32.4
 21
158.9101551083915
  0
LINE
  8
1
  6
CONTINUOUS
 62
     7
 10
28.4
 20
158.9101551083915
 11
28.4
 21
156.9101551083915
  0
LINE
  8
1
  6
CONTINUOUS
 62
     7
 10
33.40000000000001
 20
156.9101551083915
 11
33.40000000000001
 21
155.8092438748221
  0
CIRCLE
  8
1
  6
CONTINUOUS
 62
     7
 10
-9.100000000000003
 20
145.95
 40
13.8375
  0
TEXT
  8
1
  6
CONTINUOUS
 62
     7
 10
9.862851694385391
 20
114.2784200325122
 40
3.0
  1
MG-16SU
  0
LINE
  8
1
  6
CONTINUOUS
 62
     7
 10
28.4
 20
154.4520220869175
 11
32.4
 21
154.4520220869175
  0
LINE
  8
1
  6
CONTINUOUS
 62
     7
 10
33.4
 20
129.7428932188134
 11
33.4
 21
129.45
  0
LINE
  8
1
  6
CONTINUOUS
 62
     7
 10
32.4
 20
149.1023760909159
 11
32.52108755378833
 21
149.0892488865528
  0
LINE
  8
1
  6
CONTINUOUS
 62
     7
 10
32.52108755378833
 20
149.0892488865528
 11
32.62104016276867
 21
149.0583074893476
  0
LINE
  8
1
  6
CONTINUOUS
 62
     7
 10
32.62104016276867
 20
149.0583074893476
 11
32.72786129236002
 21
149.0041301190467
  0
LINE
  8
1
  6
CONTINUOUS
 62
     7
 10
32.72786129236002
 20
149.0041301190467
 11
32.83801748604212
 21
148.923417839133
  0
LINE
  8
1
  6
CONTINUOUS
 62
     7
 10
32.83801748604212
 20
148.923417839133
 11
32.93491600634255
 21
148.8287685593705
  0
LINE
  8
1
  6
CONTINUOUS
 62
     7
 10
33.03164366345934
 20
154.7851135444185
 11
32.92741097162786
 21
154.67691886485
  0
LINE
  8
1
  6
CONTINUOUS
 62
     7
 10
32.92741097162786
 20
154.67691886485
 11
32.84828441261989
 21
154.611595574133
  0
LINE
  8
1
  6
CONTINUOUS
 62
     7
 10
32.84828441261989
 20
154.611595574133
 11
32.74243208697946
 21
154.5435086494004
  0
LINE
  8
1
  6
CONTINUOUS
 62
     7
 10
32.74243208697946
 20
154.5435086494004
 11
32.63960123354455
 21
154.4962727450894
  0
LINE
  8
1
  6
CONTINUOUS
 62
     7
 10
32.63960123354455
 20
154.4962727450894
 11
32.53015495273601
 21
154.4649776322827
  0
LINE
  8
1
  6
CONTINUOUS
 62
     7
 10
32.53015495273601
 20
154.4649776322827
 11
32.42642028466661
 21
154.4525588719888
  0
LINE
  8
1
  6
CONTINUOUS
 62
     7
 10
32.42642028466661
 20
154.4525588719888
 11
32.4
 21
154.4520220869175
  0
LINE
  8
1
  6
CONTINUOUS
 62
     7
 10
33.27226676584742
 20
130.617671273626
 11
33.37554945063334
 21
130.5589844210075
  0
LINE
  8
1
  6
CONTINUOUS
 62
     7
 10
33.37554945063334
 20
130.5589844210075
 11
33.4
 21
130.5213550175548
  0
LINE
  8
1
  6
CONTINUOUS
 62
     7
 10
32.4
 20
137.4479779130825
 11
32.42426206621184
 21
137.4475258466
  0
LINE
  8
1
  6
CONTINUOUS
 62
     7
 10
32.42426206621184
 20
137.4475258466
 11
32.44850003251288
 21
137.4461783111134
  0
LINE
  8
1
  6
CONTINUOUS
 62
     7
 10
32.44850003251288
 20
137.4461783111134
 11
32.47264536154283
 21
137.4439483025643
  0
LINE
  8
1
  6
CONTINUOUS
 62
     7
 10
32.47264536154283
 20
137.4439483025643
 11
32.49662951594144
 21
137.4408488168942
  0
LINE
  8
1
  6
CONTINUOUS
 62
     7
 10
32.49662951594144
 20
137.4408488168942
 11
32.52116311827704
 21
137.4367551326889
  0
LINE
  8
1
  6
CONTINUOUS
 62
     7
 10
32.52116311827704
 20
137.4367551326889
 11
32.54548435915187
 21
137.431776635309
  0
LINE
  8
1
  6
CONTINUOUS
 62
     7
 10
32.54548435915187
 20
137.431776635309
 11
32.56953555740684
 21
137.4259494082505
  0
LINE
  8
1
  6
CONTINUOUS
 62
     7
 10
32.56953555740684
 20
137.4259494082505
 11
32.59325903188289
 21
137.4193095350097
  0
LINE
  8
1
  6
CONTINUOUS
 62
     7
 10
32.59325903188289
 20
137.4193095350097
 11
32.62113272433105
 21
137.4103567586663
  0
LINE
  8
1
  6
CONTINUOUS
 62
     7
 10
32.62113272433105
 20
137.4103567586663
 11
32.64851319146078
 21
137.4003425444558
  0
LINE
  8
1
  6
CONTINUOUS
 62
     7
 10
32.64851319146078
 20
137.4003425444558
 11
32.67534556861139
 21
137.3893413376041
  0
LINE
  8
1
  6
CONTINUOUS
 62
     7
 10
32.67534556861139
 20
137.3893413376041
 11
32.70157499112219
 21
137.3774275833373
  0
LINE
  8
1
  6
CONTINUOUS
 62
     7
 10
32.70157499112219
 20
137.3774275833373
 11
32.7365709925002
 21
137.3597009634385
  0
LINE
  8
1
  6
CONTINUOUS
 62
     7
 10
32.7365709925002
 20
137.3597009634385
 11
32.77044792091387
 21
137.3405002590636
  0
LINE
  8
1
  6
CONTINUOUS
 62
     7
 10
32.77044792091387
 20
137.3405002590636
 11
32.80315514855802
 21
137.3199947254423
  0
LINE
  8
1
  6
CONTINUOUS
 62
     7
 10
32.80315514855802
 20
137.3199947254423
 11
32.84997300195362
 21
137.2871524872091
  0
LINE
  8
1
  6
CONTINUOUS
 62
     7
 10
32.84997300195362
 20
137.2871524872091
 11
32.89438665507414
 21
137.2519777360317
  0
LINE
  8
1
  6
CONTINUOUS
 62
     7
 10
32.89438665507414
 20
137.2519777360317
 11
32.93643676040062
 21
137.2147875062754
  0
LINE
  8
1
  6
CONTINUOUS
 62
     7
 10
32.93643676040062
 20
137.2147875062754
 11
32.97616397041409
 21
137.1758988323051
  0
LINE
  8
1
  6
CONTINUOUS
 62
     7
 10
32.97616397041409
 20
137.1758988323051
 11
33.01360893759561
 21
137.1356287484858
  0
LINE
  8
1
  6
CONTINUOUS
 62
     7
 10
33.01360893759561
 20
137.1356287484858
 11
33.0488123144262
 21
137.0942942891826
  0
LINE
  8
1
  6
CONTINUOUS
 62
     7
 10
33.0488123144262
 20
137.0942942891826
 11
33.10356959407459
 21
137.0225762929486
  0
LINE
  8
1
  6
CONTINUOUS
 62
     7
 10
33.10356959407459
 20
137.0225762929486
 11
33.15310150117771
 21
136.9484263818274
  0
LINE
  8
1
  6
CONTINUOUS
 62
     7
 10
33.15310150117771
 20
136.9484263818274
 11
33.19760021359874
 21
136.8723149592854
  0
LINE
  8
1
  6
CONTINUOUS
 62
     7
 10
33.19760021359874
 20
136.8723149592854
 11
33.23725790920091
 21
136.7947124287885
  0
LINE
  8
1
  6
CONTINUOUS
 62
     7
 10
33.23725790920091
 20
136.7947124287885
 11
33.27226676584742
 21
136.7160891938029
  0
LINE
  8
1
  6
CONTINUOUS
 62
     7
 10
33.27226676584742
 20
136.7160891938029
 11
33.30281896140148
 21
136.6369156577947
  0
LINE
  8
1
  6
CONTINUOUS
 62
     7
 10
33.30281896140148
 20
136.6369156577947
 11
33.3323693808649
 21
136.5465642195157
  0
LINE
  8
1
  6
CONTINUOUS
 62
     7
 10
33.3323693808649
 20
136.5465642195157
 11
33.35662438021753
 21
136.4555238452407
  0
LINE
  8
1
  6
CONTINUOUS
 62
     7
 10
33.35662438021753
 20
136.4555238452407
 11
33.37554945063335
 21
136.3641086918195
  0
LINE
  8
1
  6
CONTINUOUS
 62
     7
 10
33.37554945063335
 20
136.3641086918195
 11
33.38911008328638
 21
136.2726329161021
  0
LINE
  8
1
  6
CONTINUOUS
 62
     7
 10
33.38911008328638
 20
136.2726329161021
 11
33.3972717693506
 21
136.1814106749382
  0
LINE
  8
1
  6
CONTINUOUS
 62
     7
 10
33.3972717693506
 20
136.1814106749382
 11
33.4
 21
136.0907561251779
  0
LINE
  8
1
  6
CONTINUOUS
 62
     7
 10
32.86969563966316
 20
143.0049155868975
 11
32.78282509582907
 21
142.9328119021011
  0
LINE
  8
1
  6
CONTINUOUS
 62
     7
 10
32.78282509582907
 20
142.9328119021011
 11
32.6846085940961
 21
142.8712100326449
  0
LINE
  8
1
  6
CONTINUOUS
 62
     7
 10
32.6846085940961
 20
142.8712100326449
 11
32.57948691607402
 21
142.826575536705
  0
LINE
  8
1
  6
CONTINUOUS
 62
     7
 10
32.57948691607402
 20
142.826575536705
 11
32.47918392430092
 21
142.8032279457598
  0
LINE
  8
1
  6
CONTINUOUS
 62
     7
 10
32.47918392430092
 20
142.8032279457598
 11
32.4
 21
142.7976239090841
  0
ENDSEC
  0
EOF
