  0
SECTION
  2
HEADER
  9
$ACADVER
  1
AC1004
  9
$INSBASE
 10
0.0
 20
0.0
  9
$EXTMIN
 10
74.1
 20
164.15
  9
$EXTMAX
 10
140.85
 20
226.0019171055231
  9
$LIMMIN
 10
0.0
 20
0.0
  9
$LIMMAX
 10
12.0
 20
9.0
  9
$ORTHOMODE
 70
     0
  9
$REGENMODE
 70
     1
  9
$FILLMODE
 70
     1
  9
$QTEXTMODE
 70
     0
  9
$DRAGMODE
 70
     2
  9
$LTSCALE
 40
1.0
  9
$OSMODE
 70
    37
  9
$ATTMODE
 70
     1
  9
$TEXTSIZE
 40
0.2
  9
$TRACEWID
 40
0.05
  9
$TEXTSTYLE
  7
STANDARD
  9
$CLAYER
  8
0
  9
$CELTYPE
  6
BYLAYER
  9
$CECOLOR
 62
   256
  9
$DIMSCALE
 40
1.0
  9
$DIMASZ
 40
3.0
  9
$DIMEXO
 40
0.0625
  9
$DIMDLI
 40
0.38
  9
$DIMRND
 40
0.0
  9
$DIMDLE
 40
0.0
  9
$DIMEXE
 40
1.5
  9
$DIMTP
 40
0.0
  9
$DIMTM
 40
0.0
  9
$DIMTXT
 40
3.0
  9
$DIMCEN
 40
0.09
  9
$DIMTSZ
 40
0.0
  9
$DIMTOL
 70
     0
  9
$DIMLIM
 70
     0
  9
$DIMTIH
 70
     1
  9
$DIMTOH
 70
     1
  9
$DIMSE1
 70
     0
  9
$DIMSE2
 70
     0
  9
$DIMTAD
 70
     1
  9
$DIMZIN
 70
     0
  9
$DIMBLK
  1

  9
$DIMASO
 70
     1
  9
$DIMSHO
 70
     1
  9
$DIMPOST
  1

  9
$DIMAPOST
  1

  9
$DIMALT
 70
     0
  9
$DIMALTD
 70
     2
  9
$DIMALTF
 40
25.4
  9
$DIMLFAC
 40
1.0
  9
$DIMTOFL
 70
     0
  9
$DIMTVP
 40
0.0
  9
$DIMTIX
 70
     0
  9
$DIMSOXD
 70
     0
  9
$DIMSAH
 70
     0
  9
$DIMBLK1
  1

  9
$DIMBLK2
  1

  9
$LUNITS
 70
     2
  9
$LUPREC
 70
     4
  9
$SKETCHINC
 40
0.1
  9
$FILLETRAD
 40
0.5
  9
$AUNITS
 70
     0
  9
$AUPREC
 70
     0
  9
$MENU
  1
.
  9
$ELEVATION
 40
0.0
  9
$THICKNESS
 40
0.0
  9
$LIMCHECK
 70
     0
  9
$CHAMFERA
 40
0.0
  9
$CHAMFERB
 40
0.0
  9
$SKPOLY
 70
     0
  9
$TDCREATE
 40
2459270.48234588
  9
$TDUPDATE
 40
2459270.482346239
  9
$TDINDWG
 40
0.0000000116
  9
$TDUSRTIMER
 40
0.0000000116
  9
$USRTIMER
 70
     1
  9
$ANGBASE
 50
0.0
  9
$ANGDIR
 70
     0
  9
$PDMODE
 70
     0
  9
$PDSIZE
 40
0.0
  9
$PLINEWID
 40
0.0
  9
$COORDS
 70
     1
  9
$SPLFRAME
 70
     0
  9
$SPLINETYPE
 70
     6
  9
$SPLINESEGS
 70
     8
  9
$ATTDIA
 70
     0
  9
$ATTREQ
 70
     1
  9
$SURFTAB1
 70
     6
  9
$SURFTAB2
 70
     6
  9
$SURFTYPE
 70
     6
  9
$SURFU
 70
     6
  9
$SURFV
 70
     6
  9
$UCSNAME
  2

  9
$UCSORG
 10
0.0
 20
0.0
 30
0.0
  9
$UCSXDIR
 10
1.0
 20
0.0
 30
0.0
  9
$UCSYDIR
 10
0.0
 20
1.0
 30
0.0
  9
$USERI1
 70
     0
  9
$USERI2
 70
     0
  9
$USERI3
 70
     0
  9
$USERI4
 70
     0
  9
$USERI5
 70
     0
  9
$USERR1
 40
0.0
  9
$USERR2
 40
0.0
  9
$USERR3
 40
0.0
  9
$USERR4
 40
0.0
  9
$USERR5
 40
0.0
  9
$WORLDVIEW
 70
     1
  0
ENDSEC
  0
SECTION
  2
TABLES
  0
TABLE
  2
LTYPE
 70
     1
  0
LTYPE
  2
CONTINUOUS
 70
     0
  3
Solid line
 72
    65
 73
     0
 40
0.0
  0
ENDTAB
  0
TABLE
  2
LAYER
 70
     1
  0
LAYER
  2
0
 70
     0
 62
     7
  6
CONTINUOUS
  0
ENDTAB
  0
TABLE
  2
STYLE
 70
     2
  0
STYLE
  2
STANDARD
 70
     0
 40
0.0
 41
1.0
 50
0.0
 71
     0
 42
0.2
  3
txt
  4

  0
STYLE
  2
ＭＳ_ゴシック
 70
     0
 40
0.0
 41
1.0
 50
0.0
 71
     0
 42
0.2
  3
ＭＳ ゴシック.shx
  4

  0
ENDTAB
  0
TABLE
  2
VIEW
 70
     0
  0
ENDTAB
  0
ENDSEC
  0
SECTION
  2
BLOCKS
  0
BLOCK
  8
0
  2
D_FRAME_VIEW_1489
 70
     0
 10
0.0
 20
0.0
  0
ARC
  8
0
  6
CONTINUOUS
 62
     7
 10
85.0
 20
215.0
 40
8.0
 50
0.0
 51
162.0113715397323
  0
ARC
  8
0
  6
CONTINUOUS
 62
     7
 10
85.0
 20
215.0
 40
8.0
 50
162.0113715397323
 51
341.790043135717
  0
ARC
  8
0
  6
CONTINUOUS
 62
     7
 10
85.0
 20
215.0
 40
8.0
 50
341.790043135717
 51
0.0
  0
CIRCLE
  8
0
  6
CONTINUOUS
 62
     7
 10
85.0
 20
215.0
 40
10.9
  0
LINE
  8
0
  6
CONTINUOUS
 62
     7
 10
82.75
 20
213.25
 11
87.25
 21
213.25
  0
LINE
  8
0
  6
CONTINUOUS
 62
     7
 10
87.55
 20
212.95
 11
87.25
 21
213.25
  0
LINE
  8
0
  6
CONTINUOUS
 62
     7
 10
82.75
 20
213.25
 11
82.45
 21
212.95
  0
LINE
  8
0
  6
CONTINUOUS
 62
     7
 10
92.0
 20
212.0
 11
91.5
 21
212.0
  0
ARC
  8
0
  6
CONTINUOUS
 62
     7
 10
92.0
 20
212.5
 40
0.5
 50
270.0
 51
0.0
  0
LINE
  8
0
  6
CONTINUOUS
 62
     7
 10
91.50000000000001
 20
212.0
 11
78.50000000000001
 21
212.0
  0
LINE
  8
0
  6
CONTINUOUS
 62
     7
 10
77.50000000000001
 20
212.5
 11
77.50000000000001
 21
217.5
  0
LINE
  8
0
  6
CONTINUOUS
 62
     7
 10
78.5
 20
212.0
 11
78.0
 21
212.0
  0
ARC
  8
0
  6
CONTINUOUS
 62
     7
 10
78.00000000000001
 20
212.5
 40
0.5000000000000004
 50
180.0
 51
270.0
  0
LINE
  8
0
  6
CONTINUOUS
 62
     7
 10
91.50000000000001
 20
218.0
 11
92.00000000000001
 21
218.0
  0
ARC
  8
0
  6
CONTINUOUS
 62
     7
 10
92.0
 20
217.5
 40
0.5000000000000004
 50
0.0
 51
90.0
  0
LINE
  8
0
  6
CONTINUOUS
 62
     7
 10
87.25
 20
213.25
 11
87.25
 21
216.75
  0
LINE
  8
0
  6
CONTINUOUS
 62
     7
 10
87.55
 20
217.05
 11
87.25
 21
216.75
  0
LINE
  8
0
  6
CONTINUOUS
 62
     7
 10
87.25
 20
216.75
 11
82.75
 21
216.75
  0
LINE
  8
0
  6
CONTINUOUS
 62
     7
 10
82.75
 20
216.75
 11
82.45
 21
217.05
  0
LINE
  8
0
  6
CONTINUOUS
 62
     7
 10
78.5
 20
218.0
 11
91.50000000000001
 21
218.0
  0
LINE
  8
0
  6
CONTINUOUS
 62
     7
 10
78.00000000000001
 20
218.0
 11
78.5
 21
218.0
  0
ARC
  8
0
  6
CONTINUOUS
 62
     7
 10
78.00000000000001
 20
217.5
 40
0.5
 50
90.0
 51
180.0
  0
LINE
  8
0
  6
CONTINUOUS
 62
     7
 10
82.75
 20
216.75
 11
82.75
 21
213.25
  0
LINE
  8
0
  6
CONTINUOUS
 62
     7
 10
92.5
 20
217.5
 11
92.5
 21
212.5
  0
LINE
  8
0
  6
CONTINUOUS
 62
     7
 10
92.70454411370329
 20
212.5
 11
92.59934207678535
 21
212.5
  0
LINE
  8
0
  6
CONTINUOUS
 62
     7
 10
92.59934207678535
 20
212.5
 11
92.50000000000001
 21
212.5
  0
ARC
  8
0
  6
CONTINUOUS
 62
     7
 10
85.0
 20
215.0
 40
8.1
 50
197.9774086674941
 51
342.0225913325062
  0
LINE
  8
0
  6
CONTINUOUS
 62
     7
 10
77.50000000000001
 20
212.5000000000001
 11
77.40065792321468
 21
212.5
  0
LINE
  8
0
  6
CONTINUOUS
 62
     7
 10
77.40065792321467
 20
212.5
 11
77.29545588629672
 21
212.4999999999999
  0
ARC
  8
0
  6
CONTINUOUS
 62
     7
 10
85.0
 20
215.0
 40
8.1
 50
17.97740866749405
 51
162.0225913325062
  0
LINE
  8
0
  6
CONTINUOUS
 62
     7
 10
92.70454411370328
 20
217.5000000000001
 11
92.59934207678535
 21
217.5
  0
LINE
  8
0
  6
CONTINUOUS
 62
     7
 10
92.59934207678535
 20
217.5
 11
92.50000000000001
 21
217.4999999999999
  0
LINE
  8
0
  6
CONTINUOUS
 62
     7
 10
77.50000000000001
 20
217.5
 11
77.40065792321468
 21
217.5
  0
LINE
  8
0
  6
CONTINUOUS
 62
     7
 10
77.40065792321467
 20
217.5
 11
77.29545588629671
 21
217.5
  0
ARC
  8
0
  6
CONTINUOUS
 62
     7
 10
85.0
 20
215.0
 40
8.1
 50
162.0225913325062
 51
197.9774086674941
  0
ARC
  8
0
  6
CONTINUOUS
 62
     7
 10
85.0
 20
215.0
 40
8.1
 50
342.0225913325062
 51
17.97740866749399
  0
ENDBLK
  8
0
  0
BLOCK
  8
0
  2
D_FRAME_VIEW_1811
 70
     0
 10
0.0
 20
0.0
  0
LINE
  8
0
  6
CONTINUOUS
 62
     7
 10
74.1
 20
164.15
 11
95.9
 21
164.15
  0
LINE
  8
0
  6
CONTINUOUS
 62
     7
 10
75.1
 20
171.95
 11
94.9
 21
171.95
  0
LINE
  8
0
  6
CONTINUOUS
 62
     7
 10
78.5
 20
175.85
 11
91.50000000000001
 21
175.85
  0
ARC
  8
0
  6
CONTINUOUS
 62
     7
 10
91.50000000000001
 20
174.85
 40
1.000000000000001
 50
0.0
 51
89.9999999999999
  0
ARC
  8
0
  6
CONTINUOUS
 62
     7
 10
78.5
 20
174.85
 40
0.999999999999987
 50
90.00000000000055
 51
180.0
  0
ARC
  8
0
  6
CONTINUOUS
 62
     7
 10
80.0
 20
173.35
 40
0.5175298909030623
 50
90.0
 51
180.0
  0
ARC
  8
0
  6
CONTINUOUS
 62
     7
 10
90.00000000000001
 20
173.35
 40
0.5175298909030762
 50
0.0
 51
90.0
  0
LINE
  8
0
  6
CONTINUOUS
 62
     7
 10
77.50000000000001
 20
171.95
 11
77.50000000000001
 21
174.85
  0
LINE
  8
0
  6
CONTINUOUS
 62
     7
 10
92.5
 20
174.85
 11
92.5
 21
171.95
  0
LINE
  8
0
  6
CONTINUOUS
 62
     7
 10
79.5
 20
173.35
 11
79.5
 21
171.95
  0
ARC
  8
0
  6
CONTINUOUS
 62
     7
 10
80.0
 20
173.35
 40
0.4999999999999866
 50
90.0
 51
180.0
  0
LINE
  8
0
  6
CONTINUOUS
 62
     7
 10
90.50000000000001
 20
171.95
 11
90.50000000000001
 21
173.35
  0
LINE
  8
0
  6
CONTINUOUS
 62
     7
 10
90.00000000000001
 20
173.85
 11
80.00000000000001
 21
173.85
  0
ARC
  8
0
  6
CONTINUOUS
 62
     7
 10
90.00000000000001
 20
173.35
 40
0.5000000000000004
 50
0.0
 51
90.0
  0
LINE
  8
0
  6
CONTINUOUS
 62
     7
 10
95.9
 20
164.15
 11
95.9
 21
170.95
  0
LINE
  8
0
  6
CONTINUOUS
 62
     7
 10
74.1
 20
170.95
 11
74.1
 21
164.15
  0
ARC
  8
0
  6
CONTINUOUS
 62
     7
 10
75.1
 20
170.95
 40
1.000000000000001
 50
90.0
 51
180.0
  0
ARC
  8
0
  6
CONTINUOUS
 62
     7
 10
94.9
 20
170.95
 40
1.000000000000001
 50
0.0
 51
90.0
  0
ENDBLK
  8
0
  0
BLOCK
  8
0
  2
D_FRAME_VIEW_1725
 70
     0
 10
0.0
 20
0.0
  0
LINE
  8
0
  6
CONTINUOUS
 62
     7
 10
140.85
 20
204.1
 11
140.85
 21
215.0
  0
LINE
  8
0
  6
CONTINUOUS
 62
     7
 10
140.85
 20
215.0
 11
140.85
 21
225.9
  0
LINE
  8
0
  6
CONTINUOUS
 62
     7
 10
133.05
 20
205.1
 11
133.05
 21
215.0
  0
LINE
  8
0
  6
CONTINUOUS
 62
     7
 10
133.05
 20
215.0
 11
133.05
 21
224.9
  0
LINE
  8
0
  6
CONTINUOUS
 62
     7
 10
130.15
 20
218.0
 11
133.05
 21
218.0
  0
LINE
  8
0
  6
CONTINUOUS
 62
     7
 10
129.15
 20
212.5000000000001
 11
129.15
 21
217.4999999999999
  0
ARC
  8
0
  6
CONTINUOUS
 62
     7
 10
129.65
 20
217.5
 40
0.5000000000000004
 50
90.0
 51
180.000000000006
  0
LINE
  8
0
  6
CONTINUOUS
 62
     7
 10
129.65
 20
218.0
 11
130.15
 21
218.0
  0
LINE
  8
0
  6
CONTINUOUS
 62
     7
 10
130.15
 20
212.0
 11
129.65
 21
212.0
  0
ARC
  8
0
  6
CONTINUOUS
 62
     7
 10
129.65
 20
212.5
 40
0.5000000000000004
 50
179.9999999999938
 51
270.0
  0
LINE
  8
0
  6
CONTINUOUS
 62
     7
 10
133.05
 20
212.0
 11
130.15
 21
212.0
  0
LINE
  8
0
  6
CONTINUOUS
 62
     9
 10
140.85
 20
225.9
 11
139.6500000000001
 21
225.9
  0
LINE
  8
0
  6
CONTINUOUS
 62
     9
 10
136.8545454545455
 20
225.9
 11
134.05
 21
225.9
  0
LINE
  8
0
  6
CONTINUOUS
 62
     9
 10
139.65
 20
204.1
 11
140.85
 21
204.1
  0
LINE
  8
0
  6
CONTINUOUS
 62
     9
 10
134.05
 20
204.1
 11
134.65
 21
204.1
  0
ARC
  8
0
  6
CONTINUOUS
 62
     7
 10
134.05
 20
205.1
 40
1.000000000000001
 50
180.0
 51
270.0
  0
ARC
  8
0
  6
CONTINUOUS
 62
     7
 10
134.05
 20
224.9
 40
1.000000000000001
 50
90.0
 51
180.0
  0
ENDBLK
  8
0
  0
ENDSEC
  0
SECTION
  2
ENTITIES
  0
TEXT
  8
0
  6
CONTINUOUS
 62
     7
 10
130.9605789671127
 20
173.3284200325122
 40
3.0
  1
MGB-1
  0
INSERT
  8
0
  6
CONTINUOUS
 62
     7
  2
D_FRAME_VIEW_1489
 10
0.0
 20
0.0
 30
0.0
  0
LINE
  8
0
  6
CONTINUOUS
 62
     7
 10
134.65
 20
204.1
 11
139.65
 21
204.1
  0
LINE
  8
0
  6
CONTINUOUS
 62
     7
 10
139.65
 20
204.1
 11
140.85
 21
204.1
  0
LINE
  8
0
  6
CONTINUOUS
 62
     7
 10
136.8545454545455
 20
225.9
 11
139.6500000000001
 21
225.9
  0
LINE
  8
0
  6
CONTINUOUS
 62
     7
 10
139.6500000000001
 20
225.9
 11
140.85
 21
225.9
  0
INSERT
  8
0
  6
CONTINUOUS
 62
     7
  2
D_FRAME_VIEW_1811
 10
0.0
 20
0.0
 30
0.0
  0
INSERT
  8
0
  6
CONTINUOUS
 62
     7
  2
D_FRAME_VIEW_1725
 10
0.0
 20
0.0
 30
0.0
  0
ENDSEC
  0
EOF
