  0
SECTION
  2
HEADER
  9
$ACADVER
  1
AC1014
  9
$ACADMAINTVER
 70
     9
  9
$DWGCODEPAGE
  3
ANSI_932
  9
$INSBASE
 10
0.0
 20
0.0
 30
0.0
  9
$EXTMIN
 10
-469.92
 20
-21.82761785669627
 30
0.0
  9
$EXTMAX
 10
310.0800000000002
 20
663.4700000000001
 30
0.0
  9
$LIMMIN
 10
0.0
 20
0.0
  9
$LIMMAX
 10
12.0
 20
9.0
  9
$ORTHOMODE
 70
     0
  9
$REGENMODE
 70
     1
  9
$FILLMODE
 70
     1
  9
$QTEXTMODE
 70
     0
  9
$MIRRTEXT
 70
     1
  9
$DRAGMODE
 70
     2
  9
$LTSCALE
 40
1.0
  9
$OSMODE
 70
    37
  9
$ATTMODE
 70
     1
  9
$TEXTSIZE
 40
0.2
  9
$TRACEWID
 40
0.05
  9
$TEXTSTYLE
  7
STANDARD
  9
$CLAYER
  8
0
  9
$CELTYPE
  6
BYLAYER
  9
$CECOLOR
 62
   256
  9
$CELTSCALE
 40
1.0
  9
$DELOBJ
 70
     1
  9
$DISPSILH
 70
     0
  9
$DIMSCALE
 40
1.0
  9
$DIMASZ
 40
3.0
  9
$DIMEXO
 40
0.0625
  9
$DIMDLI
 40
0.38
  9
$DIMRND
 40
0.0
  9
$DIMDLE
 40
0.0
  9
$DIMEXE
 40
1.5
  9
$DIMTP
 40
0.0
  9
$DIMTM
 40
0.0
  9
$DIMTXT
 40
3.0
  9
$DIMCEN
 40
0.09
  9
$DIMTSZ
 40
0.0
  9
$DIMTOL
 70
     0
  9
$DIMLIM
 70
     0
  9
$DIMTIH
 70
     1
  9
$DIMTOH
 70
     1
  9
$DIMSE1
 70
     0
  9
$DIMSE2
 70
     0
  9
$DIMTAD
 70
     1
  9
$DIMZIN
 70
     0
  9
$DIMBLK
  1

  9
$DIMASO
 70
     1
  9
$DIMSHO
 70
     1
  9
$DIMPOST
  1

  9
$DIMAPOST
  1

  9
$DIMALT
 70
     0
  9
$DIMALTD
 70
     2
  9
$DIMALTF
 40
25.4
  9
$DIMLFAC
 40
1.0
  9
$DIMTOFL
 70
     0
  9
$DIMTVP
 40
0.0
  9
$DIMTIX
 70
     0
  9
$DIMSOXD
 70
     0
  9
$DIMSAH
 70
     0
  9
$DIMBLK1
  1

  9
$DIMBLK2
  1

  9
$DIMSTYLE
  2
STANDARD
  9
$DIMCLRD
 70
     0
  9
$DIMCLRE
 70
     0
  9
$DIMCLRT
 70
     0
  9
$DIMTFAC
 40
1.0
  9
$DIMGAP
 40
1.5
  9
$DIMJUST
 70
     0
  9
$DIMSD1
 70
     0
  9
$DIMSD2
 70
     0
  9
$DIMTOLJ
 70
     1
  9
$DIMTZIN
 70
     0
  9
$DIMALTZ
 70
     0
  9
$DIMALTTZ
 70
     0
  9
$DIMFIT
 70
     3
  9
$DIMUPT
 70
     0
  9
$DIMUNIT
 70
     2
  9
$DIMDEC
 70
     2
  9
$DIMTDEC
 70
     4
  9
$DIMALTU
 70
     2
  9
$DIMALTTD
 70
     2
  9
$DIMTXSTY
  7
ＭＳ_ゴシック
  9
$DIMAUNIT
 70
     0
  9
$LUNITS
 70
     2
  9
$LUPREC
 70
     4
  9
$SKETCHINC
 40
0.1
  9
$FILLETRAD
 40
0.5
  9
$AUNITS
 70
     0
  9
$AUPREC
 70
     0
  9
$MENU
  1
.
  9
$ELEVATION
 40
0.0
  9
$PELEVATION
 40
0.0
  9
$THICKNESS
 40
0.0
  9
$LIMCHECK
 70
     0
  9
$CHAMFERA
 40
0.0
  9
$CHAMFERB
 40
0.0
  9
$CHAMFERC
 40
0.0
  9
$CHAMFERD
 40
0.0
  9
$SKPOLY
 70
     0
  9
$TDCREATE
 40
2459431.599095787
  9
$TDUPDATE
 40
2459431.599096146
  9
$TDINDWG
 40
0.0000000116
  9
$TDUSRTIMER
 40
0.0000000116
  9
$USRTIMER
 70
     1
  9
$ANGBASE
 50
0.0
  9
$ANGDIR
 70
     0
  9
$PDMODE
 70
     0
  9
$PDSIZE
 40
0.0
  9
$PLINEWID
 40
0.0
  9
$COORDS
 70
     1
  9
$SPLFRAME
 70
     0
  9
$SPLINETYPE
 70
     6
  9
$SPLINESEGS
 70
     8
  9
$ATTDIA
 70
     0
  9
$ATTREQ
 70
     1
  9
$HANDLING
 70
     1
  9
$HANDSEED
  5
352
  9
$SURFTAB1
 70
     6
  9
$SURFTAB2
 70
     6
  9
$SURFTYPE
 70
     6
  9
$SURFU
 70
     6
  9
$SURFV
 70
     6
  9
$UCSNAME
  2

  9
$UCSORG
 10
0.0
 20
0.0
 30
0.0
  9
$UCSXDIR
 10
1.0
 20
0.0
 30
0.0
  9
$UCSYDIR
 10
0.0
 20
1.0
 30
0.0
  9
$PUCSNAME
  2

  9
$PUCSORG
 10
0.0
 20
0.0
 30
0.0
  9
$PUCSXDIR
 10
1.0
 20
0.0
 30
0.0
  9
$PUCSYDIR
 10
0.0
 20
1.0
 30
0.0
  9
$USERI1
 70
     0
  9
$USERI2
 70
     0
  9
$USERI3
 70
     0
  9
$USERI4
 70
     0
  9
$USERI5
 70
     0
  9
$USERR1
 40
0.0
  9
$USERR2
 40
0.0
  9
$USERR3
 40
0.0
  9
$USERR4
 40
0.0
  9
$USERR5
 40
0.0
  9
$WORLDVIEW
 70
     1
  9
$SHADEDGE
 70
     3
  9
$SHADEDIF
 70
    70
  9
$TILEMODE
 70
     1
  9
$MAXACTVP
 70
    64
  9
$PINSBASE
 10
0.0
 20
0.0
 30
0.0
  9
$PLIMCHECK
 70
     0
  9
$PEXTMIN
 10
1.000000000000000E+20
 20
1.000000000000000E+20
 30
1.000000000000000E+20
  9
$PEXTMAX
 10
-1.000000000000000E+20
 20
-1.000000000000000E+20
 30
-1.000000000000000E+20
  9
$PLIMMIN
 10
0.0
 20
0.0
  9
$PLIMMAX
 10
12.0
 20
9.0
  9
$UNITMODE
 70
     0
  9
$VISRETAIN
 70
     1
  9
$PLINEGEN
 70
     0
  9
$PSLTSCALE
 70
     1
  9
$TREEDEPTH
 70
  3020
  9
$PICKSTYLE
 70
     1
  9
$CMLSTYLE
  2
STANDARD
  9
$CMLJUST
 70
     0
  9
$CMLSCALE
 40
1.0
  9
$PROXYGRAPHICS
 70
     1
  9
$MEASUREMENT
 70
     1
  0
ENDSEC
  0
SECTION
  2
CLASSES
  0
CLASS
  1
ACDBDICTIONARYWDFLT
  2
AcDbDictionaryWithDefault
  3
ObjectDBX Classes
 90
        0
280
     0
281
     0
  0
CLASS
  1
VISUALSTYLE
  2
AcDbVisualStyle
  3
ObjectDBX Classes
 90
     4095
280
     0
281
     0
  0
CLASS
  1
MATERIAL
  2
AcDbMaterial
  3
ObjectDBX Classes
 90
     1153
280
     0
281
     0
  0
CLASS
  1
SCALE
  2
AcDbScale
  3
ObjectDBX Classes
 90
     1153
280
     0
281
     0
  0
CLASS
  1
TABLESTYLE
  2
AcDbTableStyle
  3
ObjectDBX Classes
 90
     4095
280
     0
281
     0
  0
CLASS
  1
MLEADERSTYLE
  2
AcDbMLeaderStyle
  3
ACDB_MLEADERSTYLE_CLASS
 90
     4095
280
     0
281
     0
  0
CLASS
  1
SUN
  2
AcDbSun
  3
SCENEOE
 90
     1153
280
     0
281
     0
  0
CLASS
  1
DICTIONARYVAR
  2
AcDbDictionaryVar
  3
ObjectDBX Classes
 90
        0
280
     0
281
     0
  0
CLASS
  1
XRECORD
  2
AcDbXrecord
  3
ObjectDBX Classes
 90
        0
280
     0
281
     0
  0
CLASS
  1
LWPOLYLINE
  2
AcDbPolyline
  3
ObjectDBX Classes
 90
        0
280
     0
281
     1
  0
CLASS
  1
HATCH
  2
AcDbHatch
  3
ObjectDBX Classes
 90
        0
280
     0
281
     1
  0
CLASS
  1
ACDBPLACEHOLDER
  2
AcDbPlaceHolder
  3
ObjectDBX Classes
 90
        0
280
     0
281
     0
  0
CLASS
  1
LAYOUT
  2
AcDbLayout
  3
ObjectDBX Classes
 90
        0
280
     0
281
     0
  0
ENDSEC
  0
SECTION
  2
TABLES
  0
TABLE
  2
VPORT
  5
8
102
{ACAD_XDICTIONARY
360
347
102
}
330
0
100
AcDbSymbolTable
 70
     1
  0
VPORT
  5
29
330
8
100
AcDbSymbolTableRecord
100
AcDbViewportTableRecord
  2
*ACTIVE
 70
     0
 10
0.0
 20
0.0
 11
1.0
 21
1.0
 12
-79.91999999999993
 22
320.8211910716519
 13
0.0
 23
0.0
 14
0.5
 24
0.5
 15
0.5
 25
0.5
 16
0.0
 26
0.0
 36
1.0
 17
0.0
 27
0.0
 37
0.0
 40
685.2976178566964
 41
1.6
 42
50.0
 43
0.0
 44
0.0
 50
0.0
 51
0.0
 71
     0
 72
   100
 73
     1
 74
     3
 75
     0
 76
     0
 77
     0
 78
     0
  0
ENDTAB
  0
TABLE
  2
LTYPE
  5
5
330
0
100
AcDbSymbolTable
 70
     2
  0
LTYPE
  5
14
330
5
100
AcDbSymbolTableRecord
100
AcDbLinetypeTableRecord
  2
BYBLOCK
 70
     0
  3

 72
    65
 73
     0
 40
0.0
  0
LTYPE
  5
15
330
5
100
AcDbSymbolTableRecord
100
AcDbLinetypeTableRecord
  2
BYLAYER
 70
     0
  3

 72
    65
 73
     0
 40
0.0
  0
LTYPE
  5
16
330
5
100
AcDbSymbolTableRecord
100
AcDbLinetypeTableRecord
  2
CONTINUOUS
 70
     0
  3
Solid line
 72
    65
 73
     0
 40
0.0
  0
LTYPE
  5
8B
330
5
100
AcDbSymbolTableRecord
100
AcDbLinetypeTableRecord
  2
________________
 70
     0
  3

 72
    65
 73
     4
 40
6.0
 49
2.25
 74
     0
 49
-1.5
 74
     0
 49
0.7499999999999999
 74
     0
 49
-1.5
 74
     0
  0
ENDTAB
  0
TABLE
  2
LAYER
  5
2
330
0
100
AcDbSymbolTable
 70
     1
  0
LAYER
  5
10
330
2
100
AcDbSymbolTableRecord
100
AcDbLayerTableRecord
  2
0
 70
     0
 62
     7
  6
CONTINUOUS
  0
ENDTAB
  0
TABLE
  2
STYLE
  5
3
330
0
100
AcDbSymbolTable
 70
     2
  0
STYLE
  5
11
330
3
100
AcDbSymbolTableRecord
100
AcDbTextStyleTableRecord
  2
STANDARD
 70
     0
 40
0.0
 41
1.0
 50
0.0
 71
     0
 42
0.2
  3
txt
  4

  0
STYLE
  5
6E
330
3
100
AcDbSymbolTableRecord
100
AcDbTextStyleTableRecord
  2
ＭＳ_ゴシック
 70
     0
 40
0.0
 41
1.0
 50
0.0
 71
     0
 42
0.2
  3
ＭＳ ゴシック.shx
  4

  0
ENDTAB
  0
TABLE
  2
VIEW
  5
6
330
0
100
AcDbSymbolTable
 70
     0
  0
ENDTAB
  0
TABLE
  2
UCS
  5
7
330
0
100
AcDbSymbolTable
 70
     0
  0
ENDTAB
  0
TABLE
  2
APPID
  5
9
330
0
100
AcDbSymbolTable
 70
     2
  0
APPID
  5
12
330
9
100
AcDbSymbolTableRecord
100
AcDbRegAppTableRecord
  2
ACAD
 70
     0
  0
APPID
  5
351
330
9
100
AcDbSymbolTableRecord
100
AcDbRegAppTableRecord
  2
ACAD_MLEADERVER
 70
     0
  0
ENDTAB
  0
TABLE
  2
DIMSTYLE
  5
A
330
0
100
AcDbSymbolTable
 70
     1
  0
DIMSTYLE
105
27
330
A
100
AcDbSymbolTableRecord
100
AcDbDimStyleTableRecord
  2
STANDARD
 70
     0
  3

  4

  5

  6

  7

 40
1.0
 41
0.18
 42
0.0625
 43
0.38
 44
0.18
 45
0.0
 46
0.0
 47
0.0
 48
0.0
140
0.18
141
0.09
142
0.0
143
25.4
144
1.0
145
0.0
146
1.0
147
0.09
 71
     0
 72
     0
 73
     1
 74
     1
 75
     0
 76
     0
 77
     0
 78
     0
170
     0
171
     2
172
     0
173
     0
174
     0
175
     0
176
     0
177
     0
178
     0
270
     2
271
     4
272
     4
273
     2
274
     2
340
11
275
     0
280
     0
281
     0
282
     0
283
     1
284
     0
285
     0
286
     0
287
     3
288
     0
  0
ENDTAB
  0
TABLE
  2
BLOCK_RECORD
  5
1
330
0
100
AcDbSymbolTable
 70
     0
  0
BLOCK_RECORD
  5
1F
330
1
100
AcDbSymbolTableRecord
100
AcDbBlockTableRecord
  2
*MODEL_SPACE
  0
BLOCK_RECORD
  5
1B
330
1
100
AcDbSymbolTableRecord
100
AcDbBlockTableRecord
  2
*PAPER_SPACE
  0
ENDTAB
  0
ENDSEC
  0
SECTION
  2
BLOCKS
  0
BLOCK
  5
20
330
1F
100
AcDbEntity
  8
0
100
AcDbBlockBegin
  2
*MODEL_SPACE
 70
     0
 10
0.0
 20
0.0
 30
0.0
  3
*MODEL_SPACE
  1

  0
ENDBLK
  5
21
330
1F
100
AcDbEntity
  8
0
100
AcDbBlockEnd
  0
BLOCK
  5
1C
330
1B
100
AcDbEntity
 67
     1
  8
0
100
AcDbBlockBegin
  2
*PAPER_SPACE
 70
     0
 10
0.0
 20
0.0
 30
0.0
  3
*PAPER_SPACE
  1

  0
ENDBLK
  5
1D
330
1B
100
AcDbEntity
 67
     1
  8
0
100
AcDbBlockEnd
  0
ENDSEC
  0
SECTION
  2
ENTITIES
  0
POINT
  5
6F
330
1F
100
AcDbEntity
  8
0
 62
     7
100
AcDbPoint
 10
-269.92
 20
572.3200000000002
 30
0.0
  0
LINE
  5
70
330
1F
100
AcDbEntity
  8
0
  6
CONTINUOUS
 62
     7
100
AcDbLine
 10
87.94140939597305
 20
114.9179865771812
 30
0.0
 11
91.23000000000003
 21
113.72
 31
0.0
  0
LINE
  5
71
330
1F
100
AcDbEntity
  8
0
  6
CONTINUOUS
 62
     7
100
AcDbLine
 10
95.72999999999998
 20
101.42
 30
0.0
 11
98.72999999999993
 21
104.42
 31
0.0
  0
LINE
  5
72
330
1F
100
AcDbEntity
  8
0
  6
CONTINUOUS
 62
     7
100
AcDbLine
 10
76.73000000000019
 20
101.42
 30
0.0
 11
95.73000000000003
 21
101.42
 31
0.0
  0
LINE
  5
73
330
1F
100
AcDbEntity
  8
0
  6
CONTINUOUS
 62
     7
100
AcDbLine
 10
81.23000000000002
 20
113.72
 30
0.0
 11
84.518590604027
 21
114.9179865771812
 31
0.0
  0
ARC
  5
74
330
1F
100
AcDbEntity
  8
0
  6
CONTINUOUS
 62
     7
100
AcDbCircle
 10
-285.9800000000001
 20
656.1700000000001
 30
0.0
 40
1.000000000000001
210
0.0
220
0.0
230
-1.0
100
AcDbArc
 50
89.99999999999994
 51
180.0
  0
LINE
  5
75
330
1F
100
AcDbEntity
  8
0
  6
CONTINUOUS
 62
     7
100
AcDbLine
 10
254.98
 20
246.17
 30
0.0
 11
254.98
 21
216.17
 31
0.0
  0
ELLIPSE
  5
76
330
1F
100
AcDbEntity
  8
0
  6
CONTINUOUS
 62
     7
100
AcDbEllipse
 10
-259.7699999999999
 20
189.17
 30
0.0
 11
-1.000000000000001
 21
0.0
 31
0.0
210
0.0
220
0.0
230
1.0
 40
0.5
 41
2.945241127186873
 42
3.141592653589793
  0
ELLIPSE
  5
77
330
1F
100
AcDbEntity
  8
0
  6
CONTINUOUS
 62
     7
100
AcDbEllipse
 10
-57.76999999999988
 20
189.17
 30
0.0
 11
-0.9999999999998899
 21
0.0
 31
0.0
210
0.0
220
0.0
230
1.0
 40
0.5
 41
0.0
 42
0.196351481803998
  0
CIRCLE
  5
78
330
1F
100
AcDbEntity
  8
0
  6
CONTINUOUS
 62
     7
100
AcDbCircle
 10
-46.22999999999999
 20
606.1700000000001
 30
0.0
 40
3.000000000000114
210
0.0
220
0.0
230
-1.0
  0
ELLIPSE
  5
79
330
1F
100
AcDbEntity
  8
0
  6
CONTINUOUS
 62
     7
100
AcDbEllipse
 10
36.62215686274506
 20
651.3913808656981
 30
0.0
 11
14.47150354737004
 21
6.282641310597858
 31
0.0
210
0.0
220
0.0
230
1.0
 40
0.3169283200714713
 41
6.146452948833636
 42
6.913773567377186
  0
LINE
  5
7A
330
1F
100
AcDbEntity
  8
0
  6
CONTINUOUS
 62
     7
100
AcDbLine
 10
58.73000000000006
 20
601.17
 30
0.0
 11
53.73000000000005
 21
596.17
 31
0.0
  0
LINE
  5
7B
330
1F
100
AcDbEntity
  8
0
  6
CONTINUOUS
 62
     7
100
AcDbLine
 10
47.13649235653494
 20
659.1700000000001
 30
0.0
 11
45.32350764346491
 21
659.1700000000001
 31
0.0
  0
ARC
  5
7C
330
1F
100
AcDbEntity
  8
0
  6
CONTINUOUS
 62
     7
100
AcDbCircle
 10
-285.9800000000001
 20
626.1700000000001
 30
0.0
 40
1.000000000000001
210
0.0
220
0.0
230
-1.0
100
AcDbArc
 50
180.0
 51
270.0
  0
ARC
  5
7D
330
1F
100
AcDbEntity
  8
0
  6
CONTINUOUS
 62
     7
100
AcDbCircle
 10
-253.9800000000001
 20
214.17
 30
0.0
 40
3.000000000000003
210
0.0
220
0.0
230
-1.0
100
AcDbArc
 50
270.0
 51
0.0
  0
LINE
  5
7E
330
1F
100
AcDbEntity
  8
0
  6
CONTINUOUS
 62
     7
100
AcDbLine
 10
255.9800000000001
 20
657.1700000000001
 30
0.0
 11
285.9800000000001
 21
657.1700000000001
 31
0.0
  0
LINE
  5
7F
330
1F
100
AcDbEntity
  8
0
  6
CONTINUOUS
 62
     7
100
AcDbLine
 10
250.9800000000001
 20
619.17
 30
0.0
 11
250.9800000000001
 21
618.6700000000001
 31
0.0
  0
ARC
  5
80
330
1F
100
AcDbEntity
  8
0
  6
CONTINUOUS
 62
     7
100
AcDbCircle
 10
-253.4800000000001
 20
213.67
 30
0.0
 40
2.500000000000058
210
0.0
220
0.0
230
-1.0
100
AcDbArc
 50
270.0
 51
0.0000000000006253
  0
ARC
  5
81
330
1F
100
AcDbEntity
  8
0
  6
CONTINUOUS
 62
     7
100
AcDbCircle
 10
253.4800000000001
 20
658.6700000000001
 30
0.0
 40
2.499999999999836
100
AcDbArc
 50
90.0
 51
180.0000000000006
  0
ARC
  5
82
330
1F
100
AcDbEntity
  8
0
  6
CONTINUOUS
 62
     7
100
AcDbCircle
 10
288.4800000000001
 20
658.6700000000001
 30
0.0
 40
2.500000000000058
100
AcDbArc
 50
0.0
 51
66.42182152179882
  0
CIRCLE
  5
83
330
1F
100
AcDbEntity
  8
0
  6
CONTINUOUS
 62
     7
100
AcDbCircle
 10
-123.7699999999999
 20
306.17
 30
0.0
 40
4.000000000000004
  0
ARC
  5
84
330
1F
100
AcDbEntity
  8
0
  6
CONTINUOUS
 62
     7
100
AcDbCircle
 10
251.98
 20
619.17
 30
0.0
 40
1.000000000000001
100
AcDbArc
 50
90.0
 51
180.0
  0
LINE
  5
85
330
1F
100
AcDbEntity
  8
0
  6
CONTINUOUS
 62
     7
100
AcDbLine
 10
286.98
 20
656.1700000000001
 30
0.0
 11
286.98
 21
626.1700000000001
 31
0.0
  0
ARC
  5
86
330
1F
100
AcDbEntity
  8
0
  6
CONTINUOUS
 62
     7
100
AcDbCircle
 10
285.9800000000001
 20
246.17
 30
0.0
 40
1.000000000000001
100
AcDbArc
 50
0.0
 51
90.0
  0
LINE
  5
87
330
1F
100
AcDbEntity
  8
0
  6
CONTINUOUS
 62
     7
100
AcDbLine
 10
286.98
 20
216.17
 30
0.0
 11
286.98
 21
246.17
 31
0.0
  0
ELLIPSE
  5
88
330
1F
100
AcDbEntity
  8
0
  6
CONTINUOUS
 62
     7
100
AcDbEllipse
 10
-297.7699999999999
 20
189.17
 30
0.0
 11
-1.000000000000001
 21
0.0
 31
0.0
210
0.0
220
0.0
230
1.0
 40
0.5
 41
0.0
 42
0.1963514818039837
  0
LINE
  5
89
330
1F
100
AcDbEntity
  8
0
  6
CONTINUOUS
 62
     7
100
AcDbLine
 10
285.9800000000001
 20
625.17
 30
0.0
 11
255.9800000000001
 21
625.17
 31
0.0
  0
LINE
  5
8A
330
1F
100
AcDbEntity
  8
0
  6
________________
 62
     1
100
AcDbLine
 10
310.0800000000002
 20
436.1700000000001
 30
0.0
 11
245.9800000000001
 21
436.1700000000001
 31
0.0
  0
ELLIPSE
  5
8C
330
1F
100
AcDbEntity
  8
0
  6
CONTINUOUS
 62
     7
100
AcDbEllipse
 10
-19.76999999999995
 20
189.17
 30
0.0
 11
-0.9999999999998899
 21
0.0
 31
0.0
210
0.0
220
0.0
230
1.0
 40
0.5
 41
2.945241127186883
 42
3.141592653589793
  0
ARC
  5
8D
330
1F
100
AcDbEntity
  8
0
  6
CONTINUOUS
 62
     7
100
AcDbCircle
 10
253.4800000000001
 20
623.6700000000002
 30
0.0
 40
2.499999999999947
100
AcDbArc
 50
180.0000000000006
 51
270.0
  0
LINE
  5
8E
330
1F
100
AcDbEntity
  8
0
  6
CONTINUOUS
 62
     7
100
AcDbLine
 10
33.73000000000004
 20
663.47
 30
0.0
 11
58.73000000000006
 21
663.47
 31
0.0
  0
LINE
  5
8F
330
1F
100
AcDbEntity
  8
0
  6
________________
 62
     1
100
AcDbLine
 10
-469.92
 20
436.1700000000001
 30
0.0
 11
170.08
 21
436.1700000000001
 31
0.0
  0
CIRCLE
  5
90
330
1F
100
AcDbEntity
  8
0
  6
CONTINUOUS
 62
     7
100
AcDbCircle
 10
-363.7699999999999
 20
606.1700000000001
 30
0.0
 40
4.000000000000004
  0
LINE
  5
91
330
1F
100
AcDbEntity
  8
0
  6
CONTINUOUS
 62
     7
100
AcDbLine
 10
44.51859060402696
 20
617.6720134228191
 30
0.0
 11
41.22999999999999
 21
618.8700000000001
 31
0.0
  0
LINE
  5
92
330
1F
100
AcDbEntity
  8
0
  6
CONTINUOUS
 62
     7
100
AcDbLine
 10
51.23
 20
618.8700000000002
 30
0.0
 11
47.94140939597302
 21
617.6720134228192
 31
0.0
  0
ARC
  5
93
330
1F
100
AcDbEntity
  8
0
  6
CONTINUOUS
 62
     7
100
AcDbCircle
 10
255.9800000000001
 20
246.17
 30
0.0
 40
1.000000000000001
100
AcDbArc
 50
90.0
 51
180.0
  0
LINE
  5
94
330
1F
100
AcDbEntity
  8
0
  6
CONTINUOUS
 62
     7
100
AcDbLine
 10
255.9800000000001
 20
215.17
 30
0.0
 11
285.9800000000001
 21
215.17
 31
0.0
  0
ARC
  5
95
330
1F
100
AcDbEntity
  8
0
  6
CONTINUOUS
 62
     7
100
AcDbCircle
 10
-46.22999999999999
 20
622.3700000000001
 30
0.0
 40
4.999999999999893
210
0.0
220
0.0
230
-1.0
100
AcDbArc
 50
249.9840403971175
 51
290.0159596028825
  0
LINE
  5
96
330
1F
100
AcDbEntity
  8
0
  6
CONTINUOUS
 62
     7
100
AcDbLine
 10
38.73000000000004
 20
596.1700000000001
 30
0.0
 11
53.73000000000005
 21
596.1700000000001
 31
0.0
  0
ARC
  5
97
330
1F
100
AcDbEntity
  8
0
  6
CONTINUOUS
 62
     7
100
AcDbCircle
 10
-253.9800000000001
 20
248.17
 30
0.0
 40
3.000000000000114
210
0.0
220
0.0
230
-1.0
100
AcDbArc
 50
0.0000000000005301
 51
90.0
  0
ARC
  5
98
330
1F
100
AcDbEntity
  8
0
  6
CONTINUOUS
 62
     7
100
AcDbCircle
 10
-288.4800000000001
 20
248.67
 30
0.0
 40
2.499999999999947
210
0.0
220
0.0
230
-1.0
100
AcDbArc
 50
113.5781784782019
 51
180.0
  0
ARC
  5
99
330
1F
100
AcDbEntity
  8
0
  6
CONTINUOUS
 62
     7
100
AcDbCircle
 10
285.9800000000001
 20
216.17
 30
0.0
 40
1.000000000000001
100
AcDbArc
 50
269.9999999999999
 51
0.0
  0
CIRCLE
  5
9A
330
1F
100
AcDbEntity
  8
0
  6
CONTINUOUS
 62
     7
100
AcDbCircle
 10
123.7699999999999
 20
566.1700000000003
 30
0.0
 40
4.000000000000004
210
0.0
220
0.0
230
-1.0
  0
CIRCLE
  5
9B
330
1F
100
AcDbEntity
  8
0
  6
CONTINUOUS
 62
     7
100
AcDbCircle
 10
-403.77
 20
606.1700000000001
 30
0.0
 40
3.000000000000058
  0
LINE
  5
9C
330
1F
100
AcDbEntity
  8
0
  6
CONTINUOUS
 62
     7
100
AcDbLine
 10
38.73000000000004
 20
596.1700000000001
 30
0.0
 11
33.73000000000004
 21
601.1700000000001
 31
0.0
  0
CIRCLE
  5
9D
330
1F
100
AcDbEntity
  8
0
  6
CONTINUOUS
 62
     9
100
AcDbCircle
 10
-403.77
 20
266.1700000000001
 30
0.0
 40
2.500000000000002
  0
ARC
  5
9E
330
1F
100
AcDbEntity
  8
0
  6
CONTINUOUS
 62
     7
100
AcDbCircle
 10
-403.77
 20
622.3700000000001
 30
0.0
 40
4.999999999999948
100
AcDbArc
 50
249.9840403971175
 51
290.0159596028825
  0
ELLIPSE
  5
9F
330
1F
100
AcDbEntity
  8
0
  6
CONTINUOUS
 62
     7
100
AcDbEllipse
 10
-394.162156862745
 20
651.3913808656981
 30
0.0
 11
-14.47150354736992
 21
6.282641310598081
 31
0.0
210
0.0
220
0.0
230
-1.0
 40
0.3169283200714587
 41
6.146452948833637
 42
6.913773567377186
  0
CIRCLE
  5
A0
330
1F
100
AcDbEntity
  8
0
  6
CONTINUOUS
 62
     7
100
AcDbCircle
 10
-86.23000000000003
 20
566.1700000000003
 30
0.0
 40
3.999999999999782
210
0.0
220
0.0
230
-1.0
  0
CIRCLE
  5
A1
330
1F
100
AcDbEntity
  8
0
  6
CONTINUOUS
 62
     9
100
AcDbCircle
 10
-403.77
 20
566.1700000000003
 30
0.0
 40
2.500000000000002
  0
ARC
  5
A2
330
1F
100
AcDbEntity
  8
0
  6
CONTINUOUS
 62
     7
100
AcDbCircle
 10
-255.9800000000001
 20
656.1700000000001
 30
0.0
 40
0.9999999999998899
210
0.0
220
0.0
230
-1.0
100
AcDbArc
 50
0.0
 51
90.0
  0
LINE
  5
A3
330
1F
100
AcDbEntity
  8
0
  6
CONTINUOUS
 62
     7
100
AcDbLine
 10
250.9800000000001
 20
593.6700000000002
 30
0.0
 11
250.9800000000001
 21
318.6700000000001
 31
0.0
  0
LINE
  5
A4
330
1F
100
AcDbEntity
  8
0
  6
________________
 62
     1
100
AcDbLine
 10
-158.77
 20
661.1700000000001
 30
0.0
 11
-158.77
 21
197.32
 31
0.0
  0
LINE
  5
A5
330
1F
100
AcDbEntity
  8
0
  6
CONTINUOUS
 62
     7
100
AcDbLine
 10
250.9800000000001
 20
293.67
 30
0.0
 11
250.9800000000001
 21
253.67
 31
0.0
  0
CIRCLE
  5
A6
330
1F
100
AcDbEntity
  8
0
  6
CONTINUOUS
 62
     7
100
AcDbCircle
 10
403.77
 20
306.17
 30
0.0
 40
4.000000000000004
210
0.0
220
0.0
230
-1.0
  0
LINE
  5
A7
330
1F
100
AcDbEntity
  8
0
  6
CONTINUOUS
 62
     7
100
AcDbLine
 10
51.23
 20
618.8700000000002
 30
0.0
 11
58.73
 21
618.8700000000002
 31
0.0
  0
ARC
  5
A8
330
1F
100
AcDbEntity
  8
0
  6
CONTINUOUS
 62
     7
100
AcDbCircle
 10
255.9800000000001
 20
216.17
 30
0.0
 40
0.9999999999998899
100
AcDbArc
 50
180.0
 51
270.0
  0
LINE
  5
A9
330
1F
100
AcDbEntity
  8
0
  6
CONTINUOUS
 62
     7
100
AcDbLine
 10
-402.0585906040268
 20
617.6720134228191
 30
0.0
 11
-398.77
 21
618.8700000000001
 31
0.0
  0
LINE
  5
AA
330
1F
100
AcDbEntity
  8
0
  6
CONTINUOUS
 62
     7
100
AcDbLine
 10
-408.7699999999999
 20
618.8700000000002
 30
0.0
 11
-405.4814093959732
 21
617.6720134228192
 31
0.0
  0
ARC
  5
AB
330
1F
100
AcDbEntity
  8
0
  6
CONTINUOUS
 62
     7
100
AcDbCircle
 10
-253.4800000000001
 20
248.67
 30
0.0
 40
2.500000000000058
210
0.0
220
0.0
230
-1.0
100
AcDbArc
 50
0.0000000000006361
 51
90.0
  0
CIRCLE
  5
AC
330
1F
100
AcDbEntity
  8
0
  6
CONTINUOUS
 62
     7
100
AcDbCircle
 10
46.22999999999999
 20
266.1700000000001
 30
0.0
 40
4.000000000000115
  0
ARC
  5
AD
330
1F
100
AcDbEntity
  8
0
  6
CONTINUOUS
 62
     7
100
AcDbCircle
 10
288.4800000000001
 20
623.6700000000002
 30
0.0
 40
2.500000000000169
100
AcDbArc
 50
293.5781784782008
 51
0.0
  0
ELLIPSE
  5
AE
330
1F
100
AcDbEntity
  8
0
  6
CONTINUOUS
 62
     7
100
AcDbEllipse
 10
55.83784313725515
 20
651.3913808656981
 30
0.0
 11
14.47150354736992
 21
-6.282641310598081
 31
0.0
210
0.0
220
0.0
230
1.0
 40
0.3169283200714716
 41
2.51100439339219
 42
3.278325011935732
  0
LINE
  5
AF
330
1F
100
AcDbEntity
  8
0
  6
CONTINUOUS
 62
     7
100
AcDbLine
 10
33.73000000000004
 20
618.8700000000002
 30
0.0
 11
41.23000000000005
 21
618.8700000000002
 31
0.0
  0
ARC
  5
B0
330
1F
100
AcDbEntity
  8
0
  6
CONTINUOUS
 62
     7
100
AcDbCircle
 10
-288.4800000000001
 20
213.67
 30
0.0
 40
2.499999999999947
210
0.0
220
0.0
230
-1.0
100
AcDbArc
 50
180.0
 51
246.4218215217982
  0
ELLIPSE
  5
B1
330
1F
100
AcDbEntity
  8
0
  6
CONTINUOUS
 62
     7
100
AcDbEllipse
 10
-413.3778431372548
 20
651.3913808656981
 30
0.0
 11
-14.47150354737009
 21
-6.282641310598081
 31
0.0
210
0.0
220
0.0
230
-1.0
 40
0.3169283200714685
 41
2.511004393392194
 42
3.278325011935733
  0
LINE
  5
B2
330
1F
100
AcDbEntity
  8
0
  6
CONTINUOUS
 62
     7
100
AcDbLine
 10
-404.6764923565348
 20
659.1700000000001
 30
0.0
 11
-402.8635076434651
 21
659.1700000000001
 31
0.0
  0
LINE
  5
B3
330
1F
100
AcDbEntity
  8
0
  6
CONTINUOUS
 62
     7
100
AcDbLine
 10
285.9800000000001
 20
247.17
 30
0.0
 11
255.9800000000001
 21
247.17
 31
0.0
  0
ARC
  5
B4
330
1F
100
AcDbEntity
  8
0
  6
CONTINUOUS
 62
     7
100
AcDbCircle
 10
261.7699999999999
 20
193.17
 30
0.0
 40
3.000000000000003
210
0.0
220
0.0
230
-1.0
100
AcDbArc
 50
90.0
 51
180.0
  0
CIRCLE
  5
B5
330
1F
100
AcDbEntity
  8
0
  6
CONTINUOUS
 62
     7
100
AcDbCircle
 10
-46.22999999999999
 20
566.1700000000003
 30
0.0
 40
4.000000000000115
210
0.0
220
0.0
230
-1.0
  0
ARC
  5
B6
330
1F
100
AcDbEntity
  8
0
  6
CONTINUOUS
 62
     7
100
AcDbCircle
 10
-159.2300000000001
 20
329.1700000000001
 30
0.0
 40
3.000000000000114
210
0.0
220
0.0
230
-1.0
100
AcDbArc
 50
270.0
 51
0.0
  0
ARC
  5
B7
330
1F
100
AcDbEntity
  8
0
  6
CONTINUOUS
 62
     7
100
AcDbCircle
 10
-159.2300000000001
 20
543.1700000000002
 30
0.0
 40
3.000000000000114
210
0.0
220
0.0
230
-1.0
100
AcDbArc
 50
0.0
 51
90.0
  0
ARC
  5
B8
330
1F
100
AcDbEntity
  8
0
  6
CONTINUOUS
 62
     7
100
AcDbCircle
 10
55.76999999999998
 20
193.17
 30
0.0
 40
3.000000000000003
210
0.0
220
0.0
230
-1.0
100
AcDbArc
 50
0.0
 51
90.0
  0
LINE
  5
B9
330
1F
100
AcDbEntity
  8
0
  6
CONTINUOUS
 62
     7
100
AcDbLine
 10
-253.7557517131831
 20
188.4727540580189
 30
0.0
 11
-251.77
 21
211.1700000000002
 31
0.0
  0
ARC
  5
BA
330
1F
100
AcDbEntity
  8
0
  6
CONTINUOUS
 62
     7
100
AcDbCircle
 10
261.7253092979171
 20
189.1700000000002
 30
0.0
 40
8.000000000000007
210
0.0
220
0.0
230
-1.0
100
AcDbArc
 50
185.0
 51
270.0000000000001
  0
LINE
  5
BB
330
1F
100
AcDbEntity
  8
0
  6
CONTINUOUS
 62
     7
100
AcDbLine
 10
141.23
 20
553.17
 30
0.0
 11
163.9272459419815
 21
551.1842482868171
 31
0.0
  0
LINE
  5
BC
330
1F
100
AcDbEntity
  8
0
  6
CONTINUOUS
 62
     7
100
AcDbLine
 10
171.23
 20
363.214690702083
 30
0.0
 11
171.23
 21
329.1253092979171
 31
0.0
  0
LINE
  5
BD
330
1F
100
AcDbEntity
  8
0
  6
CONTINUOUS
 62
     7
100
AcDbLine
 10
141.23
 20
319.1700000000001
 30
0.0
 11
163.9272459419815
 21
321.1557517131831
 31
0.0
  0
LINE
  5
BE
330
1F
100
AcDbEntity
  8
0
  6
CONTINUOUS
 62
     7
100
AcDbLine
 10
156.23
 20
509.1700000000001
 30
0.0
 11
156.23
 21
543.1700000000002
 31
0.0
  0
LINE
  5
BF
330
1F
100
AcDbEntity
  8
0
  6
CONTINUOUS
 62
     7
100
AcDbLine
 10
-21.76999999999996
 20
186.17
 30
0.0
 11
-55.76999999999996
 21
186.17
 31
0.0
  0
CIRCLE
  5
C0
330
1F
100
AcDbEntity
  8
0
  6
CONTINUOUS
 62
     7
100
AcDbCircle
 10
-123.7699999999999
 20
266.1700000000001
 30
0.0
 40
4.000000000000004
  0
ARC
  5
C1
330
1F
100
AcDbEntity
  8
0
  6
CONTINUOUS
 62
     7
100
AcDbCircle
 10
-133.23
 20
653.17
 30
0.0
 40
8.000000000000007
210
0.0
220
0.0
230
-1.0
100
AcDbArc
 50
151.0449756281402
 51
180.0
  0
ARC
  5
C2
330
1F
100
AcDbEntity
  8
0
  6
CONTINUOUS
 62
     7
100
AcDbCircle
 10
450.7699999999999
 20
219.17
 30
0.0
 40
8.000000000000007
210
0.0
220
0.0
230
-1.0
100
AcDbArc
 50
331.0449756281403
 51
0.0
  0
ARC
  5
C3
330
1F
100
AcDbEntity
  8
0
  6
CONTINUOUS
 62
     7
100
AcDbCircle
 10
-21.72530929791694
 20
189.1700000000002
 30
0.0
 40
8.000000000000117
100
AcDbArc
 50
270.0
 51
355.0000000000002
  0
LINE
  5
C4
330
1F
100
AcDbEntity
  8
0
  6
CONTINUOUS
 62
     7
100
AcDbLine
 10
-305.7699999999999
 20
211.17
 30
0.0
 11
-303.7842482868168
 21
188.4727540580189
 31
0.0
  0
LINE
  5
C5
330
1F
100
AcDbEntity
  8
0
  6
CONTINUOUS
 62
     7
100
AcDbLine
 10
171.23
 20
509.1253092979171
 30
0.0
 11
171.23
 21
543.2146907020831
 31
0.0
  0
LINE
  5
C6
330
1F
100
AcDbEntity
  8
0
  6
CONTINUOUS
 62
     7
100
AcDbLine
 10
163.9272459419815
 20
501.1557517131831
 30
0.0
 11
141.23
 21
499.1700000000001
 31
0.0
  0
LINE
  5
C7
330
1F
100
AcDbEntity
  8
0
  6
CONTINUOUS
 62
     7
100
AcDbLine
 10
-295.7699999999999
 20
186.17
 30
0.0
 11
-261.7699999999999
 21
186.17
 31
0.0
  0
LINE
  5
C8
330
1F
100
AcDbEntity
  8
0
  6
CONTINUOUS
 62
     7
100
AcDbLine
 10
166.23
 20
329.1700000000001
 30
0.0
 11
166.23
 21
363.17
 31
0.0
  0
ARC
  5
C9
330
1F
100
AcDbEntity
  8
0
  6
CONTINUOUS
 62
     7
100
AcDbCircle
 10
21.76999999999996
 20
193.17
 30
0.0
 40
3.000000000000114
210
0.0
220
0.0
230
-1.0
100
AcDbArc
 50
90.0
 51
180.0
  0
LINE
  5
CA
330
1F
100
AcDbEntity
  8
0
  6
CONTINUOUS
 62
     7
100
AcDbLine
 10
-63.78424828681695
 20
188.4727540580189
 30
0.0
 11
-65.77000000000001
 21
211.1700000000002
 31
0.0
  0
LINE
  5
CB
330
1F
100
AcDbEntity
  8
0
  6
CONTINUOUS
 62
     7
100
AcDbLine
 10
-261.7253092979171
 20
181.1700000000001
 30
0.0
 11
-295.8146907020828
 21
181.1700000000001
 31
0.0
  0
ARC
  5
CC
330
1F
100
AcDbEntity
  8
0
  6
CONTINUOUS
 62
     7
100
AcDbCircle
 10
163.23
 20
509.1253092979171
 30
0.0
 40
8.000000000000007
100
AcDbArc
 50
275.0000000000001
 51
0.0
  0
ARC
  5
CD
330
1F
100
AcDbEntity
  8
0
  6
CONTINUOUS
 62
     7
100
AcDbCircle
 10
-163.23
 20
363.214690702083
 30
0.0
 40
7.999999999999896
210
0.0
220
0.0
230
-1.0
100
AcDbArc
 50
95.00000000000014
 51
180.0
  0
ARC
  5
CE
330
1F
100
AcDbEntity
  8
0
  6
CONTINUOUS
 62
     7
100
AcDbCircle
 10
-163.23
 20
329.1253092979171
 30
0.0
 40
8.000000000000007
210
0.0
220
0.0
230
-1.0
100
AcDbArc
 50
180.0
 51
264.9999999999999
  0
ARC
  5
CF
330
1F
100
AcDbEntity
  8
0
  6
CONTINUOUS
 62
     7
100
AcDbCircle
 10
-159.2300000000001
 20
363.17
 30
0.0
 40
3.000000000000114
210
0.0
220
0.0
230
-1.0
100
AcDbArc
 50
0.000000000000265
 51
90.0
  0
ARC
  5
D0
330
1F
100
AcDbEntity
  8
0
  6
CONTINUOUS
 62
     7
100
AcDbCircle
 10
295.7699999999999
 20
193.17
 30
0.0
 40
3.000000000000003
210
0.0
220
0.0
230
-1.0
100
AcDbArc
 50
0.0
 51
90.0
  0
ARC
  5
D1
330
1F
100
AcDbEntity
  8
0
  6
CONTINUOUS
 62
     7
100
AcDbCircle
 10
163.23
 20
543.214690702083
 30
0.0
 40
8.000000000000117
100
AcDbArc
 50
0.0
 51
84.99999999999986
  0
CIRCLE
  5
D2
330
1F
100
AcDbEntity
  8
0
  6
CONTINUOUS
 62
     7
100
AcDbCircle
 10
123.7699999999999
 20
606.1700000000001
 30
0.0
 40
4.000000000000004
210
0.0
220
0.0
230
-1.0
  0
ARC
  5
D3
330
1F
100
AcDbEntity
  8
0
  6
CONTINUOUS
 62
     7
100
AcDbCircle
 10
-139.2300000000001
 20
660.1700000000002
 30
0.0
 40
1.000000000000001
210
0.0
220
0.0
230
-1.0
100
AcDbArc
 50
90.0
 51
179.9999999999984
  0
LINE
  5
D4
330
1F
100
AcDbEntity
  8
0
  6
CONTINUOUS
 62
     7
100
AcDbLine
 10
-55.76999999999998
 20
196.1700000000001
 30
0.0
 11
-21.76999999999998
 21
196.1700000000001
 31
0.0
  0
CIRCLE
  5
D5
330
1F
100
AcDbEntity
  8
0
  6
CONTINUOUS
 62
     7
100
AcDbCircle
 10
363.7699999999999
 20
306.17
 30
0.0
 40
4.000000000000059
210
0.0
220
0.0
230
-1.0
  0
ARC
  5
D6
330
1F
100
AcDbEntity
  8
0
  6
CONTINUOUS
 62
     7
100
AcDbCircle
 10
133.23
 20
219.1699999999999
 30
0.0
 40
8.000000000000007
100
AcDbArc
 50
331.0449756281403
 51
0.0
  0
ARC
  5
D7
330
1F
100
AcDbEntity
  8
0
  6
CONTINUOUS
 62
     7
100
AcDbCircle
 10
-139.2300000000001
 20
622.1700000000001
 30
0.0
 40
1.000000000000001
210
0.0
220
0.0
230
-1.0
100
AcDbArc
 50
180.0000000000016
 51
270.0
  0
ARC
  5
D8
330
1F
100
AcDbEntity
  8
0
  6
CONTINUOUS
 62
     7
100
AcDbCircle
 10
-456.7699999999999
 20
660.1700000000002
 30
0.0
 40
1.000000000000056
100
AcDbArc
 50
90.0
 51
179.9999999999984
  0
ARC
  5
D9
330
1F
100
AcDbEntity
  8
0
  6
CONTINUOUS
 62
     7
100
AcDbCircle
 10
-450.7699999999999
 20
653.17
 30
0.0
 40
7.999999999999951
100
AcDbArc
 50
151.0449756281404
 51
180.0
  0
ARC
  5
DA
330
1F
100
AcDbEntity
  8
0
  6
CONTINUOUS
 62
     7
100
AcDbCircle
 10
-456.7699999999999
 20
622.1700000000001
 30
0.0
 40
1.000000000000001
100
AcDbArc
 50
180.0000000000016
 51
270.0
  0
ARC
  5
DB
330
1F
100
AcDbEntity
  8
0
  6
CONTINUOUS
 62
     7
100
AcDbCircle
 10
456.7699999999999
 20
212.17
 30
0.0
 40
1.000000000000056
210
0.0
220
0.0
230
-1.0
100
AcDbArc
 50
270.0
 51
359.9999999999985
  0
ARC
  5
DC
330
1F
100
AcDbEntity
  8
0
  6
CONTINUOUS
 62
     7
100
AcDbCircle
 10
456.7699999999999
 20
250.17
 30
0.0
 40
1.000000000000001
210
0.0
220
0.0
230
-1.0
100
AcDbArc
 50
0.0000000000015903
 51
90.0
  0
LINE
  5
DD
330
1F
100
AcDbEntity
  8
0
  6
CONTINUOUS
 62
     7
100
AcDbLine
 10
-418.77
 20
253.17
 30
0.0
 11
-418.77
 21
253.67
 31
0.0
  0
ARC
  5
DE
330
1F
100
AcDbEntity
  8
0
  6
CONTINUOUS
 62
     7
100
AcDbCircle
 10
419.77
 20
253.17
 30
0.0
 40
1.000000000000001
210
0.0
220
0.0
230
-1.0
100
AcDbArc
 50
180.0
 51
270.0
  0
LINE
  5
DF
330
1F
100
AcDbEntity
  8
0
  6
CONTINUOUS
 62
     7
100
AcDbLine
 10
163.9272459419815
 20
371.184248286817
 30
0.0
 11
141.23
 21
373.17
 31
0.0
  0
LINE
  5
E0
330
1F
100
AcDbEntity
  8
0
  6
CONTINUOUS
 62
     7
100
AcDbLine
 10
-55.814690702083
 20
181.1700000000001
 30
0.0
 11
-21.72530929791691
 21
181.1700000000001
 31
0.0
  0
ARC
  5
E1
330
1F
100
AcDbEntity
  8
0
  6
CONTINUOUS
 62
     7
100
AcDbCircle
 10
457.77
 20
253.17
 30
0.0
 40
1.000000000000001
210
0.0
220
0.0
230
-1.0
100
AcDbArc
 50
270.0
 51
0.0
  0
LINE
  5
E2
330
1F
100
AcDbEntity
  8
0
  6
CONTINUOUS
 62
     7
100
AcDbLine
 10
-295.7699999999999
 20
196.1700000000001
 30
0.0
 11
-261.7699999999999
 21
196.1700000000001
 31
0.0
  0
LINE
  5
E3
330
1F
100
AcDbEntity
  8
0
  6
CONTINUOUS
 62
     7
100
AcDbLine
 10
166.23
 20
543.1700000000002
 30
0.0
 11
166.23
 21
509.1700000000001
 31
0.0
  0
ARC
  5
E4
330
1F
100
AcDbEntity
  8
0
  6
CONTINUOUS
 62
     7
100
AcDbCircle
 10
-159.2300000000001
 20
509.1700000000001
 30
0.0
 40
3.000000000000114
210
0.0
220
0.0
230
-1.0
100
AcDbArc
 50
270.0
 51
359.9999999999997
  0
ARC
  5
E5
330
1F
100
AcDbEntity
  8
0
  6
CONTINUOUS
 62
     7
100
AcDbCircle
 10
-55.814690702083
 20
189.1700000000002
 30
0.0
 40
7.999999999999896
100
AcDbArc
 50
185.0
 51
270.0000000000001
  0
CIRCLE
  5
E6
330
1F
100
AcDbEntity
  8
0
  6
CONTINUOUS
 62
     7
100
AcDbCircle
 10
-363.7699999999999
 20
566.1700000000003
 30
0.0
 40
4.000000000000059
  0
CIRCLE
  5
E7
330
1F
100
AcDbEntity
  8
0
  6
CONTINUOUS
 62
     7
100
AcDbCircle
 10
-193.7699999999999
 20
566.1700000000003
 30
0.0
 40
4.000000000000004
  0
LINE
  5
E8
330
1F
100
AcDbEntity
  8
0
  6
CONTINUOUS
 62
     7
100
AcDbLine
 10
-11.76999999999995
 20
211.1700000000001
 30
0.0
 11
-13.75575171318294
 21
188.4727540580189
 31
0.0
  0
LINE
  5
E9
330
1F
100
AcDbEntity
  8
0
  6
CONTINUOUS
 62
     7
100
AcDbLine
 10
156.23
 20
329.1700000000001
 30
0.0
 11
156.23
 21
363.17
 31
0.0
  0
CIRCLE
  5
EA
330
1F
100
AcDbEntity
  8
0
  6
CONTINUOUS
 62
     7
100
AcDbCircle
 10
193.7699999999999
 20
266.1700000000001
 30
0.0
 40
4.000000000000004
210
0.0
220
0.0
230
-1.0
  0
CIRCLE
  5
EB
330
1F
100
AcDbEntity
  8
0
  6
CONTINUOUS
 62
     7
100
AcDbCircle
 10
46.22999999999999
 20
306.17
 30
0.0
 40
4.000000000000115
  0
ARC
  5
EC
330
1F
100
AcDbEntity
  8
0
  6
CONTINUOUS
 62
     7
100
AcDbCircle
 10
295.8146907020828
 20
189.1700000000002
 30
0.0
 40
8.000000000000062
210
0.0
220
0.0
230
-1.0
100
AcDbArc
 50
270.0
 51
355.0000000000002
  0
LINE
  5
ED
330
1F
100
AcDbEntity
  8
0
  6
CONTINUOUS
 62
     7
100
AcDbLine
 10
-65.77
 20
63.41999999999997
 30
0.0
 11
-65.77
 21
59.42
 31
0.0
  0
LINE
  5
EE
330
1F
100
AcDbEntity
  8
0
  6
CONTINUOUS
 62
     7
100
AcDbLine
 10
31.22999999999998
 20
59.41999999999997
 30
0.0
 11
31.22999999999998
 21
62.92
 31
0.0
  0
ARC
  5
EF
330
1F
100
AcDbEntity
  8
0
  6
CONTINUOUS
 62
     7
100
AcDbCircle
 10
-455.7699999999999
 20
108.42
 30
0.0
 40
3.000000000000058
100
AcDbArc
 50
130.8773266483048
 51
180.0
  0
ARC
  5
F0
330
1F
100
AcDbEntity
  8
0
  6
CONTINUOUS
 62
     7
100
AcDbCircle
 10
-139.2300000000001
 20
110.42
 30
0.0
 40
1.000000000000001
210
0.0
220
0.0
230
-1.0
100
AcDbArc
 50
90.0
 51
180.0000000000004
  0
LINE
  5
F1
330
1F
100
AcDbEntity
  8
0
  6
CONTINUOUS
 62
     7
100
AcDbLine
 10
101.2299999999999
 20
59.41999999999997
 30
0.0
 11
101.2299999999999
 21
62.92
 31
0.0
  0
ARC
  5
F2
330
1F
100
AcDbEntity
  8
0
  6
CONTINUOUS
 62
     7
100
AcDbCircle
 10
-456.2699999999999
 20
73.92000000000004
 30
0.0
 40
2.500000000000002
100
AcDbArc
 50
203.5781784782009
 51
270.0
  0
LINE
  5
F3
330
1F
100
AcDbEntity
  8
0
  6
CONTINUOUS
 62
     7
100
AcDbLine
 10
141.23
 20
71.42000000000004
 30
0.0
 11
141.23
 21
59.42000000000001
 31
0.0
  0
LINE
  5
F4
330
1F
100
AcDbEntity
  8
0
  6
CONTINUOUS
 62
     7
100
AcDbLine
 10
-133.77
 20
62.92000000000003
 30
0.0
 11
-133.77
 21
59.42
 31
0.0
  0
ARC
  5
F5
330
1F
100
AcDbEntity
  8
0
  6
CONTINUOUS
 62
     7
100
AcDbCircle
 10
139.2300000000001
 20
250.17
 30
0.0
 40
1.000000000000001
100
AcDbArc
 50
0.0000000000015903
 51
90.0
  0
ARC
  5
F6
330
1F
100
AcDbEntity
  8
0
  6
CONTINUOUS
 62
     7
100
AcDbCircle
 10
177.77
 20
619.17
 30
0.0
 40
1.000000000000001
210
0.0
220
0.0
230
-1.0
100
AcDbArc
 50
0.0
 51
89.9999999999994
  0
ARC
  5
F7
330
1F
100
AcDbEntity
  8
0
  6
CONTINUOUS
 62
     7
100
AcDbCircle
 10
139.77
 20
619.17
 30
0.0
 40
1.000000000000001
210
0.0
220
0.0
230
-1.0
100
AcDbArc
 50
90.0000000000012
 51
180.0
  0
LINE
  5
F8
330
1F
100
AcDbEntity
  8
0
  6
CONTINUOUS
 62
     7
100
AcDbLine
 10
141.23
 20
593.6700000000002
 30
0.0
 11
141.23
 21
318.6700000000001
 31
0.0
  0
LINE
  5
F9
330
1F
100
AcDbEntity
  8
0
  6
CONTINUOUS
 62
     7
100
AcDbLine
 10
101.2299999999999
 20
293.67
 30
0.0
 11
101.2299999999999
 21
253.67
 31
0.0
  0
LINE
  5
FA
330
1F
100
AcDbEntity
  8
0
  6
CONTINUOUS
 62
     7
100
AcDbLine
 10
-178.77
 20
593.6700000000002
 30
0.0
 11
-178.77
 21
318.6700000000001
 31
0.0
  0
LINE
  5
FB
330
1F
100
AcDbEntity
  8
0
  6
CONTINUOUS
 62
     7
100
AcDbLine
 10
-251.77
 20
63.41999999999997
 30
0.0
 11
-251.77
 21
59.42
 31
0.0
  0
ARC
  5
FC
330
1F
100
AcDbEntity
  8
0
  6
CONTINUOUS
 62
     7
100
AcDbCircle
 10
259.7699999999999
 20
67.41999999999997
 30
0.0
 40
0.9999999999999454
210
0.0
220
0.0
230
-1.0
100
AcDbArc
 50
90.0
 51
180.0000000000002
  0
LINE
  5
FD
330
1F
100
AcDbEntity
  8
0
  6
CONTINUOUS
 62
     7
100
AcDbLine
 10
-388.77
 20
59.41999999999997
 30
0.0
 11
-388.7699999999999
 21
62.92
 31
0.0
  0
LINE
  5
FE
330
1F
100
AcDbEntity
  8
0
  6
CONTINUOUS
 62
     7
100
AcDbLine
 10
-11.76999999999995
 20
59.41999999999997
 30
0.0
 11
-11.76999999999995
 21
63.41999999999994
 31
0.0
  0
LINE
  5
FF
330
1F
100
AcDbEntity
  8
0
  6
CONTINUOUS
 62
     7
100
AcDbLine
 10
-388.77
 20
62.92000000000003
 30
0.0
 11
-418.7699999999999
 21
62.92000000000003
 31
0.0
  0
LINE
  5
100
330
1F
100
AcDbEntity
  8
0
  6
CONTINUOUS
 62
     7
100
AcDbLine
 10
-348.77
 20
59.41999999999997
 30
0.0
 11
-348.7699999999999
 21
62.92
 31
0.0
  0
LINE
  5
101
330
1F
100
AcDbEntity
  8
0
  6
CONTINUOUS
 62
     7
100
AcDbLine
 10
31.22999999999998
 20
62.92000000000003
 30
0.0
 11
61.23
 21
62.92000000000003
 31
0.0
  0
LINE
  5
102
330
1F
100
AcDbEntity
  8
0
  6
CONTINUOUS
 62
     7
100
AcDbLine
 10
96.22999999999992
 20
59.41999999999997
 30
0.0
 11
96.22999999999992
 21
62.92
 31
0.0
  0
LINE
  5
103
330
1F
100
AcDbEntity
  8
0
  6
CONTINUOUS
 62
     7
100
AcDbLine
 10
-351.2699999999999
 20
251.17
 30
0.0
 11
73.73000000000002
 21
251.17
 31
0.0
  0
LINE
  5
104
330
1F
100
AcDbEntity
  8
0
  6
CONTINUOUS
 62
     7
100
AcDbLine
 10
-418.7699999999999
 20
553.6700000000001
 30
0.0
 11
-418.7699999999999
 21
278.67
 31
0.0
  0
LINE
  5
105
330
1F
100
AcDbEntity
  8
0
  6
CONTINUOUS
 62
     7
100
AcDbLine
 10
-351.2699999999999
 20
211.17
 30
0.0
 11
73.73000000000002
 21
211.1700000000001
 31
0.0
  0
ARC
  5
106
330
1F
100
AcDbEntity
  8
0
  6
CONTINUOUS
 62
     7
100
AcDbCircle
 10
19.76999999999995
 20
67.41999999999997
 30
0.0
 40
1.000000000000001
210
0.0
220
0.0
230
-1.0
100
AcDbArc
 50
90.0
 51
180.0
  0
ARC
  5
107
330
1F
100
AcDbEntity
  8
0
  6
CONTINUOUS
 62
     7
100
AcDbCircle
 10
57.76999999999988
 20
67.41999999999997
 30
0.0
 40
0.9999999999998899
210
0.0
220
0.0
230
-1.0
100
AcDbArc
 50
0.0
 51
90.0
  0
LINE
  5
108
330
1F
100
AcDbEntity
  8
0
  6
CONTINUOUS
 62
     7
100
AcDbLine
 10
-138.77
 20
593.6700000000002
 30
0.0
 11
-138.77
 21
318.6700000000001
 31
0.0
  0
LINE
  5
109
330
1F
100
AcDbEntity
  8
0
  6
CONTINUOUS
 62
     7
100
AcDbLine
 10
101.2299999999999
 20
619.17
 30
0.0
 11
101.2299999999999
 21
618.6700000000001
 31
0.0
  0
LINE
  5
10A
330
1F
100
AcDbEntity
  8
0
  6
CONTINUOUS
 62
     7
100
AcDbLine
 10
-138.77
 20
62.92000000000003
 30
0.0
 11
-108.7699999999999
 21
62.92000000000003
 31
0.0
  0
LINE
  5
10B
330
1F
100
AcDbEntity
  8
0
  6
CONTINUOUS
 62
     7
100
AcDbLine
 10
-178.77
 20
59.41999999999997
 30
0.0
 11
-178.77
 21
62.92
 31
0.0
  0
LINE
  5
10C
330
1F
100
AcDbEntity
  8
0
  6
CONTINUOUS
 62
     7
100
AcDbLine
 10
-108.7699999999999
 20
59.41999999999997
 30
0.0
 11
-108.7699999999999
 21
62.92
 31
0.0
  0
LINE
  5
10D
330
1F
100
AcDbEntity
  8
0
  6
CONTINUOUS
 62
     7
100
AcDbLine
 10
-413.77
 20
59.41999999999997
 30
0.0
 11
-413.77
 21
62.92
 31
0.0
  0
LINE
  5
10E
330
1F
100
AcDbEntity
  8
0
  6
CONTINUOUS
 62
     7
100
AcDbLine
 10
101.2299999999999
 20
593.6700000000002
 30
0.0
 11
101.2299999999999
 21
318.6700000000001
 31
0.0
  0
LINE
  5
10F
330
1F
100
AcDbEntity
  8
0
  6
CONTINUOUS
 62
     7
100
AcDbLine
 10
-138.77
 20
619.17
 30
0.0
 11
-138.77
 21
618.6700000000001
 31
0.0
  0
LINE
  5
110
330
1F
100
AcDbEntity
  8
0
  6
CONTINUOUS
 62
     7
100
AcDbLine
 10
-297.77
 20
68.41999999999997
 30
0.0
 11
-259.7699999999999
 21
68.41999999999997
 31
0.0
  0
ARC
  5
111
330
1F
100
AcDbEntity
  8
0
  6
CONTINUOUS
 62
     7
100
AcDbCircle
 10
297.77
 20
67.41999999999997
 30
0.0
 40
0.9999999999999454
210
0.0
220
0.0
230
-1.0
100
AcDbArc
 50
359.9999999999998
 51
90.0
  0
LINE
  5
112
330
1F
100
AcDbEntity
  8
0
  6
CONTINUOUS
 62
     7
100
AcDbLine
 10
-391.27
 20
661.1700000000001
 30
0.0
 11
33.72999999999993
 21
661.1700000000001
 31
0.0
  0
LINE
  5
113
330
1F
100
AcDbEntity
  8
0
  6
CONTINUOUS
 62
     7
100
AcDbLine
 10
71.23000000000002
 20
62.92000000000003
 30
0.0
 11
101.2299999999999
 21
62.92000000000003
 31
0.0
  0
LINE
  5
114
330
1F
100
AcDbEntity
  8
0
  6
CONTINUOUS
 62
     7
100
AcDbLine
 10
61.23
 20
59.41999999999997
 30
0.0
 11
61.23
 21
62.92
 31
0.0
  0
LINE
  5
115
330
1F
100
AcDbEntity
  8
0
  6
CONTINUOUS
 62
     7
100
AcDbLine
 10
-183.77
 20
62.92000000000003
 30
0.0
 11
-183.77
 21
59.42
 31
0.0
  0
LINE
  5
116
330
1F
100
AcDbEntity
  8
0
  6
CONTINUOUS
 62
     7
100
AcDbLine
 10
71.23000000000002
 20
59.41999999999997
 30
0.0
 11
71.23000000000002
 21
62.92
 31
0.0
  0
LINE
  5
117
330
1F
100
AcDbEntity
  8
0
  6
CONTINUOUS
 62
     7
100
AcDbLine
 10
-378.7699999999999
 20
59.41999999999997
 30
0.0
 11
-378.7699999999999
 21
62.92
 31
0.0
  0
LINE
  5
118
330
1F
100
AcDbEntity
  8
0
  6
CONTINUOUS
 62
     7
100
AcDbLine
 10
171.23
 20
59.41999999999997
 30
0.0
 11
171.23
 21
63.41999999999994
 31
0.0
  0
ARC
  5
119
330
1F
100
AcDbEntity
  8
0
  6
CONTINUOUS
 62
     7
100
AcDbCircle
 10
-161.23
 20
63.41999999999997
 30
0.0
 40
5.000000000000004
210
0.0
220
0.0
230
-1.0
100
AcDbArc
 50
90.0
 51
119.9999999999993
  0
ARC
  5
11A
330
1F
100
AcDbEntity
  8
0
  6
CONTINUOUS
 62
     7
100
AcDbCircle
 10
-157.2300000000002
 20
67.41999999999997
 30
0.0
 40
1.000000000000112
210
0.0
220
0.0
230
-1.0
100
AcDbArc
 50
359.9999999999993
 51
90.0
  0
ARC
  5
11B
330
1F
100
AcDbEntity
  8
0
  6
CONTINUOUS
 62
     7
100
AcDbCircle
 10
-102.23
 20
619.17
 30
0.0
 40
1.000000000000001
210
0.0
220
0.0
230
-1.0
100
AcDbArc
 50
0.0
 51
90.0
  0
ARC
  5
11C
330
1F
100
AcDbEntity
  8
0
  6
CONTINUOUS
 62
     7
100
AcDbCircle
 10
-140.2300000000001
 20
619.17
 30
0.0
 40
1.000000000000001
210
0.0
220
0.0
230
-1.0
100
AcDbArc
 50
90.0
 51
180.0
  0
LINE
  5
11D
330
1F
100
AcDbEntity
  8
0
  6
CONTINUOUS
 62
     7
100
AcDbLine
 10
-178.77
 20
619.17
 30
0.0
 11
-178.77
 21
618.6700000000001
 31
0.0
  0
ARC
  5
11E
330
1F
100
AcDbEntity
  8
0
  6
CONTINUOUS
 62
     7
100
AcDbCircle
 10
-177.77
 20
253.17
 30
0.0
 40
1.000000000000112
100
AcDbArc
 50
180.0
 51
269.9999999999994
  0
ARC
  5
11F
330
1F
100
AcDbEntity
  8
0
  6
CONTINUOUS
 62
     7
100
AcDbCircle
 10
139.2300000000001
 20
212.17
 30
0.0
 40
1.000000000000001
100
AcDbArc
 50
270.0
 51
359.9999999999985
  0
ARC
  5
120
330
1F
100
AcDbEntity
  8
0
  6
CONTINUOUS
 62
     7
100
AcDbCircle
 10
-139.77
 20
253.17
 30
0.0
 40
1.000000000000001
100
AcDbArc
 50
270.0000000000011
 51
0.0
  0
LINE
  5
121
330
1F
100
AcDbEntity
  8
0
  6
CONTINUOUS
 62
     7
100
AcDbLine
 10
-391.27
 20
621.17
 30
0.0
 11
33.72999999999993
 21
621.17
 31
0.0
  0
LINE
  5
122
330
1F
100
AcDbEntity
  8
0
  6
CONTINUOUS
 62
     7
100
AcDbLine
 10
-305.7699999999999
 20
59.41999999999997
 30
0.0
 11
-305.7699999999999
 21
63.41999999999994
 31
0.0
  0
LINE
  5
123
330
1F
100
AcDbEntity
  8
0
  6
CONTINUOUS
 62
     7
100
AcDbLine
 10
-348.7699999999999
 20
62.92000000000003
 30
0.0
 11
-378.7699999999999
 21
62.92000000000003
 31
0.0
  0
LINE
  5
124
330
1F
100
AcDbEntity
  8
0
  6
CONTINUOUS
 62
     7
100
AcDbLine
 10
-418.7699999999999
 20
59.41999999999997
 30
0.0
 11
-418.7699999999999
 21
62.92
 31
0.0
  0
LINE
  5
125
330
1F
100
AcDbEntity
  8
0
  6
CONTINUOUS
 62
     7
100
AcDbLine
 10
-138.77
 20
59.41999999999997
 30
0.0
 11
-138.77
 21
62.92
 31
0.0
  0
LINE
  5
126
330
1F
100
AcDbEntity
  8
0
  6
CONTINUOUS
 62
     7
100
AcDbLine
 10
-178.77
 20
62.92000000000003
 30
0.0
 11
-208.7699999999999
 21
62.92000000000003
 31
0.0
  0
LINE
  5
127
330
1F
100
AcDbEntity
  8
0
  6
CONTINUOUS
 62
     7
100
AcDbLine
 10
-57.76999999999988
 20
68.41999999999997
 30
0.0
 11
-19.7699999999999
 21
68.41999999999997
 31
0.0
  0
LINE
  5
128
330
1F
100
AcDbEntity
  8
0
  6
CONTINUOUS
 62
     7
100
AcDbLine
 10
-208.7699999999999
 20
59.41999999999997
 30
0.0
 11
-208.7699999999999
 21
62.92
 31
0.0
  0
LINE
  5
129
330
1F
100
AcDbEntity
  8
0
  6
CONTINUOUS
 62
     7
100
AcDbLine
 10
-458.77
 20
71.42000000000004
 30
0.0
 11
-458.77
 21
59.42000000000001
 31
0.0
  0
LINE
  5
12A
330
1F
100
AcDbEntity
  8
0
  6
CONTINUOUS
 62
     7
100
AcDbLine
 10
156.23
 20
63.41999999999997
 30
0.0
 11
156.23
 21
67.42000000000002
 31
0.0
  0
ARC
  5
12B
330
1F
100
AcDbEntity
  8
0
  6
CONTINUOUS
 62
     7
100
AcDbCircle
 10
-456.7699999999999
 20
110.42
 30
0.0
 40
1.000000000000056
100
AcDbArc
 50
90.0
 51
180.0000000000004
  0
LINE
  5
12C
330
1F
100
AcDbEntity
  8
0
  6
CONTINUOUS
 62
     7
100
AcDbLine
 10
-458.77
 20
553.6700000000001
 30
0.0
 11
-458.77
 21
278.67
 31
0.0
  0
LINE
  5
12D
330
1F
100
AcDbEntity
  8
0
  6
CONTINUOUS
 62
     7
100
AcDbLine
 10
302.98
 20
251.17
 30
0.0
 11
299.48
 21
251.17
 31
0.0
  0
ARC
  5
12E
330
1F
100
AcDbEntity
  8
0
  6
CONTINUOUS
 62
     7
100
AcDbCircle
 10
-294.98
 20
545.17
 30
0.0
 40
0.9999999999998899
210
0.0
220
0.0
230
-1.0
100
AcDbArc
 50
0.0
 51
90.0
  0
LINE
  5
12F
330
1F
100
AcDbEntity
  8
0
  6
CONTINUOUS
 62
     7
100
AcDbLine
 10
302.98
 20
291.1700000000001
 30
0.0
 11
299.48
 21
291.1700000000001
 31
0.0
  0
LINE
  5
130
330
1F
100
AcDbEntity
  8
0
  6
CONTINUOUS
 62
     7
100
AcDbLine
 10
298.98
 20
373.1700000000001
 30
0.0
 11
302.98
 21
373.1700000000001
 31
0.0
  0
LINE
  5
131
330
1F
100
AcDbEntity
  8
0
  6
CONTINUOUS
 62
     7
100
AcDbLine
 10
302.98
 20
621.17
 30
0.0
 11
299.48
 21
621.17
 31
0.0
  0
ARC
  5
132
330
1F
100
AcDbEntity
  8
0
  6
CONTINUOUS
 62
     7
100
AcDbCircle
 10
-294.98
 20
507.1700000000001
 30
0.0
 40
0.9999999999998899
210
0.0
220
0.0
230
-1.0
100
AcDbArc
 50
270.0
 51
0.0
  0
LINE
  5
133
330
1F
100
AcDbEntity
  8
0
  6
CONTINUOUS
 62
     7
100
AcDbLine
 10
302.98
 20
591.17
 30
0.0
 11
299.48
 21
591.17
 31
0.0
  0
LINE
  5
134
330
1F
100
AcDbEntity
  8
0
  6
CONTINUOUS
 62
     7
100
AcDbLine
 10
299.48
 20
616.1700000000001
 30
0.0
 11
302.98
 21
616.1700000000001
 31
0.0
  0
LINE
  5
135
330
1F
100
AcDbEntity
  8
0
  6
CONTINUOUS
 62
     7
100
AcDbLine
 10
-351.2699999999999
 20
111.42
 30
0.0
 11
73.73000000000002
 21
111.42
 31
0.0
  0
ARC
  5
136
330
1F
100
AcDbEntity
  8
0
  6
CONTINUOUS
 62
     7
100
AcDbCircle
 10
138.73
 20
73.92000000000004
 30
0.0
 40
2.499999999999947
100
AcDbArc
 50
270.0
 51
0.0
  0
LINE
  5
137
330
1F
100
AcDbEntity
  8
0
  6
CONTINUOUS
 62
     7
100
AcDbLine
 10
298.98
 20
499.1700000000001
 30
0.0
 11
302.98
 21
499.1700000000001
 31
0.0
  0
LINE
  5
138
330
1F
100
AcDbEntity
  8
0
  6
CONTINUOUS
 62
     7
100
AcDbLine
 10
299.48
 20
256.1700000000001
 30
0.0
 11
302.98
 21
256.1700000000001
 31
0.0
  0
ARC
  5
139
330
1F
100
AcDbEntity
  8
0
  6
CONTINUOUS
 62
     7
100
AcDbCircle
 10
-294.98
 20
327.17
 30
0.0
 40
1.000000000000112
210
0.0
220
0.0
230
-1.0
100
AcDbArc
 50
269.9999999999998
 51
0.0
  0
ARC
  5
13A
330
1F
100
AcDbEntity
  8
0
  6
CONTINUOUS
 62
     7
100
AcDbCircle
 10
138.73
 20
108.92
 30
0.0
 40
2.499999999999947
100
AcDbArc
 50
359.9999999999998
 51
60.17517206795264
  0
LINE
  5
13B
330
1F
100
AcDbEntity
  8
0
  6
CONTINUOUS
 62
     7
100
AcDbLine
 10
302.98
 20
181.1700000000001
 30
0.0
 11
298.98
 21
181.1700000000001
 31
0.0
  0
ARC
  5
13C
330
1F
100
AcDbEntity
  8
0
  6
CONTINUOUS
 62
     7
100
AcDbCircle
 10
-456.2699999999999
 20
108.92
 30
0.0
 40
2.499999999999947
100
AcDbArc
 50
119.8248275798462
 51
180.0
  0
ARC
  5
13D
330
1F
100
AcDbEntity
  8
0
  6
CONTINUOUS
 62
     7
100
AcDbCircle
 10
-294.98
 20
195.1700000000001
 30
0.0
 40
1.000000000000112
210
0.0
220
0.0
230
-1.0
100
AcDbArc
 50
0.0
 51
90.0000000000002
  0
LINE
  5
13E
330
1F
100
AcDbEntity
  8
0
  6
CONTINUOUS
 62
     7
100
AcDbLine
 10
298.98
 20
196.1700000000001
 30
0.0
 11
294.9799999999999
 21
196.1700000000001
 31
0.0
  0
ARC
  5
13F
330
1F
100
AcDbEntity
  8
0
  6
CONTINUOUS
 62
     7
100
AcDbCircle
 10
-298.98
 20
191.17
 30
0.0
 40
4.999999999999782
210
0.0
220
0.0
230
-1.0
100
AcDbArc
 50
330.0
 51
0.0
  0
ARC
  5
140
330
1F
100
AcDbEntity
  8
0
  6
CONTINUOUS
 62
     7
100
AcDbCircle
 10
253.9800000000001
 20
658.1700000000002
 30
0.0
 40
3.000000000000003
100
AcDbArc
 50
90.0
 51
180.0
  0
LINE
  5
141
330
1F
100
AcDbEntity
  8
0
  6
CONTINUOUS
 62
     7
100
AcDbLine
 10
141.23
 20
73.92000000000004
 30
0.0
 11
141.23
 21
108.92
 31
0.0
  0
LINE
  5
142
330
1F
100
AcDbEntity
  8
0
  6
CONTINUOUS
 62
     7
100
AcDbLine
 10
302.98
 20
211.17
 30
0.0
 11
290.9800000000001
 21
211.17
 31
0.0
  0
LINE
  5
143
330
1F
100
AcDbEntity
  8
0
  6
CONTINUOUS
 62
     7
100
AcDbLine
 10
302.98
 20
661.1700000000001
 30
0.0
 11
290.9800000000001
 21
661.1700000000001
 31
0.0
  0
ARC
  5
144
330
1F
100
AcDbEntity
  8
0
  6
CONTINUOUS
 62
     7
100
AcDbCircle
 10
253.9800000000001
 20
624.1700000000001
 30
0.0
 40
3.000000000000003
100
AcDbArc
 50
180.0000000000006
 51
270.0
  0
LINE
  5
145
330
1F
100
AcDbEntity
  8
0
  6
CONTINUOUS
 62
     7
100
AcDbLine
 10
299.48
 20
621.17
 30
0.0
 11
299.48
 21
591.17
 31
0.0
  0
LINE
  5
146
330
1F
100
AcDbEntity
  8
0
  6
CONTINUOUS
 62
     7
100
AcDbLine
 10
299.48
 20
291.1700000000001
 30
0.0
 11
299.48
 21
319.1700000000001
 31
0.0
  0
LINE
  5
147
330
1F
100
AcDbEntity
  8
0
  6
CONTINUOUS
 62
     7
100
AcDbLine
 10
254.98
 20
626.1700000000001
 30
0.0
 11
254.98
 21
656.1700000000001
 31
0.0
  0
ARC
  5
148
330
1F
100
AcDbEntity
  8
0
  6
CONTINUOUS
 62
     7
100
AcDbCircle
 10
-255.9800000000001
 20
626.1700000000001
 30
0.0
 40
1.000000000000001
210
0.0
220
0.0
230
-1.0
100
AcDbArc
 50
270.0
 51
0.0
  0
LINE
  5
149
330
1F
100
AcDbEntity
  8
0
  6
CONTINUOUS
 62
     7
100
AcDbLine
 10
302.98
 20
281.1700000000001
 30
0.0
 11
299.48
 21
281.1700000000001
 31
0.0
  0
ARC
  5
14A
330
1F
100
AcDbEntity
  8
0
  6
CONTINUOUS
 62
     7
100
AcDbCircle
 10
-294.98
 20
365.17
 30
0.0
 40
0.9999999999998899
210
0.0
220
0.0
230
-1.0
100
AcDbArc
 50
0.0
 51
90.0000000000002
  0
LINE
  5
14B
330
1F
100
AcDbEntity
  8
0
  6
CONTINUOUS
 62
     7
100
AcDbLine
 10
293.9800000000001
 20
327.17
 30
0.0
 11
293.9800000000001
 21
365.17
 31
0.0
  0
LINE
  5
14C
330
1F
100
AcDbEntity
  8
0
  6
CONTINUOUS
 62
     7
100
AcDbLine
 10
299.48
 20
251.17
 30
0.0
 11
299.48
 21
281.1700000000001
 31
0.0
  0
LINE
  5
14D
330
1F
100
AcDbEntity
  8
0
  6
CONTINUOUS
 62
     7
100
AcDbLine
 10
299.48
 20
581.1700000000002
 30
0.0
 11
299.48
 21
553.17
 31
0.0
  0
LINE
  5
14E
330
1F
100
AcDbEntity
  8
0
  6
CONTINUOUS
 62
     7
100
AcDbLine
 10
293.9800000000001
 20
507.1700000000001
 30
0.0
 11
293.9800000000001
 21
545.1700000000002
 31
0.0
  0
LINE
  5
14F
330
1F
100
AcDbEntity
  8
0
  6
CONTINUOUS
 62
     7
100
AcDbLine
 10
302.98
 20
581.1700000000002
 30
0.0
 11
299.48
 21
581.1700000000002
 31
0.0
  0
LINE
  5
150
330
1F
100
AcDbEntity
  8
0
  6
CONTINUOUS
 62
     7
100
AcDbLine
 10
248.68
 20
261.1700000000001
 30
0.0
 11
250.9800000000001
 21
261.1700000000001
 31
0.0
  0
LINE
  5
151
330
1F
100
AcDbEntity
  8
0
  6
CONTINUOUS
 62
     7
100
AcDbLine
 10
249.3207651072936
 20
253.67
 30
0.0
 11
248.68
 21
253.67
 31
0.0
  0
ARC
  5
152
330
1F
100
AcDbEntity
  8
0
  6
CONTINUOUS
 62
     7
100
AcDbCircle
 10
-176.77
 20
109.42
 30
0.0
 40
5.799999999999916
100
AcDbArc
 50
90.0
 51
159.8287286535348
  0
ARC
  5
153
330
1F
100
AcDbEntity
  8
0
  6
CONTINUOUS
 62
     7
100
AcDbCircle
 10
252.1800000000001
 20
306.17
 30
0.0
 40
5.000000000000004
100
AcDbArc
 50
159.9840403971175
 51
200.0159596028825
  0
ARC
  5
154
330
1F
100
AcDbEntity
  8
0
  6
CONTINUOUS
 62
     7
100
AcDbCircle
 10
-252.9800000000002
 20
659.1700000000001
 30
0.0
 40
4.300000000000082
210
0.0
220
0.0
230
-1.0
100
AcDbArc
 50
359.9999999999996
 51
90.0
  0
LINE
  5
155
330
1F
100
AcDbEntity
  8
0
  6
CONTINUOUS
 62
     7
100
AcDbLine
 10
260.9800000000001
 20
596.6700000000003
 30
0.0
 11
260.9800000000001
 21
615.6700000000002
 31
0.0
  0
LINE
  5
156
330
1F
100
AcDbEntity
  8
0
  6
CONTINUOUS
 62
     7
100
AcDbLine
 10
248.68
 20
601.17
 30
0.0
 11
247.4820134228191
 21
604.458590604027
 31
0.0
  0
ARC
  5
157
330
1F
100
AcDbEntity
  8
0
  6
CONTINUOUS
 62
     7
100
AcDbCircle
 10
-252.1800000000001
 20
266.1700000000001
 30
0.0
 40
5.000000000000004
210
0.0
220
0.0
230
-1.0
100
AcDbArc
 50
339.9840403971174
 51
20.0159596028829
  0
LINE
  5
158
330
1F
100
AcDbEntity
  8
0
  6
CONTINUOUS
 62
     7
100
AcDbLine
 10
248.68
 20
261.1700000000001
 30
0.0
 11
247.4820134228191
 21
264.4585906040271
 31
0.0
  0
LINE
  5
159
330
1F
100
AcDbEntity
  8
0
  6
CONTINUOUS
 62
     7
100
AcDbLine
 10
248.68
 20
571.1700000000002
 30
0.0
 11
247.4820134228191
 21
567.881409395973
 31
0.0
  0
LINE
  5
15A
330
1F
100
AcDbEntity
  8
0
  6
CONTINUOUS
 62
     7
100
AcDbLine
 10
250.9800000000001
 20
553.6700000000001
 30
0.0
 11
248.68
 21
553.6700000000001
 31
0.0
  0
LINE
  5
15B
330
1F
100
AcDbEntity
  8
0
  6
CONTINUOUS
 62
     7
100
AcDbLine
 10
135.6225184397776
 20
115.22
 30
0.0
 11
103.23
 21
115.22
 31
0.0
  0
LINE
  5
15C
330
1F
100
AcDbEntity
  8
0
  6
CONTINUOUS
 62
     7
100
AcDbLine
 10
250.9800000000001
 20
578.6700000000002
 30
0.0
 11
248.68
 21
578.6700000000002
 31
0.0
  0
LINE
  5
15D
330
1F
100
AcDbEntity
  8
0
  6
CONTINUOUS
 62
     7
100
AcDbLine
 10
260.9800000000001
 20
296.67
 30
0.0
 11
257.9800000000001
 21
293.67
 31
0.0
  0
LINE
  5
15E
330
1F
100
AcDbEntity
  8
0
  6
CONTINUOUS
 62
     7
100
AcDbLine
 10
248.68
 20
571.1700000000002
 30
0.0
 11
250.9800000000001
 21
571.1700000000002
 31
0.0
  0
LINE
  5
15F
330
1F
100
AcDbEntity
  8
0
  6
CONTINUOUS
 62
     7
100
AcDbLine
 10
283.1800000000001
 20
253.47
 30
0.0
 11
252.9800000000001
 21
253.47
 31
0.0
  0
ARC
  5
160
330
1F
100
AcDbEntity
  8
0
  6
CONTINUOUS
 62
     7
100
AcDbCircle
 10
-252.9800000000002
 20
249.17
 30
0.0
 40
2.000000000000113
210
0.0
220
0.0
230
-1.0
100
AcDbArc
 50
0.0
 51
90.0
  0
LINE
  5
161
330
1F
100
AcDbEntity
  8
0
  6
CONTINUOUS
 62
     7
100
AcDbLine
 10
248.68
 20
553.6700000000001
 30
0.0
 11
248.68
 21
561.1700000000002
 31
0.0
  0
LINE
  5
162
330
1F
100
AcDbEntity
  8
0
  6
CONTINUOUS
 62
     7
100
AcDbLine
 10
289.48
 20
252.17
 30
0.0
 11
286.867817782917
 21
252.17
 31
0.0
  0
ARC
  5
163
330
1F
100
AcDbEntity
  8
0
  6
CONTINUOUS
 62
     7
100
AcDbCircle
 10
-420.77
 20
109.42
 30
0.0
 40
5.799999999999971
100
AcDbArc
 50
20.17127134646487
 51
90.0
  0
LINE
  5
164
330
1F
100
AcDbEntity
  8
0
  6
CONTINUOUS
 62
     7
100
AcDbLine
 10
248.68
 20
311.17
 30
0.0
 11
247.4820134228191
 21
307.881409395973
 31
0.0
  0
ARC
  5
165
330
1F
100
AcDbEntity
  8
0
  6
CONTINUOUS
 62
     7
100
AcDbCircle
 10
-144.3774815602225
 20
110.22
 30
0.0
 40
5.000000000000004
100
AcDbArc
 50
50.00000000000001
 51
90.0
  0
ARC
  5
166
330
1F
100
AcDbEntity
  8
0
  6
CONTINUOUS
 62
     7
100
AcDbCircle
 10
176.77
 20
109.42
 30
0.0
 40
4.299999999999971
210
0.0
220
0.0
230
-1.0
100
AcDbArc
 50
27.71774768960979
 51
90.0
  0
ARC
  5
167
330
1F
100
AcDbEntity
  8
0
  6
CONTINUOUS
 62
     7
100
AcDbCircle
 10
-453.1625184397777
 20
110.22
 30
0.0
 40
5.000000000000004
100
AcDbArc
 50
90.0
 51
130.0000000000003
  0
LINE
  5
168
330
1F
100
AcDbEntity
  8
0
  6
CONTINUOUS
 62
     7
100
AcDbLine
 10
248.68
 20
623.17
 30
0.0
 11
248.68
 21
659.1700000000001
 31
0.0
  0
LINE
  5
169
330
1F
100
AcDbEntity
  8
0
  6
CONTINUOUS
 62
     7
100
AcDbLine
 10
-140.77
 20
113.72
 30
0.0
 11
-141.1635435117894
 21
114.0502222155949
 31
0.0
  0
ARC
  5
16A
330
1F
100
AcDbEntity
  8
0
  6
CONTINUOUS
 62
     7
100
AcDbCircle
 10
135.6225184397776
 20
110.22
 30
0.0
 40
5.000000000000004
100
AcDbArc
 50
50.00000000000021
 51
90.0
  0
LINE
  5
16B
330
1F
100
AcDbEntity
  8
0
  6
CONTINUOUS
 62
     7
100
AcDbLine
 10
260.9800000000001
 20
615.67
 30
0.0
 11
257.9800000000001
 21
618.6700000000001
 31
0.0
  0
LINE
  5
16C
330
1F
100
AcDbEntity
  8
0
  6
CONTINUOUS
 62
     7
100
AcDbLine
 10
257.9800000000001
 20
208.8700000000001
 30
0.0
 11
257.9800000000001
 21
211.17
 31
0.0
  0
LINE
  5
16D
330
1F
100
AcDbEntity
  8
0
  6
CONTINUOUS
 62
     7
100
AcDbLine
 10
260.9800000000001
 20
211.17
 30
0.0
 11
260.9800000000001
 21
208.8700000000001
 31
0.0
  0
ARC
  5
16E
330
1F
100
AcDbEntity
  8
0
  6
CONTINUOUS
 62
     7
100
AcDbCircle
 10
-283.1800000000001
 20
258.47
 30
0.0
 40
5.000000000000004
210
0.0
220
0.0
230
-1.0
100
AcDbArc
 50
253.739795291687
 51
270.0
  0
LINE
  5
16F
330
1F
100
AcDbEntity
  8
0
  6
CONTINUOUS
 62
     7
100
AcDbLine
 10
-420.77
 20
115.22
 30
0.0
 11
-453.1625184397777
 21
115.22
 31
0.0
  0
LINE
  5
170
330
1F
100
AcDbEntity
  8
0
  6
CONTINUOUS
 62
     7
100
AcDbLine
 10
257.9800000000001
 20
663.47
 30
0.0
 11
257.9800000000001
 21
661.1700000000001
 31
0.0
  0
LINE
  5
171
330
1F
100
AcDbEntity
  8
0
  6
CONTINUOUS
 62
     7
100
AcDbLine
 10
247.4820134228191
 20
607.881409395973
 30
0.0
 11
248.68
 21
611.17
 31
0.0
  0
ARC
  5
172
330
1F
100
AcDbEntity
  8
0
  6
CONTINUOUS
 62
     7
100
AcDbCircle
 10
103.2299999999999
 20
109.42
 30
0.0
 40
5.800000000000027
100
AcDbArc
 50
90.0
 51
140.8832562204217
  0
LINE
  5
173
330
1F
100
AcDbEntity
  8
0
  6
CONTINUOUS
 62
     7
100
AcDbLine
 10
-144.3774815602225
 20
115.22
 30
0.0
 11
-176.77
 21
115.22
 31
0.0
  0
LINE
  5
174
330
1F
100
AcDbEntity
  8
0
  6
CONTINUOUS
 62
     7
100
AcDbLine
 10
260.9800000000001
 20
661.1700000000001
 30
0.0
 11
260.9800000000001
 21
663.47
 31
0.0
  0
ARC
  5
175
330
1F
100
AcDbEntity
  8
0
  6
CONTINUOUS
 62
     7
100
AcDbCircle
 10
-252.9800000000002
 20
623.17
 30
0.0
 40
4.300000000000082
210
0.0
220
0.0
230
-1.0
100
AcDbArc
 50
297.4597634033586
 51
0.0
  0
LINE
  5
176
330
1F
100
AcDbEntity
  8
0
  6
CONTINUOUS
 62
     7
100
AcDbLine
 10
247.4820134228191
 20
564.4585906040269
 30
0.0
 11
248.68
 21
561.1700000000001
 31
0.0
  0
LINE
  5
177
330
1F
100
AcDbEntity
  8
0
  6
CONTINUOUS
 62
     7
100
AcDbLine
 10
248.68
 20
561.1700000000002
 30
0.0
 11
250.9800000000001
 21
561.1700000000002
 31
0.0
  0
LINE
  5
178
330
1F
100
AcDbEntity
  8
0
  6
CONTINUOUS
 62
     7
100
AcDbLine
 10
248.68
 20
278.67
 30
0.0
 11
248.68
 21
271.17
 31
0.0
  0
LINE
  5
179
330
1F
100
AcDbEntity
  8
0
  6
CONTINUOUS
 62
     7
100
AcDbLine
 10
248.68
 20
261.1700000000001
 30
0.0
 11
248.68
 21
253.67
 31
0.0
  0
ARC
  5
17A
330
1F
100
AcDbEntity
  8
0
  6
CONTINUOUS
 62
     7
100
AcDbCircle
 10
252.9800000000002
 20
213.17
 30
0.0
 40
4.299999999999971
100
AcDbArc
 50
179.9999999999996
 51
270.0
  0
ARC
  5
17B
330
1F
100
AcDbEntity
  8
0
  6
CONTINUOUS
 62
     7
100
AcDbCircle
 10
252.9800000000002
 20
249.17
 30
0.0
 40
4.299999999999971
100
AcDbArc
 50
90.0
 51
180.0
  0
ARC
  5
17C
330
1F
100
AcDbEntity
  8
0
  6
CONTINUOUS
 62
     7
100
AcDbCircle
 10
-283.1800000000001
 20
613.8700000000001
 30
0.0
 40
7.299999999999973
210
0.0
220
0.0
230
-1.0
100
AcDbArc
 50
90.0
 51
120.3433362963148
  0
ARC
  5
17D
330
1F
100
AcDbEntity
  8
0
  6
CONTINUOUS
 62
     7
100
AcDbCircle
 10
252.9800000000002
 20
623.17
 30
0.0
 40
2.000000000000002
100
AcDbArc
 50
180.0
 51
270.0
  0
LINE
  5
17E
330
1F
100
AcDbEntity
  8
0
  6
CONTINUOUS
 62
     7
100
AcDbLine
 10
257.9800000000001
 20
593.6700000000002
 30
0.0
 11
260.98
 21
596.6700000000003
 31
0.0
  0
ARC
  5
17F
330
1F
100
AcDbEntity
  8
0
  6
CONTINUOUS
 62
     7
100
AcDbCircle
 10
-252.1800000000001
 20
606.1700000000001
 30
0.0
 40
5.000000000000004
210
0.0
220
0.0
230
-1.0
100
AcDbArc
 50
339.9840403971174
 51
20.01595960288256
  0
ARC
  5
180
330
1F
100
AcDbEntity
  8
0
  6
CONTINUOUS
 62
     7
100
AcDbCircle
 10
283.1800000000001
 20
258.47
 30
0.0
 40
7.299999999999973
100
AcDbArc
 50
270.0
 51
318.8879095608334
  0
ARC
  5
181
330
1F
100
AcDbEntity
  8
0
  6
CONTINUOUS
 62
     7
100
AcDbCircle
 10
252.9800000000002
 20
659.1700000000001
 30
0.0
 40
2.000000000000002
100
AcDbArc
 50
90.0
 51
180.0
  0
ARC
  5
182
330
1F
100
AcDbEntity
  8
0
  6
CONTINUOUS
 62
     7
100
AcDbCircle
 10
252.1800000000001
 20
566.1700000000003
 30
0.0
 40
5.000000000000004
100
AcDbArc
 50
159.9840403971175
 51
200.0159596028827
  0
LINE
  5
183
330
1F
100
AcDbEntity
  8
0
  6
CONTINUOUS
 62
     7
100
AcDbLine
 10
-176.77
 20
113.72
 30
0.0
 11
-140.77
 21
113.72
 31
0.0
  0
LINE
  5
184
330
1F
100
AcDbEntity
  8
0
  6
CONTINUOUS
 62
     7
100
AcDbLine
 10
247.4820134228191
 20
267.8814093959731
 30
0.0
 11
248.68
 21
271.1700000000001
 31
0.0
  0
LINE
  5
185
330
1F
100
AcDbEntity
  8
0
  6
CONTINUOUS
 62
     7
100
AcDbLine
 10
248.68
 20
571.1700000000002
 30
0.0
 11
248.68
 21
578.6700000000002
 31
0.0
  0
ARC
  5
186
330
1F
100
AcDbEntity
  8
0
  6
CONTINUOUS
 62
     7
100
AcDbCircle
 10
-252.9800000000002
 20
213.17
 30
0.0
 40
2.000000000000113
210
0.0
220
0.0
230
-1.0
100
AcDbArc
 50
270.0
 51
0.0
  0
LINE
  5
187
330
1F
100
AcDbEntity
  8
0
  6
CONTINUOUS
 62
     7
100
AcDbLine
 10
248.68
 20
659.1700000000001
 30
0.0
 11
248.349777784405
 21
658.7764564882104
 31
0.0
  0
LINE
  5
188
330
1F
100
AcDbEntity
  8
0
  6
CONTINUOUS
 62
     7
100
AcDbLine
 10
248.68
 20
249.17
 30
0.0
 11
248.68
 21
213.1700000000001
 31
0.0
  0
LINE
  5
189
330
1F
100
AcDbEntity
  8
0
  6
CONTINUOUS
 62
     7
100
AcDbLine
 10
248.68
 20
213.17
 30
0.0
 11
248.349777784405
 21
213.5635435117895
 31
0.0
  0
ARC
  5
18A
330
1F
100
AcDbEntity
  8
0
  6
CONTINUOUS
 62
     7
100
AcDbCircle
 10
140.77
 20
109.42
 30
0.0
 40
4.300000000000082
210
0.0
220
0.0
230
-1.0
100
AcDbArc
 50
89.99999999999977
 51
152.2822523103902
  0
LINE
  5
18B
330
1F
100
AcDbEntity
  8
0
  6
CONTINUOUS
 62
     7
100
AcDbLine
 10
248.68
 20
271.1700000000001
 30
0.0
 11
250.9800000000001
 21
271.1700000000001
 31
0.0
  0
LINE
  5
18C
330
1F
100
AcDbEntity
  8
0
  6
CONTINUOUS
 62
     7
100
AcDbLine
 10
257.9800000000001
 20
318.6700000000001
 30
0.0
 11
260.98
 21
315.6700000000001
 31
0.0
  0
LINE
  5
18D
330
1F
100
AcDbEntity
  8
0
  6
CONTINUOUS
 62
     7
100
AcDbLine
 10
260.9800000000001
 20
315.6700000000001
 30
0.0
 11
260.9800000000001
 21
296.6700000000001
 31
0.0
  0
LINE
  5
18E
330
1F
100
AcDbEntity
  8
0
  6
CONTINUOUS
 62
     7
100
AcDbLine
 10
247.4820134228191
 20
304.4585906040271
 30
0.0
 11
248.68
 21
301.1700000000001
 31
0.0
  0
LINE
  5
18F
330
1F
100
AcDbEntity
  8
0
  6
CONTINUOUS
 62
     7
100
AcDbLine
 10
250.9800000000001
 20
278.67
 30
0.0
 11
248.68
 21
278.67
 31
0.0
  0
LINE
  5
190
330
1F
100
AcDbEntity
  8
0
  6
CONTINUOUS
 62
     7
100
AcDbLine
 10
289.48
 20
292.17
 30
0.0
 11
289.48
 21
293.67
 31
0.0
  0
LINE
  5
191
330
1F
100
AcDbEntity
  8
0
  6
CONTINUOUS
 62
     7
100
AcDbLine
 10
73.73000000000008
 20
113.72
 30
0.0
 11
98.72999999999996
 21
113.72
 31
0.0
  0
LINE
  5
192
330
1F
100
AcDbEntity
  8
0
  6
CONTINUOUS
 62
     7
100
AcDbLine
 10
247.1800000000001
 20
655.5625184397775
 30
0.0
 11
247.1800000000001
 21
623.1699999999998
 31
0.0
  0
ARC
  5
193
330
1F
100
AcDbEntity
  8
0
  6
CONTINUOUS
 62
     7
100
AcDbCircle
 10
252.9800000000002
 20
249.17
 30
0.0
 40
5.799999999999916
100
AcDbArc
 50
110.1712713464649
 51
180.0
  0
LINE
  5
194
330
1F
100
AcDbEntity
  8
0
  6
CONTINUOUS
 62
     7
100
AcDbLine
 10
248.68
 20
593.6700000000002
 30
0.0
 11
257.9800000000001
 21
593.6700000000002
 31
0.0
  0
LINE
  5
195
330
1F
100
AcDbEntity
  8
0
  6
CONTINUOUS
 62
     7
100
AcDbLine
 10
252.9800000000002
 20
663.47
 30
0.0
 11
260.9800000000001
 21
663.47
 31
0.0
  0
LINE
  5
196
330
1F
100
AcDbEntity
  8
0
  6
CONTINUOUS
 62
     7
100
AcDbLine
 10
-461.07
 20
101.42
 30
0.0
 11
-461.07
 21
109.42
 31
0.0
  0
LINE
  5
197
330
1F
100
AcDbEntity
  8
0
  6
CONTINUOUS
 62
     7
100
AcDbLine
 10
143.53
 20
109.42
 30
0.0
 11
143.53
 21
101.42
 31
0.0
  0
LINE
  5
198
330
1F
100
AcDbEntity
  8
0
  6
CONTINUOUS
 62
     7
100
AcDbLine
 10
-376.27
 20
113.72
 30
0.0
 11
-376.27
 21
104.42
 31
0.0
  0
LINE
  5
199
330
1F
100
AcDbEntity
  8
0
  6
CONTINUOUS
 62
     7
100
AcDbLine
 10
-458.77
 20
72.91999999999999
 30
0.0
 11
-458.77
 21
109.42
 31
0.0
  0
ARC
  5
19A
330
1F
100
AcDbEntity
  8
0
  6
CONTINUOUS
 62
     7
100
AcDbCircle
 10
252.9800000000002
 20
623.17
 30
0.0
 40
5.799999999999916
100
AcDbArc
 50
180.0
 51
230.8832562204213
  0
LINE
  5
19B
330
1F
100
AcDbEntity
  8
0
  6
CONTINUOUS
 62
     7
100
AcDbLine
 10
248.68
 20
318.6700000000001
 30
0.0
 11
248.68
 21
293.6700000000001
 31
0.0
  0
ARC
  5
19C
330
1F
100
AcDbEntity
  8
0
  6
CONTINUOUS
 62
     7
100
AcDbCircle
 10
252.1800000000001
 20
655.5625184397775
 30
0.0
 40
5.000000000000004
100
AcDbArc
 50
140.0
 51
180.0
  0
LINE
  5
19D
330
1F
100
AcDbEntity
  8
0
  6
CONTINUOUS
 62
     7
100
AcDbLine
 10
252.9800000000002
 20
208.8700000000001
 30
0.0
 11
260.9800000000001
 21
208.8700000000001
 31
0.0
  0
LINE
  5
19E
330
1F
100
AcDbEntity
  8
0
  6
CONTINUOUS
 62
     7
100
AcDbLine
 10
248.68
 20
593.6700000000002
 30
0.0
 11
248.68
 21
618.6700000000002
 31
0.0
  0
LINE
  5
19F
330
1F
100
AcDbEntity
  8
0
  6
CONTINUOUS
 62
     7
100
AcDbLine
 10
98.72999999999998
 20
113.72
 30
0.0
 11
98.72999999999998
 21
104.42
 31
0.0
  0
LINE
  5
1A0
330
1F
100
AcDbEntity
  8
0
  6
CONTINUOUS
 62
     7
100
AcDbLine
 10
-351.2699999999999
 20
113.72
 30
0.0
 11
-376.27
 21
113.72
 31
0.0
  0
LINE
  5
1A1
330
1F
100
AcDbEntity
  8
0
  6
CONTINUOUS
 62
     7
100
AcDbLine
 10
-198.77
 20
293.67
 30
0.0
 11
-136.47
 21
293.67
 31
0.0
  0
LINE
  5
1A2
330
1F
100
AcDbEntity
  8
0
  6
CONTINUOUS
 62
     7
100
AcDbLine
 10
-198.7699999999999
 20
303.283248654052
 30
0.0
 11
-198.7699999999999
 21
309.0567513459481
 31
0.0
  0
LINE
  5
1A3
330
1F
100
AcDbEntity
  8
0
  6
CONTINUOUS
 62
     7
100
AcDbLine
 10
141.23
 20
253.67
 30
0.0
 11
101.2299999999999
 21
253.67
 31
0.0
  0
LINE
  5
1A4
330
1F
100
AcDbEntity
  8
0
  6
CONTINUOUS
 62
     7
100
AcDbLine
 10
73.73000000000008
 20
271.1700000000001
 30
0.0
 11
73.73000000000008
 21
208.8700000000001
 31
0.0
  0
LINE
  5
1A5
330
1F
100
AcDbEntity
  8
0
  6
CONTINUOUS
 62
     7
100
AcDbLine
 10
290.9800000000001
 20
253.67
 30
0.0
 11
250.9800000000001
 21
253.67
 31
0.0
  0
LINE
  5
1A6
330
1F
100
AcDbEntity
  8
0
  6
CONTINUOUS
 62
     7
100
AcDbLine
 10
-198.7699999999999
 20
593.6700000000002
 30
0.0
 11
-136.47
 21
593.6700000000002
 31
0.0
  0
LINE
  5
1A7
330
1F
100
AcDbEntity
  8
0
  6
CONTINUOUS
 62
     7
100
AcDbLine
 10
-188.7699999999999
 20
303.283248654052
 30
0.0
 11
-193.7699999999999
 21
300.396497308104
 31
0.0
  0
LINE
  5
1A8
330
1F
100
AcDbEntity
  8
0
  6
CONTINUOUS
 62
     7
100
AcDbLine
 10
290.9800000000001
 20
618.6700000000001
 30
0.0
 11
248.68
 21
618.6700000000001
 31
0.0
  0
LINE
  5
1A9
330
1F
100
AcDbEntity
  8
0
  6
CONTINUOUS
 62
     7
100
AcDbLine
 10
91.23000000000003
 20
215.349776752987
 30
0.0
 11
91.23000000000003
 21
253.47
 31
0.0
  0
LINE
  5
1AA
330
1F
100
AcDbEntity
  8
0
  6
CONTINUOUS
 62
     7
100
AcDbLine
 10
-142.9497767529869
 20
611.17
 30
0.0
 11
-181.07
 21
611.17
 31
0.0
  0
LINE
  5
1AB
330
1F
100
AcDbEntity
  8
0
  6
CONTINUOUS
 62
     7
100
AcDbLine
 10
-142.9497767529869
 20
311.17
 30
0.0
 11
-181.07
 21
311.17
 31
0.0
  0
LINE
  5
1AC
330
1F
100
AcDbEntity
  8
0
  6
CONTINUOUS
 62
     7
100
AcDbLine
 10
-193.7699999999999
 20
311.943502691896
 30
0.0
 11
-188.7699999999999
 21
309.056751345948
 31
0.0
  0
LINE
  5
1AD
330
1F
100
AcDbEntity
  8
0
  6
CONTINUOUS
 62
     7
100
AcDbLine
 10
-193.7699999999999
 20
300.3964973081041
 30
0.0
 11
-198.7699999999999
 21
303.2832486540521
 31
0.0
  0
LINE
  5
1AE
330
1F
100
AcDbEntity
  8
0
  6
CONTINUOUS
 62
     7
100
AcDbLine
 10
81.23000000000002
 20
215.3497767529869
 30
0.0
 11
81.23000000000002
 21
253.47
 31
0.0
  0
LINE
  5
1AF
330
1F
100
AcDbEntity
  8
0
  6
CONTINUOUS
 62
     7
100
AcDbLine
 10
89.11675134594809
 20
261.1700000000002
 30
0.0
 11
92.00350269189647
 21
266.17
 31
0.0
  0
LINE
  5
1B0
330
1F
100
AcDbEntity
  8
0
  6
CONTINUOUS
 62
     7
100
AcDbLine
 10
92.0035026918965
 20
266.1700000000001
 30
0.0
 11
89.11675134594812
 21
271.1700000000001
 31
0.0
  0
LINE
  5
1B1
330
1F
100
AcDbEntity
  8
0
  6
CONTINUOUS
 62
     7
100
AcDbLine
 10
83.34324865405196
 20
261.1700000000001
 30
0.0
 11
89.11675134594815
 21
261.1700000000001
 31
0.0
  0
LINE
  5
1B2
330
1F
100
AcDbEntity
  8
0
  6
CONTINUOUS
 62
     7
100
AcDbLine
 10
80.456497308104
 20
266.1700000000001
 30
0.0
 11
83.34324865405196
 21
261.1700000000001
 31
0.0
  0
LINE
  5
1B3
330
1F
100
AcDbEntity
  8
0
  6
CONTINUOUS
 62
     7
100
AcDbLine
 10
-193.7699999999999
 20
611.9435026918967
 30
0.0
 11
-198.7699999999997
 21
609.0567513459475
 31
0.0
  0
LINE
  5
1B4
330
1F
100
AcDbEntity
  8
0
  6
CONTINUOUS
 62
     7
100
AcDbLine
 10
89.11675134594809
 20
271.1700000000001
 30
0.0
 11
83.3432486540519
 21
271.1700000000001
 31
0.0
  0
LINE
  5
1B5
330
1F
100
AcDbEntity
  8
0
  6
CONTINUOUS
 62
     7
100
AcDbLine
 10
-142.9497767529869
 20
601.17
 30
0.0
 11
-181.07
 21
601.17
 31
0.0
  0
LINE
  5
1B6
330
1F
100
AcDbEntity
  8
0
  6
CONTINUOUS
 62
     7
100
AcDbLine
 10
83.34324865405263
 20
271.1700000000001
 30
0.0
 11
80.45649730810342
 21
266.1700000000001
 31
0.0
  0
LINE
  5
1B7
330
1F
100
AcDbEntity
  8
0
  6
CONTINUOUS
 62
     7
100
AcDbLine
 10
-398.77
 20
578.6700000000002
 30
0.0
 11
-461.07
 21
578.6700000000002
 31
0.0
  0
LINE
  5
1B8
330
1F
100
AcDbEntity
  8
0
  6
CONTINUOUS
 62
     7
100
AcDbLine
 10
-398.77
 20
553.6700000000001
 30
0.0
 11
-461.07
 21
553.6700000000001
 31
0.0
  0
LINE
  5
1B9
330
1F
100
AcDbEntity
  8
0
  6
CONTINUOUS
 62
     7
100
AcDbLine
 10
-454.590223247013
 20
571.1700000000002
 30
0.0
 11
-416.47
 21
571.1700000000002
 31
0.0
  0
LINE
  5
1BA
330
1F
100
AcDbEntity
  8
0
  6
CONTINUOUS
 62
     7
100
AcDbLine
 10
-454.590223247013
 20
561.1700000000002
 30
0.0
 11
-416.47
 21
561.1700000000002
 31
0.0
  0
LINE
  5
1BB
330
1F
100
AcDbEntity
  8
0
  6
CONTINUOUS
 62
     7
100
AcDbLine
 10
-408.77
 20
569.0567513459481
 30
0.0
 11
-403.7699999999998
 21
571.9435026918961
 31
0.0
  0
LINE
  5
1BC
330
1F
100
AcDbEntity
  8
0
  6
CONTINUOUS
 62
     7
100
AcDbLine
 10
-408.77
 20
563.2832486540519
 30
0.0
 11
-408.77
 21
569.056751345948
 31
0.0
  0
LINE
  5
1BD
330
1F
100
AcDbEntity
  8
0
  6
CONTINUOUS
 62
     7
100
AcDbLine
 10
289.48
 20
252.17
 30
0.0
 11
289.48
 21
253.67
 31
0.0
  0
LINE
  5
1BE
330
1F
100
AcDbEntity
  8
0
  6
CONTINUOUS
 62
     7
100
AcDbLine
 10
248.68
 20
318.6700000000001
 30
0.0
 11
257.9800000000001
 21
318.6700000000001
 31
0.0
  0
LINE
  5
1BF
330
1F
100
AcDbEntity
  8
0
  6
CONTINUOUS
 62
     7
100
AcDbLine
 10
73.73000000000008
 20
113.72
 30
0.0
 11
73.73000000000008
 21
104.42
 31
0.0
  0
LINE
  5
1C0
330
1F
100
AcDbEntity
  8
0
  6
CONTINUOUS
 62
     7
100
AcDbLine
 10
-142.9497767529869
 20
301.1700000000001
 30
0.0
 11
-181.07
 21
301.1700000000001
 31
0.0
  0
LINE
  5
1C1
330
1F
100
AcDbEntity
  8
0
  6
CONTINUOUS
 62
     7
100
AcDbLine
 10
-198.7699999999999
 20
618.6700000000001
 30
0.0
 11
-136.47
 21
618.6700000000001
 31
0.0
  0
LINE
  5
1C2
330
1F
100
AcDbEntity
  8
0
  6
CONTINUOUS
 62
     7
100
AcDbLine
 10
-198.7699999999999
 20
603.283248654052
 30
0.0
 11
-193.7699999999997
 21
600.396497308104
 31
0.0
  0
LINE
  5
1C3
330
1F
100
AcDbEntity
  8
0
  6
CONTINUOUS
 62
     7
100
AcDbLine
 10
-351.2699999999999
 20
113.72
 30
0.0
 11
-351.2699999999999
 21
104.42
 31
0.0
  0
LINE
  5
1C4
330
1F
100
AcDbEntity
  8
0
  6
CONTINUOUS
 62
     7
100
AcDbLine
 10
-198.7699999999999
 20
609.056751345948
 30
0.0
 11
-198.7699999999999
 21
603.2832486540519
 31
0.0
  0
LINE
  5
1C5
330
1F
100
AcDbEntity
  8
0
  6
CONTINUOUS
 62
     7
100
AcDbLine
 10
-188.7699999999999
 20
609.056751345948
 30
0.0
 11
-193.7700000000001
 21
611.9435026918966
 31
0.0
  0
LINE
  5
1C6
330
1F
100
AcDbEntity
  8
0
  6
CONTINUOUS
 62
     7
100
AcDbLine
 10
-198.77
 20
318.6700000000001
 30
0.0
 11
-136.47
 21
318.6700000000001
 31
0.0
  0
LINE
  5
1C7
330
1F
100
AcDbEntity
  8
0
  6
CONTINUOUS
 62
     7
100
AcDbLine
 10
-193.7700000000001
 20
600.3964973081039
 30
0.0
 11
-188.7699999999999
 21
603.2832486540519
 31
0.0
  0
LINE
  5
1C8
330
1F
100
AcDbEntity
  8
0
  6
CONTINUOUS
 62
     7
100
AcDbLine
 10
-188.7699999999999
 20
603.283248654052
 30
0.0
 11
-188.7699999999999
 21
609.056751345948
 31
0.0
  0
LINE
  5
1C9
330
1F
100
AcDbEntity
  8
0
  6
CONTINUOUS
 62
     7
100
AcDbLine
 10
-188.7699999999999
 20
309.056751345948
 30
0.0
 11
-188.7699999999999
 21
303.283248654052
 31
0.0
  0
LINE
  5
1CA
330
1F
100
AcDbEntity
  8
0
  6
CONTINUOUS
 62
     7
100
AcDbLine
 10
-198.7699999999999
 20
309.056751345948
 30
0.0
 11
-193.7699999999999
 21
311.943502691896
 31
0.0
  0
LINE
  5
1CB
330
1F
100
AcDbEntity
  8
0
  6
CONTINUOUS
 62
     7
100
AcDbLine
 10
-418.7699999999999
 20
618.6700000000001
 30
0.0
 11
-458.77
 21
618.6700000000001
 31
0.0
  0
LINE
  5
1CC
330
1F
100
AcDbEntity
  8
0
  6
CONTINUOUS
 62
     7
100
AcDbLine
 10
98.72999999999998
 20
271.1700000000001
 30
0.0
 11
98.72999999999998
 21
208.8700000000001
 31
0.0
  0
LINE
  5
1CD
330
1F
100
AcDbEntity
  8
0
  6
CONTINUOUS
 62
     7
100
AcDbLine
 10
247.1800000000001
 20
249.17
 30
0.0
 11
247.1800000000001
 21
216.7774815602224
 31
0.0
  0
ARC
  5
1CE
330
1F
100
AcDbEntity
  8
0
  6
CONTINUOUS
 62
     7
100
AcDbCircle
 10
252.1800000000001
 20
216.7774815602224
 30
0.0
 40
5.000000000000004
100
AcDbArc
 50
180.0
 51
220.0000000000002
  0
LINE
  5
1CF
330
1F
100
AcDbEntity
  8
0
  6
CONTINUOUS
 62
     7
100
AcDbLine
 10
248.68
 20
293.67
 30
0.0
 11
289.48
 21
293.67
 31
0.0
  0
LINE
  5
1D0
330
1F
100
AcDbEntity
  8
0
  6
CONTINUOUS
 62
     7
100
AcDbLine
 10
-358.7699999999999
 20
215.3497767529869
 30
0.0
 11
-358.7699999999999
 21
253.47
 31
0.0
  0
LINE
  5
1D1
330
1F
100
AcDbEntity
  8
0
  6
CONTINUOUS
 62
     7
100
AcDbLine
 10
81.23000000000002
 20
303.283248654052
 30
0.0
 11
81.23000000000002
 21
309.0567513459481
 31
0.0
  0
LINE
  5
1D2
330
1F
100
AcDbEntity
  8
0
  6
CONTINUOUS
 62
     7
100
AcDbLine
 10
-398.77
 20
656.9902232470131
 30
0.0
 11
-398.77
 21
618.8700000000001
 31
0.0
  0
LINE
  5
1D3
330
1F
100
AcDbEntity
  8
0
  6
CONTINUOUS
 62
     7
100
AcDbLine
 10
-406.6567513459481
 20
601.17
 30
0.0
 11
-400.8832486540518
 21
601.17
 31
0.0
  0
LINE
  5
1D4
330
1F
100
AcDbEntity
  8
0
  6
CONTINUOUS
 62
     7
100
AcDbLine
 10
-454.590223247013
 20
261.1700000000001
 30
0.0
 11
-416.47
 21
261.1700000000001
 31
0.0
  0
LINE
  5
1D5
330
1F
100
AcDbEntity
  8
0
  6
CONTINUOUS
 62
     7
100
AcDbLine
 10
-398.77
 20
263.2832486540521
 30
0.0
 11
-398.77
 21
269.0567513459481
 31
0.0
  0
LINE
  5
1D6
330
1F
100
AcDbEntity
  8
0
  6
CONTINUOUS
 62
     7
100
AcDbLine
 10
81.23000000000002
 20
593.6700000000002
 30
0.0
 11
143.53
 21
593.6700000000002
 31
0.0
  0
LINE
  5
1D7
330
1F
100
AcDbEntity
  8
0
  6
CONTINUOUS
 62
     7
100
AcDbLine
 10
91.23000000000003
 20
609.056751345948
 30
0.0
 11
86.23000000000003
 21
611.9435026918966
 31
0.0
  0
LINE
  5
1D8
330
1F
100
AcDbEntity
  8
0
  6
CONTINUOUS
 62
     7
100
AcDbLine
 10
137.050223247013
 20
611.17
 30
0.0
 11
98.93000000000009
 21
611.17
 31
0.0
  0
LINE
  5
1D9
330
1F
100
AcDbEntity
  8
0
  6
CONTINUOUS
 62
     7
100
AcDbLine
 10
81.23000000000002
 20
309.056751345948
 30
0.0
 11
86.23000000000003
 21
311.943502691896
 31
0.0
  0
LINE
  5
1DA
330
1F
100
AcDbEntity
  8
0
  6
CONTINUOUS
 62
     7
100
AcDbLine
 10
-376.27
 20
271.1700000000001
 30
0.0
 11
-376.27
 21
208.8700000000001
 31
0.0
  0
LINE
  5
1DB
330
1F
100
AcDbEntity
  8
0
  6
CONTINUOUS
 62
     7
100
AcDbLine
 10
137.050223247013
 20
601.17
 30
0.0
 11
98.93000000000009
 21
601.17
 31
0.0
  0
LINE
  5
1DC
330
1F
100
AcDbEntity
  8
0
  6
CONTINUOUS
 62
     7
100
AcDbLine
 10
-403.77
 20
560.3964973081039
 30
0.0
 11
-408.77
 21
563.2832486540519
 31
0.0
  0
LINE
  5
1DD
330
1F
100
AcDbEntity
  8
0
  6
CONTINUOUS
 62
     7
100
AcDbLine
 10
81.23000000000002
 20
293.67
 30
0.0
 11
143.53
 21
293.67
 31
0.0
  0
LINE
  5
1DE
330
1F
100
AcDbEntity
  8
0
  6
CONTINUOUS
 62
     7
100
AcDbLine
 10
86.23000000000003
 20
300.3964973081041
 30
0.0
 11
81.23000000000002
 21
303.2832486540521
 31
0.0
  0
LINE
  5
1DF
330
1F
100
AcDbEntity
  8
0
  6
CONTINUOUS
 62
     7
100
AcDbLine
 10
-408.77
 20
656.9902232470131
 30
0.0
 11
-408.77
 21
618.8700000000001
 31
0.0
  0
LINE
  5
1E0
330
1F
100
AcDbEntity
  8
0
  6
CONTINUOUS
 62
     7
100
AcDbLine
 10
86.23000000000003
 20
600.3964973081039
 30
0.0
 11
91.23000000000003
 21
603.2832486540519
 31
0.0
  0
LINE
  5
1E1
330
1F
100
AcDbEntity
  8
0
  6
CONTINUOUS
 62
     7
100
AcDbLine
 10
-403.77
 20
260.3964973081038
 30
0.0
 11
-398.7699999999999
 21
263.283248654052
 31
0.0
  0
LINE
  5
1E2
330
1F
100
AcDbEntity
  8
0
  6
CONTINUOUS
 62
     7
100
AcDbLine
 10
-368.77
 20
215.349776752987
 30
0.0
 11
-368.77
 21
253.47
 31
0.0
  0
LINE
  5
1E3
330
1F
100
AcDbEntity
  8
0
  6
CONTINUOUS
 62
     7
100
AcDbLine
 10
-400.8832486540519
 20
601.17
 30
0.0
 11
-397.9964973081036
 21
606.17
 31
0.0
  0
LINE
  5
1E4
330
1F
100
AcDbEntity
  8
0
  6
CONTINUOUS
 62
     7
100
AcDbLine
 10
41.22999999999999
 20
656.9902232470131
 30
0.0
 11
41.22999999999999
 21
618.8700000000001
 31
0.0
  0
LINE
  5
1E5
330
1F
100
AcDbEntity
  8
0
  6
CONTINUOUS
 62
     7
100
AcDbLine
 10
81.23000000000002
 20
318.6700000000001
 30
0.0
 11
143.53
 21
318.6700000000001
 31
0.0
  0
LINE
  5
1E6
330
1F
100
AcDbEntity
  8
0
  6
CONTINUOUS
 62
     7
100
AcDbLine
 10
-398.7700000000003
 20
269.0567513459476
 30
0.0
 11
-403.77
 21
271.9435026918966
 31
0.0
  0
LINE
  5
1E7
330
1F
100
AcDbEntity
  8
0
  6
CONTINUOUS
 62
     7
100
AcDbLine
 10
-398.77
 20
569.0567513459481
 30
0.0
 11
-398.77
 21
563.283248654052
 31
0.0
  0
LINE
  5
1E8
330
1F
100
AcDbEntity
  8
0
  6
CONTINUOUS
 62
     7
100
AcDbLine
 10
-403.77
 20
571.9435026918966
 30
0.0
 11
-398.7700000000002
 21
569.0567513459475
 31
0.0
  0
LINE
  5
1E9
330
1F
100
AcDbEntity
  8
0
  6
CONTINUOUS
 62
     7
100
AcDbLine
 10
91.23000000000003
 20
303.283248654052
 30
0.0
 11
86.23000000000003
 21
300.396497308104
 31
0.0
  0
LINE
  5
1EA
330
1F
100
AcDbEntity
  8
0
  6
CONTINUOUS
 62
     7
100
AcDbLine
 10
-418.77
 20
619.17
 30
0.0
 11
-418.77
 21
578.6700000000001
 31
0.0
  0
LINE
  5
1EB
330
1F
100
AcDbEntity
  8
0
  6
CONTINUOUS
 62
     7
100
AcDbLine
 10
-357.9964973081037
 20
266.1700000000001
 30
0.0
 11
-360.8832486540518
 21
261.1700000000001
 31
0.0
  0
LINE
  5
1EC
330
1F
100
AcDbEntity
  8
0
  6
CONTINUOUS
 62
     7
100
AcDbLine
 10
91.23000000000003
 20
603.283248654052
 30
0.0
 11
91.23000000000003
 21
609.056751345948
 31
0.0
  0
LINE
  5
1ED
330
1F
100
AcDbEntity
  8
0
  6
CONTINUOUS
 62
     7
100
AcDbLine
 10
81.23000000000002
 20
603.283248654052
 30
0.0
 11
86.23000000000003
 21
600.3964973081036
 31
0.0
  0
LINE
  5
1EE
330
1F
100
AcDbEntity
  8
0
  6
CONTINUOUS
 62
     7
100
AcDbLine
 10
-458.77
 20
653.17
 30
0.0
 11
-458.77
 21
578.6700000000002
 31
0.0
  0
LINE
  5
1EF
330
1F
100
AcDbEntity
  8
0
  6
CONTINUOUS
 62
     7
100
AcDbLine
 10
-398.77
 20
563.2832486540519
 30
0.0
 11
-403.77
 21
560.3964973081039
 31
0.0
  0
LINE
  5
1F0
330
1F
100
AcDbEntity
  8
0
  6
CONTINUOUS
 62
     7
100
AcDbLine
 10
-366.6567513459482
 20
261.1700000000001
 30
0.0
 11
-369.5435026918962
 21
266.1700000000001
 31
0.0
  0
LINE
  5
1F1
330
1F
100
AcDbEntity
  8
0
  6
CONTINUOUS
 62
     7
100
AcDbLine
 10
-369.5435026918962
 20
266.1700000000001
 30
0.0
 11
-366.6567513459482
 21
271.1700000000001
 31
0.0
  0
LINE
  5
1F2
330
1F
100
AcDbEntity
  8
0
  6
CONTINUOUS
 62
     7
100
AcDbLine
 10
-416.27
 20
601.17
 30
0.0
 11
-416.27
 21
663.47
 31
0.0
  0
LINE
  5
1F3
330
1F
100
AcDbEntity
  8
0
  6
CONTINUOUS
 62
     7
100
AcDbLine
 10
-397.9964973081036
 20
606.1700000000001
 30
0.0
 11
-400.8832486540519
 21
611.1700000000001
 31
0.0
  0
LINE
  5
1F4
330
1F
100
AcDbEntity
  8
0
  6
CONTINUOUS
 62
     7
100
AcDbLine
 10
-409.5435026918962
 20
606.1700000000001
 30
0.0
 11
-406.6567513459481
 21
601.1700000000001
 31
0.0
  0
LINE
  5
1F5
330
1F
100
AcDbEntity
  8
0
  6
CONTINUOUS
 62
     7
100
AcDbLine
 10
-398.77
 20
278.67
 30
0.0
 11
-461.07
 21
278.67
 31
0.0
  0
LINE
  5
1F6
330
1F
100
AcDbEntity
  8
0
  6
CONTINUOUS
 62
     7
100
AcDbLine
 10
-408.77
 20
269.056751345948
 30
0.0
 11
-408.77
 21
263.283248654052
 31
0.0
  0
LINE
  5
1F7
330
1F
100
AcDbEntity
  8
0
  6
CONTINUOUS
 62
     7
100
AcDbLine
 10
137.050223247013
 20
311.17
 30
0.0
 11
98.93000000000009
 21
311.17
 31
0.0
  0
LINE
  5
1F8
330
1F
100
AcDbEntity
  8
0
  6
CONTINUOUS
 62
     7
100
AcDbLine
 10
-454.590223247013
 20
271.1700000000001
 30
0.0
 11
-416.47
 21
271.1700000000001
 31
0.0
  0
LINE
  5
1F9
330
1F
100
AcDbEntity
  8
0
  6
CONTINUOUS
 62
     7
100
AcDbLine
 10
-351.2699999999999
 20
271.1700000000001
 30
0.0
 11
-351.2699999999999
 21
208.8700000000001
 31
0.0
  0
LINE
  5
1FA
330
1F
100
AcDbEntity
  8
0
  6
CONTINUOUS
 62
     7
100
AcDbLine
 10
-391.27
 20
601.17
 30
0.0
 11
-391.27
 21
663.47
 31
0.0
  0
LINE
  5
1FB
330
1F
100
AcDbEntity
  8
0
  6
CONTINUOUS
 62
     7
100
AcDbLine
 10
-403.77
 20
271.9435026918965
 30
0.0
 11
-408.7699999999998
 21
269.0567513459475
 31
0.0
  0
LINE
  5
1FC
330
1F
100
AcDbEntity
  8
0
  6
CONTINUOUS
 62
     7
100
AcDbLine
 10
-406.6567513459481
 20
611.17
 30
0.0
 11
-409.5435026918962
 21
606.17
 31
0.0
  0
LINE
  5
1FD
330
1F
100
AcDbEntity
  8
0
  6
CONTINUOUS
 62
     7
100
AcDbLine
 10
-400.8832486540518
 20
611.17
 30
0.0
 11
-406.6567513459481
 21
611.17
 31
0.0
  0
LINE
  5
1FE
330
1F
100
AcDbEntity
  8
0
  6
CONTINUOUS
 62
     7
100
AcDbLine
 10
86.23000000000003
 20
611.9435026918967
 30
0.0
 11
81.23000000000002
 21
609.056751345948
 31
0.0
  0
LINE
  5
1FF
330
1F
100
AcDbEntity
  8
0
  6
CONTINUOUS
 62
     7
100
AcDbLine
 10
91.23000000000003
 20
309.056751345948
 30
0.0
 11
91.23000000000003
 21
303.283248654052
 31
0.0
  0
LINE
  5
200
330
1F
100
AcDbEntity
  8
0
  6
CONTINUOUS
 62
     7
100
AcDbLine
 10
-360.8832486540518
 20
261.1700000000001
 30
0.0
 11
-366.6567513459482
 21
261.1700000000001
 31
0.0
  0
LINE
  5
201
330
1F
100
AcDbEntity
  8
0
  6
CONTINUOUS
 62
     7
100
AcDbLine
 10
-360.8832486540518
 20
271.1700000000001
 30
0.0
 11
-357.9964973081038
 21
266.1700000000001
 31
0.0
  0
LINE
  5
202
330
1F
100
AcDbEntity
  8
0
  6
CONTINUOUS
 62
     7
100
AcDbLine
 10
58.73000000000006
 20
601.17
 30
0.0
 11
58.73000000000006
 21
663.47
 31
0.0
  0
LINE
  5
203
330
1F
100
AcDbEntity
  8
0
  6
CONTINUOUS
 62
     7
100
AcDbLine
 10
33.73000000000004
 20
601.17
 30
0.0
 11
33.73000000000004
 21
663.47
 31
0.0
  0
LINE
  5
204
330
1F
100
AcDbEntity
  8
0
  6
CONTINUOUS
 62
     7
100
AcDbLine
 10
-457.77
 20
620.1700000000001
 30
0.0
 11
-419.77
 21
620.1700000000001
 31
0.0
  0
LINE
  5
205
330
1F
100
AcDbEntity
  8
0
  6
CONTINUOUS
 62
     7
100
AcDbLine
 10
51.23
 20
656.9902232470131
 30
0.0
 11
51.23
 21
618.8700000000001
 31
0.0
  0
LINE
  5
206
330
1F
100
AcDbEntity
  8
0
  6
CONTINUOUS
 62
     7
100
AcDbLine
 10
-398.77
 20
253.67
 30
0.0
 11
-461.07
 21
253.67
 31
0.0
  0
LINE
  5
207
330
1F
100
AcDbEntity
  8
0
  6
CONTINUOUS
 62
     7
100
AcDbLine
 10
-408.7700000000001
 20
263.2832486540521
 30
0.0
 11
-403.77
 21
260.3964973081038
 31
0.0
  0
LINE
  5
208
330
1F
100
AcDbEntity
  8
0
  6
CONTINUOUS
 62
     7
100
AcDbLine
 10
81.23000000000002
 20
618.6700000000001
 30
0.0
 11
143.53
 21
618.6700000000001
 31
0.0
  0
LINE
  5
209
330
1F
100
AcDbEntity
  8
0
  6
CONTINUOUS
 62
     7
100
AcDbLine
 10
49.11675134594806
 20
611.17
 30
0.0
 11
52.00350269189602
 21
606.17
 31
0.0
  0
LINE
  5
20A
330
1F
100
AcDbEntity
  8
0
  6
CONTINUOUS
 62
     7
100
AcDbLine
 10
43.34324865405203
 20
611.17
 30
0.0
 11
49.11675134594809
 21
611.17
 31
0.0
  0
LINE
  5
20B
330
1F
100
AcDbEntity
  8
0
  6
CONTINUOUS
 62
     7
100
AcDbLine
 10
137.050223247013
 20
301.1700000000001
 30
0.0
 11
98.93000000000009
 21
301.1700000000001
 31
0.0
  0
LINE
  5
20C
330
1F
100
AcDbEntity
  8
0
  6
CONTINUOUS
 62
     7
100
AcDbLine
 10
81.23000000000002
 20
609.056751345948
 30
0.0
 11
81.23000000000002
 21
603.2832486540519
 31
0.0
  0
LINE
  5
20D
330
1F
100
AcDbEntity
  8
0
  6
CONTINUOUS
 62
     7
100
AcDbLine
 10
-366.6567513459482
 20
271.1700000000001
 30
0.0
 11
-360.8832486540518
 21
271.1700000000001
 31
0.0
  0
LINE
  5
20E
330
1F
100
AcDbEntity
  8
0
  6
CONTINUOUS
 62
     7
100
AcDbLine
 10
43.34324865405259
 20
601.1700000000004
 30
0.0
 11
40.45649730810338
 21
606.17
 31
0.0
  0
LINE
  5
20F
330
1F
100
AcDbEntity
  8
0
  6
CONTINUOUS
 62
     7
100
AcDbLine
 10
86.23000000000003
 20
311.943502691896
 30
0.0
 11
91.23000000000003
 21
309.056751345948
 31
0.0
  0
LINE
  5
210
330
1F
100
AcDbEntity
  8
0
  6
CONTINUOUS
 62
     7
100
AcDbLine
 10
250.9800000000001
 20
213.6700000000001
 30
0.0
 11
250.9800000000001
 21
248.6700000000001
 31
0.0
  0
LINE
  5
211
330
1F
100
AcDbEntity
  8
0
  6
CONTINUOUS
 62
     7
100
AcDbLine
 10
289.48
 20
251.17
 30
0.0
 11
289.48
 21
211.17
 31
0.0
  0
LINE
  5
212
330
1F
100
AcDbEntity
  8
0
  6
CONTINUOUS
 62
     7
100
AcDbLine
 10
-456.2699999999999
 20
71.42000000000004
 30
0.0
 11
-456.2699999999999
 21
111.42
 31
0.0
  0
LINE
  5
213
330
1F
100
AcDbEntity
  8
0
  6
CONTINUOUS
 62
     7
100
AcDbLine
 10
294.98
 20
546.1700000000003
 30
0.0
 11
298.9800000000001
 21
546.1700000000003
 31
0.0
  0
LINE
  5
214
330
1F
100
AcDbEntity
  8
0
  6
CONTINUOUS
 62
     7
100
AcDbLine
 10
-298.7699999999999
 20
63.41999999999997
 30
0.0
 11
-298.7699999999999
 21
67.42000000000002
 31
0.0
  0
LINE
  5
215
330
1F
100
AcDbEntity
  8
0
  6
CONTINUOUS
 62
     7
100
AcDbLine
 10
-18.77000000000006
 20
67.41999999999997
 30
0.0
 11
-18.77000000000006
 21
63.41999999999993
 31
0.0
  0
LINE
  5
216
330
1F
100
AcDbEntity
  8
0
  6
CONTINUOUS
 62
     7
100
AcDbLine
 10
289.48
 20
620.1700000000001
 30
0.0
 11
251.9799999999999
 21
620.1700000000001
 31
0.0
  0
LINE
  5
217
330
1F
100
AcDbEntity
  8
0
  6
CONTINUOUS
 62
     7
100
AcDbLine
 10
-138.77
 20
253.67
 30
0.0
 11
-178.77
 21
253.67
 31
0.0
  0
LINE
  5
218
330
1F
100
AcDbEntity
  8
0
  6
CONTINUOUS
 62
     7
100
AcDbLine
 10
289.48
 20
661.1700000000001
 30
0.0
 11
253.48
 21
661.1700000000001
 31
0.0
  0
LINE
  5
219
330
1F
100
AcDbEntity
  8
0
  6
CONTINUOUS
 62
     7
100
AcDbLine
 10
289.48
 20
621.17
 30
0.0
 11
289.48
 21
661.1700000000001
 31
0.0
  0
LINE
  5
21A
330
1F
100
AcDbEntity
  8
0
  6
CONTINUOUS
 62
     7
100
AcDbLine
 10
302.98
 20
319.1700000000001
 30
0.0
 11
298.98
 21
319.1700000000001
 31
0.0
  0
LINE
  5
21B
330
1F
100
AcDbEntity
  8
0
  6
CONTINUOUS
 62
     7
100
AcDbLine
 10
-456.7699999999999
 20
621.17
 30
0.0
 11
-416.27
 21
621.17
 31
0.0
  0
LINE
  5
21C
330
1F
100
AcDbEntity
  8
0
  6
CONTINUOUS
 62
     7
100
AcDbLine
 10
253.4800000000001
 20
621.17
 30
0.0
 11
289.4800000000001
 21
621.17
 31
0.0
  0
LINE
  5
21D
330
1F
100
AcDbEntity
  8
0
  6
CONTINUOUS
 62
     7
100
AcDbLine
 10
-58.76999999999999
 20
63.41999999999997
 30
0.0
 11
-58.76999999999999
 21
67.42000000000002
 31
0.0
  0
LINE
  5
21E
330
1F
100
AcDbEntity
  8
0
  6
CONTINUOUS
 62
     7
100
AcDbLine
 10
289.48
 20
620.1700000000001
 30
0.0
 11
289.48
 21
618.6700000000002
 31
0.0
  0
LINE
  5
21F
330
1F
100
AcDbEntity
  8
0
  6
CONTINUOUS
 62
     7
100
AcDbLine
 10
302.98
 20
661.1700000000001
 30
0.0
 11
302.98
 21
181.1700000000002
 31
0.0
  0
LINE
  5
220
330
1F
100
AcDbEntity
  8
0
  6
CONTINUOUS
 62
     7
100
AcDbLine
 10
-258.7699999999999
 20
67.41999999999997
 30
0.0
 11
-258.7699999999999
 21
63.41999999999993
 31
0.0
  0
LINE
  5
221
330
1F
100
AcDbEntity
  8
0
  6
CONTINUOUS
 62
     7
100
AcDbLine
 10
-11.76999999999995
 20
63.41999999999997
 30
0.0
 11
-65.76999999999997
 21
63.41999999999997
 31
0.0
  0
LINE
  5
222
330
1F
100
AcDbEntity
  8
0
  6
CONTINUOUS
 62
     7
100
AcDbLine
 10
298.98
 20
506.1700000000002
 30
0.0
 11
294.9799999999999
 21
506.1700000000002
 31
0.0
  0
LINE
  5
223
330
1F
100
AcDbEntity
  8
0
  6
CONTINUOUS
 62
     7
100
AcDbLine
 10
58.73000000000006
 20
621.17
 30
0.0
 11
139.2300000000001
 21
621.17
 31
0.0
  0
LINE
  5
224
330
1F
100
AcDbEntity
  8
0
  6
CONTINUOUS
 62
     7
100
AcDbLine
 10
138.73
 20
211.1700000000001
 30
0.0
 11
138.73
 21
251.17
 31
0.0
  0
LINE
  5
225
330
1F
100
AcDbEntity
  8
0
  6
CONTINUOUS
 62
     7
100
AcDbLine
 10
-457.7699999999999
 20
110.42
 30
0.0
 11
-457.7699999999999
 21
72.92000000000002
 31
0.0
  0
LINE
  5
226
330
1F
100
AcDbEntity
  8
0
  6
CONTINUOUS
 62
     7
100
AcDbLine
 10
298.98
 20
319.1700000000001
 30
0.0
 11
298.98
 21
373.1700000000001
 31
0.0
  0
LINE
  5
227
330
1F
100
AcDbEntity
  8
0
  6
CONTINUOUS
 62
     7
100
AcDbLine
 10
98.72999999999998
 20
111.42
 30
0.0
 11
139.2300000000001
 21
111.42
 31
0.0
  0
LINE
  5
228
330
1F
100
AcDbEntity
  8
0
  6
CONTINUOUS
 62
     7
100
AcDbLine
 10
52.00350269189646
 20
606.1700000000001
 30
0.0
 11
49.11675134594809
 21
601.1700000000001
 31
0.0
  0
LINE
  5
229
330
1F
100
AcDbEntity
  8
0
  6
CONTINUOUS
 62
     7
100
AcDbLine
 10
293.9800000000001
 20
191.17
 30
0.0
 11
293.9800000000001
 21
195.1700000000001
 31
0.0
  0
LINE
  5
22A
330
1F
100
AcDbEntity
  8
0
  6
CONTINUOUS
 62
     7
100
AcDbLine
 10
294.98
 20
366.17
 30
0.0
 11
298.9800000000001
 21
366.17
 31
0.0
  0
LINE
  5
22B
330
1F
100
AcDbEntity
  8
0
  6
CONTINUOUS
 62
     7
100
AcDbLine
 10
-458.77
 20
59.41999999999997
 30
0.0
 11
171.23
 21
59.41999999999997
 31
0.0
  0
LINE
  5
22C
330
1F
100
AcDbEntity
  8
0
  6
CONTINUOUS
 62
     7
100
AcDbLine
 10
298.98
 20
553.17
 30
0.0
 11
298.98
 21
499.1700000000001
 31
0.0
  0
LINE
  5
22D
330
1F
100
AcDbEntity
  8
0
  6
CONTINUOUS
 62
     7
100
AcDbLine
 10
171.23
 20
63.41999999999997
 30
0.0
 11
141.23
 21
63.41999999999997
 31
0.0
  0
LINE
  5
22E
330
1F
100
AcDbEntity
  8
0
  6
CONTINUOUS
 62
     7
100
AcDbLine
 10
-305.7699999999999
 20
63.41999999999997
 30
0.0
 11
-251.77
 21
63.41999999999997
 31
0.0
  0
LINE
  5
22F
330
1F
100
AcDbEntity
  8
0
  6
CONTINUOUS
 62
     7
100
AcDbLine
 10
-178.77
 20
293.67
 30
0.0
 11
-178.77
 21
253.17
 31
0.0
  0
LINE
  5
230
330
1F
100
AcDbEntity
  8
0
  6
CONTINUOUS
 62
     7
100
AcDbLine
 10
-456.7699999999999
 20
111.42
 30
0.0
 11
-376.27
 21
111.42
 31
0.0
  0
LINE
  5
231
330
1F
100
AcDbEntity
  8
0
  6
CONTINUOUS
 62
     7
100
AcDbLine
 10
-138.77
 20
293.67
 30
0.0
 11
-138.77
 21
253.17
 31
0.0
  0
LINE
  5
232
330
1F
100
AcDbEntity
  8
0
  6
CONTINUOUS
 62
     7
100
AcDbLine
 10
58.73000000000006
 20
661.1700000000001
 30
0.0
 11
139.2300000000001
 21
661.1700000000001
 31
0.0
  0
LINE
  5
233
330
1F
100
AcDbEntity
  8
0
  6
CONTINUOUS
 62
     7
100
AcDbLine
 10
-456.7699999999999
 20
661.1700000000001
 30
0.0
 11
-416.27
 21
661.1700000000001
 31
0.0
  0
LINE
  5
234
330
1F
100
AcDbEntity
  8
0
  6
CONTINUOUS
 62
     7
100
AcDbLine
 10
138.73
 20
661.1700000000001
 30
0.0
 11
138.73
 21
621.17
 31
0.0
  0
LINE
  5
235
330
1F
100
AcDbEntity
  8
0
  6
CONTINUOUS
 62
     7
100
AcDbLine
 10
98.72999999999998
 20
211.1700000000001
 30
0.0
 11
139.2300000000001
 21
211.1700000000001
 31
0.0
  0
LINE
  5
236
330
1F
100
AcDbEntity
  8
0
  6
CONTINUOUS
 62
     7
100
AcDbLine
 10
141.23
 20
71.42000000000004
 30
0.0
 11
-458.77
 21
71.42000000000004
 31
0.0
  0
LINE
  5
237
330
1F
100
AcDbEntity
  8
0
  6
CONTINUOUS
 62
     7
100
AcDbLine
 10
-456.7699999999999
 20
211.17
 30
0.0
 11
-376.27
 21
211.17
 31
0.0
  0
LINE
  5
238
330
1F
100
AcDbEntity
  8
0
  6
CONTINUOUS
 62
     7
100
AcDbLine
 10
98.72999999999998
 20
251.17
 30
0.0
 11
139.2300000000001
 21
251.17
 31
0.0
  0
LINE
  5
239
330
1F
100
AcDbEntity
  8
0
  6
CONTINUOUS
 62
     7
100
AcDbLine
 10
-456.2699999999999
 20
661.1700000000001
 30
0.0
 11
-456.2699999999999
 21
621.17
 31
0.0
  0
LINE
  5
23A
330
1F
100
AcDbEntity
  8
0
  6
CONTINUOUS
 62
     7
100
AcDbLine
 10
-456.7699999999999
 20
251.17
 30
0.0
 11
-376.27
 21
251.17
 31
0.0
  0
LINE
  5
23B
330
1F
100
AcDbEntity
  8
0
  6
CONTINUOUS
 62
     7
100
AcDbLine
 10
302.98
 20
553.17
 30
0.0
 11
298.98
 21
553.17
 31
0.0
  0
LINE
  5
23C
330
1F
100
AcDbEntity
  8
0
  6
CONTINUOUS
 62
     7
100
AcDbLine
 10
157.2300000000002
 20
68.41999999999997
 30
0.0
 11
161.23
 21
68.41999999999997
 31
0.0
  0
LINE
  5
23D
330
1F
100
AcDbEntity
  8
0
  6
CONTINUOUS
 62
     7
100
AcDbLine
 10
141.23
 20
293.67
 30
0.0
 11
141.23
 21
219.1699999999999
 31
0.0
  0
LINE
  5
23E
330
1F
100
AcDbEntity
  8
0
  6
CONTINUOUS
 62
     7
100
AcDbLine
 10
140.2300000000001
 20
110.42
 30
0.0
 11
140.2300000000001
 21
72.92000000000002
 31
0.0
  0
LINE
  5
23F
330
1F
100
AcDbEntity
  8
0
  6
CONTINUOUS
 62
     7
100
AcDbLine
 10
-456.2699999999999
 20
211.17
 30
0.0
 11
-456.2699999999999
 21
251.17
 31
0.0
  0
LINE
  5
240
330
1F
100
AcDbEntity
  8
0
  6
CONTINUOUS
 62
     7
100
AcDbLine
 10
298.98
 20
326.17
 30
0.0
 11
294.9799999999999
 21
326.17
 31
0.0
  0
LINE
  5
241
330
1F
100
AcDbEntity
  8
0
  6
CONTINUOUS
 62
     7
100
AcDbLine
 10
138.73
 20
71.42000000000004
 30
0.0
 11
138.73
 21
111.42
 31
0.0
  0
LINE
  5
242
330
1F
100
AcDbEntity
  8
0
  6
CONTINUOUS
 62
     7
100
AcDbLine
 10
-139.77
 20
252.17
 30
0.0
 11
-177.7699999999999
 21
252.17
 31
0.0
  0
LINE
  5
243
330
1F
100
AcDbEntity
  8
0
  6
CONTINUOUS
 62
     7
100
AcDbLine
 10
-139.77
 20
620.1700000000001
 30
0.0
 11
-177.7699999999999
 21
620.1700000000001
 31
0.0
  0
LINE
  5
244
330
1F
100
AcDbEntity
  8
0
  6
CONTINUOUS
 62
     7
100
AcDbLine
 10
140.2300000000001
 20
72.91999999999999
 30
0.0
 11
138.73
 21
72.91999999999999
 31
0.0
  0
LINE
  5
245
330
1F
100
AcDbEntity
  8
0
  6
CONTINUOUS
 62
     7
100
AcDbLine
 10
-458.77
 20
72.91999999999999
 30
0.0
 11
-456.2699999999999
 21
72.91999999999999
 31
0.0
  0
LINE
  5
246
330
1F
100
AcDbEntity
  8
0
  6
CONTINUOUS
 62
     7
100
AcDbLine
 10
140.2300000000001
 20
250.17
 30
0.0
 11
140.2300000000001
 21
212.17
 31
0.0
  0
LINE
  5
247
330
1F
100
AcDbEntity
  8
0
  6
CONTINUOUS
 62
     7
100
AcDbLine
 10
298.98
 20
181.1700000000001
 30
0.0
 11
298.98
 21
211.17
 31
0.0
  0
LINE
  5
248
330
1F
100
AcDbEntity
  8
0
  6
CONTINUOUS
 62
     7
100
AcDbLine
 10
141.23
 20
653.17
 30
0.0
 11
141.23
 21
618.6700000000001
 31
0.0
  0
LINE
  5
249
330
1F
100
AcDbEntity
  8
0
  6
CONTINUOUS
 62
     7
100
AcDbLine
 10
140.2300000000001
 20
620.1700000000001
 30
0.0
 11
102.2300000000001
 21
620.1700000000001
 31
0.0
  0
LINE
  5
24A
330
1F
100
AcDbEntity
  8
0
  6
CONTINUOUS
 62
     7
100
AcDbLine
 10
289.48
 20
211.1700000000001
 30
0.0
 11
253.48
 21
211.1700000000001
 31
0.0
  0
LINE
  5
24B
330
1F
100
AcDbEntity
  8
0
  6
CONTINUOUS
 62
     7
100
AcDbLine
 10
253.4800000000001
 20
251.17
 30
0.0
 11
289.4800000000001
 21
251.17
 31
0.0
  0
LINE
  5
24C
330
1F
100
AcDbEntity
  8
0
  6
CONTINUOUS
 62
     7
100
AcDbLine
 10
290.9800000000001
 20
661.1700000000001
 30
0.0
 11
290.9800000000001
 21
211.17
 31
0.0
  0
LINE
  5
24D
330
1F
100
AcDbEntity
  8
0
  6
CONTINUOUS
 62
     7
100
AcDbLine
 10
40.45649730810341
 20
606.1700000000001
 30
0.0
 11
43.34324865405262
 21
611.1700000000001
 31
0.0
  0
LINE
  5
24E
330
1F
100
AcDbEntity
  8
0
  6
CONTINUOUS
 62
     7
100
AcDbLine
 10
49.11675134594806
 20
601.17
 30
0.0
 11
43.343248654052
 21
601.17
 31
0.0
  0
LINE
  5
24F
330
1F
100
AcDbEntity
  8
0
  6
CONTINUOUS
 62
     7
100
AcDbLine
 10
250.9800000000001
 20
658.6700000000001
 30
0.0
 11
250.9800000000001
 21
623.6700000000001
 31
0.0
  0
CIRCLE
  5
250
330
1F
100
AcDbEntity
  8
0
  6
CONTINUOUS
 62
     7
100
AcDbCircle
 10
86.23000000000003
 20
306.17
 30
0.0
 40
2.500000000000058
  0
CIRCLE
  5
251
330
1F
100
AcDbEntity
  8
0
  6
CONTINUOUS
 62
     9
100
AcDbCircle
 10
86.23000000000003
 20
606.1700000000001
 30
0.0
 40
2.500000000000058
  0
CIRCLE
  5
252
330
1F
100
AcDbEntity
  8
0
  6
CONTINUOUS
 62
     9
100
AcDbCircle
 10
86.23000000000003
 20
306.17
 30
0.0
 40
2.500000000000058
  0
CIRCLE
  5
253
330
1F
100
AcDbEntity
  8
0
  6
CONTINUOUS
 62
     7
100
AcDbCircle
 10
-193.7699999999999
 20
306.17
 30
0.0
 40
2.499999999999947
  0
LINE
  5
254
330
1F
100
AcDbEntity
  8
0
  6
CONTINUOUS
 62
     7
100
AcDbLine
 10
-58.76999999999999
 20
189.17
 30
0.0
 11
-58.76999999999999
 21
193.17
 31
0.0
  0
CIRCLE
  5
255
330
1F
100
AcDbEntity
  8
0
  6
CONTINUOUS
 62
     7
100
AcDbCircle
 10
-86.23000000000003
 20
266.1700000000001
 30
0.0
 40
2.499999999999947
210
0.0
220
0.0
230
-1.0
  0
CIRCLE
  5
256
330
1F
100
AcDbEntity
  8
0
  6
CONTINUOUS
 62
     7
100
AcDbCircle
 10
-403.77
 20
266.1700000000001
 30
0.0
 40
5.000000000000004
  0
CIRCLE
  5
257
330
1F
100
AcDbEntity
  8
0
  6
CONTINUOUS
 62
     9
100
AcDbCircle
 10
-193.7699999999999
 20
306.17
 30
0.0
 40
2.499999999999947
  0
LINE
  5
258
330
1F
100
AcDbEntity
  8
0
  6
CONTINUOUS
 62
     7
100
AcDbLine
 10
-298.7699999999999
 20
189.17
 30
0.0
 11
-298.7699999999999
 21
193.17
 31
0.0
  0
LINE
  5
259
330
1F
100
AcDbEntity
  8
0
  6
CONTINUOUS
 62
     7
100
AcDbLine
 10
163.23
 20
506.1700000000002
 30
0.0
 11
159.23
 21
506.1700000000002
 31
0.0
  0
CIRCLE
  5
25A
330
1F
100
AcDbEntity
  8
0
  6
CONTINUOUS
 62
     9
100
AcDbCircle
 10
-403.77
 20
606.1700000000001
 30
0.0
 40
2.500000000000002
  0
CIRCLE
  5
25B
330
1F
100
AcDbEntity
  8
0
  6
CONTINUOUS
 62
     7
100
AcDbCircle
 10
86.23000000000003
 20
266.1700000000001
 30
0.0
 40
5.000000000000004
  0
CIRCLE
  5
25C
330
1F
100
AcDbEntity
  8
0
  6
CONTINUOUS
 62
     7
100
AcDbCircle
 10
-86.23000000000003
 20
306.17
 30
0.0
 40
5.000000000000004
210
0.0
220
0.0
230
-1.0
  0
CIRCLE
  5
25D
330
1F
100
AcDbEntity
  8
0
  6
CONTINUOUS
 62
     7
100
AcDbCircle
 10
403.77
 20
566.1700000000003
 30
0.0
 40
5.000000000000004
210
0.0
220
0.0
230
-1.0
  0
LINE
  5
25E
330
1F
100
AcDbEntity
  8
0
  6
CONTINUOUS
 62
     7
100
AcDbLine
 10
163.23
 20
326.17
 30
0.0
 11
159.23
 21
326.17
 31
0.0
  0
LINE
  5
25F
330
1F
100
AcDbEntity
  8
0
  6
CONTINUOUS
 62
     7
100
AcDbLine
 10
-457.7699999999999
 20
622.1700000000001
 30
0.0
 11
-457.7699999999999
 21
660.1700000000002
 31
0.0
  0
CIRCLE
  5
260
330
1F
100
AcDbEntity
  8
0
  6
CONTINUOUS
 62
     7
100
AcDbCircle
 10
-403.77
 20
606.1700000000001
 30
0.0
 40
5.000000000000004
  0
LINE
  5
261
330
1F
100
AcDbEntity
  8
0
  6
CONTINUOUS
 62
     7
100
AcDbLine
 10
159.2300000000001
 20
546.1700000000003
 30
0.0
 11
163.2300000000001
 21
546.1700000000003
 31
0.0
  0
LINE
  5
262
330
1F
100
AcDbEntity
  8
0
  6
CONTINUOUS
 62
     7
100
AcDbLine
 10
-258.7699999999999
 20
193.17
 30
0.0
 11
-258.7699999999999
 21
189.17
 31
0.0
  0
CIRCLE
  5
263
330
1F
100
AcDbEntity
  8
0
  6
CONTINUOUS
 62
     7
100
AcDbCircle
 10
86.23000000000003
 20
606.1700000000001
 30
0.0
 40
5.000000000000004
  0
CIRCLE
  5
264
330
1F
100
AcDbEntity
  8
0
  6
CONTINUOUS
 62
     7
100
AcDbCircle
 10
-46.22999999999999
 20
606.1700000000001
 30
0.0
 40
5.000000000000004
210
0.0
220
0.0
230
-1.0
  0
CIRCLE
  5
265
330
1F
100
AcDbEntity
  8
0
  6
CONTINUOUS
 62
     7
100
AcDbCircle
 10
46.22999999999999
 20
606.1700000000001
 30
0.0
 40
2.500000000000058
  0
CIRCLE
  5
266
330
1F
100
AcDbEntity
  8
0
  6
CONTINUOUS
 62
     9
100
AcDbCircle
 10
-363.7699999999999
 20
266.1700000000001
 30
0.0
 40
2.500000000000002
  0
LINE
  5
267
330
1F
100
AcDbEntity
  8
0
  6
CONTINUOUS
 62
     7
100
AcDbLine
 10
-457.7699999999999
 20
250.17
 30
0.0
 11
-457.7699999999999
 21
212.17
 31
0.0
  0
CIRCLE
  5
268
330
1F
100
AcDbEntity
  8
0
  6
CONTINUOUS
 62
     7
100
AcDbCircle
 10
363.7699999999999
 20
266.1700000000001
 30
0.0
 40
5.000000000000004
210
0.0
220
0.0
230
-1.0
  0
CIRCLE
  5
269
330
1F
100
AcDbEntity
  8
0
  6
CONTINUOUS
 62
     7
100
AcDbCircle
 10
-363.7699999999999
 20
266.1700000000001
 30
0.0
 40
2.500000000000002
  0
CIRCLE
  5
26A
330
1F
100
AcDbEntity
  8
0
  6
CONTINUOUS
 62
     7
100
AcDbCircle
 10
-193.7699999999999
 20
606.1700000000001
 30
0.0
 40
5.000000000000004
  0
LINE
  5
26B
330
1F
100
AcDbEntity
  8
0
  6
CONTINUOUS
 62
     7
100
AcDbLine
 10
140.2300000000001
 20
622.1700000000001
 30
0.0
 11
140.2300000000001
 21
660.1700000000002
 31
0.0
  0
CIRCLE
  5
26C
330
1F
100
AcDbEntity
  8
0
  6
CONTINUOUS
 62
     9
100
AcDbCircle
 10
86.23000000000003
 20
266.1700000000001
 30
0.0
 40
2.500000000000058
  0
CIRCLE
  5
26D
330
1F
100
AcDbEntity
  8
0
  6
CONTINUOUS
 62
     9
100
AcDbCircle
 10
46.22999999999999
 20
606.1700000000001
 30
0.0
 40
2.500000000000058
  0
LINE
  5
26E
330
1F
100
AcDbEntity
  8
0
  6
CONTINUOUS
 62
     7
100
AcDbLine
 10
-457.77
 20
252.17
 30
0.0
 11
-419.77
 21
252.17
 31
0.0
  0
CIRCLE
  5
26F
330
1F
100
AcDbEntity
  8
0
  6
CONTINUOUS
 62
     7
100
AcDbCircle
 10
193.7699999999999
 20
306.17
 30
0.0
 40
5.000000000000004
210
0.0
220
0.0
230
-1.0
  0
LINE
  5
270
330
1F
100
AcDbEntity
  8
0
  6
CONTINUOUS
 62
     7
100
AcDbLine
 10
-458.77
 20
219.17
 30
0.0
 11
-458.77
 21
253.67
 31
0.0
  0
CIRCLE
  5
271
330
1F
100
AcDbEntity
  8
0
  6
CONTINUOUS
 62
     7
100
AcDbCircle
 10
193.7699999999999
 20
606.1700000000001
 30
0.0
 40
2.500000000000058
210
0.0
220
0.0
230
-1.0
  0
CIRCLE
  5
272
330
1F
100
AcDbEntity
  8
0
  6
CONTINUOUS
 62
     7
100
AcDbCircle
 10
-86.23000000000003
 20
606.1700000000001
 30
0.0
 40
2.499999999999947
210
0.0
220
0.0
230
-1.0
  0
CIRCLE
  5
273
330
1F
100
AcDbEntity
  8
0
  6
CONTINUOUS
 62
     7
100
AcDbCircle
 10
403.77
 20
606.1700000000001
 30
0.0
 40
2.500000000000002
210
0.0
220
0.0
230
-1.0
  0
CIRCLE
  5
274
330
1F
100
AcDbEntity
  8
0
  6
CONTINUOUS
 62
     9
100
AcDbCircle
 10
-193.7699999999999
 20
606.1700000000001
 30
0.0
 40
2.499999999999947
  0
LINE
  5
275
330
1F
100
AcDbEntity
  8
0
  6
CONTINUOUS
 62
     7
100
AcDbLine
 10
-18.77000000000006
 20
193.17
 30
0.0
 11
-18.77000000000006
 21
189.17
 31
0.0
  0
LINE
  5
276
330
1F
100
AcDbEntity
  8
0
  6
CONTINUOUS
 62
     7
100
AcDbLine
 10
159.2300000000001
 20
366.17
 30
0.0
 11
163.2300000000001
 21
366.17
 31
0.0
  0
MTEXT
  5
277
330
1F
100
AcDbEntity
  8
0
 62
     7
100
AcDbMText
 10
-178.3742103288729
 20
4.763291234212815
 30
0.0
 40
30.0
 41
0.0
 71
     1
 72
     1
  1
{\fＭＳ ゴシック;MHB-4560MY}
  0
ARC
  5
278
330
1F
100
AcDbEntity
  8
0
  6
CONTINUOUS
 62
     7
100
AcDbCircle
 10
-86.23000000000003
 20
110.22
 30
0.0
 40
5.000000000000004
210
0.0
220
0.0
230
-1.0
100
AcDbArc
 50
69.98404039711748
 51
110.0159596028825
  0
LINE
  5
279
330
1F
100
AcDbEntity
  8
0
  6
CONTINUOUS
 62
     7
100
AcDbLine
 10
76.23000000000002
 20
598.6700000000001
 30
0.0
 11
81.23000000000002
 21
593.6700000000001
 31
0.0
  0
CIRCLE
  5
27A
330
1F
100
AcDbEntity
  8
0
  6
CONTINUOUS
 62
     7
100
AcDbCircle
 10
-403.77
 20
266.1700000000001
 30
0.0
 40
3.000000000000003
  0
LINE
  5
27B
330
1F
100
AcDbEntity
  8
0
  6
CONTINUOUS
 62
     7
100
AcDbLine
 10
98.93000000000018
 20
611.17
 30
0.0
 11
97.7320134228187
 21
607.881409395973
 31
0.0
  0
ARC
  5
27C
330
1F
100
AcDbEntity
  8
0
  6
CONTINUOUS
 62
     7
100
AcDbCircle
 10
-419.97
 20
266.1700000000001
 30
0.0
 40
5.000000000000004
100
AcDbArc
 50
339.9840403971174
 51
20.01595960288239
  0
LINE
  5
27D
330
1F
100
AcDbEntity
  8
0
  6
CONTINUOUS
 62
     7
100
AcDbLine
 10
143.53
 20
593.6700000000002
 30
0.0
 11
143.53
 21
618.6700000000002
 31
0.0
  0
ELLIPSE
  5
27E
330
1F
100
AcDbEntity
  8
0
  6
CONTINUOUS
 62
     7
100
AcDbEllipse
 10
-448.991380865698
 20
256.5621568627451
 30
0.0
 11
6.28264131059808
 21
-14.47150354737003
 31
0.0
210
0.0
220
0.0
230
-1.0
 40
0.3169283200714584
 41
2.511004393392195
 42
3.278325011935739
  0
LINE
  5
27F
330
1F
100
AcDbEntity
  8
0
  6
CONTINUOUS
 62
     7
100
AcDbLine
 10
-415.2720134228188
 20
267.8814093959731
 30
0.0
 11
-416.47
 21
271.1700000000001
 31
0.0
  0
LINE
  5
280
330
1F
100
AcDbEntity
  8
0
  6
CONTINUOUS
 62
     7
100
AcDbLine
 10
143.53
 20
318.6700000000001
 30
0.0
 11
143.53
 21
293.6700000000001
 31
0.0
  0
LINE
  5
281
330
1F
100
AcDbEntity
  8
0
  6
CONTINUOUS
 62
     7
100
AcDbLine
 10
-416.47
 20
261.1700000000001
 30
0.0
 11
-415.2720134228188
 21
264.4585906040271
 31
0.0
  0
LINE
  5
282
330
1F
100
AcDbEntity
  8
0
  6
CONTINUOUS
 62
     7
100
AcDbLine
 10
-456.77
 20
265.263507643465
 30
0.0
 11
-456.7699999999999
 21
267.0764923565351
 31
0.0
  0
LINE
  5
283
330
1F
100
AcDbEntity
  8
0
  6
CONTINUOUS
 62
     7
100
AcDbLine
 10
-391.27
 20
663.47
 30
0.0
 11
-416.27
 21
663.47
 31
0.0
  0
LINE
  5
284
330
1F
100
AcDbEntity
  8
0
  6
CONTINUOUS
 62
     7
100
AcDbLine
 10
-364.6764923565348
 20
213.17
 30
0.0
 11
-362.8635076434651
 21
213.17
 31
0.0
  0
LINE
  5
285
330
1F
100
AcDbEntity
  8
0
  6
CONTINUOUS
 62
     7
100
AcDbLine
 10
-368.77
 20
253.47
 30
0.0
 11
-376.2699999999999
 21
253.47
 31
0.0
  0
ARC
  5
286
330
1F
100
AcDbEntity
  8
0
  6
CONTINUOUS
 62
     7
100
AcDbCircle
 10
-457.77
 20
619.17
 30
0.0
 40
1.000000000000001
100
AcDbArc
 50
90.0
 51
180.0
  0
ARC
  5
287
330
1F
100
AcDbEntity
  8
0
  6
CONTINUOUS
 62
     7
100
AcDbCircle
 10
-102.43
 20
306.17
 30
0.0
 40
5.000000000000004
210
0.0
220
0.0
230
-1.0
100
AcDbArc
 50
339.9840403971174
 51
20.01595960288239
  0
LINE
  5
288
330
1F
100
AcDbEntity
  8
0
  6
CONTINUOUS
 62
     7
100
AcDbLine
 10
81.23000000000002
 20
618.6700000000001
 30
0.0
 11
76.23000000000002
 21
613.6700000000001
 31
0.0
  0
LINE
  5
289
330
1F
100
AcDbEntity
  8
0
  6
CONTINUOUS
 62
     7
100
AcDbLine
 10
139.2300000000001
 20
305.2635076434651
 30
0.0
 11
139.2300000000001
 21
307.076492356535
 31
0.0
  0
CIRCLE
  5
28A
330
1F
100
AcDbEntity
  8
0
  6
CONTINUOUS
 62
     7
100
AcDbCircle
 10
363.7699999999999
 20
266.1700000000001
 30
0.0
 40
2.999999999999947
210
0.0
220
0.0
230
-1.0
  0
LINE
  5
28B
330
1F
100
AcDbEntity
  8
0
  6
CONTINUOUS
 62
     7
100
AcDbLine
 10
-356.2699999999999
 20
276.1700000000001
 30
0.0
 11
-371.27
 21
276.1700000000001
 31
0.0
  0
LINE
  5
28C
330
1F
100
AcDbEntity
  8
0
  6
CONTINUOUS
 62
     7
100
AcDbLine
 10
98.93000000000018
 20
611.17
 30
0.0
 11
98.93000000000018
 21
618.6700000000001
 31
0.0
  0
ELLIPSE
  5
28D
330
1F
100
AcDbEntity
  8
0
  6
CONTINUOUS
 62
     7
100
AcDbEllipse
 10
-448.991380865698
 20
275.7778431372551
 30
0.0
 11
-6.28264131059797
 21
-14.47150354737009
 31
0.0
210
0.0
220
0.0
230
-1.0
 40
0.316928320071457
 41
6.146452948833638
 42
6.913773567377188
  0
LINE
  5
28E
330
1F
100
AcDbEntity
  8
0
  6
CONTINUOUS
 62
     7
100
AcDbLine
 10
-416.47
 20
278.67
 30
0.0
 11
-416.47
 21
271.17
 31
0.0
  0
LINE
  5
28F
330
1F
100
AcDbEntity
  8
0
  6
CONTINUOUS
 62
     7
100
AcDbLine
 10
-396.27
 20
596.1700000000001
 30
0.0
 11
-391.27
 21
601.1700000000001
 31
0.0
  0
LINE
  5
290
330
1F
100
AcDbEntity
  8
0
  6
CONTINUOUS
 62
     7
100
AcDbLine
 10
97.73201342281867
 20
604.458590604027
 30
0.0
 11
98.93000000000015
 21
601.17
 31
0.0
  0
LINE
  5
291
330
1F
100
AcDbEntity
  8
0
  6
CONTINUOUS
 62
     7
100
AcDbLine
 10
-393.77
 20
273.67
 30
0.0
 11
-398.7699999999999
 21
278.67
 31
0.0
  0
LINE
  5
292
330
1F
100
AcDbEntity
  8
0
  6
CONTINUOUS
 62
     7
100
AcDbLine
 10
-416.47
 20
261.1700000000001
 30
0.0
 11
-416.47
 21
253.67
 31
0.0
  0
ARC
  5
293
330
1F
100
AcDbEntity
  8
0
  6
CONTINUOUS
 62
     7
100
AcDbCircle
 10
363.7699999999999
 20
249.97
 30
0.0
 40
4.999999999999948
210
0.0
220
0.0
230
-1.0
100
AcDbArc
 50
69.98404039711748
 51
110.0159596028825
  0
LINE
  5
294
330
1F
100
AcDbEntity
  8
0
  6
CONTINUOUS
 62
     7
100
AcDbLine
 10
-356.2699999999999
 20
276.1700000000001
 30
0.0
 11
-351.2699999999999
 21
271.1700000000001
 31
0.0
  0
CIRCLE
  5
295
330
1F
100
AcDbEntity
  8
0
  6
CONTINUOUS
 62
     7
100
AcDbCircle
 10
86.23000000000003
 20
606.1700000000001
 30
0.0
 40
3.000000000000003
  0
LINE
  5
296
330
1F
100
AcDbEntity
  8
0
  6
CONTINUOUS
 62
     7
100
AcDbLine
 10
76.23000000000002
 20
598.6700000000001
 30
0.0
 11
76.23000000000002
 21
613.6700000000001
 31
0.0
  0
LINE
  5
297
330
1F
100
AcDbEntity
  8
0
  6
CONTINUOUS
 62
     7
100
AcDbLine
 10
-461.07
 20
278.67
 30
0.0
 11
-461.07
 21
253.67
 31
0.0
  0
ELLIPSE
  5
298
330
1F
100
AcDbEntity
  8
0
  6
CONTINUOUS
 62
     7
100
AcDbEllipse
 10
-354.162156862745
 20
220.948619134302
 30
0.0
 11
-14.47150354737003
 21
-6.282641310597969
 31
0.0
210
0.0
220
0.0
230
1.0
 40
0.316928320071464
 41
6.146452948833636
 42
6.913773567377185
  0
LINE
  5
299
330
1F
100
AcDbEntity
  8
0
  6
CONTINUOUS
 62
     7
100
AcDbLine
 10
-351.2699999999999
 20
208.8700000000001
 30
0.0
 11
-376.27
 21
208.8700000000001
 31
0.0
  0
ELLIPSE
  5
29A
330
1F
100
AcDbEntity
  8
0
  6
CONTINUOUS
 62
     7
100
AcDbEllipse
 10
131.4513808656981
 20
296.562156862745
 30
0.0
 11
-6.28264131059808
 21
-14.47150354737003
 31
0.0
210
0.0
220
0.0
230
1.0
 40
0.3169283200714695
 41
2.511004393392195
 42
3.278325011935739
  0
LINE
  5
29B
330
1F
100
AcDbEntity
  8
0
  6
CONTINUOUS
 62
     7
100
AcDbLine
 10
-391.27
 20
618.8700000000002
 30
0.0
 11
-398.77
 21
618.8700000000002
 31
0.0
  0
LINE
  5
29C
330
1F
100
AcDbEntity
  8
0
  6
CONTINUOUS
 62
     7
100
AcDbLine
 10
-351.2699999999999
 20
253.47
 30
0.0
 11
-358.77
 21
253.47
 31
0.0
  0
LINE
  5
29D
330
1F
100
AcDbEntity
  8
0
  6
CONTINUOUS
 62
     7
100
AcDbLine
 10
98.93000000000018
 20
301.1700000000001
 30
0.0
 11
98.93000000000018
 21
293.6700000000001
 31
0.0
  0
LINE
  5
29E
330
1F
100
AcDbEntity
  8
0
  6
CONTINUOUS
 62
     7
100
AcDbLine
 10
-368.77
 20
253.47
 30
0.0
 11
-365.4814093959732
 21
254.6679865771812
 31
0.0
  0
ARC
  5
29F
330
1F
100
AcDbEntity
  8
0
  6
CONTINUOUS
 62
     7
100
AcDbCircle
 10
102.43
 20
606.1700000000001
 30
0.0
 40
5.000000000000004
100
AcDbArc
 50
159.9840403971176
 51
200.0159596028824
  0
ARC
  5
2A0
330
1F
100
AcDbEntity
  8
0
  6
CONTINUOUS
 62
     7
100
AcDbCircle
 10
-419.77
 20
619.17
 30
0.0
 40
1.000000000000001
100
AcDbArc
 50
0.0
 51
90.0
  0
ELLIPSE
  5
2A1
330
1F
100
AcDbEntity
  8
0
  6
CONTINUOUS
 62
     7
100
AcDbEllipse
 10
131.4513808656981
 20
615.7778431372551
 30
0.0
 11
-6.282641310598081
 21
14.47150354736992
 31
0.0
210
0.0
220
0.0
230
-1.0
 40
0.3169283200714689
 41
2.511004393392194
 42
3.27832501193574
  0
LINE
  5
2A2
330
1F
100
AcDbEntity
  8
0
  6
CONTINUOUS
 62
     7
100
AcDbLine
 10
-416.27
 20
601.17
 30
0.0
 11
-411.27
 21
596.17
 31
0.0
  0
CIRCLE
  5
2A3
330
1F
100
AcDbEntity
  8
0
  6
CONTINUOUS
 62
     7
100
AcDbCircle
 10
-86.23000000000003
 20
306.17
 30
0.0
 40
2.999999999999892
210
0.0
220
0.0
230
-1.0
  0
LINE
  5
2A4
330
1F
100
AcDbEntity
  8
0
  6
CONTINUOUS
 62
     7
100
AcDbLine
 10
139.2300000000001
 20
607.0764923565353
 30
0.0
 11
139.2300000000001
 21
605.2635076434652
 31
0.0
  0
LINE
  5
2A5
330
1F
100
AcDbEntity
  8
0
  6
CONTINUOUS
 62
     7
100
AcDbLine
 10
-396.27
 20
596.1700000000001
 30
0.0
 11
-411.27
 21
596.1700000000001
 31
0.0
  0
LINE
  5
2A6
330
1F
100
AcDbEntity
  8
0
  6
CONTINUOUS
 62
     7
100
AcDbLine
 10
76.23000000000002
 20
313.6700000000001
 30
0.0
 11
81.23000000000002
 21
318.6700000000001
 31
0.0
  0
ELLIPSE
  5
2A7
330
1F
100
AcDbEntity
  8
0
  6
CONTINUOUS
 62
     7
100
AcDbEllipse
 10
131.4513808656981
 20
596.562156862745
 30
0.0
 11
6.282641310597858
 21
14.47150354736992
 31
0.0
210
0.0
220
0.0
230
-1.0
 40
0.3169283200714762
 41
6.146452948833638
 42
6.913773567377189
  0
LINE
  5
2A8
330
1F
100
AcDbEntity
  8
0
  6
CONTINUOUS
 62
     7
100
AcDbLine
 10
-362.0585906040268
 20
254.6679865771812
 30
0.0
 11
-358.77
 21
253.4700000000001
 31
0.0
  0
LINE
  5
2A9
330
1F
100
AcDbEntity
  8
0
  6
CONTINUOUS
 62
     7
100
AcDbLine
 10
76.23000000000002
 20
313.6700000000001
 30
0.0
 11
76.23000000000002
 21
298.6700000000001
 31
0.0
  0
LINE
  5
2AA
330
1F
100
AcDbEntity
  8
0
  6
CONTINUOUS
 62
     7
100
AcDbLine
 10
-408.7699999999999
 20
618.8700000000002
 30
0.0
 11
-416.27
 21
618.8700000000002
 31
0.0
  0
ELLIPSE
  5
2AB
330
1F
100
AcDbEntity
  8
0
  6
CONTINUOUS
 62
     7
100
AcDbEllipse
 10
-373.3778431372548
 20
220.948619134302
 30
0.0
 11
-14.47150354737009
 21
6.282641310598081
 31
0.0
210
0.0
220
0.0
230
1.0
 40
0.3169283200714607
 41
2.511004393392191
 42
3.278325011935729
  0
LINE
  5
2AC
330
1F
100
AcDbEntity
  8
0
  6
CONTINUOUS
 62
     7
100
AcDbLine
 10
-376.27
 20
271.1700000000001
 30
0.0
 11
-371.27
 21
276.1700000000001
 31
0.0
  0
LINE
  5
2AD
330
1F
100
AcDbEntity
  8
0
  6
CONTINUOUS
 62
     7
100
AcDbLine
 10
97.73201342281867
 20
307.881409395973
 30
0.0
 11
98.93000000000015
 21
311.17
 31
0.0
  0
ELLIPSE
  5
2AE
330
1F
100
AcDbEntity
  8
0
  6
CONTINUOUS
 62
     7
100
AcDbEllipse
 10
131.4513808656981
 20
315.7778431372552
 30
0.0
 11
6.28264131059808
 21
-14.47150354737003
 31
0.0
210
0.0
220
0.0
230
1.0
 40
0.3169283200714695
 41
6.146452948833638
 42
6.913773567377189
  0
LINE
  5
2AF
330
1F
100
AcDbEntity
  8
0
  6
CONTINUOUS
 62
     7
100
AcDbLine
 10
98.93000000000018
 20
301.1700000000001
 30
0.0
 11
97.7320134228187
 21
304.4585906040271
 31
0.0
  0
LINE
  5
2B0
330
1F
100
AcDbEntity
  8
0
  6
CONTINUOUS
 62
     7
100
AcDbLine
 10
98.93000000000018
 20
318.6700000000001
 30
0.0
 11
98.93000000000018
 21
311.1700000000001
 31
0.0
  0
LINE
  5
2B1
330
1F
100
AcDbEntity
  8
0
  6
CONTINUOUS
 62
     7
100
AcDbLine
 10
81.23000000000002
 20
293.67
 30
0.0
 11
76.23000000000002
 21
298.67
 31
0.0
  0
LINE
  5
2B2
330
1F
100
AcDbEntity
  8
0
  6
CONTINUOUS
 62
     7
100
AcDbLine
 10
98.93000000000018
 20
593.6700000000002
 30
0.0
 11
98.93000000000018
 21
601.1700000000002
 31
0.0
  0
CIRCLE
  5
2B3
330
1F
100
AcDbEntity
  8
0
  6
CONTINUOUS
 62
     7
100
AcDbCircle
 10
86.23000000000003
 20
266.1700000000001
 30
0.0
 40
3.000000000000114
  0
LINE
  5
2B4
330
1F
100
AcDbEntity
  8
0
  6
CONTINUOUS
 62
     7
100
AcDbLine
 10
-140.77
 20
305.2635076434651
 30
0.0
 11
-140.77
 21
307.076492356535
 31
0.0
  0
LINE
  5
2B5
330
1F
100
AcDbEntity
  8
0
  6
CONTINUOUS
 62
     7
100
AcDbLine
 10
-181.0699999999999
 20
593.6700000000002
 30
0.0
 11
-181.0699999999999
 21
601.1700000000002
 31
0.0
  0
LINE
  5
2B6
330
1F
100
AcDbEntity
  8
0
  6
CONTINUOUS
 62
     7
100
AcDbLine
 10
91.23000000000003
 20
253.47
 30
0.0
 11
98.7299999999999
 21
253.47
 31
0.0
  0
ELLIPSE
  5
2B7
330
1F
100
AcDbEntity
  8
0
  6
CONTINUOUS
 62
     7
100
AcDbEllipse
 10
-148.548619134302
 20
296.562156862745
 30
0.0
 11
-6.282641310597969
 21
-14.47150354737003
 31
0.0
210
0.0
220
0.0
230
1.0
 40
0.316928320071464
 41
2.511004393392194
 42
3.278325011935737
  0
LINE
  5
2B8
330
1F
100
AcDbEntity
  8
0
  6
CONTINUOUS
 62
     7
100
AcDbLine
 10
-181.0699999999999
 20
318.6700000000001
 30
0.0
 11
-181.0699999999999
 21
311.1700000000001
 31
0.0
  0
CIRCLE
  5
2B9
330
1F
100
AcDbEntity
  8
0
  6
CONTINUOUS
 62
     7
100
AcDbCircle
 10
193.7699999999999
 20
306.17
 30
0.0
 40
3.000000000000003
210
0.0
220
0.0
230
-1.0
  0
ELLIPSE
  5
2BA
330
1F
100
AcDbEntity
  8
0
  6
CONTINUOUS
 62
     7
100
AcDbEllipse
 10
-148.548619134302
 20
615.7778431372551
 30
0.0
 11
-6.282641310597971
 21
14.47150354736993
 31
0.0
210
0.0
220
0.0
230
-1.0
 40
0.3169283200714633
 41
2.511004393392193
 42
3.27832501193574
  0
CIRCLE
  5
2BB
330
1F
100
AcDbEntity
  8
0
  6
CONTINUOUS
 62
     7
100
AcDbCircle
 10
403.77
 20
566.1700000000003
 30
0.0
 40
3.000000000000058
210
0.0
220
0.0
230
-1.0
  0
LINE
  5
2BC
330
1F
100
AcDbEntity
  8
0
  6
CONTINUOUS
 62
     7
100
AcDbLine
 10
-461.07
 20
553.6700000000001
 30
0.0
 11
-461.07
 21
578.6700000000001
 31
0.0
  0
LINE
  5
2BD
330
1F
100
AcDbEntity
  8
0
  6
CONTINUOUS
 62
     7
100
AcDbLine
 10
-393.77
 20
558.6700000000002
 30
0.0
 11
-393.77
 21
573.6700000000002
 31
0.0
  0
LINE
  5
2BE
330
1F
100
AcDbEntity
  8
0
  6
CONTINUOUS
 62
     7
100
AcDbLine
 10
-203.7699999999999
 20
598.6700000000001
 30
0.0
 11
-203.7699999999999
 21
613.6700000000001
 31
0.0
  0
LINE
  5
2BF
330
1F
100
AcDbEntity
  8
0
  6
CONTINUOUS
 62
     7
100
AcDbLine
 10
84.518590604027
 20
254.6679865771812
 30
0.0
 11
81.23000000000002
 21
253.4700000000001
 31
0.0
  0
LINE
  5
2C0
330
1F
100
AcDbEntity
  8
0
  6
CONTINUOUS
 62
     7
100
AcDbLine
 10
-136.47
 20
593.6700000000002
 30
0.0
 11
-136.47
 21
618.6700000000002
 31
0.0
  0
ELLIPSE
  5
2C1
330
1F
100
AcDbEntity
  8
0
  6
CONTINUOUS
 62
     7
100
AcDbEllipse
 10
95.83784313725518
 20
220.948619134302
 30
0.0
 11
14.47150354736993
 21
6.282641310597971
 31
0.0
210
0.0
220
0.0
230
-1.0
 40
0.3169283200714693
 41
2.511004393392192
 42
3.278325011935733
  0
LINE
  5
2C2
330
1F
100
AcDbEntity
  8
0
  6
CONTINUOUS
 62
     7
100
AcDbLine
 10
73.73000000000008
 20
208.8700000000001
 30
0.0
 11
98.72999999999996
 21
208.8700000000001
 31
0.0
  0
LINE
  5
2C3
330
1F
100
AcDbEntity
  8
0
  6
CONTINUOUS
 62
     7
100
AcDbLine
 10
-181.0699999999999
 20
611.17
 30
0.0
 11
-181.0699999999999
 21
618.6700000000001
 31
0.0
  0
LINE
  5
2C4
330
1F
100
AcDbEntity
  8
0
  6
CONTINUOUS
 62
     7
100
AcDbLine
 10
-398.77
 20
578.6700000000002
 30
0.0
 11
-393.77
 21
573.6700000000002
 31
0.0
  0
LINE
  5
2C5
330
1F
100
AcDbEntity
  8
0
  6
CONTINUOUS
 62
     7
100
AcDbLine
 10
78.73000000000008
 20
276.1700000000001
 30
0.0
 11
73.73000000000008
 21
271.1700000000001
 31
0.0
  0
LINE
  5
2C6
330
1F
100
AcDbEntity
  8
0
  6
CONTINUOUS
 62
     7
100
AcDbLine
 10
-198.77
 20
293.67
 30
0.0
 11
-203.77
 21
298.67
 31
0.0
  0
LINE
  5
2C7
330
1F
100
AcDbEntity
  8
0
  6
CONTINUOUS
 62
     7
100
AcDbLine
 10
-198.7699999999999
 20
618.6700000000001
 30
0.0
 11
-203.7699999999999
 21
613.6700000000001
 31
0.0
  0
LINE
  5
2C8
330
1F
100
AcDbEntity
  8
0
  6
CONTINUOUS
 62
     7
100
AcDbLine
 10
-182.267986577181
 20
604.458590604027
 30
0.0
 11
-181.07
 21
601.17
 31
0.0
  0
ARC
  5
2C9
330
1F
100
AcDbEntity
  8
0
  6
CONTINUOUS
 62
     7
100
AcDbCircle
 10
86.23000000000003
 20
249.97
 30
0.0
 40
5.000000000000004
100
AcDbArc
 50
69.98404039711748
 51
110.0159596028825
  0
LINE
  5
2CA
330
1F
100
AcDbEntity
  8
0
  6
CONTINUOUS
 62
     7
100
AcDbLine
 10
87.13649235653497
 20
213.17
 30
0.0
 11
85.32350764346494
 21
213.17
 31
0.0
  0
LINE
  5
2CB
330
1F
100
AcDbEntity
  8
0
  6
CONTINUOUS
 62
     7
100
AcDbLine
 10
73.73000000000008
 20
253.47
 30
0.0
 11
81.23000000000008
 21
253.47
 31
0.0
  0
ELLIPSE
  5
2CC
330
1F
100
AcDbEntity
  8
0
  6
CONTINUOUS
 62
     7
100
AcDbEllipse
 10
-448.991380865698
 20
575.7778431372551
 30
0.0
 11
6.28264131059808
 21
14.47150354737014
 31
0.0
210
0.0
220
0.0
230
1.0
 40
0.3169283200714639
 41
2.511004393392194
 42
3.27832501193574
  0
LINE
  5
2CD
330
1F
100
AcDbEntity
  8
0
  6
CONTINUOUS
 62
     7
100
AcDbLine
 10
-456.77
 20
567.0764923565353
 30
0.0
 11
-456.7699999999999
 21
565.2635076434652
 31
0.0
  0
ELLIPSE
  5
2CE
330
1F
100
AcDbEntity
  8
0
  6
CONTINUOUS
 62
     7
100
AcDbEllipse
 10
76.62215686274499
 20
220.948619134302
 30
0.0
 11
14.47150354736993
 21
-6.282641310597971
 31
0.0
210
0.0
220
0.0
230
-1.0
 40
0.3169283200714693
 41
6.146452948833635
 42
6.913773567377185
  0
LINE
  5
2CF
330
1F
100
AcDbEntity
  8
0
  6
CONTINUOUS
 62
     7
100
AcDbLine
 10
78.73000000000008
 20
276.1700000000001
 30
0.0
 11
93.72999999999995
 21
276.1700000000001
 31
0.0
  0
ARC
  5
2D0
330
1F
100
AcDbEntity
  8
0
  6
CONTINUOUS
 62
     7
100
AcDbCircle
 10
177.57
 20
306.17
 30
0.0
 40
4.999999999999893
210
0.0
220
0.0
230
-1.0
100
AcDbArc
 50
339.9840403971174
 51
20.0159596028825
  0
LINE
  5
2D1
330
1F
100
AcDbEntity
  8
0
  6
CONTINUOUS
 62
     7
100
AcDbLine
 10
-416.47
 20
553.6700000000001
 30
0.0
 11
-416.47
 21
561.1700000000002
 31
0.0
  0
LINE
  5
2D2
330
1F
100
AcDbEntity
  8
0
  6
CONTINUOUS
 62
     7
100
AcDbLine
 10
91.23000000000003
 20
253.47
 30
0.0
 11
87.94140939597305
 21
254.6679865771812
 31
0.0
  0
LINE
  5
2D3
330
1F
100
AcDbEntity
  8
0
  6
CONTINUOUS
 62
     7
100
AcDbLine
 10
-182.267986577181
 20
307.881409395973
 30
0.0
 11
-181.07
 21
311.17
 31
0.0
  0
ARC
  5
2D4
330
1F
100
AcDbEntity
  8
0
  6
CONTINUOUS
 62
     7
100
AcDbCircle
 10
419.97
 20
566.1700000000003
 30
0.0
 40
5.00000000000006
210
0.0
220
0.0
230
-1.0
100
AcDbArc
 50
159.9840403971176
 51
200.0159596028824
  0
LINE
  5
2D5
330
1F
100
AcDbEntity
  8
0
  6
CONTINUOUS
 62
     7
100
AcDbLine
 10
-416.47
 20
571.1700000000002
 30
0.0
 11
-416.47
 21
578.6700000000002
 31
0.0
  0
LINE
  5
2D6
330
1F
100
AcDbEntity
  8
0
  6
CONTINUOUS
 62
     7
100
AcDbLine
 10
-203.77
 20
313.6700000000001
 30
0.0
 11
-198.77
 21
318.6700000000001
 31
0.0
  0
LINE
  5
2D7
330
1F
100
AcDbEntity
  8
0
  6
CONTINUOUS
 62
     7
100
AcDbLine
 10
-416.47
 20
571.1700000000002
 30
0.0
 11
-415.2720134228188
 21
567.881409395973
 31
0.0
  0
LINE
  5
2D8
330
1F
100
AcDbEntity
  8
0
  6
CONTINUOUS
 62
     7
100
AcDbLine
 10
-181.0699999999999
 20
301.1700000000001
 30
0.0
 11
-181.0699999999999
 21
293.6700000000001
 31
0.0
  0
ELLIPSE
  5
2D9
330
1F
100
AcDbEntity
  8
0
  6
CONTINUOUS
 62
     7
100
AcDbEllipse
 10
-148.548619134302
 20
596.562156862745
 30
0.0
 11
6.282641310597971
 21
14.47150354736993
 31
0.0
210
0.0
220
0.0
230
-1.0
 40
0.3169283200714689
 41
6.14645294883364
 42
6.913773567377188
  0
LINE
  5
2DA
330
1F
100
AcDbEntity
  8
0
  6
CONTINUOUS
 62
     7
100
AcDbLine
 10
-181.0699999999999
 20
611.17
 30
0.0
 11
-182.2679865771809
 21
607.881409395973
 31
0.0
  0
LINE
  5
2DB
330
1F
100
AcDbEntity
  8
0
  6
CONTINUOUS
 62
     7
100
AcDbLine
 10
-203.7699999999999
 20
598.6700000000001
 30
0.0
 11
-198.7699999999999
 21
593.6700000000001
 31
0.0
  0
ELLIPSE
  5
2DC
330
1F
100
AcDbEntity
  8
0
  6
CONTINUOUS
 62
     7
100
AcDbEllipse
 10
-448.991380865698
 20
556.562156862745
 30
0.0
 11
-6.28264131059797
 21
14.47150354737015
 31
0.0
210
0.0
220
0.0
230
1.0
 40
0.3169283200714592
 41
6.146452948833637
 42
6.913773567377189
  0
LINE
  5
2DD
330
1F
100
AcDbEntity
  8
0
  6
CONTINUOUS
 62
     7
100
AcDbLine
 10
98.72999999999998
 20
271.1700000000001
 30
0.0
 11
93.72999999999998
 21
276.1700000000001
 31
0.0
  0
CIRCLE
  5
2DE
330
1F
100
AcDbEntity
  8
0
  6
CONTINUOUS
 62
     7
100
AcDbCircle
 10
-193.7699999999999
 20
606.1700000000001
 30
0.0
 40
3.000000000000003
  0
LINE
  5
2DF
330
1F
100
AcDbEntity
  8
0
  6
CONTINUOUS
 62
     7
100
AcDbLine
 10
-140.77
 20
607.0764923565353
 30
0.0
 11
-140.77
 21
605.2635076434652
 31
0.0
  0
LINE
  5
2E0
330
1F
100
AcDbEntity
  8
0
  6
CONTINUOUS
 62
     7
100
AcDbLine
 10
-55.88010024669187
 20
186.1720762214703
 30
0.0
 11
-55.76999999999998
 21
186.17
 31
0.0
  0
LINE
  5
2E1
330
1F
100
AcDbEntity
  8
0
  6
CONTINUOUS
 62
     7
100
AcDbLine
 10
163.7203925463636
 20
67.73348642109289
 30
0.0
 11
163.73
 21
67.75012701892223
 31
0.0
  0
LINE
  5
2E2
330
1F
100
AcDbEntity
  8
0
  6
CONTINUOUS
 62
     7
100
AcDbLine
 10
-415.2720134228188
 20
564.4585906040269
 30
0.0
 11
-416.47
 21
561.1700000000001
 31
0.0
  0
LINE
  5
2E3
330
1F
100
AcDbEntity
  8
0
  6
CONTINUOUS
 62
     7
100
AcDbLine
 10
-393.77
 20
558.6700000000002
 30
0.0
 11
-398.7699999999999
 21
553.6700000000002
 31
0.0
  0
ELLIPSE
  5
2E4
330
1F
100
AcDbEntity
  8
0
  6
CONTINUOUS
 62
     7
100
AcDbEllipse
 10
-148.548619134302
 20
315.7778431372552
 30
0.0
 11
6.282641310597969
 21
-14.47150354737003
 31
0.0
210
0.0
220
0.0
230
1.0
 40
0.3169283200714612
 41
6.14645294883364
 42
6.913773567377188
  0
LINE
  5
2E5
330
1F
100
AcDbEntity
  8
0
  6
CONTINUOUS
 62
     7
100
AcDbLine
 10
-203.77
 20
313.6700000000001
 30
0.0
 11
-203.77
 21
298.6700000000001
 31
0.0
  0
LINE
  5
2E6
330
1F
100
AcDbEntity
  8
0
  6
CONTINUOUS
 62
     7
100
AcDbLine
 10
51.23
 20
113.72
 30
0.0
 11
47.94140939597302
 21
114.9179865771812
 31
0.0
  0
CIRCLE
  5
2E7
330
1F
100
AcDbEntity
  8
0
  6
CONTINUOUS
 62
     7
100
AcDbCircle
 10
-403.77
 20
566.1700000000003
 30
0.0
 40
2.500000000000002
  0
LINE
  5
2E8
330
1F
100
AcDbEntity
  8
0
  6
CONTINUOUS
 62
     7
100
AcDbLine
 10
-136.47
 20
318.6700000000001
 30
0.0
 11
-136.47
 21
293.6700000000001
 31
0.0
  0
LINE
  5
2E9
330
1F
100
AcDbEntity
  8
0
  6
CONTINUOUS
 62
     7
100
AcDbLine
 10
-393.77
 20
273.67
 30
0.0
 11
-393.77
 21
258.67
 31
0.0
  0
LINE
  5
2EA
330
1F
100
AcDbEntity
  8
0
  6
CONTINUOUS
 62
     7
100
AcDbLine
 10
-398.77
 20
253.67
 30
0.0
 11
-393.77
 21
258.67
 31
0.0
  0
LINE
  5
2EB
330
1F
100
AcDbEntity
  8
0
  6
CONTINUOUS
 62
     7
100
AcDbLine
 10
51.23
 20
113.72
 30
0.0
 11
51.23
 21
111.42
 31
0.0
  0
ARC
  5
2EC
330
1F
100
AcDbEntity
  8
0
  6
CONTINUOUS
 62
     7
100
AcDbCircle
 10
-177.57
 20
606.1700000000001
 30
0.0
 40
5.000000000000004
100
AcDbArc
 50
159.9840403971175
 51
200.0159596028825
  0
LINE
  5
2ED
330
1F
100
AcDbEntity
  8
0
  6
CONTINUOUS
 62
     7
100
AcDbLine
 10
44.51859060402696
 20
114.9179865771812
 30
0.0
 11
41.22999999999999
 21
113.72
 31
0.0
  0
LINE
  5
2EE
330
1F
100
AcDbEntity
  8
0
  6
CONTINUOUS
 62
     7
100
AcDbLine
 10
41.22999999999999
 20
113.72
 30
0.0
 11
41.22999999999999
 21
111.42
 31
0.0
  0
LINE
  5
2EF
330
1F
100
AcDbEntity
  8
0
  6
CONTINUOUS
 62
     7
100
AcDbLine
 10
-181.0699999999999
 20
301.1700000000001
 30
0.0
 11
-182.2679865771809
 21
304.4585906040271
 31
0.0
  0
LINE
  5
2F0
330
1F
100
AcDbEntity
  8
0
  6
CONTINUOUS
 62
     7
100
AcDbLine
 10
-295.8801002466921
 20
186.1720762214703
 30
0.0
 11
-295.7699999999999
 21
186.1700000000001
 31
0.0
  0
ARC
  5
2F1
330
1F
100
AcDbEntity
  8
0
  6
CONTINUOUS
 62
     7
100
AcDbCircle
 10
46.22999999999999
 20
110.22
 30
0.0
 40
5.000000000000004
100
AcDbArc
 50
69.98404039711748
 51
110.0159596028825
  0
LINE
  5
2F2
330
1F
100
AcDbEntity
  8
0
  6
CONTINUOUS
 62
     7
100
AcDbLine
 10
139.2300000000001
 20
113.72
 30
0.0
 11
138.8364564882106
 21
114.0502222155949
 31
0.0
  0
ARC
  5
2F3
330
1F
100
AcDbEntity
  8
0
  6
CONTINUOUS
 62
     7
100
AcDbCircle
 10
-456.77
 20
109.42
 30
0.0
 40
4.299999999999971
100
AcDbArc
 50
89.99999999999926
 51
180.0
  0
ARC
  5
2F4
330
1F
100
AcDbEntity
  8
0
  6
CONTINUOUS
 62
     7
100
AcDbCircle
 10
-420.77
 20
109.42
 30
0.0
 40
4.299999999999971
100
AcDbArc
 50
27.71774768960951
 51
89.99999999999999
  0
LINE
  5
2F5
330
1F
100
AcDbEntity
  8
0
  6
CONTINUOUS
 62
     7
100
AcDbLine
 10
-461.07
 20
104.42
 30
0.0
 11
-458.77
 21
104.42
 31
0.0
  0
LINE
  5
2F6
330
1F
100
AcDbEntity
  8
0
  6
CONTINUOUS
 62
     7
100
AcDbLine
 10
33.73000000000004
 20
113.72
 30
0.0
 11
41.23000000000005
 21
113.72
 31
0.0
  0
LINE
  5
2F7
330
1F
100
AcDbEntity
  8
0
  6
CONTINUOUS
 62
     7
100
AcDbLine
 10
-408.7699999999999
 20
113.72
 30
0.0
 11
-405.4814093959732
 21
114.9179865771812
 31
0.0
  0
LINE
  5
2F8
330
1F
100
AcDbEntity
  8
0
  6
CONTINUOUS
 62
     7
100
AcDbLine
 10
-408.7699999999999
 20
113.72
 30
0.0
 11
-408.77
 21
111.42
 31
0.0
  0
LINE
  5
2F9
330
1F
100
AcDbEntity
  8
0
  6
CONTINUOUS
 62
     7
100
AcDbLine
 10
33.73000000000004
 20
111.42
 30
0.0
 11
33.73000000000004
 21
113.72
 31
0.0
  0
LINE
  5
2FA
330
1F
100
AcDbEntity
  8
0
  6
CONTINUOUS
 62
     7
100
AcDbLine
 10
-408.7699999999999
 20
113.72
 30
0.0
 11
-416.27
 21
113.72
 31
0.0
  0
LINE
  5
2FB
330
1F
100
AcDbEntity
  8
0
  6
CONTINUOUS
 62
     7
100
AcDbLine
 10
103.2299999999999
 20
113.72
 30
0.0
 11
139.23
 21
113.72
 31
0.0
  0
ARC
  5
2FC
330
1F
100
AcDbEntity
  8
0
  6
CONTINUOUS
 62
     7
100
AcDbCircle
 10
456.77
 20
109.42
 30
0.0
 40
2.000000000000002
210
0.0
220
0.0
230
-1.0
100
AcDbArc
 50
0.0
 51
90.0
  0
LINE
  5
2FD
330
1F
100
AcDbEntity
  8
0
  6
CONTINUOUS
 62
     7
100
AcDbLine
 10
-458.77
 20
101.42
 30
0.0
 11
-461.0699999999999
 21
101.42
 31
0.0
  0
LINE
  5
2FE
330
1F
100
AcDbEntity
  8
0
  6
CONTINUOUS
 62
     7
100
AcDbLine
 10
-358.7699999999999
 20
113.72
 30
0.0
 11
-362.0585906040268
 21
114.9179865771812
 31
0.0
  0
LINE
  5
2FF
330
1F
100
AcDbEntity
  8
0
  6
CONTINUOUS
 62
     7
100
AcDbLine
 10
-398.77
 20
113.72
 30
0.0
 11
-398.77
 21
111.42
 31
0.0
  0
LINE
  5
300
330
1F
100
AcDbEntity
  8
0
  6
CONTINUOUS
 62
     7
100
AcDbLine
 10
-351.2699999999999
 20
104.42
 30
0.0
 11
-354.2699999999999
 21
101.42
 31
0.0
  0
LINE
  5
301
330
1F
100
AcDbEntity
  8
0
  6
CONTINUOUS
 62
     7
100
AcDbLine
 10
51.23
 20
113.72
 30
0.0
 11
58.73
 21
113.72
 31
0.0
  0
LINE
  5
302
330
1F
100
AcDbEntity
  8
0
  6
CONTINUOUS
 62
     7
100
AcDbLine
 10
58.73000000000006
 20
111.42
 30
0.0
 11
58.73000000000006
 21
113.72
 31
0.0
  0
LINE
  5
303
330
1F
100
AcDbEntity
  8
0
  6
CONTINUOUS
 62
     7
100
AcDbLine
 10
-354.2699999999999
 20
101.42
 30
0.0
 11
-373.2699999999999
 21
101.42
 31
0.0
  0
ARC
  5
304
330
1F
100
AcDbEntity
  8
0
  6
CONTINUOUS
 62
     7
100
AcDbCircle
 10
139.2300000000001
 20
109.42
 30
0.0
 40
1.999999999999891
100
AcDbArc
 50
0.0
 51
90.0
  0
LINE
  5
305
330
1F
100
AcDbEntity
  8
0
  6
CONTINUOUS
 62
     7
100
AcDbLine
 10
-391.27
 20
111.42
 30
0.0
 11
-391.27
 21
113.72
 31
0.0
  0
LINE
  5
306
330
1F
100
AcDbEntity
  8
0
  6
CONTINUOUS
 62
     7
100
AcDbLine
 10
-402.0585906040268
 20
114.9179865771812
 30
0.0
 11
-398.7699999999999
 21
113.72
 31
0.0
  0
LINE
  5
307
330
1F
100
AcDbEntity
  8
0
  6
CONTINUOUS
 62
     7
100
AcDbLine
 10
-420.77
 20
113.72
 30
0.0
 11
-456.7699999999999
 21
113.72
 31
0.0
  0
LINE
  5
308
330
1F
100
AcDbEntity
  8
0
  6
CONTINUOUS
 62
     7
100
AcDbLine
 10
141.23
 20
101.42
 30
0.0
 11
143.53
 21
101.42
 31
0.0
  0
LINE
  5
309
330
1F
100
AcDbEntity
  8
0
  6
CONTINUOUS
 62
     7
100
AcDbLine
 10
-456.77
 20
113.72
 30
0.0
 11
-456.3764564882104
 21
114.0502222155949
 31
0.0
  0
LINE
  5
30A
330
1F
100
AcDbEntity
  8
0
  6
CONTINUOUS
 62
     7
100
AcDbLine
 10
73.73000000000008
 20
104.42
 30
0.0
 11
76.73000000000016
 21
101.42
 31
0.0
  0
LINE
  5
30B
330
1F
100
AcDbEntity
  8
0
  6
CONTINUOUS
 62
     7
100
AcDbLine
 10
-373.2699999999999
 20
101.42
 30
0.0
 11
-376.27
 21
104.42
 31
0.0
  0
LINE
  5
30C
330
1F
100
AcDbEntity
  8
0
  6
CONTINUOUS
 62
     7
100
AcDbLine
 10
-365.4814093959732
 20
114.9179865771812
 30
0.0
 11
-368.77
 21
113.72
 31
0.0
  0
LINE
  5
30D
330
1F
100
AcDbEntity
  8
0
  6
CONTINUOUS
 62
     7
100
AcDbLine
 10
-391.27
 20
113.72
 30
0.0
 11
-398.77
 21
113.72
 31
0.0
  0
ARC
  5
30E
330
1F
100
AcDbEntity
  8
0
  6
CONTINUOUS
 62
     7
100
AcDbCircle
 10
403.77
 20
110.22
 30
0.0
 40
5.000000000000004
210
0.0
220
0.0
230
-1.0
100
AcDbArc
 50
69.98404039711748
 51
110.0159596028825
  0
ARC
  5
30F
330
1F
100
AcDbEntity
  8
0
  6
CONTINUOUS
 62
     7
100
AcDbCircle
 10
-103.2299999999999
 20
109.42
 30
0.0
 40
4.299999999999971
210
0.0
220
0.0
230
-1.0
100
AcDbArc
 50
27.71774768960951
 51
89.99999999999999
  0
ARC
  5
310
330
1F
100
AcDbEntity
  8
0
  6
CONTINUOUS
 62
     7
100
AcDbCircle
 10
-363.7699999999999
 20
110.22
 30
0.0
 40
5.000000000000004
100
AcDbArc
 50
69.98404039711748
 51
110.0159596028825
  0
LINE
  5
311
330
1F
100
AcDbEntity
  8
0
  6
CONTINUOUS
 62
     7
100
AcDbLine
 10
-416.27
 20
113.0792348927064
 30
0.0
 11
-416.27
 21
113.72
 31
0.0
  0
LINE
  5
312
330
1F
100
AcDbEntity
  8
0
  6
CONTINUOUS
 62
     7
100
AcDbLine
 10
141.23
 20
72.92000000000004
 30
0.0
 11
141.021287847478
 21
72.92000000000004
 31
0.0
  0
LINE
  5
313
330
1F
100
AcDbEntity
  8
0
  6
CONTINUOUS
 62
     7
100
AcDbLine
 10
143.53
 20
104.42
 30
0.0
 11
141.23
 21
104.42
 31
0.0
  0
ARC
  5
314
330
1F
100
AcDbEntity
  8
0
  6
CONTINUOUS
 62
     7
100
AcDbCircle
 10
-139.2300000000001
 20
109.42
 30
0.0
 40
4.300000000000082
210
0.0
220
0.0
230
-1.0
100
AcDbArc
 50
89.99999999999926
 51
180.0
  0
LWPOLYLINE
  5
315
330
1F
100
AcDbEntity
  8
0
  6
CONTINUOUS
 62
     7
100
AcDbPolyline
 90
       36
 70
     0
 43
0.0
 10
-166.23
 20
509.1700000000001
 10
-166.2299857370321
 20
509.1607491835894
 10
-166.2299799999556
 20
509.1590455549206
 10
-166.2298901093635
 20
509.1443225440686
 10
-166.229452762865
 20
509.1127014542747
 10
-166.2272725875715
 20
509.0421053723
 10
-166.2163499202684
 20
508.8841431237125
 10
-166.1937333516434
 20
508.7049358965081
 10
-166.1601903469005
 20
508.526583703244
 10
-166.1076141529117
 20
508.3218627546411
 10
-166.0576967212236
 20
508.1679365026206
 10
-165.999120552543
 20
508.0158893616795
 10
-165.9315789874706
 20
507.8655955479771
 10
-165.8551891923844
 20
507.7179732426063
 10
-165.7681897563115
 20
507.5707524391282
 10
-165.6718672452605
 20
507.4272193607561
 10
-165.5656958618851
 20
507.2873091489112
 10
-165.4500082823216
 20
507.1521885057262
 10
-165.3474758204834
 20
507.0448420882987
 10
-165.238484049846
 20
506.9415494572427
 10
-165.122619667693
 20
506.8423422086865
 10
-165.0002909858696
 20
506.7480029262301
 10
-164.8688163223721
 20
506.6571766752261
 10
-164.7307353959071
 20
506.5723485084657
 10
-164.585455050041
 20
506.4936701235985
 10
-164.4337756153325
 20
506.4221054845697
 10
-164.3440376360177
 20
506.3845161738869
 10
-164.2523753434071
 20
506.3495836021621
 10
-164.135005060072
 20
506.3097612265331
 10
-164.0148067198139
 20
506.2744726883454
 10
-163.8915128032131
 20
506.2438419709136
 10
-163.7656878170355
 20
506.2182143433709
 10
-163.6351088118236
 20
506.1974780319425
 10
-163.5023204620185
 20
506.1823853049687
 10
-163.3670101050151
 20
506.1731302612355
 10
-163.23
 20
506.1700000000001
210
0.0
220
0.0
230
-1.0
  0
LWPOLYLINE
  5
316
330
1F
100
AcDbEntity
  8
0
  6
CONTINUOUS
 62
     7
100
AcDbPolyline
 90
       31
 70
     0
 43
0.0
 10
-21.76999999999996
 20
186.17
 10
-21.60997853640201
 20
186.1743818085192
 10
-21.4458807172635
 20
186.1879715760921
 10
-21.2779887689345
 20
186.2114823366637
 10
-21.10659322723407
 20
186.2457042679613
 10
-20.9329513773665
 20
186.2912457645341
 10
-20.78698884483954
 20
186.3383559142364
 10
-20.64012854772046
 20
186.3943217213532
 10
-20.49263778136434
 20
186.4597054224715
 10
-20.34482275149796
 20
186.5351452185849
 10
-20.19703674140793
 20
186.6213724112319
 10
-20.04969128239598
 20
186.7192345939693
 10
-19.93975994647057
 20
186.8008589277555
 10
-19.83058648828462
 20
186.8900725240838
 10
-19.72303150631294
 20
186.9868837747021
 10
-19.61798092019395
 20
187.0911844250062
 10
-19.51578808216903
 20
187.2033661685609
 10
-19.41685975037355
 20
187.3238805994476
 10
-19.32166940309599
 20
187.4532525814099
 10
-19.23077522023242
 20
187.5920976312741
 10
-19.16159721554211
 20
187.7104796743101
 10
-19.0959992650499
 20
187.8358263450313
 10
-19.03469937763191
 20
187.9680968699784
 10
-18.97878421812438
 20
188.1062618760125
 10
-18.92874713605497
 20
188.2504774203735
 10
-18.89192381229954
 20
188.3754603362438
 10
-18.85991110923801
 20
188.5049841744959
 10
-18.83311976539992
 20
188.6392313669715
 10
-18.81202380881952
 20
188.7784045314223
 10
-18.79717394446256
 20
188.9227288264805
 10
-18.78921471959685
 20
189.0724548389919
  0
LWPOLYLINE
  5
317
330
1F
100
AcDbEntity
  8
0
  6
CONTINUOUS
 62
     7
100
AcDbPolyline
 90
       27
 70
     0
 43
0.0
 10
166.2283428007971
 20
63.54645191535329
 10
166.2238094377846
 20
63.66460487705883
 10
166.20458050343
 20
63.91617092154822
 10
166.1711943056216
 20
64.17470730303931
 10
166.1226236879791
 20
64.43883616489731
 10
166.0721483211401
 20
64.65342416780706
 10
166.0105915340291
 20
64.87093068839272
 10
165.9371254455384
 20
65.091355788652
 10
165.850766022258
 20
65.3147058495685
 10
165.7503293268581
 20
65.54100001868207
 10
165.6691812310375
 20
65.70446256992446
 10
165.5795236356161
 20
65.86940597894464
 10
165.4815147526535
 20
66.03442600831171
 10
165.3749772006401
 20
66.19888748249863
 10
165.2593575668805
 20
66.36270510586928
 10
165.1339977377506
 20
66.52578275999133
 10
164.9981071380011
 20
66.6880108926673
 10
164.8698140065206
 20
66.82916427559499
 10
164.7319918965945
 20
66.96942428035219
 10
164.5855939468095
 20
67.10697226285528
 10
164.431026769676
 20
67.24078329238631
 10
164.3232150219497
 20
67.3278097785408
 10
164.2114072136375
 20
67.41300412413148
 10
164.0954274107275
 20
67.49627846128764
 10
163.9750803107871
 20
67.57753141769196
 10
163.850149064776
 20
67.65664591469495
 10
163.7203926402015
 20
67.73348658362482
  0
LWPOLYLINE
  5
318
330
1F
100
AcDbEntity
  8
0
  6
CONTINUOUS
 62
     7
100
AcDbPolyline
 90
       28
 70
     0
 43
0.0
 10
-298.7507852804032
 20
189.072454838992
 10
-298.7435308794148
 20
188.932013855933
 10
-298.7299907317156
 20
188.7948134927442
 10
-298.710518182388
 20
188.6607736696744
 10
-298.6854166235522
 20
188.5298275770796
 10
-298.654947371933
 20
188.4019207715262
 10
-298.6096531416294
 20
188.2462471599221
 10
-298.5566965196595
 20
188.0951971394994
 10
-298.4963894637038
 20
187.9487371957112
 10
-298.4290978813783
 20
187.8070697536058
 10
-298.3450504344418
 20
187.6529146667524
 10
-298.254132440908
 20
187.507046356141
 10
-298.1568239870809
 20
187.3691147635005
 10
-298.0535282773819
 20
187.2388504581151
 10
-297.9445880016667
 20
187.1160507855484
 10
-297.8302972909788
 20
187.0005694321967
 10
-297.710910468397
 20
186.8923086108199
 10
-297.5664039100881
 20
186.7757633217265
 10
-297.417666660405
 20
186.6701845736267
 10
-297.2650739107932
 20
186.5751739929515
 10
-297.1089521220582
 20
186.4904295202577
 10
-296.9495894996435
 20
186.415731544239
 10
-296.7872418816633
 20
186.3509325874683
 10
-296.5888029847149
 20
186.286130236109
 10
-296.3867363253653
 20
186.2354479767831
 10
-296.1821346662621
 20
186.19911262959
 10
-295.9764206131974
 20
186.1772948945566
 10
-295.880100246692
 20
186.1720762214703
  0
LWPOLYLINE
  5
319
330
1F
100
AcDbEntity
  8
0
  6
CONTINUOUS
 62
     7
100
AcDbPolyline
 90
       36
 70
     0
 43
0.0
 10
-163.23
 20
546.1700000000003
 10
-163.3615912545355
 20
546.1671125674105
 10
-163.4921588824521
 20
546.1585235017233
 10
-163.6219329996201
 20
546.1442879019706
 10
-163.7501171480037
 20
546.1245690298846
 10
-163.8789285577457
 20
546.098974517974
 10
-164.0055777811901
 20
546.0680129581015
 10
-164.1302866404246
 20
546.0317274442325
 10
-164.2523753434065
 20
545.9904163978382
 10
-164.3439517839931
 20
545.9555181605831
 10
-164.433775615332
 20
545.9178945154299
 10
-164.5787659843632
 20
545.8497071331445
 10
-164.7185948791395
 20
545.7746276674036
 10
-164.8536204078016
 20
545.6926685813581
 10
-164.9829521965771
 20
545.6045756501937
 10
-165.1091055806241
 20
545.5085812401685
 10
-165.2289486235441
 20
545.4070079124659
 10
-165.3427851590626
 20
545.299821323878
 10
-165.4500082823216
 20
545.1878114942741
 10
-165.5612099587901
 20
545.058242603067
 10
-165.6640657740176
 20
544.9236601175156
 10
-165.758863936717
 20
544.7839538994572
 10
-165.8450986104789
 20
544.6401221913402
 10
-165.9241838451765
 20
544.4896110822475
 10
-165.9942637543031
 20
544.335695456219
 10
-166.0555099379275
 20
544.1782130680925
 10
-166.1076141528692
 20
544.0181372455022
 10
-166.1601903469005
 20
543.813416296756
 10
-166.193678523725
 20
543.6354133732619
 10
-166.2163499202684
 20
543.4558568762877
 10
-166.2272725875715
 20
543.2978946277001
 10
-166.229452762865
 20
543.2272985457251
 10
-166.2298901093635
 20
543.1956774559305
 10
-166.2299799999556
 20
543.1809544450656
 10
-166.2299857370321
 20
543.179250816401
 10
-166.23
 20
543.1700000000002
210
0.0
220
0.0
230
-1.0
  0
LWPOLYLINE
  5
31A
330
1F
100
AcDbEntity
  8
0
  6
CONTINUOUS
 62
     7
100
AcDbPolyline
 90
       36
 70
     0
 43
0.0
 10
-163.23
 20
366.17
 10
-163.3615912545355
 20
366.1671125674106
 10
-163.4921588824521
 20
366.158523501723
 10
-163.6219329996201
 20
366.1442879019706
 10
-163.7501171480037
 20
366.1245690298845
 10
-163.8789285577457
 20
366.0989745179741
 10
-164.0055777811906
 20
366.0680129581016
 10
-164.1302866404251
 20
366.0317274442326
 10
-164.2523753434071
 20
365.9904163978381
 10
-164.3439517839935
 20
365.9555181605831
 10
-164.4337756153325
 20
365.91789451543
 10
-164.5787659843635
 20
365.8497071331445
 10
-164.7185948791395
 20
365.7746276674035
 10
-164.8536204078016
 20
365.692668581358
 10
-164.9829521965771
 20
365.6045756501936
 10
-165.1091055806241
 20
365.5085812401686
 10
-165.2289486235441
 20
365.4070079124661
 10
-165.3427851590626
 20
365.2998213238781
 10
-165.4500082823216
 20
365.1878114942741
 10
-165.5612099588016
 20
365.058242603053
 10
-165.6640657740385
 20
364.9236601174866
 10
-165.7588639367457
 20
364.783953899412
 10
-165.8450986105141
 20
364.6401221912781
 10
-165.9241838452157
 20
364.4896110821675
 10
-165.994263754345
 20
364.3356954561196
 10
-166.05550993797
 20
364.1782130679736
 10
-166.10761415291
 20
364.0181372453635
 10
-166.1601903469005
 20
363.813416296756
 10
-166.193678523725
 20
363.6354133732621
 10
-166.2163499202684
 20
363.4558568762875
 10
-166.2272725875715
 20
363.2978946277001
 10
-166.229452762865
 20
363.2272985457256
 10
-166.2298901093635
 20
363.1956774559316
 10
-166.2299799999556
 20
363.1809544450785
 10
-166.2299857370321
 20
363.17925081641
 10
-166.23
 20
363.17
210
0.0
220
0.0
230
-1.0
  0
LWPOLYLINE
  5
31B
330
1F
100
AcDbEntity
  8
0
  6
CONTINUOUS
 62
     7
100
AcDbPolyline
 90
       30
 70
     0
 43
0.0
 10
-298.98
 20
186.17
 10
-298.9676759737825
 20
186.1700151881853
 10
-298.93043991233
 20
186.1702456262622
 10
-298.7889398819681
 20
186.1736517303833
 10
-298.504124028721
 20
186.1926973107958
 10
-298.219498315473
 20
186.2281747109159
 10
-298.0041509128621
 20
186.2661526778323
 10
-297.789582430183
 20
186.3137765692391
 10
-297.5753866201342
 20
186.37134797541
 10
-297.3625207240366
 20
186.4388520640517
 10
-297.1475788444161
 20
186.5178786872474
 10
-296.9346588288385
 20
186.607481014445
 10
-296.723298007327
 20
186.7082406927015
 10
-296.514753571523
 20
186.8199930980652
 10
-296.3703633607274
 20
186.9050502217533
 10
-296.2278193699202
 20
186.9956136044428
 10
-296.086950176136
 20
187.0919780877685
 10
-295.9483156985001
 20
187.1939604760466
 10
-295.810160388338
 20
187.3032032848444
 10
-295.6747570452631
 20
187.4182845243596
 10
-295.5419135028436
 20
187.5396334567886
 10
-295.4123725421881
 20
187.6668536538899
 10
-295.307220360995
 20
187.7772592608177
 10
-295.2047745899542
 20
187.8916356054668
 10
-295.1049135828036
 20
188.0102998149731
 10
-295.0081665532369
 20
188.1328073700912
 10
-294.9130378018665
 20
188.2614232898282
 10
-294.8215777764656
 20
188.3937571052207
 10
-294.7336410032165
 20
188.5302206019372
 10
-294.6498729810781
 20
188.67
210
0.0
220
0.0
230
-1.0
  0
LWPOLYLINE
  5
31C
330
1F
100
AcDbEntity
  8
0
  6
CONTINUOUS
 62
     7
100
AcDbPolyline
 90
       31
 70
     0
 43
0.0
 10
-261.7699999999999
 20
186.17
 10
-261.6099785364019
 20
186.1743818085192
 10
-261.4458807172635
 20
186.1879715760921
 10
-261.2779887689342
 20
186.2114823366637
 10
-261.1065932272339
 20
186.2457042679613
 10
-260.9329513773662
 20
186.2912457645341
 10
-260.7869888448394
 20
186.3383559142364
 10
-260.6401285477202
 20
186.3943217213532
 10
-260.4926377813645
 20
186.4597054224715
 10
-260.3448227514979
 20
186.5351452185849
 10
-260.1970367414078
 20
186.6213724112319
 10
-260.0496912823957
 20
186.7192345939693
 10
-259.9397599464704
 20
186.8008589277555
 10
-259.8305864882847
 20
186.8900725240838
 10
-259.723031506313
 20
186.9868837747021
 10
-259.6179809201937
 20
187.0911844250062
 10
-259.5157880821689
 20
187.2033661685609
 10
-259.4168597503737
 20
187.3238805994476
 10
-259.3216694030959
 20
187.4532525814099
 10
-259.2307752202322
 20
187.5920976312741
 10
-259.1615972155417
 20
187.7104796743101
 10
-259.0959992650499
 20
187.8358263450313
 10
-259.0346993776317
 20
187.9680968699784
 10
-258.9787842181246
 20
188.1062618760125
 10
-258.9287471360547
 20
188.2504774203735
 10
-258.8919238122993
 20
188.3754603362438
 10
-258.8599111092382
 20
188.5049841744959
 10
-258.8331197653997
 20
188.6392313669715
 10
-258.8120238088193
 20
188.7784045314223
 10
-258.7971739444625
 20
188.9227288264805
 10
-258.7892147195967
 20
189.0724548389919
  0
LWPOLYLINE
  5
31D
330
1F
100
AcDbEntity
  8
0
  6
CONTINUOUS
 62
     7
100
AcDbPolyline
 90
       36
 70
     0
 43
0.0
 10
-166.23
 20
329.1700000000001
 10
-166.2299857370321
 20
329.1607491835995
 10
-166.2299799999556
 20
329.1590455549351
 10
-166.2298901093635
 20
329.1443225440696
 10
-166.229452762865
 20
329.112701454275
 10
-166.2272725875715
 20
329.0421053723001
 10
-166.2163499202684
 20
328.8841431237125
 10
-166.1937333516434
 20
328.7049358965086
 10
-166.1601903469005
 20
328.526583703244
 10
-166.1076141528681
 20
328.3218627544941
 10
-166.0576967211785
 20
328.1679365024931
 10
-165.9991205524975
 20
328.0158893615712
 10
-165.9315789874271
 20
327.8655955478866
 10
-165.8551891923452
 20
327.7179732425345
 10
-165.768189756279
 20
327.5707524390756
 10
-165.6718672452361
 20
327.4272193607216
 10
-165.5656958618716
 20
327.2873091488945
 10
-165.4500082823216
 20
327.1521885057261
 10
-165.3474758204834
 20
327.0448420882985
 10
-165.2384840498455
 20
326.9415494572426
 10
-165.122619667693
 20
326.8423422086865
 10
-165.0002909858696
 20
326.74800292623
 10
-164.8688163223721
 20
326.657176675226
 10
-164.7307353959071
 20
326.5723485084656
 10
-164.5854550500404
 20
326.4936701235985
 10
-164.433775615332
 20
326.4221054845696
 10
-164.3440376360177
 20
326.3845161738871
 10
-164.2523753434065
 20
326.3495836021621
 10
-164.1350050600715
 20
326.3097612265331
 10
-164.0148067198139
 20
326.2744726883456
 10
-163.8915128032126
 20
326.2438419709135
 10
-163.7656878170355
 20
326.2182143433711
 10
-163.6351088118231
 20
326.1974780319426
 10
-163.502320462018
 20
326.1823853049685
 10
-163.3670101050151
 20
326.1731302612355
 10
-163.23
 20
326.1700000000001
210
0.0
220
0.0
230
-1.0
  0
LWPOLYLINE
  5
31E
330
1F
100
AcDbEntity
  8
0
  6
CONTINUOUS
 62
     7
100
AcDbPolyline
 90
       28
 70
     0
 43
0.0
 10
-58.75078528040301
 20
189.072454838992
 10
-58.74353087941497
 20
188.932013855933
 10
-58.72999073171536
 20
188.7948134927442
 10
-58.71051818238793
 20
188.6607736696743
 10
-58.68541662355242
 20
188.5298275770796
 10
-58.65494737193288
 20
188.4019207715262
 10
-58.60965314162936
 20
188.2462471599221
 10
-58.55669651965945
 20
188.0951971394994
 10
-58.49638946370406
 20
187.9487371957112
 10
-58.4290978813784
 20
187.8070697536058
 10
-58.34505043444194
 20
187.6529146667524
 10
-58.25413244090793
 20
187.507046356141
 10
-58.156823987081
 20
187.3691147635005
 10
-58.05352827738197
 20
187.2388504581151
 10
-57.94458800166701
 20
187.1160507855484
 10
-57.83029729097899
 20
187.0005694321967
 10
-57.71091046839705
 20
186.8923086108199
 10
-57.56640391008783
 20
186.7757633217265
 10
-57.41766666040493
 20
186.6701845736267
 10
-57.26507391079338
 20
186.5751739929515
 10
-57.10895212205802
 20
186.4904295202577
 10
-56.94958949964346
 20
186.415731544239
 10
-56.7872418816635
 20
186.3509325874683
 10
-56.58880298471491
 20
186.286130236109
 10
-56.3867363253655
 20
186.2354479767831
 10
-56.18213466626187
 20
186.19911262959
 10
-55.9764206131974
 20
186.1772948945566
 10
-55.88010024669187
 20
186.1720762214703
  0
ENDSEC
  0
SECTION
  2
OBJECTS
  0
DICTIONARY
  5
C
330
0
100
AcDbDictionary
  3
ACAD_GROUP
350
D
  3
ACAD_LAYOUT
350
1A
  3
ACAD_MATERIAL
350
43
  3
ACAD_MLEADERSTYLE
350
6B
  3
ACAD_MLINESTYLE
350
17
  3
ACAD_PLOTSETTINGS
350
19
  3
ACAD_SCALELIST
350
47
  3
ACAD_VISUALSTYLE
350
2A
  3
ACDBHEADERROUNDTRIPXREC
350
31F
  3
ACDBVARIABLEDICTIONARY
350
340
  0
DICTIONARY
  5
347
330
8
100
AcDbDictionary
280
     1
  3
ACAD_XREC_ROUNDTRIP
360
348
  0
DICTIONARY
  5
D
102
{ACAD_REACTORS
330
C
102
}
330
C
100
AcDbDictionary
  0
DICTIONARY
  5
1A
102
{ACAD_REACTORS
330
C
102
}
330
C
100
AcDbDictionary
  0
DICTIONARY
  5
43
102
{ACAD_REACTORS
330
C
102
}
330
C
100
AcDbDictionary
  3
BYBLOCK
350
45
  3
BYLAYER
350
44
  3
GLOBAL
350
46
  0
DICTIONARY
  5
6B
102
{ACAD_REACTORS
330
C
102
}
330
C
100
AcDbDictionary
  3
STANDARD
350
6C
  0
DICTIONARY
  5
17
102
{ACAD_REACTORS
330
C
102
}
330
C
100
AcDbDictionary
  3
STANDARD
350
18
  0
DICTIONARY
  5
19
102
{ACAD_REACTORS
330
C
102
}
330
C
100
AcDbDictionary
  0
DICTIONARY
  5
47
102
{ACAD_REACTORS
330
C
102
}
330
C
100
AcDbDictionary
  3
A0
350
48
  3
A1
350
49
  3
A2
350
4A
  3
A3
350
4B
  3
A4
350
4C
  3
A5
350
4D
  3
A6
350
4E
  3
A7
350
4F
  3
A8
350
50
  3
A9
350
51
  3
B0
350
52
  3
B1
350
53
  3
B2
350
54
  3
B3
350
55
  3
B4
350
56
  3
B5
350
57
  3
B6
350
58
  3
B7
350
59
  3
B8
350
5A
  3
B9
350
5B
  3
C0
350
5C
  3
C1
350
5D
  3
C2
350
5E
  3
C3
350
5F
  3
C4
350
60
  3
C5
350
61
  3
C6
350
62
  3
C7
350
63
  3
C8
350
64
  3
C9
350
65
  3
D0
350
66
  3
D1
350
67
  3
D2
350
68
  0
DICTIONARY
  5
2A
102
{ACAD_REACTORS
330
C
102
}
330
C
100
AcDbDictionary
  3
2DWIREFRAME
350
2F
  3
BASIC
350
32
  3
BRIGHTEN
350
36
  3
COLORCHANGE
350
3A
  3
CONCEPTUAL
350
34
  3
DIM
350
35
  3
EDGECOLOROFF
350
3D
  3
FACEPATTERN
350
39
  3
FLAT
350
2B
  3
FLATWITHEDGES
350
2C
  3
GOURAUD
350
2D
  3
GOURAUDWITHEDGES
350
2E
  3
HIDDEN
350
31
  3
JITTEROFF
350
3B
  3
LINEPATTERN
350
38
  3
OVERHANGOFF
350
3C
  3
REALISTIC
350
33
  3
SHADED
350
42
  3
SHADED_WITH_EDGES
350
41
  3
SHADES_OF_GRAY
350
3E
  3
SKETCHY
350
3F
  3
THICKEN
350
37
  3
WIREFRAME
350
30
  3
X-RAY
350
40
  0
DICTIONARY
  5
31F
102
{ACAD_REACTORS
330
C
102
}
330
C
100
AcDbDictionary
  3
CEPSNID
350
329
  3
CEPSNTYPE
350
328
  3
DIMSTYLEDATA
350
33F
  3
FINGERPRINTGUID
350
32A
  3
HYPERLINKBASE
350
322
  3
INSUNITS
350
327
  3
LAYOUTDICT
350
324
  3
LWETCUNION
350
326
  3
PLOTSETDICT
350
325
  3
PSVPSCALE
350
32C
  3
PUCSBASE
350
32F
  3
PUCSORGBACK
350
335
  3
PUCSORGBOTTOM
350
331
  3
PUCSORGFRONT
350
334
  3
PUCSORGLEFT
350
332
  3
PUCSORGRIGHT
350
333
  3
PUCSORGTOP
350
330
  3
PUCSORTHOREF
350
32D
  3
PUCSORTHOVIEW
350
32E
  3
STYLESHEET
350
323
  3
TSTACKALIGN
350
320
  3
TSTACKSIZE
350
321
  3
UCSBASE
350
338
  3
UCSORGBACK
350
33E
  3
UCSORGBOTTOM
350
33A
  3
UCSORGFRONT
350
33D
  3
UCSORGLEFT
350
33B
  3
UCSORGRIGHT
350
33C
  3
UCSORGTOP
350
339
  3
UCSORTHOREF
350
336
  3
UCSORTHOVIEW
350
337
  3
VERSIONGUID
350
32B
  0
DICTIONARY
  5
340
102
{ACAD_REACTORS
330
C
102
}
330
C
100
AcDbDictionary
  3
CANNOSCALE
350
349
  3
CMLEADERSTYLE
350
342
  3
CTABLESTYLE
350
341
  3
DIMASSOC
350
345
  3
HIDETEXT
350
346
  3
MSLTSCALE
350
34A
  0
XRECORD
  5
348
102
{ACAD_REACTORS
330
347
102
}
330
347
100
AcDbXrecord
102
VTR_0.000_0.000_1.000_1.000_VISUALSTYLE
340
2F
102
VTR_0.000_0.000_1.000_1.000_GRIDDISPLAY
 70
     3
102
VTR_0.000_0.000_1.000_1.000_GRIDMAJOR
 70
     5
102
VTR_0.000_0.000_1.000_1.000_DEFAULTLIGHTING
280
     1
102
VTR_0.000_0.000_1.000_1.000_DEFAULTLIGHTINGTYPE
 70
     1
102
VTR_0.000_0.000_1.000_1.000_BRIGHTNESS
141
0.0
102
VTR_0.000_0.000_1.000_1.000_CONTRAST
142
0.0
  0
MATERIAL
  5
45
102
{ACAD_REACTORS
330
43
102
}
102
{ACAD_XDICTIONARY
360
34D
102
}
330
43
100
AcDbMaterial
  1
BYBLOCK
  0
MATERIAL
  5
44
102
{ACAD_REACTORS
330
43
102
}
102
{ACAD_XDICTIONARY
360
34B
102
}
330
43
100
AcDbMaterial
  1
BYLAYER
  0
MATERIAL
  5
46
102
{ACAD_REACTORS
330
43
102
}
102
{ACAD_XDICTIONARY
360
34F
102
}
330
43
100
AcDbMaterial
  1
GLOBAL
  0
ACAD_PROXY_OBJECT
  5
6C
102
{ACAD_REACTORS
330
6B
102
}
330
6B
100
AcDbProxyObject
 90
      499
 91
      505
 93
      610
310
40901902A4063FBFFFFFE056BD1B81E855B9FC0AD7A3703D0AD73F4214DD185B99185C9900AD7A3703D0AC73F90141901A02B5E8DC0F42B1CFC02B5E8DC0F42B1CFE5764000000000000300FC0
340
14
340
0
340
11
340
0
 94
        0
1001
ACAD_MLEADERVER
1070
     2
  0
MLINESTYLE
  5
18
102
{ACAD_REACTORS
330
17
102
}
330
17
100
AcDbMlineStyle
  2
Standard
 70
     0
  3

 62
   256
 51
90.0
 52
90.0
 71
     2
 49
0.5
 62
   256
  6
BYLAYER
 49
-0.5
 62
   256
  6
BYLAYER
  0
ACAD_PROXY_OBJECT
  5
48
102
{ACAD_REACTORS
330
47
102
}
330
47
100
AcDbProxyObject
 90
      499
 91
      503
 93
       41
310
903313A31580
  0
ACAD_PROXY_OBJECT
  5
49
102
{ACAD_REACTORS
330
47
102
}
330
47
100
AcDbProxyObject
 90
      499
 91
      503
 93
      105
310
903313A324000000000000004000
  0
ACAD_PROXY_OBJECT
  5
4A
102
{ACAD_REACTORS
330
47
102
}
330
47
100
AcDbProxyObject
 90
      499
 91
      503
 93
      105
310
903313A344000000000000104000
  0
ACAD_PROXY_OBJECT
  5
4B
102
{ACAD_REACTORS
330
47
102
}
330
47
100
AcDbProxyObject
 90
      499
 91
      503
 93
      105
310
903313A354000000000000144000
  0
ACAD_PROXY_OBJECT
  5
4C
102
{ACAD_REACTORS
330
47
102
}
330
47
100
AcDbProxyObject
 90
      499
 91
      503
 93
      105
310
903313A384000000000000204000
  0
ACAD_PROXY_OBJECT
  5
4D
102
{ACAD_REACTORS
330
47
102
}
330
47
100
AcDbProxyObject
 90
      499
 91
      503
 93
      113
310
904313A31304000000000000244000
  0
ACAD_PROXY_OBJECT
  5
4E
102
{ACAD_REACTORS
330
47
102
}
330
47
100
AcDbProxyObject
 90
      499
 91
      503
 93
      113
310
904313A31364000000000000304000
  0
ACAD_PROXY_OBJECT
  5
4F
102
{ACAD_REACTORS
330
47
102
}
330
47
100
AcDbProxyObject
 90
      499
 91
      503
 93
      113
310
904313A32304000000000000344000
  0
ACAD_PROXY_OBJECT
  5
50
102
{ACAD_REACTORS
330
47
102
}
330
47
100
AcDbProxyObject
 90
      499
 91
      503
 93
      113
310
904313A333040000000000003E4000
  0
ACAD_PROXY_OBJECT
  5
51
102
{ACAD_REACTORS
330
47
102
}
330
47
100
AcDbProxyObject
 90
      499
 91
      503
 93
      113
310
904313A34304000000000000444000
  0
ACAD_PROXY_OBJECT
  5
52
102
{ACAD_REACTORS
330
47
102
}
330
47
100
AcDbProxyObject
 90
      499
 91
      503
 93
      113
310
904313A35304000000000000494000
  0
ACAD_PROXY_OBJECT
  5
53
102
{ACAD_REACTORS
330
47
102
}
330
47
100
AcDbProxyObject
 90
      499
 91
      503
 93
      121
310
905313A3130304000000000000594000
  0
ACAD_PROXY_OBJECT
  5
54
102
{ACAD_REACTORS
330
47
102
}
330
47
100
AcDbProxyObject
 90
      499
 91
      503
 93
      105
310
903323A310000000000000010100
  0
ACAD_PROXY_OBJECT
  5
55
102
{ACAD_REACTORS
330
47
102
}
330
47
100
AcDbProxyObject
 90
      499
 91
      503
 93
      105
310
903343A310000000000000410100
  0
ACAD_PROXY_OBJECT
  5
56
102
{ACAD_REACTORS
330
47
102
}
330
47
100
AcDbProxyObject
 90
      499
 91
      503
 93
      105
310
903383A310000000000000810100
  0
ACAD_PROXY_OBJECT
  5
57
102
{ACAD_REACTORS
330
47
102
}
330
47
100
AcDbProxyObject
 90
      499
 91
      503
 93
      113
310
90431303A310000000000000910100
  0
ACAD_PROXY_OBJECT
  5
58
102
{ACAD_REACTORS
330
47
102
}
330
47
100
AcDbProxyObject
 90
      499
 91
      503
 93
      121
310
9053130303A310000000000001650100
  0
ACAD_PROXY_OBJECT
  5
59
102
{ACAD_REACTORS
330
47
102
}
330
47
100
AcDbProxyObject
 90
      499
 91
      503
 93
      257
310
90E312F31323822203D2031272D3022000000000000200FC000000000000284000
  0
ACAD_PROXY_OBJECT
  5
5A
102
{ACAD_REACTORS
330
47
102
}
330
47
100
AcDbProxyObject
 90
      499
 91
      503
 93
      249
310
90D312F363422203D2031272D3022000000000000240FC000000000000284000
  0
ACAD_PROXY_OBJECT
  5
5B
102
{ACAD_REACTORS
330
47
102
}
330
47
100
AcDbProxyObject
 90
      499
 91
      503
 93
      249
310
90D312F333222203D2031272D3022000000000000280FC000000000000284000
  0
ACAD_PROXY_OBJECT
  5
5C
102
{ACAD_REACTORS
330
47
102
}
330
47
100
AcDbProxyObject
 90
      499
 91
      503
 93
      249
310
90D312F313622203D2031272D30220000000000002C0FC000000000000284000
  0
ACAD_PROXY_OBJECT
  5
5D
102
{ACAD_REACTORS
330
47
102
}
330
47
100
AcDbProxyObject
 90
      499
 91
      503
 93
      249
310
90D332F333222203D2031272D30220000000000002E0FC000000000000284000
  0
ACAD_PROXY_OBJECT
  5
5E
102
{ACAD_REACTORS
330
47
102
}
330
47
100
AcDbProxyObject
 90
      499
 91
      503
 93
      241
310
90C312F3822203D2031272D3022000000000000300FC000000000000284000
  0
ACAD_PROXY_OBJECT
  5
5F
102
{ACAD_REACTORS
330
47
102
}
330
47
100
AcDbProxyObject
 90
      499
 91
      503
 93
      249
310
90D332F313622203D2031272D3022000000000000320FC000000000000284000
  0
ACAD_PROXY_OBJECT
  5
60
102
{ACAD_REACTORS
330
47
102
}
330
47
100
AcDbProxyObject
 90
      499
 91
      503
 93
      241
310
90C312F3422203D2031272D3022000000000000340FC000000000000284000
  0
ACAD_PROXY_OBJECT
  5
61
102
{ACAD_REACTORS
330
47
102
}
330
47
100
AcDbProxyObject
 90
      499
 91
      503
 93
      241
310
90C332F3822203D2031272D3022000000000000360FC000000000000284000
  0
ACAD_PROXY_OBJECT
  5
62
102
{ACAD_REACTORS
330
47
102
}
330
47
100
AcDbProxyObject
 90
      499
 91
      503
 93
      241
310
90C312F3222203D2031272D3022000000000000380FC000000000000284000
  0
ACAD_PROXY_OBJECT
  5
63
102
{ACAD_REACTORS
330
47
102
}
330
47
100
AcDbProxyObject
 90
      499
 91
      503
 93
      241
310
90C332F3422203D2031272D30220000000000003A0FC000000000000284000
  0
ACAD_PROXY_OBJECT
  5
64
102
{ACAD_REACTORS
330
47
102
}
330
47
100
AcDbProxyObject
 90
      499
 91
      503
 93
      161
310
90A3122203D2031272D30224000000000000284000
  0
ACAD_PROXY_OBJECT
  5
65
102
{ACAD_REACTORS
330
47
102
}
330
47
100
AcDbProxyObject
 90
      499
 91
      503
 93
      257
310
90E312D312F3222203D2031272D30220000000000003E0FC000000000000284000
  0
ACAD_PROXY_OBJECT
  5
66
102
{ACAD_REACTORS
330
47
102
}
330
47
100
AcDbProxyObject
 90
      499
 91
      503
 93
      225
310
90A3322203D2031272D302200000000000002100000000000000284000
  0
ACAD_PROXY_OBJECT
  5
67
102
{ACAD_REACTORS
330
47
102
}
330
47
100
AcDbProxyObject
 90
      499
 91
      503
 93
      225
310
90A3622203D2031272D302200000000000006100000000000000284000
  0
ACAD_PROXY_OBJECT
  5
68
102
{ACAD_REACTORS
330
47
102
}
330
47
100
AcDbProxyObject
 90
      499
 91
      503
 93
      249
310
90D31272D3022203D2031272D30220000000000000A100000000000000284000
  0
ACAD_PROXY_OBJECT
  5
2F
102
{ACAD_REACTORS
330
2A
102
}
330
2A
100
AcDbProxyObject
 90
      499
 91
      501
 93
      436
310
42CC9915DA5C99599C985B595049028333333333333E33F0000000000000F90107901411070040501600405405064090741402480A0340
1001
ACAD
1000
AcDbSavedByObjectVersion
1070
     0
  0
ACAD_PROXY_OBJECT
  5
32
102
{ACAD_REACTORS
330
2A
102
}
330
2A
100
AcDbProxyObject
 90
      499
 91
      501
 93
      388
310
4150985CDA58D07406404333333333333E33F0000000000000F90107A41107004050150841D405064090741402480A0350
1001
ACAD
1000
AcDbSavedByObjectVersion
1070
     0
  0
ACAD_PROXY_OBJECT
  5
36
102
{ACAD_REACTORS
330
2A
102
}
330
2A
100
AcDbProxyObject
 90
      499
 91
      501
 93
      428
310
42109C9A59DA1D195B90C409028333333333333E33F0000000000000F9010790141107004050150841D405064090741402480A029950
1001
ACAD
1000
AcDbSavedByObjectVersion
1070
     0
  0
ACAD_PROXY_OBJECT
  5
3A
102
{ACAD_REACTORS
330
2A
102
}
330
2A
100
AcDbProxyObject
 90
      499
 91
      501
 93
      452
310
42D0DBDB1BDC90DA185B99D95104090240C333333333333E33F0000000000000F90108901411070040501508421405064090741402480A0350
1001
ACAD
1000
AcDbSavedByObjectVersion
1070
     0
  0
ACAD_PROXY_OBJECT
  5
34
102
{ACAD_REACTORS
330
2A
102
}
330
2A
100
AcDbProxyObject
 90
      499
 91
      501
 93
      500
310
4290DBDB98D95C1D1D585B10940D028333333333333E33F0000000000000F90107902409070040501000000000018199010841D405064090740C02480A0340
1001
ACAD
1000
AcDbSavedByObjectVersion
1070
     0
  0
ACAD_PROXY_OBJECT
  5
35
102
{ACAD_REACTORS
330
2A
102
}
330
2A
100
AcDbProxyObject
 90
      499
 91
      501
 93
      412
310
40D11A5B50B409028333333333333E33F0000000000000F9010790141107004050150841D405064090741402480A02677FFFFFD0
1001
ACAD
1000
AcDbSavedByObjectVersion
1070
     0
  0
ACAD_PROXY_OBJECT
  5
3D
102
{ACAD_REACTORS
330
2A
102
}
330
2A
100
AcDbProxyObject
 90
      499
 91
      501
 93
      452
310
43115919D950DBDB1BDC93D999916409028333333333333E33F0000000000000F9010790141107004050150841D405064090741402480A0350
1001
ACAD
1000
AcDbSavedByObjectVersion
1070
     0
  0
ACAD_PROXY_OBJECT
  5
39
102
{ACAD_REACTORS
330
2A
102
}
330
2A
100
AcDbProxyObject
 90
      499
 91
      501
 93
      444
310
42D19858D95C185D1D195C9B90F409028333333333333E33F0000000000000F9010790141107004050150841D405064090741402480A0350
1001
ACAD
1000
AcDbSavedByObjectVersion
1070
     0
  0
ACAD_PROXY_OBJECT
  5
2B
102
{ACAD_REACTORS
330
2A
102
}
330
2A
100
AcDbProxyObject
 90
      499
 91
      501
 93
      380
310
41119B185D240901404333333333333E33F0000000000000F9010740A907004050150841D405064090741402480A1B50
1001
ACAD
1000
AcDbSavedByObjectVersion
1070
     0
  0
ACAD_PROXY_OBJECT
  5
2C
102
{ACAD_REACTORS
330
2A
102
}
330
2A
100
AcDbProxyObject
 90
      499
 91
      501
 93
      468
310
43519B185D15DA5D1A115919D95CD0140901404333333333333E33F0000000000000F90107409019070040501600405405064090741402480A1B50
1001
ACAD
1000
AcDbSavedByObjectVersion
1070
     0
  0
ACAD_PROXY_OBJECT
  5
2D
102
{ACAD_REACTORS
330
2A
102
}
330
2A
100
AcDbProxyObject
 90
      499
 91
      501
 93
      404
310
41D1DBDD5C985D5910240902404333333333333E33F0000000000000F9010740A9070040501641D405064090741402480A1B50
1001
ACAD
1000
AcDbSavedByObjectVersion
1070
     0
  0
ACAD_PROXY_OBJECT
  5
2E
102
{ACAD_REACTORS
330
2A
102
}
330
2A
100
AcDbProxyObject
 90
      499
 91
      501
 93
      492
310
4411DBDD5C985D5915DA5D1A115919D95CD0340902404333333333333E33F0000000000000F90107409019070040501600405405064090741402480A1B50
1001
ACAD
1000
AcDbSavedByObjectVersion
1070
     0
  0
ACAD_PROXY_OBJECT
  5
31
102
{ACAD_REACTORS
330
2A
102
}
330
2A
100
AcDbProxyObject
 90
      499
 91
      501
 93
      476
310
41921A5919195B90640502408333333333333E33F0000000000000F901079024090700405020000000000001110200405405064090740C02480A0340
1001
ACAD
1000
AcDbSavedByObjectVersion
1070
     0
  0
ACAD_PROXY_OBJECT
  5
3B
102
{ACAD_REACTORS
330
2A
102
}
330
2A
100
AcDbProxyObject
 90
      499
 91
      501
 93
      428
310
42529A5D1D195C93D999914409028333333333333E33F0000000000000F9010790141107004050150A41D405064090741402480A0350
1001
ACAD
1000
AcDbSavedByObjectVersion
1070
     0
  0
ACAD_PROXY_OBJECT
  5
38
102
{ACAD_REACTORS
330
2A
102
}
330
2A
100
AcDbProxyObject
 90
      499
 91
      501
 93
      444
310
42D31A5B995C185D1D195C9B90E409028333333333333E33F0000000000000F9010790141107004050750841D405064090741402483A0350
1001
ACAD
1000
AcDbSavedByObjectVersion
1070
     0
  0
ACAD_PROXY_OBJECT
  5
3C
102
{ACAD_REACTORS
330
2A
102
}
330
2A
100
AcDbProxyObject
 90
      499
 91
      501
 93
      444
310
42D3DD995C9A185B99D3D999915409028333333333333E33F0000000000000F9010790141107004050150941D405064090741402480A0350
1001
ACAD
1000
AcDbSavedByObjectVersion
1070
     0
  0
ACAD_PROXY_OBJECT
  5
33
102
{ACAD_REACTORS
330
2A
102
}
330
2A
100
AcDbProxyObject
 90
      499
 91
      501
 93
      428
310
425499585B1A5CDD1A58D08409038333333333333E33F0000000000000F9010740A907004050150800405405064090740C02480A1B40
1001
ACAD
1000
AcDbSavedByObjectVersion
1070
     0
  0
ACAD_PROXY_OBJECT
  5
42
102
{ACAD_REACTORS
330
2A
102
}
330
2A
100
AcDbProxyObject
 90
      499
 91
      501
 93
      420
310
4194DA1859195911B40902404333333333333E33F0000000000000F9010740A41107004050150800405405064090840C02480A0B40
1001
ACAD
1000
AcDbSavedByObjectVersion
1070
     0
  0
ACAD_PROXY_OBJECT
  5
41
102
{ACAD_REACTORS
330
2A
102
}
330
2A
100
AcDbProxyObject
 90
      499
 91
      501
 93
      516
310
4454DA18591959081DDA5D1A08195919D95CD1A40902404333333333333E33F0000000000000F901074090142907004050250800405405064090740C02480A0B40
1001
ACAD
1000
AcDbSavedByObjectVersion
1070
     0
  0
ACAD_PROXY_OBJECT
  5
3E
102
{ACAD_REACTORS
330
2A
102
}
330
2A
100
AcDbProxyObject
 90
      499
 91
      501
 93
      532
310
4394DA1859195CC81BD98811DC985E5174090240C333333333333E33F0000000000000F901079024090741D01000000000000111010841D405064090740C02480A0340
1001
ACAD
1000
AcDbSavedByObjectVersion
1070
     0
  0
ACAD_PROXY_OBJECT
  5
3F
102
{ACAD_REACTORS
330
2A
102
}
330
2A
100
AcDbProxyObject
 90
      499
 91
      501
 93
      476
310
41D4DAD95D18DA1E51840502408333333333333E33F0000000000000F901079024090741D01000000000000111010B41D405064090741802480A0340
1001
ACAD
1000
AcDbSavedByObjectVersion
1070
     0
  0
ACAD_PROXY_OBJECT
  5
37
102
{ACAD_REACTORS
330
2A
102
}
330
2A
100
AcDbProxyObject
 90
      499
 91
      501
 93
      412
310
41D51A1A58DAD95B90D409028333333333333E33F0000000000000F9010790141107004050150C41D405064090741402480A0350
1001
ACAD
1000
AcDbSavedByObjectVersion
1070
     0
  0
ACAD_PROXY_OBJECT
  5
30
102
{ACAD_REACTORS
330
2A
102
}
330
2A
100
AcDbProxyObject
 90
      499
 91
      501
 93
      420
310
4255DA5C99599C985B595059028333333333333E33F0000000000000F90107901411070040501600405405064090740C02480A0340
1001
ACAD
1000
AcDbSavedByObjectVersion
1070
     0
  0
ACAD_PROXY_OBJECT
  5
40
102
{ACAD_REACTORS
330
2A
102
}
330
2A
100
AcDbProxyObject
 90
      499
 91
      501
 93
      404
310
41560B54985E51940902404000000000000E03F0000000000000F9010740501907004050150841D405064090740C02480A1B40
1001
ACAD
1000
AcDbSavedByObjectVersion
1070
     0
  0
XRECORD
  5
329
102
{ACAD_REACTORS
330
31F
102
}
330
31F
100
AcDbXrecord
340
0
  0
XRECORD
  5
328
102
{ACAD_REACTORS
330
31F
102
}
330
31F
100
AcDbXrecord
 90
        0
  0
XRECORD
  5
33F
102
{ACAD_REACTORS
330
31F
102
}
330
31F
100
AcDbXrecord
1000
DSTYLE
1002
{
1070
   179
 70
     2
1070
   171
 70
     2
1070
   143
 40
25.4
1070
   274
 70
     2
1070
    41
 40
3.0
1070
   141
 40
0.09
1070
    43
 40
0.38
1070
   278
 70
    46
1070
    44
 40
1.5
1070
    42
 40
0.0625
1070
   147
 40
1.5
1070
   272
 70
     4
1070
    73
 70
     1
1070
   172
 70
     0
1070
    74
 70
     1
1070
   283
 70
     1
1070
   340
340
6E
1070
   140
 40
3.0
1070
   284
 70
     0
1070
    78
 70
     0
1002
}
  0
XRECORD
  5
32A
102
{ACAD_REACTORS
330
31F
102
}
330
31F
100
AcDbXrecord
  1
{98923404-4BEF-4058-990D-97314360EBBE}
  0
XRECORD
  5
322
102
{ACAD_REACTORS
330
31F
102
}
330
31F
100
AcDbXrecord
  1

  0
XRECORD
  5
327
102
{ACAD_REACTORS
330
31F
102
}
330
31F
100
AcDbXrecord
 90
        4
  0
XRECORD
  5
324
102
{ACAD_REACTORS
330
31F
102
}
330
31F
100
AcDbXrecord
340
1A
  0
XRECORD
  5
326
102
{ACAD_REACTORS
330
31F
102
}
330
31F
100
AcDbXrecord
 90
    10269
  0
XRECORD
  5
325
102
{ACAD_REACTORS
330
31F
102
}
330
31F
100
AcDbXrecord
340
19
  0
XRECORD
  5
32C
102
{ACAD_REACTORS
330
31F
102
}
330
31F
100
AcDbXrecord
 40
0.0
  0
XRECORD
  5
32F
102
{ACAD_REACTORS
330
31F
102
}
330
31F
100
AcDbXrecord
340
0
  0
XRECORD
  5
335
102
{ACAD_REACTORS
330
31F
102
}
330
31F
100
AcDbXrecord
 10
0.0
 20
0.0
 30
0.0
  0
XRECORD
  5
331
102
{ACAD_REACTORS
330
31F
102
}
330
31F
100
AcDbXrecord
 10
0.0
 20
0.0
 30
0.0
  0
XRECORD
  5
334
102
{ACAD_REACTORS
330
31F
102
}
330
31F
100
AcDbXrecord
 10
0.0
 20
0.0
 30
0.0
  0
XRECORD
  5
332
102
{ACAD_REACTORS
330
31F
102
}
330
31F
100
AcDbXrecord
 10
0.0
 20
0.0
 30
0.0
  0
XRECORD
  5
333
102
{ACAD_REACTORS
330
31F
102
}
330
31F
100
AcDbXrecord
 10
0.0
 20
0.0
 30
0.0
  0
XRECORD
  5
330
102
{ACAD_REACTORS
330
31F
102
}
330
31F
100
AcDbXrecord
 10
0.0
 20
0.0
 30
0.0
  0
XRECORD
  5
32D
102
{ACAD_REACTORS
330
31F
102
}
330
31F
100
AcDbXrecord
340
0
  0
XRECORD
  5
32E
102
{ACAD_REACTORS
330
31F
102
}
330
31F
100
AcDbXrecord
 70
     0
  0
XRECORD
  5
323
102
{ACAD_REACTORS
330
31F
102
}
330
31F
100
AcDbXrecord
  1

  0
XRECORD
  5
320
102
{ACAD_REACTORS
330
31F
102
}
330
31F
100
AcDbXrecord
 90
        1
  0
XRECORD
  5
321
102
{ACAD_REACTORS
330
31F
102
}
330
31F
100
AcDbXrecord
 90
       70
  0
XRECORD
  5
338
102
{ACAD_REACTORS
330
31F
102
}
330
31F
100
AcDbXrecord
340
0
  0
XRECORD
  5
33E
102
{ACAD_REACTORS
330
31F
102
}
330
31F
100
AcDbXrecord
 10
0.0
 20
0.0
 30
0.0
  0
XRECORD
  5
33A
102
{ACAD_REACTORS
330
31F
102
}
330
31F
100
AcDbXrecord
 10
0.0
 20
0.0
 30
0.0
  0
XRECORD
  5
33D
102
{ACAD_REACTORS
330
31F
102
}
330
31F
100
AcDbXrecord
 10
0.0
 20
0.0
 30
0.0
  0
XRECORD
  5
33B
102
{ACAD_REACTORS
330
31F
102
}
330
31F
100
AcDbXrecord
 10
0.0
 20
0.0
 30
0.0
  0
XRECORD
  5
33C
102
{ACAD_REACTORS
330
31F
102
}
330
31F
100
AcDbXrecord
 10
0.0
 20
0.0
 30
0.0
  0
XRECORD
  5
339
102
{ACAD_REACTORS
330
31F
102
}
330
31F
100
AcDbXrecord
 10
0.0
 20
0.0
 30
0.0
  0
XRECORD
  5
336
102
{ACAD_REACTORS
330
31F
102
}
330
31F
100
AcDbXrecord
340
0
  0
XRECORD
  5
337
102
{ACAD_REACTORS
330
31F
102
}
330
31F
100
AcDbXrecord
 70
     0
  0
XRECORD
  5
32B
102
{ACAD_REACTORS
330
31F
102
}
330
31F
100
AcDbXrecord
  1
{FAEB1C32-E019-11D5-929B-00C0DF256EC4}
  0
DICTIONARYVAR
  5
349
102
{ACAD_REACTORS
330
340
102
}
330
340
100
DictionaryVariables
280
     0
  1
1:1
  0
DICTIONARYVAR
  5
342
102
{ACAD_REACTORS
330
340
102
}
330
340
100
DictionaryVariables
280
     0
  1
Standard
  0
DICTIONARYVAR
  5
341
102
{ACAD_REACTORS
330
340
102
}
330
340
100
DictionaryVariables
280
     0
  1
Standard
  0
DICTIONARYVAR
  5
345
102
{ACAD_REACTORS
330
340
102
}
330
340
100
DictionaryVariables
280
     0
  1
2
  0
DICTIONARYVAR
  5
346
102
{ACAD_REACTORS
330
340
102
}
330
340
100
DictionaryVariables
280
     0
  1
1
  0
DICTIONARYVAR
  5
34A
102
{ACAD_REACTORS
330
340
102
}
330
340
100
DictionaryVariables
280
     0
  1
1
  0
DICTIONARY
  5
34D
330
45
100
AcDbDictionary
280
     1
  3
ACAD_XREC_ROUNDTRIP
360
34E
  0
DICTIONARY
  5
34B
330
44
100
AcDbDictionary
280
     1
  3
ACAD_XREC_ROUNDTRIP
360
34C
  0
DICTIONARY
  5
34F
330
46
100
AcDbDictionary
280
     1
  3
ACAD_XREC_ROUNDTRIP
360
350
  0
XRECORD
  5
34E
102
{ACAD_REACTORS
330
34D
102
}
330
34D
100
AcDbXrecord
102
MATERIAL
148
0.0
149
0.0
149
0.0
 93
        0
 94
      127
282
     0
 72
     1
 77
     1
171
     1
175
     1
179
     1
273
     0
  0
XRECORD
  5
34C
102
{ACAD_REACTORS
330
34B
102
}
330
34B
100
AcDbXrecord
102
MATERIAL
148
0.0
149
0.0
149
0.0
 93
        0
 94
      127
282
     0
 72
     1
 77
     1
171
     1
175
     1
179
     1
273
     0
  0
XRECORD
  5
350
102
{ACAD_REACTORS
330
34F
102
}
330
34F
100
AcDbXrecord
102
MATERIAL
148
0.0
149
0.0
149
0.0
 93
        0
 94
      127
282
     0
 72
     1
 77
     1
171
     1
175
     1
179
     1
273
     0
  0
ENDSEC
  0
EOF
