  0
SECTION
  2
HEADER
  9
$ACADVER
  1
AC1014
  9
$ACADMAINTVER
 70
     9
  9
$DWGCODEPAGE
  3
ANSI_932
  9
$INSBASE
 10
0.0
 20
0.0
 30
0.0
  9
$EXTMIN
 10
-448.9999999999999
 20
37.17047642866074
 30
0.0
  9
$EXTMAX
 10
274.0000000000001
 20
676.8000000000001
 30
0.0
  9
$LIMMIN
 10
0.0
 20
0.0
  9
$LIMMAX
 10
12.0
 20
9.0
  9
$ORTHOMODE
 70
     0
  9
$REGENMODE
 70
     1
  9
$FILLMODE
 70
     1
  9
$QTEXTMODE
 70
     0
  9
$MIRRTEXT
 70
     1
  9
$DRAGMODE
 70
     2
  9
$LTSCALE
 40
1.0
  9
$OSMODE
 70
    37
  9
$ATTMODE
 70
     1
  9
$TEXTSIZE
 40
0.2
  9
$TRACEWID
 40
0.05
  9
$TEXTSTYLE
  7
STANDARD
  9
$CLAYER
  8
0
  9
$CELTYPE
  6
BYLAYER
  9
$CECOLOR
 62
   256
  9
$CELTSCALE
 40
1.0
  9
$DELOBJ
 70
     1
  9
$DISPSILH
 70
     0
  9
$DIMSCALE
 40
1.0
  9
$DIMASZ
 40
3.0
  9
$DIMEXO
 40
0.0625
  9
$DIMDLI
 40
0.38
  9
$DIMRND
 40
0.0
  9
$DIMDLE
 40
0.0
  9
$DIMEXE
 40
1.5
  9
$DIMTP
 40
0.0
  9
$DIMTM
 40
0.0
  9
$DIMTXT
 40
3.0
  9
$DIMCEN
 40
0.09
  9
$DIMTSZ
 40
0.0
  9
$DIMTOL
 70
     0
  9
$DIMLIM
 70
     0
  9
$DIMTIH
 70
     1
  9
$DIMTOH
 70
     1
  9
$DIMSE1
 70
     0
  9
$DIMSE2
 70
     0
  9
$DIMTAD
 70
     1
  9
$DIMZIN
 70
     0
  9
$DIMBLK
  1

  9
$DIMASO
 70
     1
  9
$DIMSHO
 70
     1
  9
$DIMPOST
  1

  9
$DIMAPOST
  1

  9
$DIMALT
 70
     0
  9
$DIMALTD
 70
     2
  9
$DIMALTF
 40
25.4
  9
$DIMLFAC
 40
1.0
  9
$DIMTOFL
 70
     0
  9
$DIMTVP
 40
0.0
  9
$DIMTIX
 70
     0
  9
$DIMSOXD
 70
     0
  9
$DIMSAH
 70
     0
  9
$DIMBLK1
  1

  9
$DIMBLK2
  1

  9
$DIMSTYLE
  2
STANDARD
  9
$DIMCLRD
 70
     0
  9
$DIMCLRE
 70
     0
  9
$DIMCLRT
 70
     0
  9
$DIMTFAC
 40
1.0
  9
$DIMGAP
 40
1.5
  9
$DIMJUST
 70
     0
  9
$DIMSD1
 70
     0
  9
$DIMSD2
 70
     0
  9
$DIMTOLJ
 70
     1
  9
$DIMTZIN
 70
     0
  9
$DIMALTZ
 70
     0
  9
$DIMALTTZ
 70
     0
  9
$DIMFIT
 70
     3
  9
$DIMUPT
 70
     0
  9
$DIMUNIT
 70
     2
  9
$DIMDEC
 70
     2
  9
$DIMTDEC
 70
     4
  9
$DIMALTU
 70
     2
  9
$DIMALTTD
 70
     2
  9
$DIMTXSTY
  7
ＭＳ_ゴシック
  9
$DIMAUNIT
 70
     0
  9
$LUNITS
 70
     2
  9
$LUPREC
 70
     4
  9
$SKETCHINC
 40
0.1
  9
$FILLETRAD
 40
0.5
  9
$AUNITS
 70
     0
  9
$AUPREC
 70
     0
  9
$MENU
  1
.
  9
$ELEVATION
 40
0.0
  9
$PELEVATION
 40
0.0
  9
$THICKNESS
 40
0.0
  9
$LIMCHECK
 70
     0
  9
$CHAMFERA
 40
0.0
  9
$CHAMFERB
 40
0.0
  9
$CHAMFERC
 40
0.0
  9
$CHAMFERD
 40
0.0
  9
$SKPOLY
 70
     0
  9
$TDCREATE
 40
2459431.596834549
  9
$TDUPDATE
 40
2459431.596834907
  9
$TDINDWG
 40
0.0000000116
  9
$TDUSRTIMER
 40
0.0000000116
  9
$USRTIMER
 70
     1
  9
$ANGBASE
 50
0.0
  9
$ANGDIR
 70
     0
  9
$PDMODE
 70
     0
  9
$PDSIZE
 40
0.0
  9
$PLINEWID
 40
0.0
  9
$COORDS
 70
     1
  9
$SPLFRAME
 70
     0
  9
$SPLINETYPE
 70
     6
  9
$SPLINESEGS
 70
     8
  9
$ATTDIA
 70
     0
  9
$ATTREQ
 70
     1
  9
$HANDLING
 70
     1
  9
$HANDSEED
  5
1EF
  9
$SURFTAB1
 70
     6
  9
$SURFTAB2
 70
     6
  9
$SURFTYPE
 70
     6
  9
$SURFU
 70
     6
  9
$SURFV
 70
     6
  9
$UCSNAME
  2

  9
$UCSORG
 10
0.0
 20
0.0
 30
0.0
  9
$UCSXDIR
 10
1.0
 20
0.0
 30
0.0
  9
$UCSYDIR
 10
0.0
 20
1.0
 30
0.0
  9
$PUCSNAME
  2

  9
$PUCSORG
 10
0.0
 20
0.0
 30
0.0
  9
$PUCSXDIR
 10
1.0
 20
0.0
 30
0.0
  9
$PUCSYDIR
 10
0.0
 20
1.0
 30
0.0
  9
$USERI1
 70
     0
  9
$USERI2
 70
     0
  9
$USERI3
 70
     0
  9
$USERI4
 70
     0
  9
$USERI5
 70
     0
  9
$USERR1
 40
0.0
  9
$USERR2
 40
0.0
  9
$USERR3
 40
0.0
  9
$USERR4
 40
0.0
  9
$USERR5
 40
0.0
  9
$WORLDVIEW
 70
     1
  9
$SHADEDGE
 70
     3
  9
$SHADEDIF
 70
    70
  9
$TILEMODE
 70
     1
  9
$MAXACTVP
 70
    64
  9
$PINSBASE
 10
0.0
 20
0.0
 30
0.0
  9
$PLIMCHECK
 70
     0
  9
$PEXTMIN
 10
1.000000000000000E+20
 20
1.000000000000000E+20
 30
1.000000000000000E+20
  9
$PEXTMAX
 10
-1.000000000000000E+20
 20
-1.000000000000000E+20
 30
-1.000000000000000E+20
  9
$PLIMMIN
 10
0.0
 20
0.0
  9
$PLIMMAX
 10
12.0
 20
9.0
  9
$UNITMODE
 70
     0
  9
$VISRETAIN
 70
     1
  9
$PLINEGEN
 70
     0
  9
$PSLTSCALE
 70
     1
  9
$TREEDEPTH
 70
  3020
  9
$PICKSTYLE
 70
     1
  9
$CMLSTYLE
  2
STANDARD
  9
$CMLJUST
 70
     0
  9
$CMLSCALE
 40
1.0
  9
$PROXYGRAPHICS
 70
     1
  9
$MEASUREMENT
 70
     1
  0
ENDSEC
  0
SECTION
  2
CLASSES
  0
CLASS
  1
ACDBDICTIONARYWDFLT
  2
AcDbDictionaryWithDefault
  3
ObjectDBX Classes
 90
        0
280
     0
281
     0
  0
CLASS
  1
VISUALSTYLE
  2
AcDbVisualStyle
  3
ObjectDBX Classes
 90
     4095
280
     0
281
     0
  0
CLASS
  1
MATERIAL
  2
AcDbMaterial
  3
ObjectDBX Classes
 90
     1153
280
     0
281
     0
  0
CLASS
  1
SCALE
  2
AcDbScale
  3
ObjectDBX Classes
 90
     1153
280
     0
281
     0
  0
CLASS
  1
TABLESTYLE
  2
AcDbTableStyle
  3
ObjectDBX Classes
 90
     4095
280
     0
281
     0
  0
CLASS
  1
MLEADERSTYLE
  2
AcDbMLeaderStyle
  3
ACDB_MLEADERSTYLE_CLASS
 90
     4095
280
     0
281
     0
  0
CLASS
  1
SUN
  2
AcDbSun
  3
SCENEOE
 90
     1153
280
     0
281
     0
  0
CLASS
  1
DICTIONARYVAR
  2
AcDbDictionaryVar
  3
ObjectDBX Classes
 90
        0
280
     0
281
     0
  0
CLASS
  1
XRECORD
  2
AcDbXrecord
  3
ObjectDBX Classes
 90
        0
280
     0
281
     0
  0
CLASS
  1
LWPOLYLINE
  2
AcDbPolyline
  3
ObjectDBX Classes
 90
        0
280
     0
281
     1
  0
CLASS
  1
HATCH
  2
AcDbHatch
  3
ObjectDBX Classes
 90
        0
280
     0
281
     1
  0
CLASS
  1
ACDBPLACEHOLDER
  2
AcDbPlaceHolder
  3
ObjectDBX Classes
 90
        0
280
     0
281
     0
  0
CLASS
  1
LAYOUT
  2
AcDbLayout
  3
ObjectDBX Classes
 90
        0
280
     0
281
     0
  0
ENDSEC
  0
SECTION
  2
TABLES
  0
TABLE
  2
VPORT
  5
8
102
{ACAD_XDICTIONARY
360
1E4
102
}
330
0
100
AcDbSymbolTable
 70
     1
  0
VPORT
  5
29
330
8
100
AcDbSymbolTableRecord
100
AcDbViewportTableRecord
  2
*ACTIVE
 70
     0
 10
0.0
 20
0.0
 11
1.0
 21
1.0
 12
-87.49999999999994
 22
356.9852382143304
 13
0.0
 23
0.0
 14
0.5
 24
0.5
 15
0.5
 25
0.5
 16
0.0
 26
0.0
 36
1.0
 17
0.0
 27
0.0
 37
0.0
 40
639.6295235713393
 41
1.6
 42
50.0
 43
0.0
 44
0.0
 50
0.0
 51
0.0
 71
     0
 72
   100
 73
     1
 74
     3
 75
     0
 76
     0
 77
     0
 78
     0
  0
ENDTAB
  0
TABLE
  2
LTYPE
  5
5
330
0
100
AcDbSymbolTable
 70
     2
  0
LTYPE
  5
14
330
5
100
AcDbSymbolTableRecord
100
AcDbLinetypeTableRecord
  2
BYBLOCK
 70
     0
  3

 72
    65
 73
     0
 40
0.0
  0
LTYPE
  5
15
330
5
100
AcDbSymbolTableRecord
100
AcDbLinetypeTableRecord
  2
BYLAYER
 70
     0
  3

 72
    65
 73
     0
 40
0.0
  0
LTYPE
  5
16
330
5
100
AcDbSymbolTableRecord
100
AcDbLinetypeTableRecord
  2
CONTINUOUS
 70
     0
  3
Solid line
 72
    65
 73
     0
 40
0.0
  0
LTYPE
  5
173
330
5
100
AcDbSymbolTableRecord
100
AcDbLinetypeTableRecord
  2
________________
 70
     0
  3

 72
    65
 73
     4
 40
6.0
 49
2.25
 74
     0
 49
-1.5
 74
     0
 49
0.7499999999999999
 74
     0
 49
-1.5
 74
     0
  0
ENDTAB
  0
TABLE
  2
LAYER
  5
2
330
0
100
AcDbSymbolTable
 70
     1
  0
LAYER
  5
10
330
2
100
AcDbSymbolTableRecord
100
AcDbLayerTableRecord
  2
0
 70
     0
 62
     7
  6
CONTINUOUS
  0
ENDTAB
  0
TABLE
  2
STYLE
  5
3
330
0
100
AcDbSymbolTable
 70
     2
  0
STYLE
  5
11
330
3
100
AcDbSymbolTableRecord
100
AcDbTextStyleTableRecord
  2
STANDARD
 70
     0
 40
0.0
 41
1.0
 50
0.0
 71
     0
 42
0.2
  3
txt
  4

  0
STYLE
  5
6E
330
3
100
AcDbSymbolTableRecord
100
AcDbTextStyleTableRecord
  2
ＭＳ_ゴシック
 70
     0
 40
0.0
 41
1.0
 50
0.0
 71
     0
 42
0.2
  3
ＭＳ ゴシック.shx
  4

  0
ENDTAB
  0
TABLE
  2
VIEW
  5
6
330
0
100
AcDbSymbolTable
 70
     0
  0
ENDTAB
  0
TABLE
  2
UCS
  5
7
330
0
100
AcDbSymbolTable
 70
     0
  0
ENDTAB
  0
TABLE
  2
APPID
  5
9
330
0
100
AcDbSymbolTable
 70
     2
  0
APPID
  5
12
330
9
100
AcDbSymbolTableRecord
100
AcDbRegAppTableRecord
  2
ACAD
 70
     0
  0
APPID
  5
1EE
330
9
100
AcDbSymbolTableRecord
100
AcDbRegAppTableRecord
  2
ACAD_MLEADERVER
 70
     0
  0
ENDTAB
  0
TABLE
  2
DIMSTYLE
  5
A
330
0
100
AcDbSymbolTable
 70
     1
  0
DIMSTYLE
105
27
330
A
100
AcDbSymbolTableRecord
100
AcDbDimStyleTableRecord
  2
STANDARD
 70
     0
  3

  4

  5

  6

  7

 40
1.0
 41
0.18
 42
0.0625
 43
0.38
 44
0.18
 45
0.0
 46
0.0
 47
0.0
 48
0.0
140
0.18
141
0.09
142
0.0
143
25.4
144
1.0
145
0.0
146
1.0
147
0.09
 71
     0
 72
     0
 73
     1
 74
     1
 75
     0
 76
     0
 77
     0
 78
     0
170
     0
171
     2
172
     0
173
     0
174
     0
175
     0
176
     0
177
     0
178
     0
270
     2
271
     4
272
     4
273
     2
274
     2
340
11
275
     0
280
     0
281
     0
282
     0
283
     1
284
     0
285
     0
286
     0
287
     3
288
     0
  0
ENDTAB
  0
TABLE
  2
BLOCK_RECORD
  5
1
330
0
100
AcDbSymbolTable
 70
     0
  0
BLOCK_RECORD
  5
1F
330
1
100
AcDbSymbolTableRecord
100
AcDbBlockTableRecord
  2
*MODEL_SPACE
  0
BLOCK_RECORD
  5
1B
330
1
100
AcDbSymbolTableRecord
100
AcDbBlockTableRecord
  2
*PAPER_SPACE
  0
ENDTAB
  0
ENDSEC
  0
SECTION
  2
BLOCKS
  0
BLOCK
  5
20
330
1F
100
AcDbEntity
  8
0
100
AcDbBlockBegin
  2
*MODEL_SPACE
 70
     0
 10
0.0
 20
0.0
 30
0.0
  3
*MODEL_SPACE
  1

  0
ENDBLK
  5
21
330
1F
100
AcDbEntity
  8
0
100
AcDbBlockEnd
  0
BLOCK
  5
1C
330
1B
100
AcDbEntity
 67
     1
  8
0
100
AcDbBlockBegin
  2
*PAPER_SPACE
 70
     0
 10
0.0
 20
0.0
 30
0.0
  3
*PAPER_SPACE
  1

  0
ENDBLK
  5
1D
330
1B
100
AcDbEntity
 67
     1
  8
0
100
AcDbBlockEnd
  0
ENDSEC
  0
SECTION
  2
ENTITIES
  0
LWPOLYLINE
  5
6F
330
1F
100
AcDbEntity
  8
0
  6
CONTINUOUS
 62
     9
100
AcDbPolyline
 90
       30
 70
     0
 43
0.0
 10
177.9999999999999
 20
376.8000000000001
 10
177.9999848118151
 20
376.8069715167304
 10
177.9997543737381
 20
376.8280350749349
 10
177.9963482696166
 20
376.908060181161
 10
177.9773026892042
 20
377.0688897303361
 10
177.941825289084
 20
377.2289441978375
 10
177.9038140267081
 20
377.349428875075
 10
177.856223430761
 20
377.468472237549
 10
177.7985996400131
 20
377.5864600882305
 10
177.7311479359485
 20
377.7022563317955
 10
177.6520406830155
 20
377.8178306594396
 10
177.562518985555
 20
377.9302432826184
 10
177.4616430314641
 20
378.039858811727
 10
177.350006901935
 20
378.1452076628496
 10
177.264896150437
 20
378.216506241765
 10
177.1743863955576
 20
378.285165084076
 10
177.077953250544
 20
378.3512703841556
 10
176.9760395239535
 20
378.4141984658606
 10
176.8667052877951
 20
378.4746800922256
 10
176.7517154756399
 20
378.531257738047
 10
176.6302483400545
 20
378.583934668328
 10
176.5031463461101
 20
378.6319296769535
 10
176.3926552779791
 20
378.668160933784
 10
176.278364394533
 20
378.7005934011165
 10
176.159594468772
 20
378.729133628312
 10
176.037192629909
 20
378.753282214673
 10
175.908440040503
 20
378.7731269836354
 10
175.7762428947796
 20
378.787752880107
 10
175.6396108451162
 20
378.7968778670165
 10
175.5
 20
378.8
  0
LWPOLYLINE
  5
70
330
1F
100
AcDbEntity
  8
0
  6
CONTINUOUS
 62
     9
100
AcDbPolyline
 90
       30
 70
     0
 43
0.0
 10
175.5
 20
340.8000000000001
 10
175.6340954680475
 20
340.802879127472
 10
175.765745348475
 20
340.8113313945635
 10
175.8952119856975
 20
340.8251489192165
 10
176.0216577314884
 20
340.8440248326846
 10
176.1473454210391
 20
340.868212201159
 10
176.269462096734
 20
340.897088028236
 10
176.388255953051
 20
340.9304971592434
 10
176.5031463461101
 20
340.9680703230465
 10
176.6263388216196
 20
341.0144830021241
 10
176.7444498595001
 20
341.0653932692956
 10
176.8577609726485
 20
341.1206696303769
 10
176.965783837586
 20
341.1798315659964
 10
177.070062463606
 20
341.2436136499441
 10
177.1687934785241
 20
341.310811587251
 10
177.262206212062
 20
341.3813517947185
 10
177.350006901935
 20
341.4547923371505
 10
177.457705582621
 20
341.556163650179
 10
177.5556072267196
 20
341.6617265201841
 10
177.6440492323531
 20
341.771431164619
 10
177.7226461229295
 20
341.884412595202
 10
177.7926226503821
 20
342.002451202063
 10
177.852427642452
 20
342.123025938678
 10
177.9022321696605
 20
342.2461592413416
 10
177.941825289084
 20
342.3710558021625
 10
177.9772342422425
 20
342.5307069889536
 10
177.9963482696166
 20
342.69193981884
 10
177.9997543737381
 20
342.7719649250679
 10
177.9999848118151
 20
342.7930284832836
 10
178.0
 20
342.8
  0
LINE
  5
71
330
1F
100
AcDbEntity
  8
0
  6
CONTINUOUS
 62
     9
100
AcDbLine
 10
167.9999999999999
 20
522.8
 30
0.0
 11
168.9999999999999
 21
522.8
 31
0.0
  0
LINE
  5
72
330
1F
100
AcDbEntity
  8
0
  6
CONTINUOUS
 62
     9
100
AcDbLine
 10
171.0
 20
558.8000000000002
 30
0.0
 11
171.0
 21
559.8000000000001
 31
0.0
  0
ARC
  5
73
330
1F
100
AcDbEntity
  8
0
  6
CONTINUOUS
 62
     9
100
AcDbCircle
 10
171.0
 20
522.8
 30
0.0
 40
2.000000000000002
100
AcDbArc
 50
180.0000000000004
 51
270.0
  0
LINE
  5
74
330
1F
100
AcDbEntity
  8
0
  6
CONTINUOUS
 62
     7
100
AcDbLine
 10
175.697245941981
 20
514.7857517131829
 30
0.0
 11
152.9999999999999
 21
512.8000000000001
 31
0.0
  0
LINE
  5
75
330
1F
100
AcDbEntity
  8
0
  6
CONTINUOUS
 62
     9
100
AcDbLine
 10
-44.00000000000004
 20
209.8
 30
0.0
 11
-44.00000000000004
 21
208.8000000000001
 31
0.0
  0
ELLIPSE
  5
76
330
1F
100
AcDbEntity
  8
0
  6
CONTINUOUS
 62
     9
100
AcDbEllipse
 10
-7.999999999999896
 20
202.8
 30
0.0
 11
-1.000000000000001
 21
0.0
 31
0.0
210
0.0
220
0.0
230
1.0
 40
0.5
 41
1.570796326794897
 42
2.945241127186884
  0
LINE
  5
77
330
1F
100
AcDbEntity
  8
0
  6
CONTINUOUS
 62
     9
100
AcDbLine
 10
-248.0
 20
206.8
 30
0.0
 11
-247.0
 21
206.8
 31
0.0
  0
LINE
  5
78
330
1F
100
AcDbEntity
  8
0
  6
CONTINUOUS
 62
     7
100
AcDbLine
 10
167.9999999999999
 20
342.8
 30
0.0
 11
167.9999999999999
 21
376.8
 31
0.0
  0
LINE
  5
79
330
1F
100
AcDbEntity
  8
0
  6
CONTINUOUS
 62
     9
100
AcDbLine
 10
-250.0
 20
208.8
 30
0.0
 11
-284.0
 21
208.8
 31
0.0
  0
LINE
  5
7A
330
1F
100
AcDbEntity
  8
0
  6
CONTINUOUS
 62
     9
100
AcDbLine
 10
-250.0
 20
208.8
 30
0.0
 11
-250.0
 21
209.8
 31
0.0
  0
LINE
  5
7B
330
1F
100
AcDbEntity
  8
0
  6
CONTINUOUS
 62
     9
100
AcDbLine
 10
-10.00000000000001
 20
208.8
 30
0.0
 11
-10.00000000000001
 21
209.8
 31
0.0
  0
ELLIPSE
  5
7C
330
1F
100
AcDbEntity
  8
0
  6
CONTINUOUS
 62
     9
100
AcDbEllipse
 10
-248.0
 20
202.8
 30
0.0
 11
-1.000000000000001
 21
0.0
 31
0.0
210
0.0
220
0.0
230
1.0
 40
0.5
 41
1.570796326794897
 42
2.94524112718687
  0
LINE
  5
7D
330
1F
100
AcDbEntity
  8
0
  6
CONTINUOUS
 62
     7
100
AcDbLine
 10
-283.9999999999999
 20
199.8
 30
0.0
 11
-250.0
 21
199.8
 31
0.0
  0
LINE
  5
7E
330
1F
100
AcDbEntity
  8
0
  6
CONTINUOUS
 62
     9
100
AcDbLine
 10
-287.0
 20
206.8
 30
0.0
 11
-286.0
 21
206.8
 31
0.0
  0
ARC
  5
7F
330
1F
100
AcDbEntity
  8
0
  6
CONTINUOUS
 62
     9
100
AcDbCircle
 10
-250.0
 20
206.8
 30
0.0
 40
2.000000000000002
100
AcDbArc
 50
0.0
 51
90.0
  0
ELLIPSE
  5
80
330
1F
100
AcDbEntity
  8
0
  6
CONTINUOUS
 62
     9
100
AcDbEllipse
 10
175.0
 20
520.8
 30
0.0
 11
0.0
 21
-0.9999999999998899
 31
0.0
210
0.0
220
0.0
230
1.0
 40
0.5
 41
0.0
 42
1.570796326794897
  0
ELLIPSE
  5
81
330
1F
100
AcDbEntity
  8
0
  6
CONTINUOUS
 62
     9
100
AcDbEllipse
 10
-285.9999999999999
 20
202.8
 30
0.0
 11
-1.000000000000056
 21
0.0
 31
0.0
210
0.0
220
0.0
230
1.0
 40
0.4999999999999722
 41
0.1963514818039838
 42
1.570796326794896
  0
LINE
  5
82
330
1F
100
AcDbEntity
  8
0
  6
CONTINUOUS
 62
     9
100
AcDbLine
 10
-7.999999999999896
 20
206.8
 30
0.0
 11
-7.000000000000006
 21
206.8
 31
0.0
  0
ARC
  5
83
330
1F
100
AcDbEntity
  8
0
  6
CONTINUOUS
 62
     7
100
AcDbCircle
 10
175.0
 20
556.844690702083
 30
0.0
 40
8.000000000000007
100
AcDbArc
 50
0.0
 51
84.99999999999986
  0
ARC
  5
84
330
1F
100
AcDbEntity
  8
0
  6
CONTINUOUS
 62
     9
100
AcDbCircle
 10
-283.9999999999999
 20
206.8
 30
0.0
 40
2.000000000000057
100
AcDbArc
 50
90.0
 51
180.0
  0
ARC
  5
85
330
1F
100
AcDbEntity
  8
0
  6
CONTINUOUS
 62
     7
100
AcDbCircle
 10
250.0
 20
206.8
 30
0.0
 40
3.000000000000003
210
0.0
220
0.0
230
-1.0
100
AcDbArc
 50
90.0
 51
180.0
  0
LINE
  5
86
330
1F
100
AcDbEntity
  8
0
  6
CONTINUOUS
 62
     7
100
AcDbLine
 10
0.0
 20
224.7999999999999
 30
0.0
 11
-1.985751713182993
 21
202.1027540580189
 31
0.0
  0
LINE
  5
87
330
1F
100
AcDbEntity
  8
0
  6
CONTINUOUS
 62
     9
100
AcDbLine
 10
169.0
 20
556.8
 30
0.0
 11
169.0
 21
522.8
 31
0.0
  0
LINE
  5
88
330
1F
100
AcDbEntity
  8
0
  6
CONTINUOUS
 62
     7
100
AcDbLine
 10
-44.04469070208305
 20
194.8000000000001
 30
0.0
 11
-9.955309297916964
 21
194.8000000000001
 31
0.0
  0
LINE
  5
89
330
1F
100
AcDbEntity
  8
0
  6
CONTINUOUS
 62
     7
100
AcDbLine
 10
167.9999999999999
 20
522.8
 30
0.0
 11
167.9999999999999
 21
556.8
 31
0.0
  0
LINE
  5
8A
330
1F
100
AcDbEntity
  8
0
  6
CONTINUOUS
 62
     9
100
AcDbLine
 10
-46.99999999999993
 20
206.8
 30
0.0
 11
-46.00000000000004
 21
206.8
 31
0.0
  0
LINE
  5
8B
330
1F
100
AcDbEntity
  8
0
  6
CONTINUOUS
 62
     7
100
AcDbLine
 10
-10.00000000000001
 20
199.8
 30
0.0
 11
-44.00000000000001
 21
199.8
 31
0.0
  0
LINE
  5
8C
330
1F
100
AcDbEntity
  8
0
  6
CONTINUOUS
 62
     7
100
AcDbLine
 10
177.9999999999999
 20
556.8
 30
0.0
 11
177.9999999999999
 21
522.8
 31
0.0
  0
ARC
  5
8D
330
1F
100
AcDbEntity
  8
0
  6
CONTINUOUS
 62
     7
100
AcDbCircle
 10
-171.0
 20
342.8
 30
0.0
 40
3.000000000000114
210
0.0
220
0.0
230
-1.0
100
AcDbArc
 50
270.0
 51
0.0
  0
LINE
  5
8E
330
1F
100
AcDbEntity
  8
0
  6
CONTINUOUS
 62
     9
100
AcDbLine
 10
-10.00000000000001
 20
208.8
 30
0.0
 11
-44.00000000000001
 21
208.8
 31
0.0
  0
ARC
  5
8F
330
1F
100
AcDbEntity
  8
0
  6
CONTINUOUS
 62
     9
100
AcDbCircle
 10
171.0
 20
376.8000000000001
 30
0.0
 40
2.000000000000113
100
AcDbArc
 50
90.0
 51
179.9999999999996
  0
ELLIPSE
  5
90
330
1F
100
AcDbEntity
  8
0
  6
CONTINUOUS
 62
     9
100
AcDbEllipse
 10
175.0
 20
558.8000000000002
 30
0.0
 11
0.0
 21
-1.000000000000112
 31
0.0
210
0.0
220
0.0
230
1.0
 40
0.499999999999889
 41
1.570796326794758
 42
3.141592653589793
  0
ARC
  5
91
330
1F
100
AcDbEntity
  8
0
  6
CONTINUOUS
 62
     7
100
AcDbCircle
 10
-171.0
 20
556.8
 30
0.0
 40
3.000000000000114
210
0.0
220
0.0
230
-1.0
100
AcDbArc
 50
0.0
 51
90.0
  0
ELLIPSE
  5
92
330
1F
100
AcDbEntity
  8
0
  6
CONTINUOUS
 62
     7
100
AcDbEllipse
 10
-248.0
 20
202.8
 30
0.0
 11
-1.000000000000001
 21
0.0
 31
0.0
210
0.0
220
0.0
230
1.0
 40
0.5
 41
2.945241127186873
 42
3.141592653589793
  0
LINE
  5
93
330
1F
100
AcDbEntity
  8
0
  6
CONTINUOUS
 62
     7
100
AcDbLine
 10
-52.014248286817
 20
202.1027540580189
 30
0.0
 11
-53.99999999999999
 21
224.8000000000001
 31
0.0
  0
ARC
  5
94
330
1F
100
AcDbEntity
  8
0
  6
CONTINUOUS
 62
     7
100
AcDbCircle
 10
-171.0
 20
376.8000000000001
 30
0.0
 40
3.000000000000114
210
0.0
220
0.0
230
-1.0
100
AcDbArc
 50
0.000000000000265
 51
90.0
  0
ARC
  5
95
330
1F
100
AcDbEntity
  8
0
  6
CONTINUOUS
 62
     9
100
AcDbCircle
 10
-44.00000000000004
 20
206.8
 30
0.0
 40
2.000000000000113
100
AcDbArc
 50
90.0
 51
180.0
  0
LINE
  5
96
330
1F
100
AcDbEntity
  8
0
  6
CONTINUOUS
 62
     9
100
AcDbLine
 10
167.9999999999999
 20
342.8
 30
0.0
 11
168.9999999999999
 21
342.8
 31
0.0
  0
LINE
  5
97
330
1F
100
AcDbEntity
  8
0
  6
CONTINUOUS
 62
     9
100
AcDbLine
 10
169.0
 20
376.8000000000001
 30
0.0
 11
169.0
 21
342.8
 31
0.0
  0
ARC
  5
98
330
1F
100
AcDbEntity
  8
0
  6
CONTINUOUS
 62
     9
100
AcDbCircle
 10
171.0
 20
556.8
 30
0.0
 40
2.000000000000002
100
AcDbArc
 50
90.0
 51
180.0
  0
ELLIPSE
  5
99
330
1F
100
AcDbEntity
  8
0
  6
CONTINUOUS
 62
     9
100
AcDbEllipse
 10
175.0
 20
378.8
 30
0.0
 11
0.0
 21
-0.9999999999998899
 31
0.0
210
0.0
220
0.0
230
1.0
 40
0.5
 41
1.570796326794897
 42
3.141592653589793
  0
ELLIPSE
  5
9A
330
1F
100
AcDbEntity
  8
0
  6
CONTINUOUS
 62
     7
100
AcDbEllipse
 10
-285.9999999999999
 20
202.8
 30
0.0
 11
-1.000000000000056
 21
0.0
 31
0.0
210
0.0
220
0.0
230
1.0
 40
0.4999999999999722
 41
0.0
 42
0.1963514818039838
  0
ELLIPSE
  5
9B
330
1F
100
AcDbEntity
  8
0
  6
CONTINUOUS
 62
     9
100
AcDbEllipse
 10
-46.00000000000004
 20
202.8
 30
0.0
 11
-1.000000000000001
 21
0.0
 31
0.0
210
0.0
220
0.0
230
1.0
 40
0.5
 41
0.1963514818039973
 42
1.570796326794897
  0
ARC
  5
9C
330
1F
100
AcDbEntity
  8
0
  6
CONTINUOUS
 62
     7
100
AcDbCircle
 10
283.9999999999999
 20
206.8
 30
0.0
 40
3.000000000000058
210
0.0
220
0.0
230
-1.0
100
AcDbArc
 50
0.0
 51
90.0
  0
ELLIPSE
  5
9D
330
1F
100
AcDbEntity
  8
0
  6
CONTINUOUS
 62
     9
100
AcDbEllipse
 10
175.0
 20
340.8000000000001
 30
0.0
 11
0.0
 21
-1.000000000000001
 31
0.0
210
0.0
220
0.0
230
1.0
 40
0.4999999999999445
 41
0.0
 42
1.570796326794897
  0
ARC
  5
9E
330
1F
100
AcDbEntity
  8
0
  6
CONTINUOUS
 62
     7
100
AcDbCircle
 10
175.0
 20
522.7553092979169
 30
0.0
 40
8.000000000000007
100
AcDbArc
 50
275.0000000000001
 51
0.0
  0
ARC
  5
9F
330
1F
100
AcDbEntity
  8
0
  6
CONTINUOUS
 62
     7
100
AcDbCircle
 10
-171.0
 20
522.8
 30
0.0
 40
3.000000000000114
210
0.0
220
0.0
230
-1.0
100
AcDbArc
 50
270.0
 51
359.9999999999997
  0
LINE
  5
A0
330
1F
100
AcDbEntity
  8
0
  6
CONTINUOUS
 62
     7
100
AcDbLine
 10
-283.9999999999999
 20
209.8
 30
0.0
 11
-250.0
 21
209.8
 31
0.0
  0
LINE
  5
A1
330
1F
100
AcDbEntity
  8
0
  6
CONTINUOUS
 62
     9
100
AcDbLine
 10
169.0
 20
376.8000000000001
 30
0.0
 11
168.0
 21
376.8000000000001
 31
0.0
  0
ELLIPSE
  5
A2
330
1F
100
AcDbEntity
  8
0
  6
CONTINUOUS
 62
     7
100
AcDbEllipse
 10
-7.999999999999896
 20
202.8
 30
0.0
 11
-1.000000000000001
 21
0.0
 31
0.0
210
0.0
220
0.0
230
1.0
 40
0.5
 41
2.945241127186883
 42
3.141592653589793
  0
ARC
  5
A3
330
1F
100
AcDbEntity
  8
0
  6
CONTINUOUS
 62
     7
100
AcDbCircle
 10
10.00000000000001
 20
206.8
 30
0.0
 40
3.000000000000114
210
0.0
220
0.0
230
-1.0
100
AcDbArc
 50
90.0
 51
180.0
  0
LINE
  5
A4
330
1F
100
AcDbEntity
  8
0
  6
CONTINUOUS
 62
     7
100
AcDbLine
 10
153.0
 20
566.8
 30
0.0
 11
175.6972459419811
 21
564.814248286817
 31
0.0
  0
ARC
  5
A5
330
1F
100
AcDbEntity
  8
0
  6
CONTINUOUS
 62
     9
100
AcDbCircle
 10
-10.00000000000001
 20
206.8
 30
0.0
 40
2.000000000000002
100
AcDbArc
 50
0.0
 51
90.0
  0
ARC
  5
A6
330
1F
100
AcDbEntity
  8
0
  6
CONTINUOUS
 62
     9
100
AcDbCircle
 10
171.0
 20
342.8
 30
0.0
 40
2.000000000000002
100
AcDbArc
 50
180.0
 51
270.0
  0
LINE
  5
A7
330
1F
100
AcDbEntity
  8
0
  6
CONTINUOUS
 62
     7
100
AcDbLine
 10
183.0000000000001
 20
522.7553092979169
 30
0.0
 11
183.0000000000001
 21
556.844690702083
 31
0.0
  0
ARC
  5
A8
330
1F
100
AcDbEntity
  8
0
  6
CONTINUOUS
 62
     7
100
AcDbCircle
 10
-9.955309297916992
 20
202.8000000000002
 30
0.0
 40
8.000000000000117
100
AcDbArc
 50
270.0
 51
355.0000000000002
  0
LINE
  5
A9
330
1F
100
AcDbEntity
  8
0
  6
CONTINUOUS
 62
     9
100
AcDbLine
 10
-283.9999999999999
 20
209.8
 30
0.0
 11
-283.9999999999999
 21
208.8000000000001
 31
0.0
  0
LINE
  5
AA
330
1F
100
AcDbEntity
  8
0
  6
CONTINUOUS
 62
     7
100
AcDbLine
 10
-44.00000000000004
 20
209.8
 30
0.0
 11
-10.00000000000004
 21
209.8
 31
0.0
  0
LINE
  5
AB
330
1F
100
AcDbEntity
  8
0
  6
CONTINUOUS
 62
     9
100
AcDbLine
 10
169.0
 20
556.8
 30
0.0
 11
168.0
 21
556.8
 31
0.0
  0
LINE
  5
AC
330
1F
100
AcDbEntity
  8
0
  6
CONTINUOUS
 62
     9
100
AcDbLine
 10
274.0
 20
514.7857517131829
 30
0.0
 11
270.0000000000002
 21
514.7857517131829
 31
0.0
  0
LINE
  5
AD
330
1F
100
AcDbEntity
  8
0
  6
CONTINUOUS
 62
     9
100
AcDbLine
 10
274.0
 20
342.7553092979171
 30
0.0
 11
270.0000000000002
 21
342.7553092979171
 31
0.0
  0
ELLIPSE
  5
AE
330
1F
100
AcDbEntity
  8
0
  6
CONTINUOUS
 62
     9
100
AcDbEllipse
 10
266.5358983848624
 20
520.8
 30
0.0
 11
0.0
 21
-0.9999999999998899
 31
0.0
210
0.0
220
0.0
230
-1.0
 40
0.8660254037843161
 41
0.0
 42
1.570796326794897
  0
LINE
  5
AF
330
1F
100
AcDbEntity
  8
0
  6
CONTINUOUS
 62
     7
100
AcDbLine
 10
265.0000000000001
 20
520.8
 30
0.0
 11
265.0000000000001
 21
558.8000000000001
 31
0.0
  0
LINE
  5
B0
330
1F
100
AcDbEntity
  8
0
  6
CONTINUOUS
 62
     9
100
AcDbLine
 10
270.0000000000002
 20
522.7553092979169
 30
0.0
 11
274.0000000000001
 21
522.7553092979169
 31
0.0
  0
LINE
  5
B1
330
1F
100
AcDbEntity
  8
0
  6
CONTINUOUS
 62
     9
100
AcDbLine
 10
265.6698729810779
 20
520.8
 30
0.0
 11
270.0000000000001
 21
522.8
 31
0.0
  0
LINE
  5
B2
330
1F
100
AcDbEntity
  8
0
  6
CONTINUOUS
 62
     7
100
AcDbLine
 10
270.4999999999999
 20
264.8
 30
0.0
 11
270.4999999999999
 21
294.8
 31
0.0
  0
LINE
  5
B3
330
1F
100
AcDbEntity
  8
0
  6
CONTINUOUS
 62
     7
100
AcDbLine
 10
274.0
 20
294.8
 30
0.0
 11
270.5000000000001
 21
294.8
 31
0.0
  0
LINE
  5
B4
330
1F
100
AcDbEntity
  8
0
  6
CONTINUOUS
 62
     9
100
AcDbLine
 10
262.0
 20
666.8000000000001
 30
0.0
 11
273.9999999999999
 21
666.8000000000001
 31
0.0
  0
LINE
  5
B5
330
1F
100
AcDbEntity
  8
0
  6
CONTINUOUS
 62
     7
100
AcDbLine
 10
175.697245941981
 20
384.8142482868169
 30
0.0
 11
152.9999999999999
 21
386.8
 31
0.0
  0
LINE
  5
B6
330
1F
100
AcDbEntity
  8
0
  6
CONTINUOUS
 62
     7
100
AcDbLine
 10
265.0000000000001
 20
340.8000000000001
 30
0.0
 11
265.0000000000001
 21
378.8
 31
0.0
  0
LINE
  5
B7
330
1F
100
AcDbEntity
  8
0
  6
CONTINUOUS
 62
     7
100
AcDbLine
 10
270.0000000000002
 20
512.8
 30
0.0
 11
274.0000000000001
 21
512.8
 31
0.0
  0
ARC
  5
B8
330
1F
100
AcDbEntity
  8
0
  6
CONTINUOUS
 62
     7
100
AcDbCircle
 10
-266.0
 20
558.8000000000002
 30
0.0
 40
0.9999999999998899
210
0.0
220
0.0
230
-1.0
100
AcDbArc
 50
0.0
 51
90.0
  0
LINE
  5
B9
330
1F
100
AcDbEntity
  8
0
  6
CONTINUOUS
 62
     7
100
AcDbLine
 10
270.4999999999999
 20
634.8000000000001
 30
0.0
 11
270.4999999999999
 21
604.8
 31
0.0
  0
LINE
  5
BA
330
1F
100
AcDbEntity
  8
0
  6
CONTINUOUS
 62
     9
100
AcDbLine
 10
265.6698729810779
 20
378.8
 30
0.0
 11
265.0000000000001
 21
378.8
 31
0.0
  0
LINE
  5
BB
330
1F
100
AcDbEntity
  8
0
  6
CONTINUOUS
 62
     7
100
AcDbLine
 10
274.0
 20
674.7999999999998
 30
0.0
 11
262.0000000000001
 21
674.7999999999998
 31
0.0
  0
LINE
  5
BC
330
1F
100
AcDbEntity
  8
0
  6
CONTINUOUS
 62
     7
100
AcDbLine
 10
-250.0
 20
199.8
 30
0.0
 11
-249.9381271874581
 21
199.8006558017697
 31
0.0
  0
LINE
  5
BD
330
1F
100
AcDbEntity
  8
0
  6
CONTINUOUS
 62
     9
100
AcDbLine
 10
265.6698729810779
 20
558.8000000000002
 30
0.0
 11
265.0000000000001
 21
558.8000000000002
 31
0.0
  0
ARC
  5
BE
330
1F
100
AcDbEntity
  8
0
  6
CONTINUOUS
 62
     7
100
AcDbCircle
 10
284.0446907020828
 20
202.8000000000002
 30
0.0
 40
8.000000000000117
210
0.0
220
0.0
230
-1.0
100
AcDbArc
 50
270.0
 51
355.0000000000002
  0
LINE
  5
BF
330
1F
100
AcDbEntity
  8
0
  6
CONTINUOUS
 62
     7
100
AcDbLine
 10
-10.00000000000001
 20
199.8
 30
0.0
 11
-9.93812718745754
 21
199.8006558017698
 31
0.0
  0
LINE
  5
C0
330
1F
100
AcDbEntity
  8
0
  6
CONTINUOUS
 62
     9
100
AcDbLine
 10
265.6698729810779
 20
340.8000000000001
 30
0.0
 11
270.0000000000001
 21
342.8
 31
0.0
  0
ELLIPSE
  5
C1
330
1F
100
AcDbEntity
  8
0
  6
CONTINUOUS
 62
     9
100
AcDbEllipse
 10
266.5358983848624
 20
378.8
 30
0.0
 11
0.0
 21
-0.9999999999998899
 31
0.0
210
0.0
220
0.0
230
-1.0
 40
0.8660254037845382
 41
1.570796326794897
 42
3.141592653589793
  0
ARC
  5
C2
330
1F
100
AcDbEntity
  8
0
  6
CONTINUOUS
 62
     7
100
AcDbCircle
 10
-266.0
 20
378.8
 30
0.0
 40
0.9999999999998899
210
0.0
220
0.0
230
-1.0
100
AcDbArc
 50
0.0
 51
90.0000000000002
  0
LINE
  5
C3
330
1F
100
AcDbEntity
  8
0
  6
CONTINUOUS
 62
     7
100
AcDbLine
 10
274.0
 20
264.8
 30
0.0
 11
270.5000000000001
 21
264.8
 31
0.0
  0
LINE
  5
C4
330
1F
100
AcDbEntity
  8
0
  6
CONTINUOUS
 62
     9
100
AcDbLine
 10
266.5358983848624
 20
379.8000000000001
 30
0.0
 11
270.0000000000001
 21
376.8000000000001
 31
0.0
  0
ARC
  5
C5
330
1F
100
AcDbEntity
  8
0
  6
CONTINUOUS
 62
     7
100
AcDbCircle
 10
-266.0
 20
520.8
 30
0.0
 40
0.9999999999998899
210
0.0
220
0.0
230
-1.0
100
AcDbArc
 50
270.0
 51
0.0
  0
ARC
  5
C6
330
1F
100
AcDbEntity
  8
0
  6
CONTINUOUS
 62
     7
100
AcDbCircle
 10
-266.0
 20
340.8000000000001
 30
0.0
 40
1.000000000000001
210
0.0
220
0.0
230
-1.0
100
AcDbArc
 50
269.9999999999998
 51
0.0
  0
LINE
  5
C7
330
1F
100
AcDbEntity
  8
0
  6
CONTINUOUS
 62
     7
100
AcDbLine
 10
-294.0
 20
224.7999999999999
 30
0.0
 11
-292.0142482868169
 21
202.1027540580189
 31
0.0
  0
ARC
  5
C8
330
1F
100
AcDbEntity
  8
0
  6
CONTINUOUS
 62
     7
100
AcDbCircle
 10
249.9553092979172
 20
202.8000000000002
 30
0.0
 40
8.000000000000007
210
0.0
220
0.0
230
-1.0
100
AcDbArc
 50
185.0
 51
270.0000000000001
  0
LINE
  5
C9
330
1F
100
AcDbEntity
  8
0
  6
CONTINUOUS
 62
     9
100
AcDbLine
 10
270.0000000000002
 20
522.8
 30
0.0
 11
266.5358983848625
 21
519.7999999999998
 31
0.0
  0
LINE
  5
CA
330
1F
100
AcDbEntity
  8
0
  6
CONTINUOUS
 62
     9
100
AcDbLine
 10
270.0000000000002
 20
556.8
 30
0.0
 11
265.669872981078
 21
558.8
 31
0.0
  0
LINE
  5
CB
330
1F
100
AcDbEntity
  8
0
  6
CONTINUOUS
 62
     9
100
AcDbLine
 10
262.0
 20
232.8
 30
0.0
 11
273.9999999999999
 21
232.8
 31
0.0
  0
LINE
  5
CC
330
1F
100
AcDbEntity
  8
0
  6
CONTINUOUS
 62
     7
100
AcDbLine
 10
274.0
 20
224.7999999999999
 30
0.0
 11
262.0000000000001
 21
224.7999999999999
 31
0.0
  0
ARC
  5
CD
330
1F
100
AcDbEntity
  8
0
  6
CONTINUOUS
 62
     7
100
AcDbCircle
 10
-175.0
 20
376.844690702083
 30
0.0
 40
8.000000000000007
210
0.0
220
0.0
230
-1.0
100
AcDbArc
 50
95.00000000000014
 51
180.0
  0
LINE
  5
CE
330
1F
100
AcDbEntity
  8
0
  6
CONTINUOUS
 62
     9
100
AcDbLine
 10
274.0
 20
567.7999999999998
 30
0.0
 11
270.5000000000001
 21
567.7999999999998
 31
0.0
  0
ELLIPSE
  5
CF
330
1F
100
AcDbEntity
  8
0
  6
CONTINUOUS
 62
     9
100
AcDbEllipse
 10
266.5358983848624
 20
340.8000000000001
 30
0.0
 11
0.0
 21
-1.000000000000001
 31
0.0
210
0.0
220
0.0
230
-1.0
 40
0.866025403784442
 41
0.0
 42
1.570796326794896
  0
LINE
  5
D0
330
1F
100
AcDbEntity
  8
0
  6
CONTINUOUS
 62
     9
100
AcDbLine
 10
274.0
 20
591.8000000000001
 30
0.0
 11
270.5000000000001
 21
591.8000000000001
 31
0.0
  0
LINE
  5
D1
330
1F
100
AcDbEntity
  8
0
  6
CONTINUOUS
 62
     7
100
AcDbLine
 10
270.4999999999999
 20
594.8
 30
0.0
 11
270.4999999999999
 21
566.8000000000001
 31
0.0
  0
LINE
  5
D2
330
1F
100
AcDbEntity
  8
0
  6
CONTINUOUS
 62
     9
100
AcDbLine
 10
270.0000000000002
 20
564.814248286817
 30
0.0
 11
274.0000000000001
 21
564.814248286817
 31
0.0
  0
LINE
  5
D3
330
1F
100
AcDbEntity
  8
0
  6
CONTINUOUS
 62
     7
100
AcDbLine
 10
-241.9857517131831
 20
202.1027540580189
 30
0.0
 11
-240.0
 21
224.8000000000001
 31
0.0
  0
LINE
  5
D4
330
1F
100
AcDbEntity
  8
0
  6
CONTINUOUS
 62
     9
100
AcDbLine
 10
270.0000000000002
 20
376.844690702083
 30
0.0
 11
274.0000000000001
 21
376.844690702083
 31
0.0
  0
ARC
  5
D5
330
1F
100
AcDbEntity
  8
0
  6
CONTINUOUS
 62
     7
100
AcDbCircle
 10
-44.04469070208305
 20
202.8000000000002
 30
0.0
 40
8.000000000000007
100
AcDbArc
 50
185.0
 51
270.0000000000001
  0
ELLIPSE
  5
D6
330
1F
100
AcDbEntity
  8
0
  6
CONTINUOUS
 62
     9
100
AcDbEllipse
 10
266.5358983848624
 20
558.8000000000002
 30
0.0
 11
0.0
 21
-1.000000000000112
 31
0.0
210
0.0
220
0.0
230
-1.0
 40
0.8660254037843459
 41
1.570796326794758
 42
3.141592653589793
  0
LINE
  5
D7
330
1F
100
AcDbEntity
  8
0
  6
CONTINUOUS
 62
     9
100
AcDbLine
 10
266.5358983848624
 20
559.8000000000001
 30
0.0
 11
270.0000000000001
 21
556.8000000000002
 31
0.0
  0
LINE
  5
D8
330
1F
100
AcDbEntity
  8
0
  6
CONTINUOUS
 62
     7
100
AcDbLine
 10
274.0
 20
594.8
 30
0.0
 11
270.5000000000001
 21
594.8
 31
0.0
  0
LINE
  5
D9
330
1F
100
AcDbEntity
  8
0
  6
CONTINUOUS
 62
     7
100
AcDbLine
 10
274.0
 20
604.8
 30
0.0
 11
270.5000000000001
 21
604.8
 31
0.0
  0
LINE
  5
DA
330
1F
100
AcDbEntity
  8
0
  6
CONTINUOUS
 62
     7
100
AcDbLine
 10
274.0
 20
304.8
 30
0.0
 11
270.5000000000001
 21
304.8
 31
0.0
  0
LINE
  5
DB
330
1F
100
AcDbEntity
  8
0
  6
CONTINUOUS
 62
     7
100
AcDbLine
 10
-249.9553092979172
 20
194.8000000000001
 30
0.0
 11
-284.0446907020828
 21
194.8000000000001
 31
0.0
  0
LINE
  5
DC
330
1F
100
AcDbEntity
  8
0
  6
CONTINUOUS
 62
     7
100
AcDbLine
 10
153.0
 20
332.8
 30
0.0
 11
175.6972459419811
 21
334.785751713183
 31
0.0
  0
LINE
  5
DD
330
1F
100
AcDbEntity
  8
0
  6
CONTINUOUS
 62
     9
100
AcDbLine
 10
274.0
 20
331.8
 30
0.0
 11
270.5000000000001
 21
331.8
 31
0.0
  0
LINE
  5
DE
330
1F
100
AcDbEntity
  8
0
  6
CONTINUOUS
 62
     9
100
AcDbLine
 10
274.0
 20
307.8
 30
0.0
 11
270.5000000000001
 21
307.8
 31
0.0
  0
LINE
  5
DF
330
1F
100
AcDbEntity
  8
0
  6
CONTINUOUS
 62
     9
100
AcDbLine
 10
274.0
 20
607.7999999999998
 30
0.0
 11
270.5000000000001
 21
607.7999999999998
 31
0.0
  0
LINE
  5
E0
330
1F
100
AcDbEntity
  8
0
  6
CONTINUOUS
 62
     7
100
AcDbLine
 10
183.0000000000001
 20
376.844690702083
 30
0.0
 11
183.0000000000001
 21
342.7553092979171
 31
0.0
  0
LINE
  5
E1
330
1F
100
AcDbEntity
  8
0
  6
CONTINUOUS
 62
     9
100
AcDbLine
 10
265.0000000000001
 20
520.8
 30
0.0
 11
265.6698729810779
 21
520.8
 31
0.0
  0
LINE
  5
E2
330
1F
100
AcDbEntity
  8
0
  6
CONTINUOUS
 62
     7
100
AcDbLine
 10
270.0000000000002
 20
386.8000000000001
 30
0.0
 11
274.0000000000001
 21
386.8000000000001
 31
0.0
  0
LINE
  5
E3
330
1F
100
AcDbEntity
  8
0
  6
CONTINUOUS
 62
     9
100
AcDbLine
 10
270.0000000000002
 20
376.8000000000001
 30
0.0
 11
265.669872981078
 21
378.8000000000001
 31
0.0
  0
LINE
  5
E4
330
1F
100
AcDbEntity
  8
0
  6
CONTINUOUS
 62
     7
100
AcDbLine
 10
274.0
 20
634.8000000000001
 30
0.0
 11
270.5000000000001
 21
634.8000000000001
 31
0.0
  0
LINE
  5
E5
330
1F
100
AcDbEntity
  8
0
  6
CONTINUOUS
 62
     9
100
AcDbLine
 10
270.0000000000002
 20
334.7857517131829
 30
0.0
 11
274.0000000000001
 21
334.7857517131829
 31
0.0
  0
LINE
  5
E6
330
1F
100
AcDbEntity
  8
0
  6
CONTINUOUS
 62
     9
100
AcDbLine
 10
270.0000000000002
 20
342.8
 30
0.0
 11
266.5358983848625
 21
339.8
 31
0.0
  0
LINE
  5
E7
330
1F
100
AcDbEntity
  8
0
  6
CONTINUOUS
 62
     7
100
AcDbLine
 10
270.4999999999999
 20
304.8
 30
0.0
 11
270.4999999999999
 21
332.8
 31
0.0
  0
LINE
  5
E8
330
1F
100
AcDbEntity
  8
0
  6
CONTINUOUS
 62
     9
100
AcDbLine
 10
265.0000000000001
 20
340.8000000000001
 30
0.0
 11
265.6698729810779
 21
340.8000000000001
 31
0.0
  0
LINE
  5
E9
330
1F
100
AcDbEntity
  8
0
  6
CONTINUOUS
 62
     9
100
AcDbLine
 10
274.0
 20
556.844690702083
 30
0.0
 11
270.0000000000002
 21
556.844690702083
 31
0.0
  0
LINE
  5
EA
330
1F
100
AcDbEntity
  8
0
  6
CONTINUOUS
 62
     9
100
AcDbLine
 10
274.0
 20
384.8142482868169
 30
0.0
 11
270.0000000000002
 21
384.8142482868169
 31
0.0
  0
ARC
  5
EB
330
1F
100
AcDbEntity
  8
0
  6
CONTINUOUS
 62
     7
100
AcDbCircle
 10
-175.0
 20
342.7553092979171
 30
0.0
 40
8.000000000000007
210
0.0
220
0.0
230
-1.0
100
AcDbArc
 50
180.0
 51
264.9999999999999
  0
LINE
  5
EC
330
1F
100
AcDbEntity
  8
0
  6
CONTINUOUS
 62
     9
100
AcDbLine
 10
145.0
 20
53.80000000000007
 30
0.0
 11
145.0
 21
65.80000000000007
 31
0.0
  0
ELLIPSE
  5
ED
330
1F
100
AcDbEntity
  8
0
  6
CONTINUOUS
 62
     9
100
AcDbEllipse
 10
-248.0
 20
61.26410161513779
 30
0.0
 11
-1.000000000000001
 21
0.0
 31
0.0
210
0.0
220
0.0
230
-1.0
 40
0.866025403784442
 41
1.570796326794897
 42
3.141592653589793
  0
ARC
  5
EE
330
1F
100
AcDbEntity
  8
0
  6
CONTINUOUS
 62
     7
100
AcDbCircle
 10
46.00000000000004
 20
61.80000000000008
 30
0.0
 40
1.000000000000001
210
0.0
220
0.0
230
-1.0
100
AcDbArc
 50
0.0
 51
90.0
  0
LINE
  5
EF
330
1F
100
AcDbEntity
  8
0
  6
CONTINUOUS
 62
     7
100
AcDbLine
 10
83.00000000000007
 20
53.80000000000007
 30
0.0
 11
83.00000000000007
 21
57.30000000000003
 31
0.0
  0
LINE
  5
F0
330
1F
100
AcDbEntity
  8
0
  6
CONTINUOUS
 62
     9
100
AcDbLine
 10
-247.0
 20
61.26410161513779
 30
0.0
 11
-250.0
 21
57.80000000000003
 31
0.0
  0
ARC
  5
F1
330
1F
100
AcDbEntity
  8
0
  6
CONTINUOUS
 62
     7
100
AcDbCircle
 10
-270.0000000000002
 20
204.8
 30
0.0
 40
5.000000000000004
210
0.0
220
0.0
230
-1.0
100
AcDbArc
 50
330.0
 51
0.0
  0
LINE
  5
F2
330
1F
100
AcDbEntity
  8
0
  6
CONTINUOUS
 62
     9
100
AcDbLine
 10
274.0
 20
266.8000000000001
 30
0.0
 11
270.5000000000001
 21
266.8000000000001
 31
0.0
  0
LINE
  5
F3
330
1F
100
AcDbEntity
  8
0
  6
CONTINUOUS
 62
     7
100
AcDbLine
 10
270.0000000000002
 20
209.8
 30
0.0
 11
266.0000000000001
 21
209.8
 31
0.0
  0
LINE
  5
F4
330
1F
100
AcDbEntity
  8
0
  6
CONTINUOUS
 62
     9
100
AcDbLine
 10
270.0000000000002
 20
202.8
 30
0.0
 11
266.5358983848625
 21
202.8
 31
0.0
  0
LWPOLYLINE
  5
F5
330
1F
100
AcDbEntity
  8
0
  6
CONTINUOUS
 62
     9
100
AcDbPolyline
 90
        7
 70
     0
 43
0.0
 10
266.5358983848624
 20
202.8
 42
0.0951985986572559
 10
267.6719747296979
 20
200.9208944193759
 10
268.1647645775955
 20
200.4687900412017
 10
268.5904031160471
 20
200.1849013894958
 10
269.1962167595545
 20
199.9223858471016
 10
269.730337962856
 20
199.8136500797316
 10
270.0
 20
199.8
  0
LINE
  5
F6
330
1F
100
AcDbEntity
  8
0
  6
CONTINUOUS
 62
     9
100
AcDbLine
 10
-52.014248286817
 20
53.80000000000001
 30
0.0
 11
-52.014248286817
 21
57.80000000000006
 31
0.0
  0
LINE
  5
F7
330
1F
100
AcDbEntity
  8
0
  6
CONTINUOUS
 62
     9
100
AcDbLine
 10
-46.00000000000004
 20
62.13012701892223
 30
0.0
 11
-43.99999999999999
 21
57.80000000000002
 31
0.0
  0
LINE
  5
F8
330
1F
100
AcDbEntity
  8
0
  6
CONTINUOUS
 62
     9
100
AcDbLine
 10
-46.00000000000004
 20
62.80000000000002
 30
0.0
 11
-46.00000000000004
 21
62.13012701892223
 31
0.0
  0
LINE
  5
F9
330
1F
100
AcDbEntity
  8
0
  6
CONTINUOUS
 62
     9
100
AcDbLine
 10
-44.00000000000004
 20
57.80000000000002
 30
0.0
 11
-46.99999999999999
 21
61.26410161513778
 31
0.0
  0
LINE
  5
FA
330
1F
100
AcDbEntity
  8
0
  6
CONTINUOUS
 62
     9
100
AcDbLine
 10
270.0000000000002
 20
202.1027540580189
 30
0.0
 11
274.0000000000001
 21
202.1027540580189
 31
0.0
  0
LINE
  5
FB
330
1F
100
AcDbEntity
  8
0
  6
CONTINUOUS
 62
     9
100
AcDbLine
 10
274.0
 20
626.8
 30
0.0
 11
270.5000000000001
 21
626.8
 31
0.0
  0
LINE
  5
FC
330
1F
100
AcDbEntity
  8
0
  6
CONTINUOUS
 62
     9
100
AcDbLine
 10
-241.9857517131831
 20
53.80000000000001
 30
0.0
 11
-241.9857517131831
 21
57.80000000000006
 31
0.0
  0
LINE
  5
FD
330
1F
100
AcDbEntity
  8
0
  6
CONTINUOUS
 62
     9
100
AcDbLine
 10
-249.9553092979172
 20
57.80000000000002
 30
0.0
 11
-249.9553092979172
 21
53.80000000000004
 31
0.0
  0
LINE
  5
FE
330
1F
100
AcDbEntity
  8
0
  6
CONTINUOUS
 62
     9
100
AcDbLine
 10
-284.0446907020828
 20
53.80000000000007
 30
0.0
 11
-284.0446907020828
 21
57.80000000000005
 31
0.0
  0
ELLIPSE
  5
FF
330
1F
100
AcDbEntity
  8
0
  6
CONTINUOUS
 62
     9
100
AcDbEllipse
 10
-285.9999999999999
 20
61.26410161513779
 30
0.0
 11
-1.000000000000056
 21
0.0
 31
0.0
210
0.0
220
0.0
230
-1.0
 40
0.866025403784394
 41
0.0
 42
1.570796326794896
  0
LINE
  5
100
330
1F
100
AcDbEntity
  8
0
  6
CONTINUOUS
 62
     9
100
AcDbLine
 10
-285.9999999999999
 20
62.13012701892223
 30
0.0
 11
-283.9999999999999
 21
57.80000000000002
 31
0.0
  0
LINE
  5
101
330
1F
100
AcDbEntity
  8
0
  6
CONTINUOUS
 62
     7
100
AcDbLine
 10
-46.00000000000004
 20
62.80000000000002
 30
0.0
 11
-7.999999999999924
 21
62.80000000000002
 31
0.0
  0
LINE
  5
102
330
1F
100
AcDbEntity
  8
0
  6
CONTINUOUS
 62
     9
100
AcDbLine
 10
-250.0
 20
57.80000000000002
 30
0.0
 11
-248.0
 21
62.13012701892223
 31
0.0
  0
LINE
  5
103
330
1F
100
AcDbEntity
  8
0
  6
CONTINUOUS
 62
     7
100
AcDbLine
 10
-285.9999999999999
 20
62.80000000000002
 30
0.0
 11
-248.0
 21
62.80000000000002
 31
0.0
  0
LINE
  5
104
330
1F
100
AcDbEntity
  8
0
  6
CONTINUOUS
 62
     9
100
AcDbLine
 10
-7.000000000000006
 20
61.26410161513779
 30
0.0
 11
-9.999999999999954
 21
57.80000000000003
 31
0.0
  0
ELLIPSE
  5
105
330
1F
100
AcDbEntity
  8
0
  6
CONTINUOUS
 62
     9
100
AcDbEllipse
 10
-7.999999999999896
 20
61.26410161513779
 30
0.0
 11
-1.000000000000001
 21
0.0
 31
0.0
210
0.0
220
0.0
230
-1.0
 40
0.866025403784442
 41
1.570796326794897
 42
3.141592653589793
  0
LINE
  5
106
330
1F
100
AcDbEntity
  8
0
  6
CONTINUOUS
 62
     7
100
AcDbLine
 10
274.0
 20
194.8000000000001
 30
0.0
 11
270.0000000000002
 21
194.8000000000001
 31
0.0
  0
LINE
  5
107
330
1F
100
AcDbEntity
  8
0
  6
CONTINUOUS
 62
     7
100
AcDbLine
 10
-294.0
 20
53.80000000000007
 30
0.0
 11
-294.0
 21
57.80000000000005
 31
0.0
  0
LINE
  5
108
330
1F
100
AcDbEntity
  8
0
  6
CONTINUOUS
 62
     9
100
AcDbLine
 10
265.0000000000001
 20
204.8
 30
0.0
 11
266.0
 21
204.8
 31
0.0
  0
LINE
  5
109
330
1F
100
AcDbEntity
  8
0
  6
CONTINUOUS
 62
     9
100
AcDbLine
 10
-7.999999999999896
 20
62.13012701892223
 30
0.0
 11
-7.999999999999896
 21
62.80000000000002
 31
0.0
  0
ELLIPSE
  5
10A
330
1F
100
AcDbEntity
  8
0
  6
CONTINUOUS
 62
     9
100
AcDbEllipse
 10
-46.00000000000004
 20
61.26410161513779
 30
0.0
 11
-1.000000000000001
 21
0.0
 31
0.0
210
0.0
220
0.0
230
-1.0
 40
0.866025403784442
 41
0.0
 42
1.570796326794896
  0
LINE
  5
10B
330
1F
100
AcDbEntity
  8
0
  6
CONTINUOUS
 62
     7
100
AcDbLine
 10
270.4999999999999
 20
629.8000000000001
 30
0.0
 11
273.9999999999998
 21
629.8000000000001
 31
0.0
  0
LINE
  5
10C
330
1F
100
AcDbEntity
  8
0
  6
CONTINUOUS
 62
     9
100
AcDbLine
 10
-9.955309297916992
 20
53.80000000000007
 30
0.0
 11
-9.955309297916992
 21
57.80000000000005
 31
0.0
  0
ARC
  5
10D
330
1F
100
AcDbEntity
  8
0
  6
CONTINUOUS
 62
     7
100
AcDbCircle
 10
7.999999999999896
 20
61.80000000000008
 30
0.0
 40
1.000000000000001
210
0.0
220
0.0
230
-1.0
100
AcDbArc
 50
90.0
 51
180.0
  0
LINE
  5
10E
330
1F
100
AcDbEntity
  8
0
  6
CONTINUOUS
 62
     9
100
AcDbLine
 10
274.0
 20
632.8000000000001
 30
0.0
 11
270.5000000000001
 21
632.8000000000001
 31
0.0
  0
LINE
  5
10F
330
1F
100
AcDbEntity
  8
0
  6
CONTINUOUS
 62
     7
100
AcDbLine
 10
-337.0000000000001
 20
53.80000000000007
 30
0.0
 11
-337.0
 21
57.30000000000003
 31
0.0
  0
LINE
  5
110
330
1F
100
AcDbEntity
  8
0
  6
CONTINUOUS
 62
     7
100
AcDbLine
 10
-336.9999999999999
 20
57.30000000000002
 30
0.0
 11
-366.9999999999999
 21
57.30000000000002
 31
0.0
  0
LINE
  5
111
330
1F
100
AcDbEntity
  8
0
  6
CONTINUOUS
 62
     7
100
AcDbLine
 10
-366.9999999999999
 20
53.80000000000007
 30
0.0
 11
-366.9999999999999
 21
57.30000000000003
 31
0.0
  0
LINE
  5
112
330
1F
100
AcDbEntity
  8
0
  6
CONTINUOUS
 62
     9
100
AcDbLine
 10
-44.04469070208305
 20
57.80000000000002
 30
0.0
 11
-44.04469070208305
 21
53.80000000000004
 31
0.0
  0
LINE
  5
113
330
1F
100
AcDbEntity
  8
0
  6
CONTINUOUS
 62
     9
100
AcDbLine
 10
-1.985751713182937
 20
57.80000000000002
 30
0.0
 11
-1.985751713182937
 21
53.79999999999997
 31
0.0
  0
LINE
  5
114
330
1F
100
AcDbEntity
  8
0
  6
CONTINUOUS
 62
     7
100
AcDbLine
 10
270.4999999999999
 20
269.8
 30
0.0
 11
273.9999999999998
 21
269.8
 31
0.0
  0
LINE
  5
115
330
1F
100
AcDbEntity
  8
0
  6
CONTINUOUS
 62
     7
100
AcDbLine
 10
-377.0000000000001
 20
53.80000000000007
 30
0.0
 11
-377.0000000000001
 21
57.30000000000003
 31
0.0
  0
LINE
  5
116
330
1F
100
AcDbEntity
  8
0
  6
CONTINUOUS
 62
     9
100
AcDbLine
 10
274.0
 20
291.8
 30
0.0
 11
270.5000000000001
 21
291.8
 31
0.0
  0
LINE
  5
117
330
1F
100
AcDbEntity
  8
0
  6
CONTINUOUS
 62
     7
100
AcDbLine
 10
-406.9999999999999
 20
53.80000000000007
 30
0.0
 11
-406.9999999999999
 21
57.30000000000003
 31
0.0
  0
LINE
  5
118
330
1F
100
AcDbEntity
  8
0
  6
CONTINUOUS
 62
     9
100
AcDbLine
 10
-439.0000000000001
 20
53.80000000000007
 30
0.0
 11
-439.0000000000001
 21
65.80000000000007
 31
0.0
  0
ARC
  5
119
330
1F
100
AcDbEntity
  8
0
  6
CONTINUOUS
 62
     7
100
AcDbCircle
 10
-266.0
 20
208.8
 30
0.0
 40
1.000000000000001
210
0.0
220
0.0
230
-1.0
100
AcDbArc
 50
0.0
 51
90.0000000000002
  0
LINE
  5
11A
330
1F
100
AcDbEntity
  8
0
  6
CONTINUOUS
 62
     7
100
AcDbLine
 10
113.0000000000001
 20
53.80000000000007
 30
0.0
 11
113.0000000000001
 21
57.30000000000003
 31
0.0
  0
LINE
  5
11B
330
1F
100
AcDbEntity
  8
0
  6
CONTINUOUS
 62
     9
100
AcDbLine
 10
274.0
 20
272.8
 30
0.0
 11
270.5000000000001
 21
272.8
 31
0.0
  0
LINE
  5
11C
330
1F
100
AcDbEntity
  8
0
  6
CONTINUOUS
 62
     9
100
AcDbLine
 10
-283.9999999999999
 20
57.80000000000002
 30
0.0
 11
-286.9999999999999
 21
61.26410161513778
 31
0.0
  0
LINE
  5
11D
330
1F
100
AcDbEntity
  8
0
  6
CONTINUOUS
 62
     7
100
AcDbLine
 10
-54.00000000000005
 20
57.80000000000002
 30
0.0
 11
-54.00000000000005
 21
53.80000000000004
 31
0.0
  0
ARC
  5
11E
330
1F
100
AcDbEntity
  8
0
  6
CONTINUOUS
 62
     7
100
AcDbCircle
 10
285.9999999999999
 20
61.80000000000008
 30
0.0
 40
1.000000000000056
210
0.0
220
0.0
230
-1.0
100
AcDbArc
 50
359.9999999999998
 51
90.0
  0
LINE
  5
11F
330
1F
100
AcDbEntity
  8
0
  6
CONTINUOUS
 62
     7
100
AcDbLine
 10
83.00000000000007
 20
57.30000000000002
 30
0.0
 11
113.0000000000001
 21
57.30000000000002
 31
0.0
  0
LINE
  5
120
330
1F
100
AcDbEntity
  8
0
  6
CONTINUOUS
 62
     9
100
AcDbLine
 10
-248.0
 20
62.13012701892223
 30
0.0
 11
-248.0
 21
62.80000000000002
 31
0.0
  0
ARC
  5
121
330
1F
100
AcDbEntity
  8
0
  6
CONTINUOUS
 62
     7
100
AcDbCircle
 10
248.0
 20
61.80000000000008
 30
0.0
 40
1.000000000000001
210
0.0
220
0.0
230
-1.0
100
AcDbArc
 50
90.0
 51
180.0000000000002
  0
LINE
  5
122
330
1F
100
AcDbEntity
  8
0
  6
CONTINUOUS
 62
     7
100
AcDbLine
 10
0.0
 20
53.80000000000007
 30
0.0
 11
0.0
 21
57.80000000000005
 31
0.0
  0
LINE
  5
123
330
1F
100
AcDbEntity
  8
0
  6
CONTINUOUS
 62
     7
100
AcDbLine
 10
43.00000000000004
 20
57.30000000000002
 30
0.0
 11
73.00000000000006
 21
57.30000000000002
 31
0.0
  0
LINE
  5
124
330
1F
100
AcDbEntity
  8
0
  6
CONTINUOUS
 62
     7
100
AcDbLine
 10
73.00000000000006
 20
53.80000000000007
 30
0.0
 11
73.00000000000006
 21
57.30000000000003
 31
0.0
  0
LINE
  5
125
330
1F
100
AcDbEntity
  8
0
  6
CONTINUOUS
 62
     7
100
AcDbLine
 10
-240.0
 20
57.80000000000002
 30
0.0
 11
-240.0
 21
53.80000000000004
 31
0.0
  0
LINE
  5
126
330
1F
100
AcDbEntity
  8
0
  6
CONTINUOUS
 62
     9
100
AcDbLine
 10
-10.00000000000001
 20
57.80000000000002
 30
0.0
 11
-7.999999999999951
 21
62.13012701892223
 31
0.0
  0
LINE
  5
127
330
1F
100
AcDbEntity
  8
0
  6
CONTINUOUS
 62
     7
100
AcDbLine
 10
-377.0000000000001
 20
57.30000000000002
 30
0.0
 11
-407.0
 21
57.30000000000002
 31
0.0
  0
ARC
  5
128
330
1F
100
AcDbEntity
  8
0
  6
CONTINUOUS
 62
     9
100
AcDbCircle
 10
270.0000000000002
 20
204.8
 30
0.0
 40
3.999999999999782
100
AcDbArc
 50
180.0
 51
210.0000000000001
  0
LINE
  5
129
330
1F
100
AcDbEntity
  8
0
  6
CONTINUOUS
 62
     9
100
AcDbLine
 10
265.6698729810779
 20
202.3
 30
0.0
 11
266.5358983848624
 21
202.8
 31
0.0
  0
LINE
  5
12A
330
1F
100
AcDbEntity
  8
0
  6
CONTINUOUS
 62
     9
100
AcDbLine
 10
-292.0142482868169
 20
57.80000000000002
 30
0.0
 11
-292.0142482868169
 21
53.79999999999997
 31
0.0
  0
LINE
  5
12B
330
1F
100
AcDbEntity
  8
0
  6
CONTINUOUS
 62
     9
100
AcDbLine
 10
-285.9999999999999
 20
62.80000000000002
 30
0.0
 11
-285.9999999999999
 21
62.13012701892223
 31
0.0
  0
CIRCLE
  5
12C
330
1F
100
AcDbEntity
  8
0
  6
CONTINUOUS
 62
     7
100
AcDbCircle
 10
351.9999999999999
 20
319.8
 30
0.0
 40
3.999999999999948
210
0.0
220
0.0
230
-1.0
  0
CIRCLE
  5
12D
330
1F
100
AcDbEntity
  8
0
  6
CONTINUOUS
 62
     7
100
AcDbCircle
 10
-58.00000000000005
 20
579.8000000000001
 30
0.0
 40
4.000000000000004
210
0.0
220
0.0
230
-1.0
  0
CIRCLE
  5
12E
330
1F
100
AcDbEntity
  8
0
  6
CONTINUOUS
 62
     7
100
AcDbCircle
 10
-351.9999999999999
 20
579.8000000000001
 30
0.0
 40
3.999999999999948
  0
CIRCLE
  5
12F
330
1F
100
AcDbEntity
  8
0
  6
CONTINUOUS
 62
     7
100
AcDbCircle
 10
-98.00000000000009
 20
579.8000000000001
 30
0.0
 40
4.000000000000004
210
0.0
220
0.0
230
-1.0
  0
CIRCLE
  5
130
330
1F
100
AcDbEntity
  8
0
  6
CONTINUOUS
 62
     7
100
AcDbCircle
 10
-98.00000000000009
 20
619.8000000000001
 30
0.0
 40
4.000000000000115
210
0.0
220
0.0
230
-1.0
  0
CIRCLE
  5
131
330
1F
100
AcDbEntity
  8
0
  6
CONTINUOUS
 62
     7
100
AcDbCircle
 10
58.00000000000005
 20
319.8
 30
0.0
 40
4.000000000000004
  0
CIRCLE
  5
132
330
1F
100
AcDbEntity
  8
0
  6
CONTINUOUS
 62
     7
100
AcDbCircle
 10
-392.0000000000001
 20
579.8000000000001
 30
0.0
 40
4.000000000000059
  0
LINE
  5
133
330
1F
100
AcDbEntity
  8
0
  6
CONTINUOUS
 62
     9
100
AcDbLine
 10
171.0
 20
378.8
 30
0.0
 11
171.0
 21
379.8
 31
0.0
  0
ARC
  5
134
330
1F
100
AcDbEntity
  8
0
  6
CONTINUOUS
 62
     7
100
AcDbCircle
 10
44.00000000000004
 20
206.8
 30
0.0
 40
3.000000000000003
210
0.0
220
0.0
230
-1.0
100
AcDbArc
 50
0.0
 51
90.0
  0
ARC
  5
135
330
1F
100
AcDbEntity
  8
0
  6
CONTINUOUS
 62
     7
100
AcDbCircle
 10
439.0000000000001
 20
232.8
 30
0.0
 40
8.000000000000007
210
0.0
220
0.0
230
-1.0
100
AcDbArc
 50
270.0
 51
0.0
  0
CIRCLE
  5
136
330
1F
100
AcDbEntity
  8
0
  6
CONTINUOUS
 62
     7
100
AcDbCircle
 10
112.0
 20
619.8000000000001
 30
0.0
 40
4.000000000000004
210
0.0
220
0.0
230
-1.0
  0
CIRCLE
  5
137
330
1F
100
AcDbEntity
  8
0
  6
CONTINUOUS
 62
     7
100
AcDbCircle
 10
-391.9999999999999
 20
619.8000000000001
 30
0.0
 40
3.999999999999948
  0
CIRCLE
  5
138
330
1F
100
AcDbEntity
  8
0
  6
CONTINUOUS
 62
     7
100
AcDbCircle
 10
-181.9999999999999
 20
619.8000000000001
 30
0.0
 40
3.999999999999893
  0
CIRCLE
  5
139
330
1F
100
AcDbEntity
  8
0
  6
CONTINUOUS
 62
     7
100
AcDbCircle
 10
98.00000000000009
 20
279.8
 30
0.0
 40
4.000000000000004
  0
CIRCLE
  5
13A
330
1F
100
AcDbEntity
  8
0
  6
CONTINUOUS
 62
     7
100
AcDbCircle
 10
-351.9999999999999
 20
619.8000000000001
 30
0.0
 40
3.999999999999948
  0
CIRCLE
  5
13B
330
1F
100
AcDbEntity
  8
0
  6
CONTINUOUS
 62
     7
100
AcDbCircle
 10
181.9999999999999
 20
279.8
 30
0.0
 40
4.000000000000004
210
0.0
220
0.0
230
-1.0
  0
CIRCLE
  5
13C
330
1F
100
AcDbEntity
  8
0
  6
CONTINUOUS
 62
     7
100
AcDbCircle
 10
-181.9999999999999
 20
579.8000000000001
 30
0.0
 40
4.000000000000004
  0
LINE
  5
13D
330
1F
100
AcDbEntity
  8
0
  6
CONTINUOUS
 62
     7
100
AcDbLine
 10
145.0
 20
224.7999999999999
 30
0.0
 11
-438.9999999999999
 21
224.7999999999999
 31
0.0
  0
ARC
  5
13E
330
1F
100
AcDbEntity
  8
0
  6
CONTINUOUS
 62
     7
100
AcDbCircle
 10
-145.0
 20
666.8000000000001
 30
0.0
 40
8.000000000000117
210
0.0
220
0.0
230
-1.0
100
AcDbArc
 50
90.0
 51
180.0
  0
LINE
  5
13F
330
1F
100
AcDbEntity
  8
0
  6
CONTINUOUS
 62
     7
100
AcDbLine
 10
145.0
 20
674.7999999999998
 30
0.0
 11
-438.9999999999999
 21
674.7999999999998
 31
0.0
  0
CIRCLE
  5
140
330
1F
100
AcDbEntity
  8
0
  6
CONTINUOUS
 62
     7
100
AcDbCircle
 10
351.9999999999999
 20
279.8
 30
0.0
 40
3.999999999999948
210
0.0
220
0.0
230
-1.0
  0
LINE
  5
141
330
1F
100
AcDbEntity
  8
0
  6
CONTINUOUS
 62
     7
100
AcDbLine
 10
177.9999999999999
 20
342.8
 30
0.0
 11
177.9999999999999
 21
376.8
 31
0.0
  0
CIRCLE
  5
142
330
1F
100
AcDbEntity
  8
0
  6
CONTINUOUS
 62
     7
100
AcDbCircle
 10
181.9999999999999
 20
319.8
 30
0.0
 40
4.000000000000115
210
0.0
220
0.0
230
-1.0
  0
CIRCLE
  5
143
330
1F
100
AcDbEntity
  8
0
  6
CONTINUOUS
 62
     7
100
AcDbCircle
 10
392.0000000000001
 20
319.8
 30
0.0
 40
4.000000000000004
210
0.0
220
0.0
230
-1.0
  0
CIRCLE
  5
144
330
1F
100
AcDbEntity
  8
0
  6
CONTINUOUS
 62
     7
100
AcDbCircle
 10
112.0
 20
579.8000000000001
 30
0.0
 40
4.000000000000004
210
0.0
220
0.0
230
-1.0
  0
CIRCLE
  5
145
330
1F
100
AcDbEntity
  8
0
  6
CONTINUOUS
 62
     7
100
AcDbCircle
 10
58.00000000000005
 20
279.8
 30
0.0
 40
4.000000000000004
  0
CIRCLE
  5
146
330
1F
100
AcDbEntity
  8
0
  6
CONTINUOUS
 62
     7
100
AcDbCircle
 10
-112.0
 20
279.8
 30
0.0
 40
4.000000000000004
  0
LINE
  5
147
330
1F
100
AcDbEntity
  8
0
  6
CONTINUOUS
 62
     9
100
AcDbLine
 10
171.0
 20
339.8
 30
0.0
 11
171.0
 21
340.8000000000001
 31
0.0
  0
ELLIPSE
  5
148
330
1F
100
AcDbEntity
  8
0
  6
CONTINUOUS
 62
     7
100
AcDbEllipse
 10
-46.00000000000004
 20
202.8
 30
0.0
 11
-1.000000000000001
 21
0.0
 31
0.0
210
0.0
220
0.0
230
1.0
 40
0.5
 41
0.0
 42
0.1963514818039974
  0
CIRCLE
  5
149
330
1F
100
AcDbEntity
  8
0
  6
CONTINUOUS
 62
     7
100
AcDbCircle
 10
-58.00000000000005
 20
619.8000000000001
 30
0.0
 40
4.000000000000115
210
0.0
220
0.0
230
-1.0
  0
ARC
  5
14A
330
1F
100
AcDbEntity
  8
0
  6
CONTINUOUS
 62
     7
100
AcDbCircle
 10
145.0
 20
232.8
 30
0.0
 40
8.000000000000007
100
AcDbArc
 50
270.0
 51
0.0
  0
ARC
  5
14B
330
1F
100
AcDbEntity
  8
0
  6
CONTINUOUS
 62
     7
100
AcDbCircle
 10
-439.0000000000001
 20
666.8000000000001
 30
0.0
 40
8.000000000000117
100
AcDbArc
 50
90.0
 51
180.0
  0
CIRCLE
  5
14C
330
1F
100
AcDbEntity
  8
0
  6
CONTINUOUS
 62
     7
100
AcDbCircle
 10
-112.0
 20
319.8
 30
0.0
 40
4.000000000000004
  0
LINE
  5
14D
330
1F
100
AcDbEntity
  8
0
  6
CONTINUOUS
 62
     9
100
AcDbLine
 10
171.0
 20
519.8000000000001
 30
0.0
 11
171.0
 21
520.8000000000001
 31
0.0
  0
MTEXT
  5
14E
330
1F
100
AcDbEntity
  8
0
 62
     7
100
AcDbMText
 10
102.3091579342254
 20
42.48865824684256
 30
0.0
 40
6.0
 41
0.0
 71
     1
 72
     1
  1
{\fＭＳ ゴシック;MHB-4560MYJ}
  0
LINE
  5
14F
330
1F
100
AcDbEntity
  8
0
  6
CONTINUOUS
 62
     7
100
AcDbLine
 10
171.0
 20
379.8000000000001
 30
0.0
 11
175.0
 21
379.8000000000001
 31
0.0
  0
LINE
  5
150
330
1F
100
AcDbEntity
  8
0
  6
CONTINUOUS
 62
     7
100
AcDbLine
 10
-70.67077272727241
 20
65.92500000000013
 30
0.0
 11
-70.67077272727241
 21
65.80000000000007
 31
0.0
  0
LINE
  5
151
330
1F
100
AcDbEntity
  8
0
  6
CONTINUOUS
 62
     7
100
AcDbLine
 10
266.0
 20
559.8000000000001
 30
0.0
 11
270.0000000000001
 21
559.8000000000001
 31
0.0
  0
LINE
  5
152
330
1F
100
AcDbEntity
  8
0
  6
CONTINUOUS
 62
     7
100
AcDbLine
 10
274.0
 20
566.8
 30
0.0
 11
270.0000000000002
 21
566.8
 31
0.0
  0
LINE
  5
153
330
1F
100
AcDbEntity
  8
0
  6
CONTINUOUS
 62
     7
100
AcDbLine
 10
-447.0
 20
53.80000000000001
 30
0.0
 11
183.0
 21
53.80000000000001
 31
0.0
  0
LINE
  5
154
330
1F
100
AcDbEntity
  8
0
  6
CONTINUOUS
 62
     7
100
AcDbLine
 10
-247.0
 20
206.8
 30
0.0
 11
-247.0
 21
202.8000000000001
 31
0.0
  0
LINE
  5
155
330
1F
100
AcDbEntity
  8
0
  6
CONTINUOUS
 62
     7
100
AcDbLine
 10
175.0
 20
519.8000000000001
 30
0.0
 11
171.0000000000001
 21
519.8000000000001
 31
0.0
  0
LINE
  5
156
330
1F
100
AcDbEntity
  8
0
  6
CONTINUOUS
 62
     7
100
AcDbLine
 10
-46.99999999999993
 20
202.8
 30
0.0
 11
-46.99999999999993
 21
206.8
 31
0.0
  0
LINE
  5
157
330
1F
100
AcDbEntity
  8
0
  6
CONTINUOUS
 62
     7
100
AcDbLine
 10
153.0
 20
666.8000000000001
 30
0.0
 11
153.0
 21
232.8
 31
0.0
  0
LINE
  5
158
330
1F
100
AcDbEntity
  8
0
  6
CONTINUOUS
 62
     9
100
AcDbLine
 10
175.5
 20
558.8000000000002
 30
0.0
 11
171.0000000000001
 21
558.8000000000002
 31
0.0
  0
LINE
  5
159
330
1F
100
AcDbEntity
  8
0
  6
CONTINUOUS
 62
     9
100
AcDbLine
 10
173.0
 20
61.80000000000008
 30
0.0
 11
168.0
 21
61.80000000000008
 31
0.0
  0
LINE
  5
15A
330
1F
100
AcDbEntity
  8
0
  6
CONTINUOUS
 62
     7
100
AcDbLine
 10
262.0
 20
224.7999999999999
 30
0.0
 11
262.0
 21
674.7999999999998
 31
0.0
  0
LINE
  5
15B
330
1F
100
AcDbEntity
  8
0
  6
CONTINUOUS
 62
     7
100
AcDbLine
 10
266.0
 20
379.8000000000001
 30
0.0
 11
270.0000000000001
 21
379.8000000000001
 31
0.0
  0
LINE
  5
15C
330
1F
100
AcDbEntity
  8
0
  6
CONTINUOUS
 62
     9
100
AcDbLine
 10
173.0
 20
519.8000000000001
 30
0.0
 11
173.0
 21
559.8000000000001
 31
0.0
  0
LINE
  5
15D
330
1F
100
AcDbEntity
  8
0
  6
CONTINUOUS
 62
     9
100
AcDbLine
 10
-285.9999999999999
 20
206.8
 30
0.0
 11
-285.9999999999999
 21
202.3
 31
0.0
  0
LINE
  5
15E
330
1F
100
AcDbEntity
  8
0
  6
CONTINUOUS
 62
     7
100
AcDbLine
 10
0.0
 20
57.80000000000002
 30
0.0
 11
-54.00000000000001
 21
57.80000000000002
 31
0.0
  0
LINE
  5
15F
330
1F
100
AcDbEntity
  8
0
  6
CONTINUOUS
 62
     9
100
AcDbLine
 10
-248.0
 20
202.3
 30
0.0
 11
-248.0
 21
206.8
 31
0.0
  0
LINE
  5
160
330
1F
100
AcDbEntity
  8
0
  6
CONTINUOUS
 62
     7
100
AcDbLine
 10
-7.000000000000006
 20
206.8
 30
0.0
 11
-7.000000000000006
 21
202.8000000000001
 31
0.0
  0
LINE
  5
161
330
1F
100
AcDbEntity
  8
0
  6
CONTINUOUS
 62
     7
100
AcDbLine
 10
270.0000000000002
 20
332.8
 30
0.0
 11
270.0000000000002
 21
386.8
 31
0.0
  0
LINE
  5
162
330
1F
100
AcDbEntity
  8
0
  6
CONTINUOUS
 62
     7
100
AcDbLine
 10
-294.0
 20
57.80000000000002
 30
0.0
 11
-240.0
 21
57.80000000000002
 31
0.0
  0
LINE
  5
163
330
1F
100
AcDbEntity
  8
0
  6
CONTINUOUS
 62
     9
100
AcDbLine
 10
171.0
 20
520.8
 30
0.0
 11
175.5
 21
520.8
 31
0.0
  0
LINE
  5
164
330
1F
100
AcDbEntity
  8
0
  6
CONTINUOUS
 62
     7
100
AcDbLine
 10
175.0
 20
339.8
 30
0.0
 11
171.0000000000001
 21
339.8
 31
0.0
  0
LINE
  5
165
330
1F
100
AcDbEntity
  8
0
  6
CONTINUOUS
 62
     7
100
AcDbLine
 10
-447.0000000000002
 20
666.8000000000001
 30
0.0
 11
-447.0000000000001
 21
232.8000000000001
 31
0.0
  0
LINE
  5
166
330
1F
100
AcDbEntity
  8
0
  6
CONTINUOUS
 62
     7
100
AcDbLine
 10
169.0
 20
62.80000000000002
 30
0.0
 11
173.0
 21
62.80000000000002
 31
0.0
  0
LINE
  5
167
330
1F
100
AcDbEntity
  8
0
  6
CONTINUOUS
 62
     7
100
AcDbLine
 10
171.0
 20
559.8000000000001
 30
0.0
 11
175.0
 21
559.8000000000001
 31
0.0
  0
LINE
  5
168
330
1F
100
AcDbEntity
  8
0
  6
CONTINUOUS
 62
     9
100
AcDbLine
 10
-46.99999999999993
 20
204.8
 30
0.0
 11
-7.000000000000034
 21
204.8
 31
0.0
  0
LINE
  5
169
330
1F
100
AcDbEntity
  8
0
  6
CONTINUOUS
 62
     7
100
AcDbLine
 10
270.0000000000002
 20
194.8000000000001
 30
0.0
 11
270.0000000000002
 21
224.8
 31
0.0
  0
ARC
  5
16A
330
1F
100
AcDbEntity
  8
0
  6
CONTINUOUS
 62
     7
100
AcDbCircle
 10
-169.0
 20
61.80000000000008
 30
0.0
 40
1.000000000000223
210
0.0
220
0.0
230
-1.0
100
AcDbArc
 50
359.9999999999993
 51
90.0
  0
LINE
  5
16B
330
1F
100
AcDbEntity
  8
0
  6
CONTINUOUS
 62
     9
100
AcDbLine
 10
-7.999999999999896
 20
202.3
 30
0.0
 11
-7.999999999999896
 21
206.8
 31
0.0
  0
LINE
  5
16C
330
1F
100
AcDbEntity
  8
0
  6
CONTINUOUS
 62
     9
100
AcDbLine
 10
-46.00000000000004
 20
206.8
 30
0.0
 11
-46.00000000000004
 21
202.3
 31
0.0
  0
LINE
  5
16D
330
1F
100
AcDbEntity
  8
0
  6
CONTINUOUS
 62
     9
100
AcDbLine
 10
173.0
 20
339.8
 30
0.0
 11
173.0
 21
379.8000000000001
 31
0.0
  0
LINE
  5
16E
330
1F
100
AcDbEntity
  8
0
  6
CONTINUOUS
 62
     9
100
AcDbLine
 10
175.5
 20
378.8
 30
0.0
 11
171.0000000000001
 21
378.8
 31
0.0
  0
LINE
  5
16F
330
1F
100
AcDbEntity
  8
0
  6
CONTINUOUS
 62
     7
100
AcDbLine
 10
-287.0
 20
57.80000000000002
 30
0.0
 11
-287.0
 21
61.80000000000003
 31
0.0
  0
LINE
  5
170
330
1F
100
AcDbEntity
  8
0
  6
CONTINUOUS
 62
     9
100
AcDbLine
 10
171.0
 20
340.8000000000001
 30
0.0
 11
175.5
 21
340.8000000000001
 31
0.0
  0
LINE
  5
171
330
1F
100
AcDbEntity
  8
0
  6
CONTINUOUS
 62
     9
100
AcDbLine
 10
173.0
 20
61.80000000000008
 30
0.0
 11
173.0
 21
62.80000000000008
 31
0.0
  0
LINE
  5
172
330
1F
100
AcDbEntity
  8
0
  6
________________
 62
     1
100
AcDbLine
 10
155.0
 20
449.8
 30
0.0
 11
-448.9999999999999
 21
449.8
 31
0.0
  0
LINE
  5
174
330
1F
100
AcDbEntity
  8
0
  6
CONTINUOUS
 62
     7
100
AcDbLine
 10
183.0000000000001
 20
57.80000000000002
 30
0.0
 11
153.0
 21
57.80000000000002
 31
0.0
  0
LINE
  5
175
330
1F
100
AcDbEntity
  8
0
  6
CONTINUOUS
 62
     9
100
AcDbLine
 10
175.0
 20
57.80000000000002
 30
0.0
 11
175.0
 21
61.26410161513782
 31
0.0
  0
LINE
  5
176
330
1F
100
AcDbEntity
  8
0
  6
CONTINUOUS
 62
     7
100
AcDbLine
 10
-7.000000000000006
 20
61.80000000000008
 30
0.0
 11
-7.000000000000006
 21
57.80000000000007
 31
0.0
  0
LINE
  5
177
330
1F
100
AcDbEntity
  8
0
  6
CONTINUOUS
 62
     7
100
AcDbLine
 10
265.0000000000001
 20
204.8
 30
0.0
 11
265.0000000000001
 21
208.8000000000001
 31
0.0
  0
LINE
  5
178
330
1F
100
AcDbEntity
  8
0
  6
CONTINUOUS
 62
     9
100
AcDbLine
 10
266.0
 20
209.8
 30
0.0
 11
266.0
 21
204.8
 31
0.0
  0
LINE
  5
179
330
1F
100
AcDbEntity
  8
0
  6
CONTINUOUS
 62
     7
100
AcDbLine
 10
274.0
 20
674.7999999999998
 30
0.0
 11
274.0
 21
194.8000000000001
 31
0.0
  0
LINE
  5
17A
330
1F
100
AcDbEntity
  8
0
  6
CONTINUOUS
 62
     7
100
AcDbLine
 10
270.0000000000002
 20
339.8
 30
0.0
 11
266.0000000000001
 21
339.8
 31
0.0
  0
LINE
  5
17B
330
1F
100
AcDbEntity
  8
0
  6
CONTINUOUS
 62
     7
100
AcDbLine
 10
270.0000000000002
 20
519.8000000000001
 30
0.0
 11
266.0000000000001
 21
519.8000000000001
 31
0.0
  0
LINE
  5
17C
330
1F
100
AcDbEntity
  8
0
  6
CONTINUOUS
 62
     7
100
AcDbLine
 10
20.97704545454548
 20
65.92500000000013
 30
0.0
 11
20.97704545454548
 21
65.80000000000007
 31
0.0
  0
LINE
  5
17D
330
1F
100
AcDbEntity
  8
0
  6
CONTINUOUS
 62
     9
100
AcDbLine
 10
265.0000000000001
 20
206.8
 30
0.0
 11
270.0000000000001
 21
206.8
 31
0.0
  0
LINE
  5
17E
330
1F
100
AcDbEntity
  8
0
  6
CONTINUOUS
 62
     7
100
AcDbLine
 10
274.0
 20
332.8
 30
0.0
 11
270.0000000000002
 21
332.8
 31
0.0
  0
LINE
  5
17F
330
1F
100
AcDbEntity
  8
0
  6
CONTINUOUS
 62
     7
100
AcDbLine
 10
-247.0
 20
61.80000000000008
 30
0.0
 11
-247.0
 21
57.80000000000007
 31
0.0
  0
LINE
  5
180
330
1F
100
AcDbEntity
  8
0
  6
CONTINUOUS
 62
     7
100
AcDbLine
 10
167.9999999999999
 20
57.80000000000002
 30
0.0
 11
167.9999999999999
 21
61.80000000000003
 31
0.0
  0
LINE
  5
181
330
1F
100
AcDbEntity
  8
0
  6
CONTINUOUS
 62
     7
100
AcDbLine
 10
-46.99999999999993
 20
57.80000000000002
 30
0.0
 11
-46.99999999999993
 21
61.80000000000003
 31
0.0
  0
LINE
  5
182
330
1F
100
AcDbEntity
  8
0
  6
________________
 62
     1
100
AcDbLine
 10
-146.9999999999999
 20
676.8000000000001
 30
0.0
 11
-146.9999999999999
 21
222.8
 31
0.0
  0
ARC
  5
183
330
1F
100
AcDbEntity
  8
0
  6
CONTINUOUS
 62
     7
100
AcDbCircle
 10
-173.0
 20
57.80000000000002
 30
0.0
 40
5.000000000000115
210
0.0
220
0.0
230
-1.0
100
AcDbArc
 50
90.0
 51
119.9999999999993
  0
LINE
  5
184
330
1F
100
AcDbEntity
  8
0
  6
CONTINUOUS
 62
     7
100
AcDbLine
 10
22.17977272727256
 20
65.80000000000008
 30
0.0
 11
22.17977272727256
 21
65.92500000000014
 31
0.0
  0
LINE
  5
185
330
1F
100
AcDbEntity
  8
0
  6
CONTINUOUS
 62
     7
100
AcDbLine
 10
153.0
 20
65.80000000000008
 30
0.0
 11
-446.9999999999999
 21
65.80000000000008
 31
0.0
  0
LINE
  5
186
330
1F
100
AcDbEntity
  8
0
  6
CONTINUOUS
 62
     7
100
AcDbLine
 10
270.0000000000002
 20
566.8
 30
0.0
 11
270.0000000000002
 21
512.8
 31
0.0
  0
LINE
  5
187
330
1F
100
AcDbEntity
  8
0
  6
CONTINUOUS
 62
     7
100
AcDbLine
 10
-287.0
 20
202.8
 30
0.0
 11
-287.0
 21
206.8
 31
0.0
  0
LINE
  5
188
330
1F
100
AcDbEntity
  8
0
  6
CONTINUOUS
 62
     9
100
AcDbLine
 10
-287.0
 20
204.8
 30
0.0
 11
-247.0
 21
204.8
 31
0.0
  0
LINE
  5
189
330
1F
100
AcDbEntity
  8
0
  6
CONTINUOUS
 62
     9
100
AcDbLine
 10
171.0
 20
57.80000000000002
 30
0.0
 11
171.0
 21
62.80000000000002
 31
0.0
  0
CIRCLE
  5
18A
330
1F
100
AcDbEntity
  8
0
  6
CONTINUOUS
 62
     7
100
AcDbCircle
 10
-98.00000000000009
 20
319.8
 30
0.0
 40
4.000000000000115
210
0.0
220
0.0
230
-1.0
  0
CIRCLE
  5
18B
330
1F
100
AcDbEntity
  8
0
  6
CONTINUOUS
 62
     7
100
AcDbCircle
 10
-392.0000000000001
 20
279.8
 30
0.0
 40
4.000000000000059
  0
LINE
  5
18C
330
1F
100
AcDbEntity
  8
0
  6
CONTINUOUS
 62
     9
100
AcDbLine
 10
-99.99999999999986
 20
53.80000000000007
 30
0.0
 11
-99.99999999999986
 21
57.30000000000003
 31
0.0
  0
LINE
  5
18D
330
1F
100
AcDbEntity
  8
0
  6
CONTINUOUS
 62
     7
100
AcDbLine
 10
-171.9999999999999
 20
57.30000000000002
 30
0.0
 11
-171.9999999999999
 21
53.80000000000005
 31
0.0
  0
LINE
  5
18E
330
1F
100
AcDbEntity
  8
0
  6
CONTINUOUS
 62
     7
100
AcDbLine
 10
153.0
 20
65.80000000000008
 30
0.0
 11
153.0
 21
53.80000000000008
 31
0.0
  0
LINE
  5
18F
330
1F
100
AcDbEntity
  8
0
  6
CONTINUOUS
 62
     7
100
AcDbLine
 10
183.0000000000001
 20
53.80000000000007
 30
0.0
 11
183.0000000000001
 21
57.80000000000005
 31
0.0
  0
LINE
  5
190
330
1F
100
AcDbEntity
  8
0
  6
CONTINUOUS
 62
     9
100
AcDbLine
 10
-339.9999999999999
 20
53.80000000000007
 30
0.0
 11
-339.9999999999999
 21
57.30000000000003
 31
0.0
  0
LINE
  5
191
330
1F
100
AcDbEntity
  8
0
  6
CONTINUOUS
 62
     9
100
AcDbLine
 10
-169.0
 20
53.80000000000007
 30
0.0
 11
-169.0
 21
57.30000000000003
 31
0.0
  0
LINE
  5
192
330
1F
100
AcDbEntity
  8
0
  6
CONTINUOUS
 62
     9
100
AcDbLine
 10
-125.0
 20
53.80000000000007
 30
0.0
 11
-125.0
 21
57.30000000000003
 31
0.0
  0
ARC
  5
193
330
1F
100
AcDbEntity
  8
0
  6
CONTINUOUS
 62
     9
100
AcDbCircle
 10
173.0
 20
57.80000000000002
 30
0.0
 40
4.000000000000004
100
AcDbArc
 50
60.0000000000008
 51
90.0
  0
LINE
  5
194
330
1F
100
AcDbEntity
  8
0
  6
CONTINUOUS
 62
     7
100
AcDbLine
 10
-127.0
 20
57.30000000000002
 30
0.0
 11
-96.99999999999997
 21
57.30000000000002
 31
0.0
  0
LINE
  5
195
330
1F
100
AcDbEntity
  8
0
  6
CONTINUOUS
 62
     7
100
AcDbLine
 10
-166.9999999999999
 20
57.30000000000002
 30
0.0
 11
-196.9999999999999
 21
57.30000000000002
 31
0.0
  0
LINE
  5
196
330
1F
100
AcDbEntity
  8
0
  6
CONTINUOUS
 62
     9
100
AcDbLine
 10
70.00000000000006
 20
53.80000000000007
 30
0.0
 11
70.00000000000006
 21
57.30000000000003
 31
0.0
  0
LINE
  5
197
330
1F
100
AcDbEntity
  8
0
  6
CONTINUOUS
 62
     9
100
AcDbLine
 10
45.99999999999993
 20
53.80000000000007
 30
0.0
 11
45.99999999999993
 21
57.30000000000003
 31
0.0
  0
LINE
  5
198
330
1F
100
AcDbEntity
  8
0
  6
CONTINUOUS
 62
     9
100
AcDbLine
 10
175.697245941981
 20
57.80000000000002
 30
0.0
 11
175.697245941981
 21
53.80000000000004
 31
0.0
  0
LINE
  5
199
330
1F
100
AcDbEntity
  8
0
  6
CONTINUOUS
 62
     7
100
AcDbLine
 10
175.4903925463634
 20
62.11348642109293
 30
0.0
 11
175.5
 21
62.13012701892227
 31
0.0
  0
LINE
  5
19A
330
1F
100
AcDbEntity
  8
0
  6
CONTINUOUS
 62
     9
100
AcDbLine
 10
-174.9999999999999
 20
53.80000000000007
 30
0.0
 11
-174.9999999999999
 21
57.30000000000003
 31
0.0
  0
LINE
  5
19B
330
1F
100
AcDbEntity
  8
0
  6
CONTINUOUS
 62
     7
100
AcDbLine
 10
-122.0
 20
57.30000000000002
 30
0.0
 11
-122.0
 21
53.80000000000005
 31
0.0
  0
LINE
  5
19C
330
1F
100
AcDbEntity
  8
0
  6
CONTINUOUS
 62
     9
100
AcDbLine
 10
111.0
 20
53.80000000000007
 30
0.0
 11
111.0
 21
57.30000000000003
 31
0.0
  0
LINE
  5
19D
330
1F
100
AcDbEntity
  8
0
  6
CONTINUOUS
 62
     9
100
AcDbLine
 10
175.0
 20
61.26410161513785
 30
0.0
 11
175.4903925463634
 21
62.11348642109295
 31
0.0
  0
LINE
  5
19E
330
1F
100
AcDbEntity
  8
0
  6
CONTINUOUS
 62
     9
100
AcDbLine
 10
-405.0
 20
53.80000000000007
 30
0.0
 11
-405.0
 21
57.30000000000003
 31
0.0
  0
LINE
  5
19F
330
1F
100
AcDbEntity
  8
0
  6
CONTINUOUS
 62
     9
100
AcDbLine
 10
-119.0
 20
53.80000000000007
 30
0.0
 11
-119.0
 21
57.30000000000003
 31
0.0
  0
LINE
  5
1A0
330
1F
100
AcDbEntity
  8
0
  6
CONTINUOUS
 62
     7
100
AcDbLine
 10
-166.9999999999999
 20
53.80000000000007
 30
0.0
 11
-166.9999999999999
 21
57.30000000000003
 31
0.0
  0
LINE
  5
1A1
330
1F
100
AcDbEntity
  8
0
  6
CONTINUOUS
 62
     7
100
AcDbLine
 10
-447.0
 20
65.80000000000008
 30
0.0
 11
-447.0
 21
53.80000000000008
 31
0.0
  0
LINE
  5
1A2
330
1F
100
AcDbEntity
  8
0
  6
CONTINUOUS
 62
     9
100
AcDbLine
 10
-364.0
 20
53.80000000000007
 30
0.0
 11
-364.0
 21
57.30000000000003
 31
0.0
  0
LINE
  5
1A3
330
1F
100
AcDbEntity
  8
0
  6
CONTINUOUS
 62
     7
100
AcDbLine
 10
43.00000000000004
 20
53.80000000000007
 30
0.0
 11
43.00000000000004
 21
57.30000000000003
 31
0.0
  0
LINE
  5
1A4
330
1F
100
AcDbEntity
  8
0
  6
CONTINUOUS
 62
     9
100
AcDbLine
 10
-193.9999999999999
 20
53.80000000000007
 30
0.0
 11
-193.9999999999999
 21
57.30000000000003
 31
0.0
  0
LINE
  5
1A5
330
1F
100
AcDbEntity
  8
0
  6
CONTINUOUS
 62
     9
100
AcDbLine
 10
105.0000000000001
 20
57.30000000000002
 30
0.0
 11
105.0000000000001
 21
53.80000000000005
 31
0.0
  0
LINE
  5
1A6
330
1F
100
AcDbEntity
  8
0
  6
CONTINUOUS
 62
     7
100
AcDbLine
 10
-196.9999999999999
 20
53.80000000000007
 30
0.0
 11
-196.9999999999999
 21
57.30000000000003
 31
0.0
  0
LINE
  5
1A7
330
1F
100
AcDbEntity
  8
0
  6
CONTINUOUS
 62
     7
100
AcDbLine
 10
-127.0
 20
53.80000000000007
 30
0.0
 11
-127.0
 21
57.30000000000003
 31
0.0
  0
LINE
  5
1A8
330
1F
100
AcDbEntity
  8
0
  6
CONTINUOUS
 62
     9
100
AcDbLine
 10
-380.0
 20
53.80000000000007
 30
0.0
 11
-380.0
 21
57.30000000000003
 31
0.0
  0
LINE
  5
1A9
330
1F
100
AcDbEntity
  8
0
  6
CONTINUOUS
 62
     7
100
AcDbLine
 10
-96.99999999999997
 20
53.80000000000007
 30
0.0
 11
-96.99999999999997
 21
57.30000000000003
 31
0.0
  0
LINE
  5
1AA
330
1F
100
AcDbEntity
  8
0
  6
CONTINUOUS
 62
     9
100
AcDbLine
 10
85.99999999999996
 20
53.80000000000007
 30
0.0
 11
85.99999999999996
 21
57.30000000000003
 31
0.0
  0
LINE
  5
1AB
330
1F
100
AcDbEntity
  8
0
  6
CONTINUOUS
 62
     9
100
AcDbLine
 10
-399.0
 20
57.30000000000002
 30
0.0
 11
-399.0
 21
53.80000000000005
 31
0.0
  0
LINE
  5
1AC
330
1F
100
AcDbEntity
  8
0
  6
CONTINUOUS
 62
     7
100
AcDbLine
 10
108.0000000000001
 20
53.80000000000007
 30
0.0
 11
108.0000000000001
 21
57.30000000000003
 31
0.0
  0
LINE
  5
1AD
330
1F
100
AcDbEntity
  8
0
  6
CONTINUOUS
 62
     7
100
AcDbLine
 10
-402.0
 20
53.80000000000007
 30
0.0
 11
-402.0
 21
57.30000000000003
 31
0.0
  0
LWPOLYLINE
  5
1AE
330
1F
100
AcDbEntity
  8
0
  6
CONTINUOUS
 62
     7
100
AcDbPolyline
 90
       31
 70
     0
 43
0.0
 10
-249.9381271874581
 20
199.8006558017697
 10
-249.839978536402
 20
199.8043818085192
 10
-249.6758807172635
 20
199.8179715760921
 10
-249.5079887689343
 20
199.8414823366637
 10
-249.3365932272341
 20
199.8757042679612
 10
-249.1629513773663
 20
199.9212457645341
 10
-249.0169888448395
 20
199.9683559142363
 10
-248.8701285477203
 20
200.0243217213531
 10
-248.7226377813645
 20
200.0897054224714
 10
-248.574822751498
 20
200.1651452185848
 10
-248.4270367414079
 20
200.2513724112319
 10
-248.2796912823957
 20
200.3492345939693
 10
-248.1697599464705
 20
200.4308589277555
 10
-248.0605864882847
 20
200.5200725240838
 10
-247.9530315063131
 20
200.6168837747022
 10
-247.8479809201938
 20
200.7211844250061
 10
-247.7457880821689
 20
200.8333661685609
 10
-247.6468597503737
 20
200.9538805994476
 10
-247.551669403096
 20
201.0832525814099
 10
-247.4607752202323
 20
201.2220976312741
 10
-247.3915972155418
 20
201.3404796743101
 10
-247.3259992650501
 20
201.4658263450312
 10
-247.2646993776317
 20
201.5980968699785
 10
-247.2087842181247
 20
201.7362618760125
 10
-247.1587471360548
 20
201.8804774203735
 10
-247.1219238122993
 20
202.0054603362438
 10
-247.0899111092382
 20
202.134984174496
 10
-247.0631197653997
 20
202.2692313669714
 10
-247.0420238088193
 20
202.4084045314222
 10
-247.0271739444626
 20
202.5527288264805
 10
-247.0192147195968
 20
202.7024548389919
  0
LWPOLYLINE
  5
1AF
330
1F
100
AcDbEntity
  8
0
  6
CONTINUOUS
 62
     9
100
AcDbPolyline
 90
       36
 70
     0
 43
0.0
 10
177.9999999999999
 20
57.80000000000002
 10
177.999985737032
 20
57.80872175852159
 10
177.9999799999557
 20
57.81032795845859
 10
177.9998901093636
 20
57.82420904846796
 10
177.999452762865
 20
57.85402281885421
 10
177.997272587571
 20
57.92059391981674
 10
177.9863499202686
 20
58.06966203714347
 10
177.9637333516435
 20
58.23913273644854
 10
177.9301903469005
 20
58.40840134762188
 10
177.8776141528681
 20
58.60378324054466
 10
177.8276967211785
 20
58.75171212406693
 10
177.7691205524976
 20
58.89893848796612
 10
177.701578987427
 20
59.0457923939996
 10
177.625189192345
 20
59.19160124402318
 10
177.5381897562787
 20
59.33889631784906
 10
177.441867245236
 20
59.4847130827571
 10
177.3356958618715
 20
59.62943217293826
 10
177.2200082823214
 20
59.77219714278181
 10
177.1174758204835
 20
59.88821467891353
 10
177.0084840498456
 20
60.00253263539373
 10
176.8926196676927
 20
60.11538552463569
 10
176.7702909858695
 20
60.22618346014507
 10
176.638816322372
 20
60.3369608350936
 10
176.5007353959069
 20
60.4451953001649
 10
176.3554550500406
 20
60.55116228424578
 10
176.2037756153321
 20
60.65410196624976
 10
176.1140376360175
 20
60.71163904428284
 10
176.0223753434065
 20
60.76801442020718
 10
175.9050050600721
 20
60.83687964718282
 10
175.7848067198136
 20
60.90377820611209
 10
175.6615128032126
 20
60.96882901554162
 10
175.5356878170356
 20
61.03171173497657
 10
175.405108811823
 20
61.09344358652457
 10
175.2723204620181
 20
61.15273810448591
 10
175.1370101050149
 20
61.20973557795478
 10
175.0
 20
61.26410161513784
  0
LWPOLYLINE
  5
1B0
330
1F
100
AcDbEntity
  8
0
  6
CONTINUOUS
 62
     7
100
AcDbPolyline
 90
       31
 70
     0
 43
0.0
 10
-9.938127187457457
 20
199.8006558017698
 10
-9.839978536401949
 20
199.8043818085192
 10
-9.675880717263441
 20
199.8179715760921
 10
-9.507988768934439
 20
199.8414823366637
 10
-9.336593227233902
 20
199.8757042679612
 10
-9.162951377365891
 20
199.9212457645341
 10
-9.01698884483948
 20
199.9683559142363
 10
-8.870128547720512
 20
200.0243217213531
 10
-8.722637781364506
 20
200.0897054224714
 10
-8.574822751497901
 20
200.1651452185848
 10
-8.427036741407989
 20
200.2513724112319
 10
-8.279691282395474
 20
200.3492345939693
 10
-8.1697599464704
 20
200.4308589277555
 10
-8.060586488284892
 20
200.5200725240838
 10
-7.953031506312991
 20
200.6168837747022
 10
-7.847980920193898
 20
200.7211844250061
 10
-7.74578808216897
 20
200.8333661685608
 10
-7.646859750373936
 20
200.9538805994476
 10
-7.55166940309604
 20
201.0832525814099
 10
-7.460775220232474
 20
201.2220976312741
 10
-7.391597215541945
 20
201.3404796743101
 10
-7.325999265049954
 20
201.4658263450312
 10
-7.264699377631967
 20
201.5980968699785
 10
-7.208784218124986
 20
201.7362618760125
 10
-7.158747136055021
 20
201.8804774203735
 10
-7.12192381229948
 20
202.0054603362438
 10
-7.0899111092384
 20
202.134984174496
 10
-7.063119765399972
 20
202.2692313669714
 10
-7.042023808819464
 20
202.4084045314222
 10
-7.027173944462395
 20
202.5527288264805
 10
-7.019214719596961
 20
202.7024548389919
  0
LWPOLYLINE
  5
1B1
330
1F
100
AcDbEntity
  8
0
  6
CONTINUOUS
 62
     9
100
AcDbPolyline
 90
       30
 70
     0
 43
0.0
 10
-46.00000000000004
 20
202.3
 10
-45.99711356206792
 20
202.1657566333973
 10
-45.98866860543637
 20
202.034254651525
 10
-45.97483409889303
 20
201.9046609989798
 10
-45.95597516731553
 20
201.7783422685117
 10
-45.93176302800295
 20
201.65254170311
 10
-45.90291197176399
 20
201.5305379032657
 10
-45.86947370010996
 20
201.4116495806165
 10
-45.83192967695349
 20
201.2968536538898
 10
-45.78547368721364
 20
201.1735550532185
 10
-45.73460673070451
 20
201.0555501405002
 10
-45.67928547575595
 20
200.9421529504022
 10
-45.62016843400352
 20
200.8342161624138
 10
-45.55633948660254
 20
200.7298654193916
 10
-45.48918841274896
 20
200.6312065214759
 10
-45.41860195046154
 20
200.5377359457595
 10
-45.34520766284955
 20
200.4499930980652
 10
-45.24373235604062
 20
200.3421920007821
 10
-45.13827347981603
 20
200.2443927732803
 10
-45.02846770912249
 20
200.1558756830286
 10
-44.91558740479795
 20
200.0773538770703
 10
-44.79744561900889
 20
200.0073219907742
 10
-44.67697406132254
 20
199.9475723575481
 10
-44.55373928147343
 20
199.8977319938919
 10
-44.4289441978375
 20
199.8581747109159
 10
-44.26929301104643
 20
199.8227657577574
 10
-44.10806018116031
 20
199.8036517303834
 10
-44.02803507493292
 20
199.8002456262622
 10
-44.00697151671407
 20
199.8000151881853
 10
-44.00000000000001
 20
199.8
  0
LWPOLYLINE
  5
1B2
330
1F
100
AcDbEntity
  8
0
  6
CONTINUOUS
 62
     9
100
AcDbPolyline
 90
       30
 70
     0
 43
0.0
 10
175.5
 20
520.8
 10
175.6340954680475
 20
520.8028791274721
 10
175.765745348475
 20
520.8113313945635
 10
175.8952119856975
 20
520.8251489192164
 10
176.0216577314884
 20
520.8440248326845
 10
176.1473454210391
 20
520.8682122011589
 10
176.2694620967345
 20
520.897088028236
 10
176.3882559530515
 20
520.9304971592435
 10
176.5031463461101
 20
520.9680703230466
 10
176.6263388216196
 20
521.0144830021239
 10
176.7444498595001
 20
521.0653932692954
 10
176.8577609726485
 20
521.1206696303769
 10
176.965783837586
 20
521.1798315659963
 10
177.070062463606
 20
521.2436136499441
 10
177.1687934785241
 20
521.3108115872511
 10
177.262206212062
 20
521.3813517947185
 10
177.350006901935
 20
521.4547923371504
 10
177.457705582621
 20
521.5561636501791
 10
177.5556072267202
 20
521.661726520184
 10
177.6440492323531
 20
521.7714311646191
 10
177.7226461229295
 20
521.8844125952024
 10
177.7926226503821
 20
522.0024512020631
 10
177.852427642452
 20
522.1230259386775
 10
177.9022321696605
 20
522.2461592413416
 10
177.941825289084
 20
522.3710558021626
 10
177.9772342422425
 20
522.5307069889528
 10
177.9963482696166
 20
522.6919398188389
 10
177.9997543737381
 20
522.7719649250644
 10
177.9999848118151
 20
522.7930284832692
 10
178.0
 20
522.8000000000002
  0
LWPOLYLINE
  5
1B3
330
1F
100
AcDbEntity
  8
0
  6
CONTINUOUS
 62
     7
100
AcDbPolyline
 90
       36
 70
     0
 43
0.0
 10
-177.9999999999999
 20
342.8
 10
-177.999985737032
 20
342.7907491835995
 10
-177.9999799999557
 20
342.789045554935
 10
-177.9998901093636
 20
342.7743225440694
 10
-177.999452762865
 20
342.7427014542749
 10
-177.997272587571
 20
342.6721053723
 10
-177.9863499202686
 20
342.5141431237125
 10
-177.9637333516435
 20
342.3349358965085
 10
-177.9301903469005
 20
342.1565837032441
 10
-177.8776141528681
 20
341.9518627544945
 10
-177.8276967211785
 20
341.797936502493
 10
-177.7691205524976
 20
341.645889361571
 10
-177.701578987427
 20
341.495595547887
 10
-177.625189192345
 20
341.3479732425345
 10
-177.5381897562787
 20
341.2007524390755
 10
-177.441867245236
 20
341.0572193607216
 10
-177.3356958618715
 20
340.9173091488944
 10
-177.2200082823214
 20
340.782188505726
 10
-177.1174758204835
 20
340.6748420882985
 10
-177.0084840498456
 20
340.5715494572425
 10
-176.8926196676927
 20
340.4723422086864
 10
-176.7702909858695
 20
340.3780029262301
 10
-176.638816322372
 20
340.2871766752261
 10
-176.5007353959069
 20
340.2023485084656
 10
-176.3554550500406
 20
340.1236701235985
 10
-176.2037756153321
 20
340.0521054845701
 10
-176.1140376360175
 20
340.014516173887
 10
-176.0223753434065
 20
339.979583602162
 10
-175.9050050600721
 20
339.9397612265329
 10
-175.7848067198136
 20
339.9044726883455
 10
-175.6615128032126
 20
339.873841970914
 10
-175.5356878170356
 20
339.848214343371
 10
-175.405108811823
 20
339.8274780319424
 10
-175.2723204620181
 20
339.8123853049684
 10
-175.1370101050149
 20
339.8031302612355
 10
-175.0
 20
339.8
210
0.0
220
0.0
230
-1.0
  0
LWPOLYLINE
  5
1B4
330
1F
100
AcDbEntity
  8
0
  6
CONTINUOUS
 62
     7
100
AcDbPolyline
 90
       30
 70
     0
 43
0.0
 10
-270.0000000000002
 20
199.8
 10
-269.9876759737825
 20
199.8000151881853
 10
-269.9504399123296
 20
199.8002456262622
 10
-269.8089398819681
 20
199.8036517303834
 10
-269.5241240287212
 20
199.8226973107958
 10
-269.2394983154731
 20
199.8581747109159
 10
-269.0241509128619
 20
199.8961526778323
 10
-268.8092457654076
 20
199.9438591090456
 10
-268.5953866201338
 20
200.00134797541
 10
-268.3806534158479
 20
200.0694908687969
 10
-268.167578844416
 20
200.1478786872473
 10
-267.9546588288381
 20
200.237481014445
 10
-267.7432980073271
 20
200.3382406927015
 10
-267.5347535715231
 20
200.4499930980652
 10
-267.3903633607275
 20
200.5350502217533
 10
-267.2476401158651
 20
200.6257317924928
 10
-267.1069501761361
 20
200.7219780877685
 10
-266.96731429272
 20
200.8247242358723
 10
-266.8301603883381
 20
200.9332032848444
 10
-266.6945284227066
 20
201.0484859520847
 10
-266.5619135028435
 20
201.1696334567886
 10
-266.4323725421882
 20
201.2968536538898
 10
-266.3272203609945
 20
201.4072592608177
 10
-266.2246142881036
 20
201.5218202113967
 10
-266.1249135828035
 20
201.6402998149731
 10
-266.0272837530885
 20
201.7639621837787
 10
-265.9330378018665
 20
201.8914232898282
 10
-265.8413810341576
 20
202.0240518202
 10
-265.7536410032166
 20
202.1602206019372
 10
-265.669872981078
 20
202.3
210
0.0
220
0.0
230
-1.0
  0
LWPOLYLINE
  5
1B5
330
1F
100
AcDbEntity
  8
0
  6
CONTINUOUS
 62
     9
100
AcDbPolyline
 90
       30
 70
     0
 43
0.0
 10
-250.0
 20
199.8
 10
-249.9930284832859
 20
199.8000151881853
 10
-249.971964925067
 20
199.8002456262622
 10
-249.8919398188397
 20
199.8036517303834
 10
-249.731110269664
 20
199.8226973107958
 10
-249.5710558021628
 20
199.8581747109159
 10
-249.450662623616
 20
199.8961526778323
 10
-249.3315277624514
 20
199.943776569239
 10
-249.2136366764001
 20
200.0013479754101
 10
-249.0977436682047
 20
200.0688520640517
 10
-248.9822774114104
 20
200.1478786872473
 10
-248.8697567173816
 20
200.237481014445
 10
-248.7602579829069
 20
200.3382406927015
 10
-248.6547923371507
 20
200.4499930980652
 10
-248.5835362837789
 20
200.5350502217533
 10
-248.514834915924
 20
200.6256136044428
 10
-248.4487740395123
 20
200.7219780877685
 10
-248.3858015341397
 20
200.8239604760466
 10
-248.3253672900478
 20
200.9332032848444
 10
-248.2687422619532
 20
201.0482845243597
 10
-248.2161127429368
 20
201.1696334567886
 10
-248.1680703230465
 20
201.2968536538898
 10
-248.1318648489826
 20
201.4072592608177
 10
-248.0994065988837
 20
201.5216356054668
 10
-248.0708890062622
 20
201.6402998149731
 10
-248.046717785327
 20
201.7628073700912
 10
-248.026890361379
 20
201.8914232898282
 10
-248.012247119893
 20
202.0237571052206
 10
-248.00312857181
 20
202.1602206019372
 10
-248.0
 20
202.3
  0
LWPOLYLINE
  5
1B6
330
1F
100
AcDbEntity
  8
0
  6
CONTINUOUS
 62
     7
100
AcDbPolyline
 90
       36
 70
     0
 43
0.0
 10
-177.9999999999999
 20
522.8
 10
-177.999985737032
 20
522.7907491835895
 10
-177.9999799999557
 20
522.7890455549204
 10
-177.9998901093636
 20
522.7743225440684
 10
-177.999452762865
 20
522.7427014542749
 10
-177.9972725875715
 20
522.6721053723
 10
-177.9863499202686
 20
522.5141431237123
 10
-177.9637333516435
 20
522.3349358965079
 10
-177.9301903469005
 20
522.156583703244
 10
-177.877614152911
 20
521.9518627546411
 10
-177.8276967212236
 20
521.7979365026204
 10
-177.7691205525431
 20
521.6458893616796
 10
-177.7015789874705
 20
521.4955955479766
 10
-177.6251891923846
 20
521.3479732426065
 10
-177.538189756312
 20
521.2007524391285
 10
-177.4418672452605
 20
521.0572193607561
 10
-177.3356958618849
 20
520.9173091489109
 10
-177.2200082823214
 20
520.782188505726
 10
-177.1174758204835
 20
520.6748420882985
 10
-177.0084840498456
 20
520.5715494572424
 10
-176.8926196676927
 20
520.4723422086865
 10
-176.7702909858695
 20
520.3780029262306
 10
-176.638816322372
 20
520.287176675226
 10
-176.5007353959069
 20
520.2023485084654
 10
-176.3554550500406
 20
520.1236701235987
 10
-176.2037756153321
 20
520.0521054845699
 10
-176.1140376360175
 20
520.0145161738872
 10
-176.022375343407
 20
519.9795836021619
 10
-175.9050050600721
 20
519.939761226533
 10
-175.784806719814
 20
519.9044726883454
 10
-175.6615128032126
 20
519.8738419709139
 10
-175.5356878170356
 20
519.8482143433712
 10
-175.4051088118235
 20
519.8274780319425
 10
-175.2723204620181
 20
519.8123853049685
 10
-175.1370101050149
 20
519.8031302612353
 10
-175.0
 20
519.7999999999998
210
0.0
220
0.0
230
-1.0
  0
LWPOLYLINE
  5
1B7
330
1F
100
AcDbEntity
  8
0
  6
CONTINUOUS
 62
     7
100
AcDbPolyline
 90
       36
 70
     0
 43
0.0
 10
-175.0
 20
379.8000000000001
 10
-175.1315912545355
 20
379.7971125674105
 10
-175.2621588824521
 20
379.7885235017229
 10
-175.39193299962
 20
379.7742879019705
 10
-175.5201171480035
 20
379.7545690298845
 10
-175.648928557746
 20
379.728974517974
 10
-175.7755777811905
 20
379.6980129581015
 10
-175.900286640425
 20
379.6617274442325
 10
-176.022375343407
 20
379.620416397838
 10
-176.113951783993
 20
379.585518160583
 10
-176.2037756153321
 20
379.5478945154301
 10
-176.348765984363
 20
379.4797071331445
 10
-176.4885948791397
 20
379.4046276674035
 10
-176.6236204078016
 20
379.322668581358
 10
-176.752952196577
 20
379.2345756501935
 10
-176.879105580624
 20
379.1385812401684
 10
-176.998948623544
 20
379.037007912466
 10
-177.1127851590625
 20
378.929821323878
 10
-177.2200082823214
 20
378.817811494274
 10
-177.3312099588015
 20
378.6882426030529
 10
-177.4340657740385
 20
378.5536601174865
 10
-177.528863936746
 20
378.413953899412
 10
-177.6150986105139
 20
378.2701221912779
 10
-177.6941838452155
 20
378.1196110821675
 10
-177.7642637543451
 20
377.9656954561195
 10
-177.8255099379702
 20
377.8082130679736
 10
-177.8776141529102
 20
377.6481372453636
 10
-177.9301903469005
 20
377.443416296756
 10
-177.9636785237251
 20
377.2654133732619
 10
-177.9863499202686
 20
377.0858568762876
 10
-177.9972725875715
 20
376.9278946277
 10
-177.999452762865
 20
376.8572985457255
 10
-177.9998901093636
 20
376.8256774559316
 10
-177.9999799999557
 20
376.8109544450784
 10
-177.999985737032
 20
376.80925081641
 10
-178.0000000000001
 20
376.8
210
0.0
220
0.0
230
-1.0
  0
LWPOLYLINE
  5
1B8
330
1F
100
AcDbEntity
  8
0
  6
CONTINUOUS
 62
     9
100
AcDbPolyline
 90
       30
 70
     0
 43
0.0
 10
177.9999999999999
 20
556.8
 10
177.9999848118151
 20
556.806971516717
 10
177.9997543737381
 20
556.8280350749324
 10
177.9963482696166
 20
556.90806018116
 10
177.9773026892042
 20
557.068889730336
 10
177.941825289084
 20
557.2289441978376
 10
177.9038140267081
 20
557.3494288750751
 10
177.856223430761
 20
557.4684722375489
 10
177.7985996400131
 20
557.586460088231
 10
177.7311479359481
 20
557.7022563317955
 10
177.6520406830155
 20
557.8178306594394
 10
177.562518985555
 20
557.9302432826183
 10
177.4616430314641
 20
558.0398588117274
 10
177.350006901935
 20
558.1452076628494
 10
177.264896150437
 20
558.2165062417649
 10
177.174386395557
 20
558.2851650840759
 10
177.077953250544
 20
558.3512703841553
 10
176.9760395239535
 20
558.4141984658606
 10
176.8667052877951
 20
558.4746800922255
 10
176.7517154756399
 20
558.531257738047
 10
176.6302483400545
 20
558.5839346683281
 10
176.5031463461101
 20
558.6319296769535
 10
176.3926552779791
 20
558.668160933784
 10
176.278364394533
 20
558.7005934011164
 10
176.159594468772
 20
558.7291336283117
 10
176.037192629909
 20
558.753282214673
 10
175.908440040503
 20
558.7731269836355
 10
175.7762428947796
 20
558.7877528801071
 10
175.6396108451162
 20
558.7968778670165
 10
175.5
 20
558.8000000000002
  0
LWPOLYLINE
  5
1B9
330
1F
100
AcDbEntity
  8
0
  6
CONTINUOUS
 62
     9
100
AcDbPolyline
 90
       30
 70
     0
 43
0.0
 10
-285.9999999999999
 20
202.3
 10
-285.9971135620678
 20
202.1657566333973
 10
-285.9886686054365
 20
202.034254651525
 10
-285.9748340988929
 20
201.9046609989798
 10
-285.9559751673153
 20
201.7783422685117
 10
-285.9317630280029
 20
201.65254170311
 10
-285.9029119717637
 20
201.5305379032657
 10
-285.8694737001098
 20
201.4116495806165
 10
-285.8319296769535
 20
201.2968536538898
 10
-285.7854736872134
 20
201.1735550532185
 10
-285.7346067307044
 20
201.0555501405001
 10
-285.6792854757559
 20
200.9421529504022
 10
-285.6201684340034
 20
200.8342161624137
 10
-285.5563394866021
 20
200.7298654193916
 10
-285.4891884127492
 20
200.6312065214759
 10
-285.4186019504616
 20
200.5377359457595
 10
-285.3452076628493
 20
200.4499930980652
 10
-285.2437323560403
 20
200.3421920007821
 10
-285.1382734798161
 20
200.2443927732803
 10
-285.0284677091225
 20
200.1558756830286
 10
-284.9155874047977
 20
200.0773538770703
 10
-284.7974456190088
 20
200.0073219907742
 10
-284.6769740613221
 20
199.9475723575481
 10
-284.5537392814736
 20
199.8977319938919
 10
-284.4289441978372
 20
199.8581747109159
 10
-284.2692930110466
 20
199.8227657577573
 10
-284.1080601811603
 20
199.8036517303834
 10
-284.0280350749332
 20
199.8002456262622
 10
-284.0069715167148
 20
199.8000151881853
 10
-284.0
 20
199.8
  0
LWPOLYLINE
  5
1BA
330
1F
100
AcDbEntity
  8
0
  6
CONTINUOUS
 62
     9
100
AcDbPolyline
 90
       30
 70
     0
 43
0.0
 10
-10.00000000000001
 20
199.8
 10
-9.993028483284982
 20
199.8000151881853
 10
-9.971964925066912
 20
199.8002456262622
 10
-9.891939818839512
 20
199.8036517303834
 10
-9.731110269664
 20
199.8226973107958
 10
-9.571055802162997
 20
199.8581747109159
 10
-9.450662623615935
 20
199.8961526778323
 10
-9.331527762451385
 20
199.943776569239
 10
-9.213636676400071
 20
200.00134797541
 10
-9.097743668204927
 20
200.0688520640517
 10
-8.982277411410555
 20
200.1478786872473
 10
-8.869756717381438
 20
200.237481014445
 10
-8.760257982906916
 20
200.3382406927015
 10
-8.65479233715105
 20
200.4499930980652
 10
-8.583536283778948
 20
200.5350502217533
 10
-8.514834915924085
 20
200.6256136044427
 10
-8.448774039512497
 20
200.7219780877685
 10
-8.385801534139924
 20
200.8239604760466
 10
-8.325367290047957
 20
200.9332032848444
 10
-8.268742261952955
 20
201.0482845243597
 10
-8.216112742936987
 20
201.1696334567886
 10
-8.16807032304645
 20
201.2968536538898
 10
-8.13186484898254
 20
201.4072592608177
 10
-8.099406598883862
 20
201.5216356054668
 10
-8.070889006261961
 20
201.6402998149731
 10
-8.046717785326951
 20
201.7628073700911
 10
-8.026890361379046
 20
201.8914232898282
 10
-8.012247119893011
 20
202.0237571052206
 10
-8.003128571809848
 20
202.1602206019372
 10
-7.999999999999896
 20
202.3
  0
LWPOLYLINE
  5
1BB
330
1F
100
AcDbEntity
  8
0
  6
CONTINUOUS
 62
     7
100
AcDbPolyline
 90
       36
 70
     0
 43
0.0
 10
-175.0
 20
559.8000000000001
 10
-175.131591254535
 20
559.7971125674106
 10
-175.2621588824521
 20
559.788523501723
 10
-175.39193299962
 20
559.7742879019705
 10
-175.5201171480035
 20
559.7545690298844
 10
-175.6489285577455
 20
559.728974517974
 10
-175.7755777811901
 20
559.6980129581015
 10
-175.9002866404246
 20
559.6617274442326
 10
-176.0223753434065
 20
559.620416397838
 10
-176.113951783993
 20
559.5855181605835
 10
-176.2037756153321
 20
559.5478945154304
 10
-176.348765984363
 20
559.4797071331445
 10
-176.4885948791397
 20
559.4046276674034
 10
-176.6236204078016
 20
559.3226685813579
 10
-176.752952196577
 20
559.2345756501935
 10
-176.879105580624
 20
559.1385812401684
 10
-176.998948623544
 20
559.037007912466
 10
-177.1127851590625
 20
558.9298213238781
 10
-177.2200082823214
 20
558.8178114942741
 10
-177.33120995879
 20
558.688242603067
 10
-177.4340657740174
 20
558.5536601175156
 10
-177.5288639367171
 20
558.413953899457
 10
-177.6150986104791
 20
558.27012219134
 10
-177.6941838451766
 20
558.1196110822475
 10
-177.764263754303
 20
557.9656954562184
 10
-177.8255099379276
 20
557.8082130680925
 10
-177.8776141528691
 20
557.648137245502
 10
-177.9301903469005
 20
557.443416296756
 10
-177.9636785237251
 20
557.2654133732622
 10
-177.9863499202686
 20
557.0858568762875
 10
-177.997272587571
 20
556.9278946277001
 10
-177.999452762865
 20
556.8572985457249
 10
-177.9998901093636
 20
556.8256774559303
 10
-177.9999799999557
 20
556.8109544450655
 10
-177.999985737032
 20
556.8092508164011
 10
-178.0000000000001
 20
556.8000000000002
210
0.0
220
0.0
230
-1.0
  0
ENDSEC
  0
SECTION
  2
OBJECTS
  0
DICTIONARY
  5
C
330
0
100
AcDbDictionary
  3
ACAD_GROUP
350
D
  3
ACAD_LAYOUT
350
1A
  3
ACAD_MATERIAL
350
43
  3
ACAD_MLEADERSTYLE
350
6B
  3
ACAD_MLINESTYLE
350
17
  3
ACAD_PLOTSETTINGS
350
19
  3
ACAD_SCALELIST
350
47
  3
ACAD_VISUALSTYLE
350
2A
  3
ACDBHEADERROUNDTRIPXREC
350
1BC
  3
ACDBVARIABLEDICTIONARY
350
1DD
  0
DICTIONARY
  5
1E4
330
8
100
AcDbDictionary
280
     1
  3
ACAD_XREC_ROUNDTRIP
360
1E5
  0
DICTIONARY
  5
D
102
{ACAD_REACTORS
330
C
102
}
330
C
100
AcDbDictionary
  0
DICTIONARY
  5
1A
102
{ACAD_REACTORS
330
C
102
}
330
C
100
AcDbDictionary
  0
DICTIONARY
  5
43
102
{ACAD_REACTORS
330
C
102
}
330
C
100
AcDbDictionary
  3
BYBLOCK
350
45
  3
BYLAYER
350
44
  3
GLOBAL
350
46
  0
DICTIONARY
  5
6B
102
{ACAD_REACTORS
330
C
102
}
330
C
100
AcDbDictionary
  3
STANDARD
350
6C
  0
DICTIONARY
  5
17
102
{ACAD_REACTORS
330
C
102
}
330
C
100
AcDbDictionary
  3
STANDARD
350
18
  0
DICTIONARY
  5
19
102
{ACAD_REACTORS
330
C
102
}
330
C
100
AcDbDictionary
  0
DICTIONARY
  5
47
102
{ACAD_REACTORS
330
C
102
}
330
C
100
AcDbDictionary
  3
A0
350
48
  3
A1
350
49
  3
A2
350
4A
  3
A3
350
4B
  3
A4
350
4C
  3
A5
350
4D
  3
A6
350
4E
  3
A7
350
4F
  3
A8
350
50
  3
A9
350
51
  3
B0
350
52
  3
B1
350
53
  3
B2
350
54
  3
B3
350
55
  3
B4
350
56
  3
B5
350
57
  3
B6
350
58
  3
B7
350
59
  3
B8
350
5A
  3
B9
350
5B
  3
C0
350
5C
  3
C1
350
5D
  3
C2
350
5E
  3
C3
350
5F
  3
C4
350
60
  3
C5
350
61
  3
C6
350
62
  3
C7
350
63
  3
C8
350
64
  3
C9
350
65
  3
D0
350
66
  3
D1
350
67
  3
D2
350
68
  0
DICTIONARY
  5
2A
102
{ACAD_REACTORS
330
C
102
}
330
C
100
AcDbDictionary
  3
2DWIREFRAME
350
2F
  3
BASIC
350
32
  3
BRIGHTEN
350
36
  3
COLORCHANGE
350
3A
  3
CONCEPTUAL
350
34
  3
DIM
350
35
  3
EDGECOLOROFF
350
3D
  3
FACEPATTERN
350
39
  3
FLAT
350
2B
  3
FLATWITHEDGES
350
2C
  3
GOURAUD
350
2D
  3
GOURAUDWITHEDGES
350
2E
  3
HIDDEN
350
31
  3
JITTEROFF
350
3B
  3
LINEPATTERN
350
38
  3
OVERHANGOFF
350
3C
  3
REALISTIC
350
33
  3
SHADED
350
42
  3
SHADED_WITH_EDGES
350
41
  3
SHADES_OF_GRAY
350
3E
  3
SKETCHY
350
3F
  3
THICKEN
350
37
  3
WIREFRAME
350
30
  3
X-RAY
350
40
  0
DICTIONARY
  5
1BC
102
{ACAD_REACTORS
330
C
102
}
330
C
100
AcDbDictionary
  3
CEPSNID
350
1C6
  3
CEPSNTYPE
350
1C5
  3
DIMSTYLEDATA
350
1DC
  3
FINGERPRINTGUID
350
1C7
  3
HYPERLINKBASE
350
1BF
  3
INSUNITS
350
1C4
  3
LAYOUTDICT
350
1C1
  3
LWETCUNION
350
1C3
  3
PLOTSETDICT
350
1C2
  3
PSVPSCALE
350
1C9
  3
PUCSBASE
350
1CC
  3
PUCSORGBACK
350
1D2
  3
PUCSORGBOTTOM
350
1CE
  3
PUCSORGFRONT
350
1D1
  3
PUCSORGLEFT
350
1CF
  3
PUCSORGRIGHT
350
1D0
  3
PUCSORGTOP
350
1CD
  3
PUCSORTHOREF
350
1CA
  3
PUCSORTHOVIEW
350
1CB
  3
STYLESHEET
350
1C0
  3
TSTACKALIGN
350
1BD
  3
TSTACKSIZE
350
1BE
  3
UCSBASE
350
1D5
  3
UCSORGBACK
350
1DB
  3
UCSORGBOTTOM
350
1D7
  3
UCSORGFRONT
350
1DA
  3
UCSORGLEFT
350
1D8
  3
UCSORGRIGHT
350
1D9
  3
UCSORGTOP
350
1D6
  3
UCSORTHOREF
350
1D3
  3
UCSORTHOVIEW
350
1D4
  3
VERSIONGUID
350
1C8
  0
DICTIONARY
  5
1DD
102
{ACAD_REACTORS
330
C
102
}
330
C
100
AcDbDictionary
  3
CANNOSCALE
350
1E6
  3
CMLEADERSTYLE
350
1DF
  3
CTABLESTYLE
350
1DE
  3
DIMASSOC
350
1E2
  3
HIDETEXT
350
1E3
  3
MSLTSCALE
350
1E7
  0
XRECORD
  5
1E5
102
{ACAD_REACTORS
330
1E4
102
}
330
1E4
100
AcDbXrecord
102
VTR_0.000_0.000_1.000_1.000_VISUALSTYLE
340
2F
102
VTR_0.000_0.000_1.000_1.000_GRIDDISPLAY
 70
     3
102
VTR_0.000_0.000_1.000_1.000_GRIDMAJOR
 70
     5
102
VTR_0.000_0.000_1.000_1.000_DEFAULTLIGHTING
280
     1
102
VTR_0.000_0.000_1.000_1.000_DEFAULTLIGHTINGTYPE
 70
     1
102
VTR_0.000_0.000_1.000_1.000_BRIGHTNESS
141
0.0
102
VTR_0.000_0.000_1.000_1.000_CONTRAST
142
0.0
  0
MATERIAL
  5
45
102
{ACAD_REACTORS
330
43
102
}
102
{ACAD_XDICTIONARY
360
1EA
102
}
330
43
100
AcDbMaterial
  1
BYBLOCK
  0
MATERIAL
  5
44
102
{ACAD_REACTORS
330
43
102
}
102
{ACAD_XDICTIONARY
360
1E8
102
}
330
43
100
AcDbMaterial
  1
BYLAYER
  0
MATERIAL
  5
46
102
{ACAD_REACTORS
330
43
102
}
102
{ACAD_XDICTIONARY
360
1EC
102
}
330
43
100
AcDbMaterial
  1
GLOBAL
  0
ACAD_PROXY_OBJECT
  5
6C
102
{ACAD_REACTORS
330
6B
102
}
330
6B
100
AcDbProxyObject
 90
      499
 91
      505
 93
      610
310
40901902A4063FBFFFFFE056BD1B81E855B9FC0AD7A3703D0AD73F4214DD185B99185C9900AD7A3703D0AC73F90141901A02B5E8DC0F42B1CFC02B5E8DC0F42B1CFE5764000000000000300FC0
340
14
340
0
340
11
340
0
 94
        0
1001
ACAD_MLEADERVER
1070
     2
  0
MLINESTYLE
  5
18
102
{ACAD_REACTORS
330
17
102
}
330
17
100
AcDbMlineStyle
  2
Standard
 70
     0
  3

 62
   256
 51
90.0
 52
90.0
 71
     2
 49
0.5
 62
   256
  6
BYLAYER
 49
-0.5
 62
   256
  6
BYLAYER
  0
ACAD_PROXY_OBJECT
  5
48
102
{ACAD_REACTORS
330
47
102
}
330
47
100
AcDbProxyObject
 90
      499
 91
      503
 93
       41
310
903313A31580
  0
ACAD_PROXY_OBJECT
  5
49
102
{ACAD_REACTORS
330
47
102
}
330
47
100
AcDbProxyObject
 90
      499
 91
      503
 93
      105
310
903313A324000000000000004000
  0
ACAD_PROXY_OBJECT
  5
4A
102
{ACAD_REACTORS
330
47
102
}
330
47
100
AcDbProxyObject
 90
      499
 91
      503
 93
      105
310
903313A344000000000000104000
  0
ACAD_PROXY_OBJECT
  5
4B
102
{ACAD_REACTORS
330
47
102
}
330
47
100
AcDbProxyObject
 90
      499
 91
      503
 93
      105
310
903313A354000000000000144000
  0
ACAD_PROXY_OBJECT
  5
4C
102
{ACAD_REACTORS
330
47
102
}
330
47
100
AcDbProxyObject
 90
      499
 91
      503
 93
      105
310
903313A384000000000000204000
  0
ACAD_PROXY_OBJECT
  5
4D
102
{ACAD_REACTORS
330
47
102
}
330
47
100
AcDbProxyObject
 90
      499
 91
      503
 93
      113
310
904313A31304000000000000244000
  0
ACAD_PROXY_OBJECT
  5
4E
102
{ACAD_REACTORS
330
47
102
}
330
47
100
AcDbProxyObject
 90
      499
 91
      503
 93
      113
310
904313A31364000000000000304000
  0
ACAD_PROXY_OBJECT
  5
4F
102
{ACAD_REACTORS
330
47
102
}
330
47
100
AcDbProxyObject
 90
      499
 91
      503
 93
      113
310
904313A32304000000000000344000
  0
ACAD_PROXY_OBJECT
  5
50
102
{ACAD_REACTORS
330
47
102
}
330
47
100
AcDbProxyObject
 90
      499
 91
      503
 93
      113
310
904313A333040000000000003E4000
  0
ACAD_PROXY_OBJECT
  5
51
102
{ACAD_REACTORS
330
47
102
}
330
47
100
AcDbProxyObject
 90
      499
 91
      503
 93
      113
310
904313A34304000000000000444000
  0
ACAD_PROXY_OBJECT
  5
52
102
{ACAD_REACTORS
330
47
102
}
330
47
100
AcDbProxyObject
 90
      499
 91
      503
 93
      113
310
904313A35304000000000000494000
  0
ACAD_PROXY_OBJECT
  5
53
102
{ACAD_REACTORS
330
47
102
}
330
47
100
AcDbProxyObject
 90
      499
 91
      503
 93
      121
310
905313A3130304000000000000594000
  0
ACAD_PROXY_OBJECT
  5
54
102
{ACAD_REACTORS
330
47
102
}
330
47
100
AcDbProxyObject
 90
      499
 91
      503
 93
      105
310
903323A310000000000000010100
  0
ACAD_PROXY_OBJECT
  5
55
102
{ACAD_REACTORS
330
47
102
}
330
47
100
AcDbProxyObject
 90
      499
 91
      503
 93
      105
310
903343A310000000000000410100
  0
ACAD_PROXY_OBJECT
  5
56
102
{ACAD_REACTORS
330
47
102
}
330
47
100
AcDbProxyObject
 90
      499
 91
      503
 93
      105
310
903383A310000000000000810100
  0
ACAD_PROXY_OBJECT
  5
57
102
{ACAD_REACTORS
330
47
102
}
330
47
100
AcDbProxyObject
 90
      499
 91
      503
 93
      113
310
90431303A310000000000000910100
  0
ACAD_PROXY_OBJECT
  5
58
102
{ACAD_REACTORS
330
47
102
}
330
47
100
AcDbProxyObject
 90
      499
 91
      503
 93
      121
310
9053130303A310000000000001650100
  0
ACAD_PROXY_OBJECT
  5
59
102
{ACAD_REACTORS
330
47
102
}
330
47
100
AcDbProxyObject
 90
      499
 91
      503
 93
      257
310
90E312F31323822203D2031272D3022000000000000200FC000000000000284000
  0
ACAD_PROXY_OBJECT
  5
5A
102
{ACAD_REACTORS
330
47
102
}
330
47
100
AcDbProxyObject
 90
      499
 91
      503
 93
      249
310
90D312F363422203D2031272D3022000000000000240FC000000000000284000
  0
ACAD_PROXY_OBJECT
  5
5B
102
{ACAD_REACTORS
330
47
102
}
330
47
100
AcDbProxyObject
 90
      499
 91
      503
 93
      249
310
90D312F333222203D2031272D3022000000000000280FC000000000000284000
  0
ACAD_PROXY_OBJECT
  5
5C
102
{ACAD_REACTORS
330
47
102
}
330
47
100
AcDbProxyObject
 90
      499
 91
      503
 93
      249
310
90D312F313622203D2031272D30220000000000002C0FC000000000000284000
  0
ACAD_PROXY_OBJECT
  5
5D
102
{ACAD_REACTORS
330
47
102
}
330
47
100
AcDbProxyObject
 90
      499
 91
      503
 93
      249
310
90D332F333222203D2031272D30220000000000002E0FC000000000000284000
  0
ACAD_PROXY_OBJECT
  5
5E
102
{ACAD_REACTORS
330
47
102
}
330
47
100
AcDbProxyObject
 90
      499
 91
      503
 93
      241
310
90C312F3822203D2031272D3022000000000000300FC000000000000284000
  0
ACAD_PROXY_OBJECT
  5
5F
102
{ACAD_REACTORS
330
47
102
}
330
47
100
AcDbProxyObject
 90
      499
 91
      503
 93
      249
310
90D332F313622203D2031272D3022000000000000320FC000000000000284000
  0
ACAD_PROXY_OBJECT
  5
60
102
{ACAD_REACTORS
330
47
102
}
330
47
100
AcDbProxyObject
 90
      499
 91
      503
 93
      241
310
90C312F3422203D2031272D3022000000000000340FC000000000000284000
  0
ACAD_PROXY_OBJECT
  5
61
102
{ACAD_REACTORS
330
47
102
}
330
47
100
AcDbProxyObject
 90
      499
 91
      503
 93
      241
310
90C332F3822203D2031272D3022000000000000360FC000000000000284000
  0
ACAD_PROXY_OBJECT
  5
62
102
{ACAD_REACTORS
330
47
102
}
330
47
100
AcDbProxyObject
 90
      499
 91
      503
 93
      241
310
90C312F3222203D2031272D3022000000000000380FC000000000000284000
  0
ACAD_PROXY_OBJECT
  5
63
102
{ACAD_REACTORS
330
47
102
}
330
47
100
AcDbProxyObject
 90
      499
 91
      503
 93
      241
310
90C332F3422203D2031272D30220000000000003A0FC000000000000284000
  0
ACAD_PROXY_OBJECT
  5
64
102
{ACAD_REACTORS
330
47
102
}
330
47
100
AcDbProxyObject
 90
      499
 91
      503
 93
      161
310
90A3122203D2031272D30224000000000000284000
  0
ACAD_PROXY_OBJECT
  5
65
102
{ACAD_REACTORS
330
47
102
}
330
47
100
AcDbProxyObject
 90
      499
 91
      503
 93
      257
310
90E312D312F3222203D2031272D30220000000000003E0FC000000000000284000
  0
ACAD_PROXY_OBJECT
  5
66
102
{ACAD_REACTORS
330
47
102
}
330
47
100
AcDbProxyObject
 90
      499
 91
      503
 93
      225
310
90A3322203D2031272D302200000000000002100000000000000284000
  0
ACAD_PROXY_OBJECT
  5
67
102
{ACAD_REACTORS
330
47
102
}
330
47
100
AcDbProxyObject
 90
      499
 91
      503
 93
      225
310
90A3622203D2031272D302200000000000006100000000000000284000
  0
ACAD_PROXY_OBJECT
  5
68
102
{ACAD_REACTORS
330
47
102
}
330
47
100
AcDbProxyObject
 90
      499
 91
      503
 93
      249
310
90D31272D3022203D2031272D30220000000000000A100000000000000284000
  0
ACAD_PROXY_OBJECT
  5
2F
102
{ACAD_REACTORS
330
2A
102
}
330
2A
100
AcDbProxyObject
 90
      499
 91
      501
 93
      436
310
42CC9915DA5C99599C985B595049028333333333333E33F0000000000000F90107901411070040501600405405064090741402480A0340
1001
ACAD
1000
AcDbSavedByObjectVersion
1070
     0
  0
ACAD_PROXY_OBJECT
  5
32
102
{ACAD_REACTORS
330
2A
102
}
330
2A
100
AcDbProxyObject
 90
      499
 91
      501
 93
      388
310
4150985CDA58D07406404333333333333E33F0000000000000F90107A41107004050150841D405064090741402480A0350
1001
ACAD
1000
AcDbSavedByObjectVersion
1070
     0
  0
ACAD_PROXY_OBJECT
  5
36
102
{ACAD_REACTORS
330
2A
102
}
330
2A
100
AcDbProxyObject
 90
      499
 91
      501
 93
      428
310
42109C9A59DA1D195B90C409028333333333333E33F0000000000000F9010790141107004050150841D405064090741402480A029950
1001
ACAD
1000
AcDbSavedByObjectVersion
1070
     0
  0
ACAD_PROXY_OBJECT
  5
3A
102
{ACAD_REACTORS
330
2A
102
}
330
2A
100
AcDbProxyObject
 90
      499
 91
      501
 93
      452
310
42D0DBDB1BDC90DA185B99D95104090240C333333333333E33F0000000000000F90108901411070040501508421405064090741402480A0350
1001
ACAD
1000
AcDbSavedByObjectVersion
1070
     0
  0
ACAD_PROXY_OBJECT
  5
34
102
{ACAD_REACTORS
330
2A
102
}
330
2A
100
AcDbProxyObject
 90
      499
 91
      501
 93
      500
310
4290DBDB98D95C1D1D585B10940D028333333333333E33F0000000000000F90107902409070040501000000000018199010841D405064090740C02480A0340
1001
ACAD
1000
AcDbSavedByObjectVersion
1070
     0
  0
ACAD_PROXY_OBJECT
  5
35
102
{ACAD_REACTORS
330
2A
102
}
330
2A
100
AcDbProxyObject
 90
      499
 91
      501
 93
      412
310
40D11A5B50B409028333333333333E33F0000000000000F9010790141107004050150841D405064090741402480A02677FFFFFD0
1001
ACAD
1000
AcDbSavedByObjectVersion
1070
     0
  0
ACAD_PROXY_OBJECT
  5
3D
102
{ACAD_REACTORS
330
2A
102
}
330
2A
100
AcDbProxyObject
 90
      499
 91
      501
 93
      452
310
43115919D950DBDB1BDC93D999916409028333333333333E33F0000000000000F9010790141107004050150841D405064090741402480A0350
1001
ACAD
1000
AcDbSavedByObjectVersion
1070
     0
  0
ACAD_PROXY_OBJECT
  5
39
102
{ACAD_REACTORS
330
2A
102
}
330
2A
100
AcDbProxyObject
 90
      499
 91
      501
 93
      444
310
42D19858D95C185D1D195C9B90F409028333333333333E33F0000000000000F9010790141107004050150841D405064090741402480A0350
1001
ACAD
1000
AcDbSavedByObjectVersion
1070
     0
  0
ACAD_PROXY_OBJECT
  5
2B
102
{ACAD_REACTORS
330
2A
102
}
330
2A
100
AcDbProxyObject
 90
      499
 91
      501
 93
      380
310
41119B185D240901404333333333333E33F0000000000000F9010740A907004050150841D405064090741402480A1B50
1001
ACAD
1000
AcDbSavedByObjectVersion
1070
     0
  0
ACAD_PROXY_OBJECT
  5
2C
102
{ACAD_REACTORS
330
2A
102
}
330
2A
100
AcDbProxyObject
 90
      499
 91
      501
 93
      468
310
43519B185D15DA5D1A115919D95CD0140901404333333333333E33F0000000000000F90107409019070040501600405405064090741402480A1B50
1001
ACAD
1000
AcDbSavedByObjectVersion
1070
     0
  0
ACAD_PROXY_OBJECT
  5
2D
102
{ACAD_REACTORS
330
2A
102
}
330
2A
100
AcDbProxyObject
 90
      499
 91
      501
 93
      404
310
41D1DBDD5C985D5910240902404333333333333E33F0000000000000F9010740A9070040501641D405064090741402480A1B50
1001
ACAD
1000
AcDbSavedByObjectVersion
1070
     0
  0
ACAD_PROXY_OBJECT
  5
2E
102
{ACAD_REACTORS
330
2A
102
}
330
2A
100
AcDbProxyObject
 90
      499
 91
      501
 93
      492
310
4411DBDD5C985D5915DA5D1A115919D95CD0340902404333333333333E33F0000000000000F90107409019070040501600405405064090741402480A1B50
1001
ACAD
1000
AcDbSavedByObjectVersion
1070
     0
  0
ACAD_PROXY_OBJECT
  5
31
102
{ACAD_REACTORS
330
2A
102
}
330
2A
100
AcDbProxyObject
 90
      499
 91
      501
 93
      476
310
41921A5919195B90640502408333333333333E33F0000000000000F901079024090700405020000000000001110200405405064090740C02480A0340
1001
ACAD
1000
AcDbSavedByObjectVersion
1070
     0
  0
ACAD_PROXY_OBJECT
  5
3B
102
{ACAD_REACTORS
330
2A
102
}
330
2A
100
AcDbProxyObject
 90
      499
 91
      501
 93
      428
310
42529A5D1D195C93D999914409028333333333333E33F0000000000000F9010790141107004050150A41D405064090741402480A0350
1001
ACAD
1000
AcDbSavedByObjectVersion
1070
     0
  0
ACAD_PROXY_OBJECT
  5
38
102
{ACAD_REACTORS
330
2A
102
}
330
2A
100
AcDbProxyObject
 90
      499
 91
      501
 93
      444
310
42D31A5B995C185D1D195C9B90E409028333333333333E33F0000000000000F9010790141107004050750841D405064090741402483A0350
1001
ACAD
1000
AcDbSavedByObjectVersion
1070
     0
  0
ACAD_PROXY_OBJECT
  5
3C
102
{ACAD_REACTORS
330
2A
102
}
330
2A
100
AcDbProxyObject
 90
      499
 91
      501
 93
      444
310
42D3DD995C9A185B99D3D999915409028333333333333E33F0000000000000F9010790141107004050150941D405064090741402480A0350
1001
ACAD
1000
AcDbSavedByObjectVersion
1070
     0
  0
ACAD_PROXY_OBJECT
  5
33
102
{ACAD_REACTORS
330
2A
102
}
330
2A
100
AcDbProxyObject
 90
      499
 91
      501
 93
      428
310
425499585B1A5CDD1A58D08409038333333333333E33F0000000000000F9010740A907004050150800405405064090740C02480A1B40
1001
ACAD
1000
AcDbSavedByObjectVersion
1070
     0
  0
ACAD_PROXY_OBJECT
  5
42
102
{ACAD_REACTORS
330
2A
102
}
330
2A
100
AcDbProxyObject
 90
      499
 91
      501
 93
      420
310
4194DA1859195911B40902404333333333333E33F0000000000000F9010740A41107004050150800405405064090840C02480A0B40
1001
ACAD
1000
AcDbSavedByObjectVersion
1070
     0
  0
ACAD_PROXY_OBJECT
  5
41
102
{ACAD_REACTORS
330
2A
102
}
330
2A
100
AcDbProxyObject
 90
      499
 91
      501
 93
      516
310
4454DA18591959081DDA5D1A08195919D95CD1A40902404333333333333E33F0000000000000F901074090142907004050250800405405064090740C02480A0B40
1001
ACAD
1000
AcDbSavedByObjectVersion
1070
     0
  0
ACAD_PROXY_OBJECT
  5
3E
102
{ACAD_REACTORS
330
2A
102
}
330
2A
100
AcDbProxyObject
 90
      499
 91
      501
 93
      532
310
4394DA1859195CC81BD98811DC985E5174090240C333333333333E33F0000000000000F901079024090741D01000000000000111010841D405064090740C02480A0340
1001
ACAD
1000
AcDbSavedByObjectVersion
1070
     0
  0
ACAD_PROXY_OBJECT
  5
3F
102
{ACAD_REACTORS
330
2A
102
}
330
2A
100
AcDbProxyObject
 90
      499
 91
      501
 93
      476
310
41D4DAD95D18DA1E51840502408333333333333E33F0000000000000F901079024090741D01000000000000111010B41D405064090741802480A0340
1001
ACAD
1000
AcDbSavedByObjectVersion
1070
     0
  0
ACAD_PROXY_OBJECT
  5
37
102
{ACAD_REACTORS
330
2A
102
}
330
2A
100
AcDbProxyObject
 90
      499
 91
      501
 93
      412
310
41D51A1A58DAD95B90D409028333333333333E33F0000000000000F9010790141107004050150C41D405064090741402480A0350
1001
ACAD
1000
AcDbSavedByObjectVersion
1070
     0
  0
ACAD_PROXY_OBJECT
  5
30
102
{ACAD_REACTORS
330
2A
102
}
330
2A
100
AcDbProxyObject
 90
      499
 91
      501
 93
      420
310
4255DA5C99599C985B595059028333333333333E33F0000000000000F90107901411070040501600405405064090740C02480A0340
1001
ACAD
1000
AcDbSavedByObjectVersion
1070
     0
  0
ACAD_PROXY_OBJECT
  5
40
102
{ACAD_REACTORS
330
2A
102
}
330
2A
100
AcDbProxyObject
 90
      499
 91
      501
 93
      404
310
41560B54985E51940902404000000000000E03F0000000000000F9010740501907004050150841D405064090740C02480A1B40
1001
ACAD
1000
AcDbSavedByObjectVersion
1070
     0
  0
XRECORD
  5
1C6
102
{ACAD_REACTORS
330
1BC
102
}
330
1BC
100
AcDbXrecord
340
0
  0
XRECORD
  5
1C5
102
{ACAD_REACTORS
330
1BC
102
}
330
1BC
100
AcDbXrecord
 90
        0
  0
XRECORD
  5
1DC
102
{ACAD_REACTORS
330
1BC
102
}
330
1BC
100
AcDbXrecord
1000
DSTYLE
1002
{
1070
   179
 70
     2
1070
   171
 70
     2
1070
   143
 40
25.4
1070
   274
 70
     2
1070
    41
 40
3.0
1070
   141
 40
0.09
1070
    43
 40
0.38
1070
   278
 70
    46
1070
    44
 40
1.5
1070
    42
 40
0.0625
1070
   147
 40
1.5
1070
   272
 70
     4
1070
    73
 70
     1
1070
   172
 70
     0
1070
    74
 70
     1
1070
   283
 70
     1
1070
   340
340
6E
1070
   140
 40
3.0
1070
   284
 70
     0
1070
    78
 70
     0
1002
}
  0
XRECORD
  5
1C7
102
{ACAD_REACTORS
330
1BC
102
}
330
1BC
100
AcDbXrecord
  1
{06BBC475-531C-437D-978F-4669167F538B}
  0
XRECORD
  5
1BF
102
{ACAD_REACTORS
330
1BC
102
}
330
1BC
100
AcDbXrecord
  1

  0
XRECORD
  5
1C4
102
{ACAD_REACTORS
330
1BC
102
}
330
1BC
100
AcDbXrecord
 90
        4
  0
XRECORD
  5
1C1
102
{ACAD_REACTORS
330
1BC
102
}
330
1BC
100
AcDbXrecord
340
1A
  0
XRECORD
  5
1C3
102
{ACAD_REACTORS
330
1BC
102
}
330
1BC
100
AcDbXrecord
 90
    10269
  0
XRECORD
  5
1C2
102
{ACAD_REACTORS
330
1BC
102
}
330
1BC
100
AcDbXrecord
340
19
  0
XRECORD
  5
1C9
102
{ACAD_REACTORS
330
1BC
102
}
330
1BC
100
AcDbXrecord
 40
0.0
  0
XRECORD
  5
1CC
102
{ACAD_REACTORS
330
1BC
102
}
330
1BC
100
AcDbXrecord
340
0
  0
XRECORD
  5
1D2
102
{ACAD_REACTORS
330
1BC
102
}
330
1BC
100
AcDbXrecord
 10
0.0
 20
0.0
 30
0.0
  0
XRECORD
  5
1CE
102
{ACAD_REACTORS
330
1BC
102
}
330
1BC
100
AcDbXrecord
 10
0.0
 20
0.0
 30
0.0
  0
XRECORD
  5
1D1
102
{ACAD_REACTORS
330
1BC
102
}
330
1BC
100
AcDbXrecord
 10
0.0
 20
0.0
 30
0.0
  0
XRECORD
  5
1CF
102
{ACAD_REACTORS
330
1BC
102
}
330
1BC
100
AcDbXrecord
 10
0.0
 20
0.0
 30
0.0
  0
XRECORD
  5
1D0
102
{ACAD_REACTORS
330
1BC
102
}
330
1BC
100
AcDbXrecord
 10
0.0
 20
0.0
 30
0.0
  0
XRECORD
  5
1CD
102
{ACAD_REACTORS
330
1BC
102
}
330
1BC
100
AcDbXrecord
 10
0.0
 20
0.0
 30
0.0
  0
XRECORD
  5
1CA
102
{ACAD_REACTORS
330
1BC
102
}
330
1BC
100
AcDbXrecord
340
0
  0
XRECORD
  5
1CB
102
{ACAD_REACTORS
330
1BC
102
}
330
1BC
100
AcDbXrecord
 70
     0
  0
XRECORD
  5
1C0
102
{ACAD_REACTORS
330
1BC
102
}
330
1BC
100
AcDbXrecord
  1

  0
XRECORD
  5
1BD
102
{ACAD_REACTORS
330
1BC
102
}
330
1BC
100
AcDbXrecord
 90
        1
  0
XRECORD
  5
1BE
102
{ACAD_REACTORS
330
1BC
102
}
330
1BC
100
AcDbXrecord
 90
       70
  0
XRECORD
  5
1D5
102
{ACAD_REACTORS
330
1BC
102
}
330
1BC
100
AcDbXrecord
340
0
  0
XRECORD
  5
1DB
102
{ACAD_REACTORS
330
1BC
102
}
330
1BC
100
AcDbXrecord
 10
0.0
 20
0.0
 30
0.0
  0
XRECORD
  5
1D7
102
{ACAD_REACTORS
330
1BC
102
}
330
1BC
100
AcDbXrecord
 10
0.0
 20
0.0
 30
0.0
  0
XRECORD
  5
1DA
102
{ACAD_REACTORS
330
1BC
102
}
330
1BC
100
AcDbXrecord
 10
0.0
 20
0.0
 30
0.0
  0
XRECORD
  5
1D8
102
{ACAD_REACTORS
330
1BC
102
}
330
1BC
100
AcDbXrecord
 10
0.0
 20
0.0
 30
0.0
  0
XRECORD
  5
1D9
102
{ACAD_REACTORS
330
1BC
102
}
330
1BC
100
AcDbXrecord
 10
0.0
 20
0.0
 30
0.0
  0
XRECORD
  5
1D6
102
{ACAD_REACTORS
330
1BC
102
}
330
1BC
100
AcDbXrecord
 10
0.0
 20
0.0
 30
0.0
  0
XRECORD
  5
1D3
102
{ACAD_REACTORS
330
1BC
102
}
330
1BC
100
AcDbXrecord
340
0
  0
XRECORD
  5
1D4
102
{ACAD_REACTORS
330
1BC
102
}
330
1BC
100
AcDbXrecord
 70
     0
  0
XRECORD
  5
1C8
102
{ACAD_REACTORS
330
1BC
102
}
330
1BC
100
AcDbXrecord
  1
{FAEB1C32-E019-11D5-929B-00C0DF256EC4}
  0
DICTIONARYVAR
  5
1E6
102
{ACAD_REACTORS
330
1DD
102
}
330
1DD
100
DictionaryVariables
280
     0
  1
1:1
  0
DICTIONARYVAR
  5
1DF
102
{ACAD_REACTORS
330
1DD
102
}
330
1DD
100
DictionaryVariables
280
     0
  1
Standard
  0
DICTIONARYVAR
  5
1DE
102
{ACAD_REACTORS
330
1DD
102
}
330
1DD
100
DictionaryVariables
280
     0
  1
Standard
  0
DICTIONARYVAR
  5
1E2
102
{ACAD_REACTORS
330
1DD
102
}
330
1DD
100
DictionaryVariables
280
     0
  1
2
  0
DICTIONARYVAR
  5
1E3
102
{ACAD_REACTORS
330
1DD
102
}
330
1DD
100
DictionaryVariables
280
     0
  1
1
  0
DICTIONARYVAR
  5
1E7
102
{ACAD_REACTORS
330
1DD
102
}
330
1DD
100
DictionaryVariables
280
     0
  1
1
  0
DICTIONARY
  5
1EA
330
45
100
AcDbDictionary
280
     1
  3
ACAD_XREC_ROUNDTRIP
360
1EB
  0
DICTIONARY
  5
1E8
330
44
100
AcDbDictionary
280
     1
  3
ACAD_XREC_ROUNDTRIP
360
1E9
  0
DICTIONARY
  5
1EC
330
46
100
AcDbDictionary
280
     1
  3
ACAD_XREC_ROUNDTRIP
360
1ED
  0
XRECORD
  5
1EB
102
{ACAD_REACTORS
330
1EA
102
}
330
1EA
100
AcDbXrecord
102
MATERIAL
148
0.0
149
0.0
149
0.0
 93
        0
 94
      127
282
     0
 72
     1
 77
     1
171
     1
175
     1
179
     1
273
     0
  0
XRECORD
  5
1E9
102
{ACAD_REACTORS
330
1E8
102
}
330
1E8
100
AcDbXrecord
102
MATERIAL
148
0.0
149
0.0
149
0.0
 93
        0
 94
      127
282
     0
 72
     1
 77
     1
171
     1
175
     1
179
     1
273
     0
  0
XRECORD
  5
1ED
102
{ACAD_REACTORS
330
1EC
102
}
330
1EC
100
AcDbXrecord
102
MATERIAL
148
0.0
149
0.0
149
0.0
 93
        0
 94
      127
282
     0
 72
     1
 77
     1
171
     1
175
     1
179
     1
273
     0
  0
ENDSEC
  0
EOF
