  0
SECTION
  2
HEADER
  9
$ACADVER
  1
AC1006
  9
$DWGCODEPAGE
  3
ansi_932
  9
$INSBASE
 10
0.0
 20
0.0
 30
0.0
  9
$EXTMIN
 10
45.50000000000001
 20
68.97954545454547
  9
$EXTMAX
 10
104.5
 20
273.5
  9
$LIMMIN
 10
0.0
 20
0.0
  9
$LIMMAX
 10
12.0
 20
9.0
  9
$ORTHOMODE
 70
     0
  9
$REGENMODE
 70
     1
  9
$FILLMODE
 70
     1
  9
$QTEXTMODE
 70
     0
  9
$MIRRTEXT
 70
     1
  9
$DRAGMODE
 70
     2
  9
$LTSCALE
 40
1.0
  9
$OSMODE
 70
    37
  9
$ATTMODE
 70
     1
  9
$TEXTSIZE
 40
0.2
  9
$TRACEWID
 40
0.05
  9
$TEXTSTYLE
  7
STANDARD
  9
$CLAYER
  8
0
  9
$CELTYPE
  6
BYLAYER
  9
$CECOLOR
 62
   256
  9
$DIMSCALE
 40
1.0
  9
$DIMASZ
 40
3.0
  9
$DIMEXO
 40
0.0625
  9
$DIMDLI
 40
0.38
  9
$DIMRND
 40
0.0
  9
$DIMDLE
 40
0.0
  9
$DIMEXE
 40
1.5
  9
$DIMTP
 40
0.0
  9
$DIMTM
 40
0.0
  9
$DIMTXT
 40
3.0
  9
$DIMCEN
 40
0.09
  9
$DIMTSZ
 40
0.0
  9
$DIMTOL
 70
     0
  9
$DIMLIM
 70
     0
  9
$DIMTIH
 70
     1
  9
$DIMTOH
 70
     1
  9
$DIMSE1
 70
     0
  9
$DIMSE2
 70
     0
  9
$DIMTAD
 70
     1
  9
$DIMZIN
 70
     0
  9
$DIMBLK
  1

  9
$DIMASO
 70
     1
  9
$DIMSHO
 70
     1
  9
$DIMPOST
  1

  9
$DIMAPOST
  1

  9
$DIMALT
 70
     0
  9
$DIMALTD
 70
     2
  9
$DIMALTF
 40
25.4
  9
$DIMLFAC
 40
1.0
  9
$DIMTOFL
 70
     0
  9
$DIMTVP
 40
0.0
  9
$DIMTIX
 70
     0
  9
$DIMSOXD
 70
     0
  9
$DIMSAH
 70
     0
  9
$DIMBLK1
  1

  9
$DIMBLK2
  1

  9
$LUNITS
 70
     2
  9
$LUPREC
 70
     4
  9
$SKETCHINC
 40
0.1
  9
$FILLETRAD
 40
0.5
  9
$AUNITS
 70
     0
  9
$AUPREC
 70
     0
  9
$MENU
  1
.
  9
$ELEVATION
 40
0.0
  9
$THICKNESS
 40
0.0
  9
$LIMCHECK
 70
     0
  9
$CHAMFERA
 40
0.0
  9
$CHAMFERB
 40
0.0
  9
$SKPOLY
 70
     0
  9
$TDCREATE
 40
2460413.622982847
  9
$TDUPDATE
 40
2460413.622983148
  9
$TDINDWG
 40
0.0000000116
  9
$TDUSRTIMER
 40
0.0000000116
  9
$USRTIMER
 70
     1
  9
$ANGBASE
 50
0.0
  9
$ANGDIR
 70
     0
  9
$PDMODE
 70
     0
  9
$PDSIZE
 40
0.0
  9
$PLINEWID
 40
0.0
  9
$COORDS
 70
     1
  9
$SPLFRAME
 70
     0
  9
$SPLINETYPE
 70
     6
  9
$SPLINESEGS
 70
     8
  9
$ATTDIA
 70
     0
  9
$ATTREQ
 70
     1
  9
$HANDLING
 70
     1
  9
$HANDSEED
  5
545
  9
$SURFTAB1
 70
     6
  9
$SURFTAB2
 70
     6
  9
$SURFTYPE
 70
     6
  9
$SURFU
 70
     6
  9
$SURFV
 70
     6
  9
$UCSNAME
  2

  9
$UCSORG
 10
0.0
 20
0.0
 30
0.0
  9
$UCSXDIR
 10
1.0
 20
0.0
 30
0.0
  9
$UCSYDIR
 10
0.0
 20
1.0
 30
0.0
  9
$USERI1
 70
     0
  9
$USERI2
 70
     0
  9
$USERI3
 70
     0
  9
$USERI4
 70
     0
  9
$USERI5
 70
     0
  9
$USERR1
 40
0.0
  9
$USERR2
 40
0.0
  9
$USERR3
 40
0.0
  9
$USERR4
 40
0.0
  9
$USERR5
 40
0.0
  9
$WORLDVIEW
 70
     1
  0
ENDSEC
  0
SECTION
  2
TABLES
  0
TABLE
  2
VPORT
 70
     1
  0
VPORT
  2
*ACTIVE
 70
     0
 10
0.0
 20
0.0
 11
1.0
 21
1.0
 12
75.00000000000001
 22
171.2397727272727
 13
0.0
 23
0.0
 14
0.5
 24
0.5
 15
0.5
 25
0.5
 16
0.0
 26
0.0
 36
1.0
 17
0.0
 27
0.0
 37
0.0
 40
204.5204545454545
 41
1.6
 42
50.0
 43
0.0
 44
0.0
 50
0.0
 51
0.0
 71
     0
 72
   100
 73
     1
 74
     3
 75
     0
 76
     0
 77
     0
 78
     0
  0
ENDTAB
  0
TABLE
  2
LTYPE
 70
     2
  0
LTYPE
  2
CONTINUOUS
 70
     0
  3
Solid line
 72
    65
 73
     0
 40
0.0
  0
LTYPE
  2
CENTER
 70
     0
  3

 72
    65
 73
     0
 40
0.0
  0
ENDTAB
  0
TABLE
  2
LAYER
 70
     1
  0
LAYER
  2
0
 70
     0
 62
     7
  6
CONTINUOUS
  0
ENDTAB
  0
TABLE
  2
STYLE
 70
     2
  0
STYLE
  2
STANDARD
 70
     0
 40
0.0
 41
1.0
 50
0.0
 71
     0
 42
0.2
  3
txt
  4

  0
STYLE
  2
ＭＳ_ゴシック
 70
     0
 40
0.0
 41
1.0
 50
0.0
 71
     0
 42
0.2
  3
ＭＳ ゴシック.shx
  4

  0
ENDTAB
  0
TABLE
  2
VIEW
 70
     0
  0
ENDTAB
  0
TABLE
  2
UCS
 70
     0
  0
ENDTAB
  0
ENDSEC
  0
SECTION
  2
BLOCKS
  0
ENDSEC
  0
SECTION
  2
ENTITIES
  0
TEXT
  5
6F
  8
0
  6
CONTINUOUS
 62
     7
 10
64.37536263598852
 20
68.66590909090911
 30
0.0
 40
3.0
  1
ＭＨＦＳ－４０
  0
LINE
  5
70
  8
0
  6
CENTER
 62
     1
 10
75.00000000000001
 20
146.0337967401672
 30
0.0
 11
75.00000000000001
 21
208.5337967401673
 31
0.0
  0
ARC
  5
72
  8
0
  6
CONTINUOUS
 62
     7
 10
75.00000000000001
 20
244.0
 30
0.0
 40
22.99999999999999
 50
267.4527303482907
 51
270.0
  0
ARC
  5
73
  8
0
  6
CONTINUOUS
 62
     7
 10
75.00000000000001
 20
244.0
 30
0.0
 40
22.99999999999999
 50
270.0
 51
272.5472696517093
  0
ARC
  5
74
  8
0
  6
CONTINUOUS
 62
     7
 10
75.00000000000001
 20
244.0
 30
0.0
 40
22.99999999999999
 50
87.4527303482907
 51
92.54726965170936
  0
LINE
  5
75
  8
0
  6
CONTINUOUS
 62
     7
 10
76.48687162065309
 20
245.2368716206531
 30
0.0
 11
76.50000000000001
 21
245.25
 31
0.0
  0
LINE
  5
76
  8
0
  6
CONTINUOUS
 62
     7
 10
76.4825462644185
 20
244.736890659121
 30
0.0
 11
76.48687162065309
 21
245.2368716206531
 31
0.0
  0
LINE
  5
77
  8
0
  6
CONTINUOUS
 62
     7
 10
76.4825462644185
 20
243.263109340879
 30
0.0
 11
76.4825462644185
 21
244.736890659121
 31
0.0
  0
LINE
  5
78
  8
0
  6
CONTINUOUS
 62
     7
 10
76.48687162065309
 20
242.7631283793469
 30
0.0
 11
76.4825462644185
 21
243.263109340879
 31
0.0
  0
LINE
  5
79
  8
0
  6
CONTINUOUS
 62
     7
 10
76.50000000000001
 20
242.75
 30
0.0
 11
76.48687162065309
 21
242.7631283793469
 31
0.0
  0
LINE
  5
7A
  8
0
  6
CONTINUOUS
 62
     7
 10
76.50000000000001
 20
221.5500556793563
 30
0.0
 11
76.50000000000001
 21
242.75
 31
0.0
  0
LINE
  5
7B
  8
0
  6
CONTINUOUS
 62
     7
 10
76.50000673024722
 20
221.5222343534348
 30
0.0
 11
76.50000000000001
 21
221.5500556793563
 31
0.0
  0
LINE
  5
7C
  8
0
  6
CONTINUOUS
 62
     7
 10
76.50000000000001
 20
266.4499443206436
 30
0.0
 11
76.50000673024724
 21
266.4777656465652
 31
0.0
  0
LINE
  5
7D
  8
0
  6
CONTINUOUS
 62
     7
 10
76.50000000000001
 20
245.25
 30
0.0
 11
76.50000000000001
 21
266.4499443206436
 31
0.0
  0
LINE
  5
7E
  8
0
  6
CONTINUOUS
 62
     7
 10
73.51312837934692
 20
242.7631283793469
 30
0.0
 11
73.50000000000001
 21
242.75
 31
0.0
  0
LINE
  5
7F
  8
0
  6
CONTINUOUS
 62
     7
 10
73.51745373558153
 20
243.263109340879
 30
0.0
 11
73.51312837934692
 21
242.7631283793469
 31
0.0
  0
LINE
  5
80
  8
0
  6
CONTINUOUS
 62
     7
 10
73.51745373558153
 20
244.736890659121
 30
0.0
 11
73.51745373558153
 21
243.263109340879
 31
0.0
  0
LINE
  5
81
  8
0
  6
CONTINUOUS
 62
     7
 10
73.51312837934692
 20
245.2368716206531
 30
0.0
 11
73.51745373558153
 21
244.736890659121
 31
0.0
  0
LINE
  5
82
  8
0
  6
CONTINUOUS
 62
     7
 10
73.50000000000001
 20
245.25
 30
0.0
 11
73.51312837934692
 21
245.2368716206531
 31
0.0
  0
LINE
  5
83
  8
0
  6
CONTINUOUS
 62
     7
 10
73.50000000000001
 20
266.4499443206436
 30
0.0
 11
73.50000000000001
 21
245.25
 31
0.0
  0
LINE
  5
84
  8
0
  6
CONTINUOUS
 62
     7
 10
73.49999326975279
 20
266.4777656465652
 30
0.0
 11
73.50000000000001
 21
266.4499443206436
 31
0.0
  0
LINE
  5
85
  8
0
  6
CONTINUOUS
 62
     7
 10
73.50000000000001
 20
221.5500556793563
 30
0.0
 11
73.4999932697528
 21
221.5222343534348
 31
0.0
  0
LINE
  5
86
  8
0
  6
CONTINUOUS
 62
     7
 10
73.50000000000001
 20
242.75
 30
0.0
 11
73.50000000000001
 21
221.5500556793563
 31
0.0
  0
ARC
  5
87
  8
0
  6
CONTINUOUS
 62
     7
 10
75.00000000000001
 20
244.0
 30
0.0
 40
23.0
 50
178.1009528732548
 51
181.8990471267456
  0
ARC
  5
88
  8
0
  6
CONTINUOUS
 62
     7
 10
75.00000000000001
 20
244.0
 30
0.0
 40
23.0
 50
358.1009528732547
 51
1.899047126745586
  0
LINE
  5
89
  8
0
  6
CONTINUOUS
 62
     7
 10
97.46525094451428
 20
245.25
 30
0.0
 11
76.50000000000001
 21
245.25
 31
0.0
  0
LINE
  5
8A
  8
0
  6
CONTINUOUS
 62
     7
 10
97.48749574721266
 20
245.2500043072304
 30
0.0
 11
97.46525094451428
 21
245.25
 31
0.0
  0
LINE
  5
8B
  8
0
  6
CONTINUOUS
 62
     7
 10
52.53474905548573
 20
242.75
 30
0.0
 11
73.50000000000001
 21
242.75
 31
0.0
  0
LINE
  5
8C
  8
0
  6
CONTINUOUS
 62
     7
 10
52.51250425278735
 20
242.7499956927696
 30
0.0
 11
52.53474905548573
 21
242.75
 31
0.0
  0
LINE
  5
8D
  8
0
  6
CONTINUOUS
 62
     7
 10
97.46525094451428
 20
242.75
 30
0.0
 11
97.48749574721266
 21
242.7499956927696
 31
0.0
  0
LINE
  5
8E
  8
0
  6
CONTINUOUS
 62
     7
 10
76.50000000000001
 20
242.75
 30
0.0
 11
97.46525094451428
 21
242.75
 31
0.0
  0
LINE
  5
8F
  8
0
  6
CONTINUOUS
 62
     7
 10
52.53474905548573
 20
245.25
 30
0.0
 11
52.51250425278735
 21
245.2500043072304
 31
0.0
  0
LINE
  5
90
  8
0
  6
CONTINUOUS
 62
     7
 10
73.50000000000001
 20
245.25
 30
0.0
 11
52.53474905548573
 21
245.25
 31
0.0
  0
LINE
  5
91
  8
0
  6
CONTINUOUS
 62
     7
 10
52.51250425278735
 20
242.7499956927696
 30
0.0
 11
52.4982182545366
 21
242.7501926460754
 31
0.0
  0
LINE
  5
92
  8
0
  6
CONTINUOUS
 62
     7
 10
52.4982182545366
 20
242.7501926460754
 30
0.0
 11
52.4839728159529
 21
242.7507923225863
 31
0.0
  0
LINE
  5
93
  8
0
  6
CONTINUOUS
 62
     7
 10
52.4839728159529
 20
242.7507923225863
 30
0.0
 11
52.46970014040008
 21
242.7517989816426
 31
0.0
  0
LINE
  5
94
  8
0
  6
CONTINUOUS
 62
     7
 10
52.46970014040008
 20
242.7517989816426
 30
0.0
 11
52.45551263623922
 21
242.7532042579291
 31
0.0
  0
LINE
  5
95
  8
0
  6
CONTINUOUS
 62
     7
 10
52.45551263623922
 20
242.7532042579291
 30
0.0
 11
52.44222675107944
 21
242.7548894853397
 31
0.0
  0
LINE
  5
96
  8
0
  6
CONTINUOUS
 62
     7
 10
52.44222675107944
 20
242.7548894853397
 30
0.0
 11
52.42905144471879
 21
242.7569167644995
 31
0.0
  0
LINE
  5
97
  8
0
  6
CONTINUOUS
 62
     7
 10
52.42905144471879
 20
242.7569167644995
 30
0.0
 11
52.41593476673307
 21
242.7592919946781
 31
0.0
  0
LINE
  5
98
  8
0
  6
CONTINUOUS
 62
     7
 10
52.41593476673307
 20
242.7592919946781
 30
0.0
 11
52.40295977368223
 21
242.7619968665042
 31
0.0
  0
LINE
  5
99
  8
0
  6
CONTINUOUS
 62
     7
 10
52.40295977368223
 20
242.7619968665042
 30
0.0
 11
52.39061390301534
 21
242.764904353895
 31
0.0
  0
LINE
  5
9A
  8
0
  6
CONTINUOUS
 62
     7
 10
52.39061390301534
 20
242.764904353895
 30
0.0
 11
52.37840946466967
 21
242.7681042982843
 31
0.0
  0
LINE
  5
9B
  8
0
  6
CONTINUOUS
 62
     7
 10
52.37840946466967
 20
242.7681042982843
 30
0.0
 11
52.36289847574544
 21
242.7726492082495
 31
0.0
  0
LINE
  5
9C
  8
0
  6
CONTINUOUS
 62
     7
 10
52.36289847574544
 20
242.7726492082495
 30
0.0
 11
52.34768026447212
 21
242.7776420198709
 31
0.0
  0
LINE
  5
9D
  8
0
  6
CONTINUOUS
 62
     7
 10
52.34768026447212
 20
242.7776420198709
 30
0.0
 11
52.33267737266279
 21
242.783098904652
 31
0.0
  0
LINE
  5
9E
  8
0
  6
CONTINUOUS
 62
     7
 10
52.33267737266279
 20
242.783098904652
 30
0.0
 11
52.31800078720399
 21
242.7889687927534
 31
0.0
  0
LINE
  5
9F
  8
0
  6
CONTINUOUS
 62
     7
 10
52.31800078720399
 20
242.7889687927534
 30
0.0
 11
52.30357570066274
 21
242.7952709607563
 31
0.0
  0
LINE
  5
A0
  8
0
  6
CONTINUOUS
 62
     7
 10
52.30357570066274
 20
242.7952709607563
 30
0.0
 11
52.28950151047714
 21
242.8019503084353
 31
0.0
  0
LINE
  5
A1
  8
0
  6
CONTINUOUS
 62
     7
 10
52.28950151047714
 20
242.8019503084353
 30
0.0
 11
52.27571639390519
 21
242.8090240380606
 31
0.0
  0
LINE
  5
A2
  8
0
  6
CONTINUOUS
 62
     7
 10
52.27571639390519
 20
242.8090240380606
 30
0.0
 11
52.26229853384627
 21
242.81643923325
 31
0.0
  0
LINE
  5
A3
  8
0
  6
CONTINUOUS
 62
     7
 10
52.26229853384627
 20
242.81643923325
 30
0.0
 11
52.24390135697996
 21
242.8275078157733
 31
0.0
  0
LINE
  5
A4
  8
0
  6
CONTINUOUS
 62
     7
 10
52.24390135697996
 20
242.8275078157733
 30
0.0
 11
52.2261847446056
 21
242.8392252165731
 31
0.0
  0
LINE
  5
A5
  8
0
  6
CONTINUOUS
 62
     7
 10
52.2261847446056
 20
242.8392252165731
 30
0.0
 11
52.20919796015935
 21
242.8515218254547
 31
0.0
  0
LINE
  5
A6
  8
0
  6
CONTINUOUS
 62
     7
 10
52.20919796015935
 20
242.8515218254547
 30
0.0
 11
52.1928647357585
 21
242.8644206310833
 31
0.0
  0
LINE
  5
A7
  8
0
  6
CONTINUOUS
 62
     7
 10
52.1928647357585
 20
242.8644206310833
 30
0.0
 11
52.17727554765181
 21
242.8778183153561
 31
0.0
  0
LINE
  5
A8
  8
0
  6
CONTINUOUS
 62
     7
 10
52.17727554765181
 20
242.8778183153561
 30
0.0
 11
52.16235587663278
 21
242.8917473310894
 31
0.0
  0
LINE
  5
A9
  8
0
  6
CONTINUOUS
 62
     7
 10
52.16235587663278
 20
242.8917473310894
 30
0.0
 11
52.1481835230736
 21
242.9061041873682
 31
0.0
  0
LINE
  5
AA
  8
0
  6
CONTINUOUS
 62
     7
 10
52.1481835230736
 20
242.9061041873682
 30
0.0
 11
52.13472654443476
 21
242.9208859333233
 31
0.0
  0
LINE
  5
AB
  8
0
  6
CONTINUOUS
 62
     7
 10
52.13472654443476
 20
242.9208859333233
 30
0.0
 11
52.11797112905346
 21
242.9411076951739
 31
0.0
  0
LINE
  5
AC
  8
0
  6
CONTINUOUS
 62
     7
 10
52.11797112905346
 20
242.9411076951739
 30
0.0
 11
52.10247016930509
 21
242.9619603360392
 31
0.0
  0
LINE
  5
AD
  8
0
  6
CONTINUOUS
 62
     7
 10
52.10247016930509
 20
242.9619603360392
 30
0.0
 11
52.08824646332859
 21
242.9833392115997
 31
0.0
  0
LINE
  5
AE
  8
0
  6
CONTINUOUS
 62
     7
 10
52.08824646332859
 20
242.9833392115997
 30
0.0
 11
52.07522219314191
 21
243.0053008616246
 31
0.0
  0
LINE
  5
AF
  8
0
  6
CONTINUOUS
 62
     7
 10
52.07522219314191
 20
243.0053008616246
 30
0.0
 11
52.06345900325397
 21
243.0276848222819
 31
0.0
  0
LINE
  5
B0
  8
0
  6
CONTINUOUS
 62
     7
 10
52.06345900325397
 20
243.0276848222819
 30
0.0
 11
52.05289306282947
 21
243.0505598593181
 31
0.0
  0
LINE
  5
B1
  8
0
  6
CONTINUOUS
 62
     7
 10
52.05289306282947
 20
243.0505598593181
 30
0.0
 11
52.04357502952356
 21
243.0737685623795
 31
0.0
  0
LINE
  5
B2
  8
0
  6
CONTINUOUS
 62
     7
 10
52.04357502952356
 20
243.0737685623795
 30
0.0
 11
52.03547867964231
 21
243.0973189417737
 31
0.0
  0
LINE
  5
B3
  8
0
  6
CONTINUOUS
 62
     7
 10
52.03547867964231
 20
243.0973189417737
 30
0.0
 11
52.02664833638131
 21
243.1289168391234
 31
0.0
  0
LINE
  5
B4
  8
0
  6
CONTINUOUS
 62
     7
 10
52.02664833638131
 20
243.1289168391234
 30
0.0
 11
52.01996757540565
 21
243.160896080828
 31
0.0
  0
LINE
  5
B5
  8
0
  6
CONTINUOUS
 62
     7
 10
52.01996757540565
 20
243.160896080828
 30
0.0
 11
52.01543232716975
 21
243.1931819081676
 31
0.0
  0
LINE
  5
B6
  8
0
  6
CONTINUOUS
 62
     7
 10
52.01543232716975
 20
243.1931819081676
 30
0.0
 11
52.01304759880093
 21
243.2256938097837
 31
0.0
  0
LINE
  5
B7
  8
0
  6
CONTINUOUS
 62
     7
 10
52.01304759880093
 20
243.2256938097837
 30
0.0
 11
52.01292987212454
 21
243.2288923965263
 31
0.0
  0
ARC
  5
B8
  8
0
  6
CONTINUOUS
 62
     7
 10
75.00000000000001
 20
244.0
 30
0.0
 40
23.00000000000047
 50
181.8990471267456
 51
181.9212822688938
  0
LINE
  5
B9
  8
0
  6
CONTINUOUS
 62
     7
 10
97.48749574721266
 20
245.2500043072304
 30
0.0
 11
97.50210836794962
 21
245.2497982377671
 31
0.0
  0
LINE
  5
BA
  8
0
  6
CONTINUOUS
 62
     7
 10
97.50210836794962
 20
245.2497982377671
 30
0.0
 11
97.51670231431149
 21
245.2491692292843
 31
0.0
  0
LINE
  5
BB
  8
0
  6
CONTINUOUS
 62
     7
 10
97.51670231431149
 20
245.2491692292843
 30
0.0
 11
97.53063568166954
 21
245.2481724387126
 31
0.0
  0
LINE
  5
BC
  8
0
  6
CONTINUOUS
 62
     7
 10
97.53063568166954
 20
245.2481724387126
 30
0.0
 11
97.5444873637608
 21
245.2467957420709
 31
0.0
  0
LINE
  5
BD
  8
0
  6
CONTINUOUS
 62
     7
 10
97.5444873637608
 20
245.2467957420709
 30
0.0
 11
97.55831859430418
 21
245.2450336512242
 31
0.0
  0
LINE
  5
BE
  8
0
  6
CONTINUOUS
 62
     7
 10
97.55831859430418
 20
245.2450336512242
 30
0.0
 11
97.57202925221077
 21
245.2429010682334
 31
0.0
  0
LINE
  5
BF
  8
0
  6
CONTINUOUS
 62
     7
 10
97.57202925221077
 20
245.2429010682334
 30
0.0
 11
97.58460016053677
 21
245.2406035236981
 31
0.0
  0
LINE
  5
C0
  8
0
  6
CONTINUOUS
 62
     7
 10
97.58460016053677
 20
245.2406035236981
 30
0.0
 11
97.59704022631779
 21
245.2380031334958
 31
0.0
  0
LINE
  5
C1
  8
0
  6
CONTINUOUS
 62
     7
 10
97.59704022631779
 20
245.2380031334958
 30
0.0
 11
97.60939270224033
 21
245.2350939483985
 31
0.0
  0
LINE
  5
C2
  8
0
  6
CONTINUOUS
 62
     7
 10
97.60939270224033
 20
245.2350939483985
 30
0.0
 11
97.62159053533036
 21
245.2318957017157
 31
0.0
  0
LINE
  5
C3
  8
0
  6
CONTINUOUS
 62
     7
 10
97.62159053533036
 20
245.2318957017157
 30
0.0
 11
97.63708612066402
 21
245.2273556986306
 31
0.0
  0
LINE
  5
C4
  8
0
  6
CONTINUOUS
 62
     7
 10
97.63708612066402
 20
245.2273556986306
 30
0.0
 11
97.65231415222286
 21
245.2223599109672
 31
0.0
  0
LINE
  5
C5
  8
0
  6
CONTINUOUS
 62
     7
 10
97.65231415222286
 20
245.2223599109672
 30
0.0
 11
97.667319894538
 21
245.2169021386804
 31
0.0
  0
LINE
  5
C6
  8
0
  6
CONTINUOUS
 62
     7
 10
97.667319894538
 20
245.2169021386804
 30
0.0
 11
97.68199921279601
 21
245.2110312072466
 31
0.0
  0
LINE
  5
C7
  8
0
  6
CONTINUOUS
 62
     7
 10
97.68199921279601
 20
245.2110312072466
 30
0.0
 11
97.69642164598713
 21
245.204730248409
 31
0.0
  0
LINE
  5
C8
  8
0
  6
CONTINUOUS
 62
     7
 10
97.69642164598713
 20
245.204730248409
 30
0.0
 11
97.71049331484473
 21
245.1980522465934
 31
0.0
  0
LINE
  5
C9
  8
0
  6
CONTINUOUS
 62
     7
 10
97.71049331484473
 20
245.1980522465934
 30
0.0
 11
97.72427304009193
 21
245.1909816503416
 31
0.0
  0
LINE
  5
CA
  8
0
  6
CONTINUOUS
 62
     7
 10
97.72427304009193
 20
245.1909816503416
 30
0.0
 11
97.73770146615375
 21
245.18356076675
 31
0.0
  0
LINE
  5
CB
  8
0
  6
CONTINUOUS
 62
     7
 10
97.73770146615375
 20
245.18356076675
 30
0.0
 11
97.75609864302007
 21
245.1724921842267
 31
0.0
  0
LINE
  5
CC
  8
0
  6
CONTINUOUS
 62
     7
 10
97.75609864302007
 20
245.1724921842267
 30
0.0
 11
97.77377837294122
 21
245.1608003172152
 31
0.0
  0
LINE
  5
CD
  8
0
  6
CONTINUOUS
 62
     7
 10
97.77377837294122
 20
245.1608003172152
 30
0.0
 11
97.79080203984067
 21
245.1484781745453
 31
0.0
  0
LINE
  5
CE
  8
0
  6
CONTINUOUS
 62
     7
 10
97.79080203984067
 20
245.1484781745453
 30
0.0
 11
97.80708770885852
 21
245.1356185583261
 31
0.0
  0
LINE
  5
CF
  8
0
  6
CONTINUOUS
 62
     7
 10
97.80708770885852
 20
245.1356185583261
 30
0.0
 11
97.82272445234821
 21
245.1221816846439
 31
0.0
  0
LINE
  5
D0
  8
0
  6
CONTINUOUS
 62
     7
 10
97.82272445234821
 20
245.1221816846439
 30
0.0
 11
97.83761381706974
 21
245.1082821465601
 31
0.0
  0
LINE
  5
D1
  8
0
  6
CONTINUOUS
 62
     7
 10
97.83761381706974
 20
245.1082821465601
 30
0.0
 11
97.85181647692642
 21
245.0938958126318
 31
0.0
  0
LINE
  5
D2
  8
0
  6
CONTINUOUS
 62
     7
 10
97.85181647692642
 20
245.0938958126318
 30
0.0
 11
97.86527345556526
 21
245.0791140666767
 31
0.0
  0
LINE
  5
D3
  8
0
  6
CONTINUOUS
 62
     7
 10
97.86527345556526
 20
245.0791140666767
 30
0.0
 11
97.88202887094656
 21
245.0588923048261
 31
0.0
  0
LINE
  5
D4
  8
0
  6
CONTINUOUS
 62
     7
 10
97.88202887094656
 20
245.0588923048261
 30
0.0
 11
97.89749825079859
 21
245.0380845543632
 31
0.0
  0
LINE
  5
D5
  8
0
  6
CONTINUOUS
 62
     7
 10
97.89749825079859
 20
245.0380845543632
 30
0.0
 11
97.91175353667143
 21
245.0166607884003
 31
0.0
  0
LINE
  5
D6
  8
0
  6
CONTINUOUS
 62
     7
 10
97.91175353667143
 20
245.0166607884003
 30
0.0
 11
97.92474083786276
 21
244.994765302614
 31
0.0
  0
LINE
  5
D7
  8
0
  6
CONTINUOUS
 62
     7
 10
97.92474083786276
 20
244.994765302614
 30
0.0
 11
97.93654099674605
 21
244.9723151777181
 31
0.0
  0
LINE
  5
D8
  8
0
  6
CONTINUOUS
 62
     7
 10
97.93654099674605
 20
244.9723151777181
 30
0.0
 11
97.94708616737128
 21
244.9494882946545
 31
0.0
  0
LINE
  5
D9
  8
0
  6
CONTINUOUS
 62
     7
 10
97.94708616737128
 20
244.9494882946545
 30
0.0
 11
97.95642497047646
 21
244.9262314376205
 31
0.0
  0
LINE
  5
DA
  8
0
  6
CONTINUOUS
 62
     7
 10
97.95642497047646
 20
244.9262314376205
 30
0.0
 11
97.9645213203577
 21
244.9026810582263
 31
0.0
  0
LINE
  5
DB
  8
0
  6
CONTINUOUS
 62
     7
 10
97.9645213203577
 20
244.9026810582263
 30
0.0
 11
97.97335110785107
 21
244.8710854401664
 31
0.0
  0
LINE
  5
DC
  8
0
  6
CONTINUOUS
 62
     7
 10
97.97335110785107
 20
244.8710854401664
 30
0.0
 11
97.98003242459437
 21
244.839103919172
 31
0.0
  0
LINE
  5
DD
  8
0
  6
CONTINUOUS
 62
     7
 10
97.98003242459437
 20
244.839103919172
 30
0.0
 11
97.98456742421901
 21
244.8068204197631
 31
0.0
  0
LINE
  5
DE
  8
0
  6
CONTINUOUS
 62
     7
 10
97.98456742421901
 20
244.8068204197631
 30
0.0
 11
97.98695240119909
 21
244.7743061902163
 31
0.0
  0
LINE
  5
DF
  8
0
  6
CONTINUOUS
 62
     7
 10
97.98695240119909
 20
244.7743061902163
 30
0.0
 11
97.98707012787548
 21
244.7711076034737
 31
0.0
  0
ARC
  5
E0
  8
0
  6
CONTINUOUS
 62
     7
 10
75.00000000000001
 20
244.0
 30
0.0
 40
23.0
 50
1.899047126745529
 51
1.921282268893662
  0
ARC
  5
E1
  8
0
  6
CONTINUOUS
 62
     7
 10
75.00000000000001
 20
244.0
 30
0.0
 40
23.00000000000047
 50
358.0787177311062
 51
358.1009528732543
  0
LINE
  5
E2
  8
0
  6
CONTINUOUS
 62
     7
 10
97.98707012787548
 20
243.2288923965263
 30
0.0
 11
97.98695240119909
 21
243.2256938097837
 31
0.0
  0
LINE
  5
E3
  8
0
  6
CONTINUOUS
 62
     7
 10
97.98695240119909
 20
243.2256938097837
 30
0.0
 11
97.9845920720436
 21
243.1934108891765
 31
0.0
  0
LINE
  5
E4
  8
0
  6
CONTINUOUS
 62
     7
 10
97.9845920720436
 20
243.1934108891765
 30
0.0
 11
97.98008540160998
 21
243.1612003035583
 31
0.0
  0
LINE
  5
E5
  8
0
  6
CONTINUOUS
 62
     7
 10
97.98008540160998
 20
243.1612003035583
 30
0.0
 11
97.97340755528475
 21
243.129146301241
 31
0.0
  0
LINE
  5
E6
  8
0
  6
CONTINUOUS
 62
     7
 10
97.97340755528475
 20
243.129146301241
 30
0.0
 11
97.9645213203577
 21
243.0973189417737
 31
0.0
  0
LINE
  5
E7
  8
0
  6
CONTINUOUS
 62
     7
 10
97.9645213203577
 20
243.0973189417737
 30
0.0
 11
97.95664730443951
 21
243.0743669177812
 31
0.0
  0
LINE
  5
E8
  8
0
  6
CONTINUOUS
 62
     7
 10
97.95664730443951
 20
243.0743669177812
 30
0.0
 11
97.94756728240684
 21
243.0516307873816
 31
0.0
  0
LINE
  5
E9
  8
0
  6
CONTINUOUS
 62
     7
 10
97.94756728240684
 20
243.0516307873816
 30
0.0
 11
97.93721082597773
 21
243.0290480665408
 31
0.0
  0
LINE
  5
EA
  8
0
  6
CONTINUOUS
 62
     7
 10
97.93721082597773
 20
243.0290480665408
 30
0.0
 11
97.92559157382637
 21
243.0067633537433
 31
0.0
  0
LINE
  5
EB
  8
0
  6
CONTINUOUS
 62
     7
 10
97.92559157382637
 20
243.0067633537433
 30
0.0
 11
97.91259433133725
 21
242.9846817494988
 31
0.0
  0
LINE
  5
EC
  8
0
  6
CONTINUOUS
 62
     7
 10
97.91259433133725
 20
242.9846817494988
 30
0.0
 11
97.89825918888157
 21
242.9630000620328
 31
0.0
  0
LINE
  5
ED
  8
0
  6
CONTINUOUS
 62
     7
 10
97.89825918888157
 20
242.9630000620328
 30
0.0
 11
97.88247697597045
 21
242.9416794790095
 31
0.0
  0
LINE
  5
EE
  8
0
  6
CONTINUOUS
 62
     7
 10
97.88247697597045
 20
242.9416794790095
 30
0.0
 11
97.86527345556526
 21
242.9208859333233
 31
0.0
  0
LINE
  5
EF
  8
0
  6
CONTINUOUS
 62
     7
 10
97.86527345556526
 20
242.9208859333233
 30
0.0
 11
97.85216352055016
 21
242.9064706916429
 31
0.0
  0
LINE
  5
F0
  8
0
  6
CONTINUOUS
 62
     7
 10
97.85216352055016
 20
242.9064706916429
 30
0.0
 11
97.83830880877959
 21
242.8923951052042
 31
0.0
  0
LINE
  5
F1
  8
0
  6
CONTINUOUS
 62
     7
 10
97.83830880877959
 20
242.8923951052042
 30
0.0
 11
97.82363052066337
 21
242.8786321022765
 31
0.0
  0
LINE
  5
F2
  8
0
  6
CONTINUOUS
 62
     7
 10
97.82363052066337
 20
242.8786321022765
 30
0.0
 11
97.80817493017231
 21
242.8652798706511
 31
0.0
  0
LINE
  5
F3
  8
0
  6
CONTINUOUS
 62
     7
 10
97.80817493017231
 20
242.8652798706511
 30
0.0
 11
97.79182446084009
 21
242.8522972553189
 31
0.0
  0
LINE
  5
F4
  8
0
  6
CONTINUOUS
 62
     7
 10
97.79182446084009
 20
242.8522972553189
 30
0.0
 11
97.77466332670386
 21
242.8398136912579
 31
0.0
  0
LINE
  5
F5
  8
0
  6
CONTINUOUS
 62
     7
 10
97.77466332670386
 20
242.8398136912579
 30
0.0
 11
97.75659932374876
 21
242.8278242902817
 31
0.0
  0
LINE
  5
F6
  8
0
  6
CONTINUOUS
 62
     7
 10
97.75659932374876
 20
242.8278242902817
 30
0.0
 11
97.73770146615375
 21
242.81643923325
 31
0.0
  0
LINE
  5
F7
  8
0
  6
CONTINUOUS
 62
     7
 10
97.73770146615375
 20
242.81643923325
 30
0.0
 11
97.72452220369362
 21
242.8091511934562
 31
0.0
  0
LINE
  5
F8
  8
0
  6
CONTINUOUS
 62
     7
 10
97.72452220369362
 20
242.8091511934562
 30
0.0
 11
97.7109725603589
 21
242.8021846982691
 31
0.0
  0
LINE
  5
F9
  8
0
  6
CONTINUOUS
 62
     7
 10
97.7109725603589
 20
242.8021846982691
 30
0.0
 11
97.6970025946284
 21
242.7955349273936
 31
0.0
  0
LINE
  5
FA
  8
0
  6
CONTINUOUS
 62
     7
 10
97.6970025946284
 20
242.7955349273936
 30
0.0
 11
97.68268592663532
 21
242.7892566664158
 31
0.0
  0
LINE
  5
FB
  8
0
  6
CONTINUOUS
 62
     7
 10
97.68268592663532
 20
242.7892566664158
 30
0.0
 11
97.66794876516305
 21
242.7833384523206
 31
0.0
  0
LINE
  5
FC
  8
0
  6
CONTINUOUS
 62
     7
 10
97.66794876516305
 20
242.7833384523206
 30
0.0
 11
97.65288140663034
 21
242.77783663459
 31
0.0
  0
LINE
  5
FD
  8
0
  6
CONTINUOUS
 62
     7
 10
97.65288140663034
 20
242.77783663459
 30
0.0
 11
97.63740142891474
 21
242.7727423185569
 31
0.0
  0
LINE
  5
FE
  8
0
  6
CONTINUOUS
 62
     7
 10
97.63740142891474
 20
242.7727423185569
 30
0.0
 11
97.62159053533036
 21
242.7681042982843
 31
0.0
  0
LINE
  5
FF
  8
0
  6
CONTINUOUS
 62
     7
 10
97.62159053533036
 20
242.7681042982843
 30
0.0
 11
97.60750853281561
 21
242.7644409678968
 31
0.0
  0
LINE
  5
100
  8
0
  6
CONTINUOUS
 62
     7
 10
97.60750853281561
 20
242.7644409678968
 30
0.0
 11
97.59320211656862
 21
242.7611595633404
 31
0.0
  0
LINE
  5
101
  8
0
  6
CONTINUOUS
 62
     7
 10
97.59320211656862
 20
242.7611595633404
 30
0.0
 11
97.57963597488846
 21
242.7584498418806
 31
0.0
  0
LINE
  5
102
  8
0
  6
CONTINUOUS
 62
     7
 10
97.57963597488846
 20
242.7584498418806
 30
0.0
 11
97.56592124418606
 21
242.7561010608669
 31
0.0
  0
LINE
  5
103
  8
0
  6
CONTINUOUS
 62
     7
 10
97.56592124418606
 20
242.7561010608669
 30
0.0
 11
97.55199535110667
 21
242.7541125627468
 31
0.0
  0
LINE
  5
104
  8
0
  6
CONTINUOUS
 62
     7
 10
97.55199535110667
 20
242.7541125627468
 30
0.0
 11
97.53795460673713
 21
242.7525067956451
 31
0.0
  0
LINE
  5
105
  8
0
  6
CONTINUOUS
 62
     7
 10
97.53795460673713
 20
242.7525067956451
 30
0.0
 11
97.52544662755746
 21
242.751410985393
 31
0.0
  0
LINE
  5
106
  8
0
  6
CONTINUOUS
 62
     7
 10
97.52544662755746
 20
242.751410985393
 30
0.0
 11
97.51287839337321
 21
242.7506249941624
 31
0.0
  0
LINE
  5
107
  8
0
  6
CONTINUOUS
 62
     7
 10
97.51287839337321
 20
242.7506249941624
 30
0.0
 11
97.50020213414984
 21
242.7501509287061
 31
0.0
  0
LINE
  5
108
  8
0
  6
CONTINUOUS
 62
     7
 10
97.50020213414984
 20
242.7501509287061
 30
0.0
 11
97.48749574721266
 21
242.7499956927696
 31
0.0
  0
ARC
  5
109
  8
0
  6
CONTINUOUS
 62
     7
 10
75.00000000000001
 20
244.0
 30
0.0
 40
23.0
 50
178.0787177311063
 51
178.1009528732544
  0
LINE
  5
10A
  8
0
  6
CONTINUOUS
 62
     7
 10
52.01292987212454
 20
244.7711076034737
 30
0.0
 11
52.01304759880093
 21
244.7743061902163
 31
0.0
  0
LINE
  5
10B
  8
0
  6
CONTINUOUS
 62
     7
 10
52.01304759880093
 20
244.7743061902163
 30
0.0
 11
52.01540877211741
 21
244.8065970501204
 31
0.0
  0
LINE
  5
10C
  8
0
  6
CONTINUOUS
 62
     7
 10
52.01540877211741
 20
244.8065970501204
 30
0.0
 11
52.01991577824894
 21
244.8388064841606
 31
0.0
  0
LINE
  5
10D
  8
0
  6
CONTINUOUS
 62
     7
 10
52.01991577824894
 20
244.8388064841606
 30
0.0
 11
52.02659436212726
 21
244.8708615785986
 31
0.0
  0
LINE
  5
10E
  8
0
  6
CONTINUOUS
 62
     7
 10
52.02659436212726
 20
244.8708615785986
 30
0.0
 11
52.03547867964231
 21
244.9026810582263
 31
0.0
  0
LINE
  5
10F
  8
0
  6
CONTINUOUS
 62
     7
 10
52.03547867964231
 20
244.9026810582263
 30
0.0
 11
52.04337041348141
 21
244.9256808527018
 31
0.0
  0
LINE
  5
110
  8
0
  6
CONTINUOUS
 62
     7
 10
52.04337041348141
 20
244.9256808527018
 30
0.0
 11
52.05248935276204
 21
244.9485013435471
 31
0.0
  0
LINE
  5
111
  8
0
  6
CONTINUOUS
 62
     7
 10
52.05248935276204
 20
244.9485013435471
 30
0.0
 11
52.06284495088394
 21
244.971065856837
 31
0.0
  0
LINE
  5
112
  8
0
  6
CONTINUOUS
 62
     7
 10
52.06284495088394
 20
244.971065856837
 30
0.0
 11
52.07451071739215
 21
244.9934211250373
 31
0.0
  0
LINE
  5
113
  8
0
  6
CONTINUOUS
 62
     7
 10
52.07451071739215
 20
244.9934211250373
 30
0.0
 11
52.08747537214549
 21
245.0154299136193
 31
0.0
  0
LINE
  5
114
  8
0
  6
CONTINUOUS
 62
     7
 10
52.08747537214549
 20
245.0154299136193
 30
0.0
 11
52.10182960562687
 21
245.0371268213589
 31
0.0
  0
LINE
  5
115
  8
0
  6
CONTINUOUS
 62
     7
 10
52.10182960562687
 20
245.0371268213589
 30
0.0
 11
52.11755793534603
 21
245.0583651300048
 31
0.0
  0
LINE
  5
116
  8
0
  6
CONTINUOUS
 62
     7
 10
52.11755793534603
 20
245.0583651300048
 30
0.0
 11
52.13472654443476
 21
245.0791140666767
 31
0.0
  0
LINE
  5
117
  8
0
  6
CONTINUOUS
 62
     7
 10
52.13472654443476
 20
245.0791140666767
 30
0.0
 11
52.14786399221574
 21
245.0935583911399
 31
0.0
  0
LINE
  5
118
  8
0
  6
CONTINUOUS
 62
     7
 10
52.14786399221574
 20
245.0935583911399
 30
0.0
 11
52.16177240555621
 21
245.1076841725889
 31
0.0
  0
LINE
  5
119
  8
0
  6
CONTINUOUS
 62
     7
 10
52.16177240555621
 20
245.1076841725889
 30
0.0
 11
52.17644426853667
 21
245.1214352215071
 31
0.0
  0
LINE
  5
11A
  8
0
  6
CONTINUOUS
 62
     7
 10
52.17644426853667
 20
245.1214352215071
 30
0.0
 11
52.19195447311777
 21
245.1348273338246
 31
0.0
  0
LINE
  5
11B
  8
0
  6
CONTINUOUS
 62
     7
 10
52.19195447311777
 20
245.1348273338246
 30
0.0
 11
52.20825930598754
 21
245.1477664314284
 31
0.0
  0
LINE
  5
11C
  8
0
  6
CONTINUOUS
 62
     7
 10
52.20825930598754
 20
245.1477664314284
 30
0.0
 11
52.22543859723265
 21
245.1602571708486
 31
0.0
  0
LINE
  5
11D
  8
0
  6
CONTINUOUS
 62
     7
 10
52.22543859723265
 20
245.1602571708486
 30
0.0
 11
52.24343908787549
 21
245.1722000186647
 31
0.0
  0
LINE
  5
11E
  8
0
  6
CONTINUOUS
 62
     7
 10
52.24343908787549
 20
245.1722000186647
 30
0.0
 11
52.26229853384627
 21
245.18356076675
 31
0.0
  0
LINE
  5
11F
  8
0
  6
CONTINUOUS
 62
     7
 10
52.26229853384627
 20
245.18356076675
 30
0.0
 11
52.27549342027595
 21
245.1908570870954
 31
0.0
  0
LINE
  5
120
  8
0
  6
CONTINUOUS
 62
     7
 10
52.27549342027595
 20
245.1908570870954
 30
0.0
 11
52.2890437033689
 21
245.1978233531456
 31
0.0
  0
LINE
  5
121
  8
0
  6
CONTINUOUS
 62
     7
 10
52.2890437033689
 20
245.1978233531456
 30
0.0
 11
52.30301294754596
 21
245.2044721785927
 31
0.0
  0
LINE
  5
122
  8
0
  6
CONTINUOUS
 62
     7
 10
52.30301294754596
 20
245.2044721785927
 30
0.0
 11
52.31732882970159
 21
245.2107495321049
 31
0.0
  0
LINE
  5
123
  8
0
  6
CONTINUOUS
 62
     7
 10
52.31732882970159
 20
245.2107495321049
 30
0.0
 11
52.33206766755916
 21
245.2166678466608
 31
0.0
  0
LINE
  5
124
  8
0
  6
CONTINUOUS
 62
     7
 10
52.33206766755916
 20
245.2166678466608
 30
0.0
 11
52.34713674777354
 21
245.2221696674099
 31
0.0
  0
LINE
  5
125
  8
0
  6
CONTINUOUS
 62
     7
 10
52.34713674777354
 20
245.2221696674099
 30
0.0
 11
52.36262123551219
 21
245.2272646018423
 31
0.0
  0
LINE
  5
126
  8
0
  6
CONTINUOUS
 62
     7
 10
52.36262123551219
 20
245.2272646018423
 30
0.0
 11
52.37840946466967
 21
245.2318957017157
 31
0.0
  0
LINE
  5
127
  8
0
  6
CONTINUOUS
 62
     7
 10
52.37840946466967
 20
245.2318957017157
 30
0.0
 11
52.39148984433829
 21
245.2353127106423
 31
0.0
  0
LINE
  5
128
  8
0
  6
CONTINUOUS
 62
     7
 10
52.39148984433829
 20
245.2353127106423
 30
0.0
 11
52.40474700030305
 21
245.2383969290377
 31
0.0
  0
LINE
  5
129
  8
0
  6
CONTINUOUS
 62
     7
 10
52.40474700030305
 20
245.2383969290377
 30
0.0
 11
52.41823754524062
 21
245.2411509638247
 31
0.0
  0
LINE
  5
12A
  8
0
  6
CONTINUOUS
 62
     7
 10
52.41823754524062
 20
245.2411509638247
 30
0.0
 11
52.43187803932983
 21
245.2435482810323
 31
0.0
  0
LINE
  5
12B
  8
0
  6
CONTINUOUS
 62
     7
 10
52.43187803932983
 20
245.2435482810323
 30
0.0
 11
52.44515083550405
 21
245.2455122129557
 31
0.0
  0
LINE
  5
12C
  8
0
  6
CONTINUOUS
 62
     7
 10
52.44515083550405
 20
245.2455122129557
 30
0.0
 11
52.45853184976786
 21
245.2471287882228
 31
0.0
  0
LINE
  5
12D
  8
0
  6
CONTINUOUS
 62
     7
 10
52.45853184976786
 20
245.2471287882228
 30
0.0
 11
52.47207899229986
 21
245.2483970884888
 31
0.0
  0
LINE
  5
12E
  8
0
  6
CONTINUOUS
 62
     7
 10
52.47207899229986
 20
245.2483970884888
 30
0.0
 11
52.48570037471841
 21
245.2493019256265
 31
0.0
  0
LINE
  5
12F
  8
0
  6
CONTINUOUS
 62
     7
 10
52.48570037471841
 20
245.2493019256265
 30
0.0
 11
52.49907556989789
 21
245.2498307048342
 31
0.0
  0
LINE
  5
130
  8
0
  6
CONTINUOUS
 62
     7
 10
52.49907556989789
 20
245.2498307048342
 30
0.0
 11
52.51250425278735
 21
245.2500043072304
 31
0.0
  0
LINE
  5
131
  8
0
  6
CONTINUOUS
 62
     7
 10
76.02666315902924
 20
221.0229252784891
 30
0.0
 11
76.02986023289476
 21
221.0230785641293
 31
0.0
  0
LINE
  5
132
  8
0
  6
CONTINUOUS
 62
     7
 10
76.02986023289476
 20
221.0230785641293
 30
0.0
 11
76.05718993729424
 21
221.0252438134175
 31
0.0
  0
LINE
  5
133
  8
0
  6
CONTINUOUS
 62
     7
 10
76.05718993729424
 20
221.0252438134175
 30
0.0
 11
76.08450137919144
 21
221.0289533910937
 31
0.0
  0
LINE
  5
134
  8
0
  6
CONTINUOUS
 62
     7
 10
76.08450137919144
 20
221.0289533910937
 30
0.0
 11
76.11169179312918
 21
221.0342166736927
 31
0.0
  0
LINE
  5
135
  8
0
  6
CONTINUOUS
 62
     7
 10
76.11169179312918
 20
221.0342166736927
 30
0.0
 11
76.13885000651386
 21
221.0410891631388
 31
0.0
  0
LINE
  5
136
  8
0
  6
CONTINUOUS
 62
     7
 10
76.13885000651386
 20
221.0410891631388
 30
0.0
 11
76.16578752859176
 21
221.0495702499947
 31
0.0
  0
LINE
  5
137
  8
0
  6
CONTINUOUS
 62
     7
 10
76.16578752859176
 20
221.0495702499947
 30
0.0
 11
76.19258445176597
 21
221.0597425131322
 31
0.0
  0
LINE
  5
138
  8
0
  6
CONTINUOUS
 62
     7
 10
76.19258445176597
 20
221.0597425131322
 30
0.0
 11
76.21904422267554
 21
221.0716000583449
 31
0.0
  0
LINE
  5
139
  8
0
  6
CONTINUOUS
 62
     7
 10
76.21904422267554
 20
221.0716000583449
 30
0.0
 11
76.24515552359125
 21
221.0852116761806
 31
0.0
  0
LINE
  5
13A
  8
0
  6
CONTINUOUS
 62
     7
 10
76.24515552359125
 20
221.0852116761806
 30
0.0
 11
76.26410864683874
 21
221.0963835637133
 31
0.0
  0
LINE
  5
13B
  8
0
  6
CONTINUOUS
 62
     7
 10
76.26410864683874
 20
221.0963835637133
 30
0.0
 11
76.28279642892338
 21
221.1085587914901
 31
0.0
  0
LINE
  5
13C
  8
0
  6
CONTINUOUS
 62
     7
 10
76.28279642892338
 20
221.1085587914901
 30
0.0
 11
76.30114700100046
 21
221.1217370518884
 31
0.0
  0
LINE
  5
13D
  8
0
  6
CONTINUOUS
 62
     7
 10
76.30114700100046
 20
221.1217370518884
 30
0.0
 11
76.31920239351582
 21
221.1360070562269
 31
0.0
  0
LINE
  5
13E
  8
0
  6
CONTINUOUS
 62
     7
 10
76.31920239351582
 20
221.1360070562269
 30
0.0
 11
76.33683361016122
 21
221.1513335033734
 31
0.0
  0
LINE
  5
13F
  8
0
  6
CONTINUOUS
 62
     7
 10
76.33683361016122
 20
221.1513335033734
 30
0.0
 11
76.35406955432958
 21
221.1678181597085
 31
0.0
  0
LINE
  5
140
  8
0
  6
CONTINUOUS
 62
     7
 10
76.35406955432958
 20
221.1678181597085
 30
0.0
 11
76.37077278859084
 21
221.1854174083912
 31
0.0
  0
LINE
  5
141
  8
0
  6
CONTINUOUS
 62
     7
 10
76.37077278859084
 20
221.1854174083912
 30
0.0
 11
76.38691183488763
 21
221.204192507326
 31
0.0
  0
LINE
  5
142
  8
0
  6
CONTINUOUS
 62
     7
 10
76.38691183488763
 20
221.204192507326
 30
0.0
 11
76.396248406301
 21
221.2159745827927
 31
0.0
  0
LINE
  5
143
  8
0
  6
CONTINUOUS
 62
     7
 10
76.396248406301
 20
221.2159745827927
 30
0.0
 11
76.40531751577367
 21
221.2281598914851
 31
0.0
  0
LINE
  5
144
  8
0
  6
CONTINUOUS
 62
     7
 10
76.40531751577367
 20
221.2281598914851
 30
0.0
 11
76.41413516048661
 21
221.2407983894172
 31
0.0
  0
LINE
  5
145
  8
0
  6
CONTINUOUS
 62
     7
 10
76.41413516048661
 20
221.2407983894172
 30
0.0
 11
76.42264829569608
 21
221.2538445690791
 31
0.0
  0
LINE
  5
146
  8
0
  6
CONTINUOUS
 62
     7
 10
76.42264829569608
 20
221.2538445690791
 30
0.0
 11
76.43036488886251
 21
221.2664942907157
 31
0.0
  0
LINE
  5
147
  8
0
  6
CONTINUOUS
 62
     7
 10
76.43036488886251
 20
221.2664942907157
 30
0.0
 11
76.43777833501166
 21
221.2795027346839
 31
0.0
  0
LINE
  5
148
  8
0
  6
CONTINUOUS
 62
     7
 10
76.43777833501166
 20
221.2795027346839
 30
0.0
 11
76.44490140359606
 21
221.2929263638106
 31
0.0
  0
LINE
  5
149
  8
0
  6
CONTINUOUS
 62
     7
 10
76.44490140359606
 20
221.2929263638106
 30
0.0
 11
76.45168283514558
 21
221.3067047359474
 31
0.0
  0
LINE
  5
14A
  8
0
  6
CONTINUOUS
 62
     7
 10
76.45168283514558
 20
221.3067047359474
 30
0.0
 11
76.45786917165375
 21
221.320295402866
 31
0.0
  0
LINE
  5
14B
  8
0
  6
CONTINUOUS
 62
     7
 10
76.45786917165375
 20
221.320295402866
 30
0.0
 11
76.46371096279628
 21
221.3342199479402
 31
0.0
  0
LINE
  5
14C
  8
0
  6
CONTINUOUS
 62
     7
 10
76.46371096279628
 20
221.3342199479402
 30
0.0
 11
76.4691249682425
 21
221.3482968334201
 31
0.0
  0
LINE
  5
14D
  8
0
  6
CONTINUOUS
 62
     7
 10
76.4691249682425
 20
221.3482968334201
 30
0.0
 11
76.47415937223221
 21
221.3626656859766
 31
0.0
  0
LINE
  5
14E
  8
0
  6
CONTINUOUS
 62
     7
 10
76.47415937223221
 20
221.3626656859766
 30
0.0
 11
76.47882165361312
 21
221.3773992275321
 31
0.0
  0
LINE
  5
14F
  8
0
  6
CONTINUOUS
 62
     7
 10
76.47882165361312
 20
221.3773992275321
 30
0.0
 11
76.48306444513733
 21
221.3924013791979
 31
0.0
  0
LINE
  5
150
  8
0
  6
CONTINUOUS
 62
     7
 10
76.48306444513733
 20
221.3924013791979
 30
0.0
 11
76.48689438347927
 21
221.4077606966787
 31
0.0
  0
LINE
  5
151
  8
0
  6
CONTINUOUS
 62
     7
 10
76.48689438347927
 20
221.4077606966787
 30
0.0
 11
76.49026423664266
 21
221.4233556244584
 31
0.0
  0
LINE
  5
152
  8
0
  6
CONTINUOUS
 62
     7
 10
76.49026423664266
 20
221.4233556244584
 30
0.0
 11
76.49317620553671
 21
221.4392785833092
 31
0.0
  0
LINE
  5
153
  8
0
  6
CONTINUOUS
 62
     7
 10
76.49317620553671
 20
221.4392785833092
 30
0.0
 11
76.49558954375614
 21
221.4553928138246
 31
0.0
  0
LINE
  5
154
  8
0
  6
CONTINUOUS
 62
     7
 10
76.49558954375614
 20
221.4553928138246
 30
0.0
 11
76.49751059212288
 21
221.4718772234127
 31
0.0
  0
LINE
  5
155
  8
0
  6
CONTINUOUS
 62
     7
 10
76.49751059212288
 20
221.4718772234127
 30
0.0
 11
76.4988957387368
 21
221.4885330556444
 31
0.0
  0
LINE
  5
156
  8
0
  6
CONTINUOUS
 62
     7
 10
76.4988957387368
 20
221.4885330556444
 30
0.0
 11
76.49973156372918
 21
221.5053308775829
 31
0.0
  0
LINE
  5
157
  8
0
  6
CONTINUOUS
 62
     7
 10
76.49973156372918
 20
221.5053308775829
 30
0.0
 11
76.50000673024722
 21
221.5222343534348
 31
0.0
  0
ARC
  5
158
  8
0
  6
CONTINUOUS
 62
     7
 10
75.00000000000001
 20
244.0
 30
0.0
 40
23.00000000000023
 50
272.5472696517093
 51
272.5583920830604
  0
ARC
  5
159
  8
0
  6
CONTINUOUS
 62
     7
 10
75.00000000000001
 20
244.0
 30
0.0
 40
23.0
 50
272.5583920830604
 51
358.0787177311063
  0
LINE
  5
15A
  8
0
  6
CONTINUOUS
 62
     7
 10
76.50000673024724
 20
266.4777656465652
 30
0.0
 11
76.49980902428979
 21
266.4921321174848
 31
0.0
  0
LINE
  5
15B
  8
0
  6
CONTINUOUS
 62
     7
 10
76.49980902428979
 20
266.4921321174848
 30
0.0
 11
76.49920274730397
 21
266.5064760892927
 31
0.0
  0
LINE
  5
15C
  8
0
  6
CONTINUOUS
 62
     7
 10
76.49920274730397
 20
266.5064760892927
 30
0.0
 11
76.4982231117463
 21
266.5203854536094
 31
0.0
  0
LINE
  5
15D
  8
0
  6
CONTINUOUS
 62
     7
 10
76.4982231117463
 20
266.5203854536094
 30
0.0
 11
76.49686520462109
 21
266.5342103740804
 31
0.0
  0
LINE
  5
15E
  8
0
  6
CONTINUOUS
 62
     7
 10
76.49686520462109
 20
266.5342103740804
 30
0.0
 11
76.49512398648179
 21
266.5480114038498
 31
0.0
  0
LINE
  5
15F
  8
0
  6
CONTINUOUS
 62
     7
 10
76.49512398648179
 20
266.5480114038498
 30
0.0
 11
76.49301433124704
 21
266.561689801463
 31
0.0
  0
LINE
  5
160
  8
0
  6
CONTINUOUS
 62
     7
 10
76.49301433124704
 20
266.561689801463
 30
0.0
 11
76.49066870932666
 21
266.5745949586241
 31
0.0
  0
LINE
  5
161
  8
0
  6
CONTINUOUS
 62
     7
 10
76.49066870932666
 20
266.5745949586241
 30
0.0
 11
76.48800451738686
 21
266.5873599642301
 31
0.0
  0
LINE
  5
162
  8
0
  6
CONTINUOUS
 62
     7
 10
76.48800451738686
 20
266.5873599642301
 30
0.0
 11
76.48501558636663
 21
266.6000311659599
 31
0.0
  0
LINE
  5
163
  8
0
  6
CONTINUOUS
 62
     7
 10
76.48501558636663
 20
266.6000311659599
 30
0.0
 11
76.48172319821026
 21
266.6125370520696
 31
0.0
  0
LINE
  5
164
  8
0
  6
CONTINUOUS
 62
     7
 10
76.48172319821026
 20
266.6125370520696
 30
0.0
 11
76.4771448043195
 21
266.6280838203289
 31
0.0
  0
LINE
  5
165
  8
0
  6
CONTINUOUS
 62
     7
 10
76.4771448043195
 20
266.6280838203289
 30
0.0
 11
76.47210870401423
 21
266.6433569947858
 31
0.0
  0
LINE
  5
166
  8
0
  6
CONTINUOUS
 62
     7
 10
76.47210870401423
 20
266.6433569947858
 30
0.0
 11
76.46661013006673
 21
266.6583991520931
 31
0.0
  0
LINE
  5
167
  8
0
  6
CONTINUOUS
 62
     7
 10
76.46661013006673
 20
266.6583991520931
 30
0.0
 11
76.46069725908359
 21
266.6731099929704
 31
0.0
  0
LINE
  5
168
  8
0
  6
CONTINUOUS
 62
     7
 10
76.46069725908359
 20
266.6731099929704
 30
0.0
 11
76.45435358424992
 21
266.6875588007588
 31
0.0
  0
LINE
  5
169
  8
0
  6
CONTINUOUS
 62
     7
 10
76.45435358424992
 20
266.6875588007588
 30
0.0
 11
76.44763210363892
 21
266.7016528765994
 31
0.0
  0
LINE
  5
16A
  8
0
  6
CONTINUOUS
 62
     7
 10
76.44763210363892
 20
266.7016528765994
 30
0.0
 11
76.44051892402165
 21
266.7154482334795
 31
0.0
  0
LINE
  5
16B
  8
0
  6
CONTINUOUS
 62
     7
 10
76.44051892402165
 20
266.7154482334795
 30
0.0
 11
76.43305507026201
 21
266.7288890835072
 31
0.0
  0
LINE
  5
16C
  8
0
  6
CONTINUOUS
 62
     7
 10
76.43305507026201
 20
266.7288890835072
 30
0.0
 11
76.42182610636081
 21
266.7474549437001
 31
0.0
  0
LINE
  5
16D
  8
0
  6
CONTINUOUS
 62
     7
 10
76.42182610636081
 20
266.7474549437001
 30
0.0
 11
76.40996251311704
 21
266.7652860760527
 31
0.0
  0
LINE
  5
16E
  8
0
  6
CONTINUOUS
 62
     7
 10
76.40996251311704
 20
266.7652860760527
 30
0.0
 11
76.39746568598318
 21
266.7824342418627
 31
0.0
  0
LINE
  5
16F
  8
0
  6
CONTINUOUS
 62
     7
 10
76.39746568598318
 20
266.7824342418627
 30
0.0
 11
76.38442260012582
 21
266.7988289390975
 31
0.0
  0
LINE
  5
170
  8
0
  6
CONTINUOUS
 62
     7
 10
76.38442260012582
 20
266.7988289390975
 30
0.0
 11
76.37080518592997
 21
266.8145467416264
 31
0.0
  0
LINE
  5
171
  8
0
  6
CONTINUOUS
 62
     7
 10
76.37080518592997
 20
266.8145467416264
 30
0.0
 11
76.35671835604722
 21
266.8295036907552
 31
0.0
  0
LINE
  5
172
  8
0
  6
CONTINUOUS
 62
     7
 10
76.35671835604722
 20
266.8295036907552
 30
0.0
 11
76.34214644618893
 21
266.8437526753258
 31
0.0
  0
LINE
  5
173
  8
0
  6
CONTINUOUS
 62
     7
 10
76.34214644618893
 20
266.8437526753258
 30
0.0
 11
76.32717360913244
 21
266.8572438590209
 31
0.0
  0
LINE
  5
174
  8
0
  6
CONTINUOUS
 62
     7
 10
76.32717360913244
 20
266.8572438590209
 30
0.0
 11
76.30668353136714
 21
266.8740309493239
 31
0.0
  0
LINE
  5
175
  8
0
  6
CONTINUOUS
 62
     7
 10
76.30668353136714
 20
266.8740309493239
 30
0.0
 11
76.28559830777144
 21
266.8895102598679
 31
0.0
  0
LINE
  5
176
  8
0
  6
CONTINUOUS
 62
     7
 10
76.28559830777144
 20
266.8895102598679
 30
0.0
 11
76.26390102607526
 21
266.9037450578851
 31
0.0
  0
LINE
  5
177
  8
0
  6
CONTINUOUS
 62
     7
 10
76.26390102607526
 20
266.9037450578851
 30
0.0
 11
76.24172446782862
 21
266.9166912750781
 31
0.0
  0
LINE
  5
178
  8
0
  6
CONTINUOUS
 62
     7
 10
76.24172446782862
 20
266.9166912750781
 30
0.0
 11
76.2190043520754
 21
266.928419233624
 31
0.0
  0
LINE
  5
179
  8
0
  6
CONTINUOUS
 62
     7
 10
76.2190043520754
 20
266.928419233624
 30
0.0
 11
76.19590133596783
 21
266.9388725401528
 31
0.0
  0
LINE
  5
17A
  8
0
  6
CONTINUOUS
 62
     7
 10
76.19590133596783
 20
266.9388725401528
 30
0.0
 11
76.17237548247367
 21
266.9480934122433
 31
0.0
  0
LINE
  5
17B
  8
0
  6
CONTINUOUS
 62
     7
 10
76.17237548247367
 20
266.9480934122433
 30
0.0
 11
76.14855100095842
 21
266.956051812588
 31
0.0
  0
LINE
  5
17C
  8
0
  6
CONTINUOUS
 62
     7
 10
76.14855100095842
 20
266.956051812588
 30
0.0
 11
76.11930785838508
 21
266.9640216072422
 31
0.0
  0
LINE
  5
17D
  8
0
  6
CONTINUOUS
 62
     7
 10
76.11930785838508
 20
266.9640216072422
 30
0.0
 11
76.0897366828069
 21
266.9701563428592
 31
0.0
  0
LINE
  5
17E
  8
0
  6
CONTINUOUS
 62
     7
 10
76.0897366828069
 20
266.9701563428592
 30
0.0
 11
76.05990148904853
 21
266.9744574412091
 31
0.0
  0
LINE
  5
17F
  8
0
  6
CONTINUOUS
 62
     7
 10
76.05990148904853
 20
266.9744574412091
 30
0.0
 11
76.02986023289758
 21
266.9769214358685
 31
0.0
  0
LINE
  5
180
  8
0
  6
CONTINUOUS
 62
     7
 10
76.02986023289758
 20
266.9769214358685
 30
0.0
 11
76.02666315902924
 21
266.9770747215108
 31
0.0
  0
ARC
  5
181
  8
0
  6
CONTINUOUS
 62
     7
 10
75.00000000000001
 20
244.0
 30
0.0
 40
23.0
 50
1.921282268893719
 51
87.44160791693963
  0
ARC
  5
182
  8
0
  6
CONTINUOUS
 62
     7
 10
75.00000000000001
 20
244.0
 30
0.0
 40
23.00000000000023
 50
87.44160791693969
 51
87.45273034829064
  0
LINE
  5
183
  8
0
  6
CONTINUOUS
 62
     7
 10
73.4999932697528
 20
221.5222343534348
 30
0.0
 11
73.50019141987826
 21
221.5078563426336
 31
0.0
  0
LINE
  5
184
  8
0
  6
CONTINUOUS
 62
     7
 10
73.50019141987826
 20
221.5078563426336
 30
0.0
 11
73.50079725269606
 21
221.4935239107072
 31
0.0
  0
LINE
  5
185
  8
0
  6
CONTINUOUS
 62
     7
 10
73.50079725269606
 20
221.4935239107072
 30
0.0
 11
73.50181473354033
 21
221.4791683227281
 31
0.0
  0
LINE
  5
186
  8
0
  6
CONTINUOUS
 62
     7
 10
73.50181473354033
 20
221.4791683227281
 30
0.0
 11
73.50323499563055
 21
221.4649033517178
 31
0.0
  0
LINE
  5
187
  8
0
  6
CONTINUOUS
 62
     7
 10
73.50323499563055
 20
221.4649033517178
 30
0.0
 11
73.50493782661734
 21
221.451549050376
 31
0.0
  0
LINE
  5
188
  8
0
  6
CONTINUOUS
 62
     7
 10
73.50493782661734
 20
221.451549050376
 30
0.0
 11
73.50698566875298
 21
221.438310198537
 31
0.0
  0
LINE
  5
189
  8
0
  6
CONTINUOUS
 62
     7
 10
73.50698566875298
 20
221.438310198537
 30
0.0
 11
73.5093842006043
 21
221.425134462691
 31
0.0
  0
LINE
  5
18A
  8
0
  6
CONTINUOUS
 62
     7
 10
73.5093842006043
 20
221.425134462691
 30
0.0
 11
73.51211468198356
 21
221.4121051235885
 31
0.0
  0
LINE
  5
18B
  8
0
  6
CONTINUOUS
 62
     7
 10
73.51211468198356
 20
221.4121051235885
 30
0.0
 11
73.51504870264576
 21
221.3997112970088
 31
0.0
  0
LINE
  5
18C
  8
0
  6
CONTINUOUS
 62
     7
 10
73.51504870264576
 20
221.3997112970088
 30
0.0
 11
73.51827680178975
 21
221.3874629479305
 31
0.0
  0
LINE
  5
18D
  8
0
  6
CONTINUOUS
 62
     7
 10
73.51827680178975
 20
221.3874629479305
 30
0.0
 11
73.5228592197084
 21
221.3719036744803
 31
0.0
  0
LINE
  5
18E
  8
0
  6
CONTINUOUS
 62
     7
 10
73.5228592197084
 20
221.3719036744803
 30
0.0
 11
73.5278912959858
 21
221.3566430052141
 31
0.0
  0
LINE
  5
18F
  8
0
  6
CONTINUOUS
 62
     7
 10
73.5278912959858
 20
221.3566430052141
 30
0.0
 11
73.53338882019246
 21
221.3416035834517
 31
0.0
  0
LINE
  5
190
  8
0
  6
CONTINUOUS
 62
     7
 10
73.53338882019246
 20
221.3416035834517
 30
0.0
 11
73.5393004929167
 21
221.3268953542779
 31
0.0
  0
LINE
  5
191
  8
0
  6
CONTINUOUS
 62
     7
 10
73.5393004929167
 20
221.3268953542779
 30
0.0
 11
73.5456452208198
 21
221.3124438087852
 31
0.0
  0
LINE
  5
192
  8
0
  6
CONTINUOUS
 62
     7
 10
73.5456452208198
 20
221.3124438087852
 30
0.0
 11
73.5523678963611
 21
221.2983471234006
 31
0.0
  0
LINE
  5
193
  8
0
  6
CONTINUOUS
 62
     7
 10
73.5523678963611
 20
221.2983471234006
 30
0.0
 11
73.55948538715815
 21
221.2845438192149
 31
0.0
  0
LINE
  5
194
  8
0
  6
CONTINUOUS
 62
     7
 10
73.55948538715815
 20
221.2845438192149
 30
0.0
 11
73.566944929738
 21
221.2711109164928
 31
0.0
  0
LINE
  5
195
  8
0
  6
CONTINUOUS
 62
     7
 10
73.566944929738
 20
221.2711109164928
 30
0.0
 11
73.5781616212884
 21
221.2525643885014
 31
0.0
  0
LINE
  5
196
  8
0
  6
CONTINUOUS
 62
     7
 10
73.5781616212884
 20
221.2525643885014
 30
0.0
 11
73.590037486883
 21
221.2347139239473
 31
0.0
  0
LINE
  5
197
  8
0
  6
CONTINUOUS
 62
     7
 10
73.590037486883
 20
221.2347139239473
 30
0.0
 11
73.60250171182948
 21
221.2176085578027
 31
0.0
  0
LINE
  5
198
  8
0
  6
CONTINUOUS
 62
     7
 10
73.60250171182948
 20
221.2176085578027
 30
0.0
 11
73.6155773998742
 21
221.2011710609025
 31
0.0
  0
LINE
  5
199
  8
0
  6
CONTINUOUS
 62
     7
 10
73.6155773998742
 20
221.2011710609025
 30
0.0
 11
73.62915976373883
 21
221.1854920519617
 31
0.0
  0
LINE
  5
19A
  8
0
  6
CONTINUOUS
 62
     7
 10
73.62915976373883
 20
221.1854920519617
 30
0.0
 11
73.6432816439528
 21
221.1704963092447
 31
0.0
  0
LINE
  5
19B
  8
0
  6
CONTINUOUS
 62
     7
 10
73.6432816439528
 20
221.1704963092447
 30
0.0
 11
73.65783817310421
 21
221.1562617601588
 31
0.0
  0
LINE
  5
19C
  8
0
  6
CONTINUOUS
 62
     7
 10
73.65783817310421
 20
221.1562617601588
 30
0.0
 11
73.67282639086758
 21
221.1427561409791
 31
0.0
  0
LINE
  5
19D
  8
0
  6
CONTINUOUS
 62
     7
 10
73.67282639086758
 20
221.1427561409791
 30
0.0
 11
73.69329434879118
 21
221.1259862073295
 31
0.0
  0
LINE
  5
19E
  8
0
  6
CONTINUOUS
 62
     7
 10
73.69329434879118
 20
221.1259862073295
 30
0.0
 11
73.71440169222852
 21
221.1104897401322
 31
0.0
  0
LINE
  5
19F
  8
0
  6
CONTINUOUS
 62
     7
 10
73.71440169222852
 20
221.1104897401322
 30
0.0
 11
73.73604285117122
 21
221.0962896963094
 31
0.0
  0
LINE
  5
1A0
  8
0
  6
CONTINUOUS
 62
     7
 10
73.73604285117122
 20
221.0962896963094
 30
0.0
 11
73.75827553217128
 21
221.0833087249219
 31
0.0
  0
LINE
  5
1A1
  8
0
  6
CONTINUOUS
 62
     7
 10
73.75827553217128
 20
221.0833087249219
 30
0.0
 11
73.78093747210818
 21
221.0716089170693
 31
0.0
  0
LINE
  5
1A2
  8
0
  6
CONTINUOUS
 62
     7
 10
73.78093747210818
 20
221.0716089170693
 30
0.0
 11
73.80409866403197
 21
221.0611274598472
 31
0.0
  0
LINE
  5
1A3
  8
0
  6
CONTINUOUS
 62
     7
 10
73.80409866403197
 20
221.0611274598472
 30
0.0
 11
73.82759975526089
 21
221.0519155684678
 31
0.0
  0
LINE
  5
1A4
  8
0
  6
CONTINUOUS
 62
     7
 10
73.82759975526089
 20
221.0519155684678
 30
0.0
 11
73.8514489990413
 21
221.0439481874121
 31
0.0
  0
LINE
  5
1A5
  8
0
  6
CONTINUOUS
 62
     7
 10
73.8514489990413
 20
221.0439481874121
 30
0.0
 11
73.8806921416147
 21
221.0359783927579
 31
0.0
  0
LINE
  5
1A6
  8
0
  6
CONTINUOUS
 62
     7
 10
73.8806921416147
 20
221.0359783927579
 30
0.0
 11
73.91026150486998
 21
221.0298439754113
 31
0.0
  0
LINE
  5
1A7
  8
0
  6
CONTINUOUS
 62
     7
 10
73.91026150486998
 20
221.0298439754113
 30
0.0
 11
73.94009851095137
 21
221.0255425587909
 31
0.0
  0
LINE
  5
1A8
  8
0
  6
CONTINUOUS
 62
     7
 10
73.94009851095137
 20
221.0255425587909
 30
0.0
 11
73.97013976710234
 21
221.0230785641315
 31
0.0
  0
LINE
  5
1A9
  8
0
  6
CONTINUOUS
 62
     7
 10
73.97013976710234
 20
221.0230785641315
 30
0.0
 11
73.97333684097077
 21
221.0229252784891
 31
0.0
  0
ARC
  5
1AA
  8
0
  6
CONTINUOUS
 62
     7
 10
75.00000000000001
 20
244.0
 30
0.0
 40
23.00000000000023
 50
267.4416079169397
 51
267.4527303482907
  0
ARC
  5
1AB
  8
0
  6
CONTINUOUS
 62
     7
 10
75.00000000000001
 20
244.0
 30
0.0
 40
23.0
 50
181.9212822688937
 51
267.4416079169396
  0
LINE
  5
1AC
  8
0
  6
CONTINUOUS
 62
     7
 10
73.97333684097077
 20
266.9770747215108
 30
0.0
 11
73.97013976710235
 21
266.9769214358685
 31
0.0
  0
LINE
  5
1AD
  8
0
  6
CONTINUOUS
 62
     7
 10
73.97013976710235
 20
266.9769214358685
 30
0.0
 11
73.94027545844166
 21
266.9744774011278
 31
0.0
  0
LINE
  5
1AE
  8
0
  6
CONTINUOUS
 62
     7
 10
73.94027545844166
 20
266.9744774011278
 30
0.0
 11
73.91049753429358
 21
266.9701974159896
 31
0.0
  0
LINE
  5
1AF
  8
0
  6
CONTINUOUS
 62
     7
 10
73.91049753429358
 20
266.9701974159896
 30
0.0
 11
73.88086914120697
 21
266.9640640000733
 31
0.0
  0
LINE
  5
1B0
  8
0
  6
CONTINUOUS
 62
     7
 10
73.88086914120697
 20
266.9640640000733
 30
0.0
 11
73.8514489990413
 21
266.9560518125879
 31
0.0
  0
LINE
  5
1B1
  8
0
  6
CONTINUOUS
 62
     7
 10
73.8514489990413
 20
266.9560518125879
 30
0.0
 11
73.82818134346789
 21
266.9482949648356
 31
0.0
  0
LINE
  5
1B2
  8
0
  6
CONTINUOUS
 62
     7
 10
73.82818134346789
 20
266.9482949648356
 30
0.0
 11
73.80513427184351
 21
266.9393080040604
 31
0.0
  0
LINE
  5
1B3
  8
0
  6
CONTINUOUS
 62
     7
 10
73.80513427184351
 20
266.9393080040604
 30
0.0
 11
73.78225861074687
 21
266.9290280534759
 31
0.0
  0
LINE
  5
1B4
  8
0
  6
CONTINUOUS
 62
     7
 10
73.78225861074687
 20
266.9290280534759
 30
0.0
 11
73.75968668728216
 21
266.917463635049
 31
0.0
  0
LINE
  5
1B5
  8
0
  6
CONTINUOUS
 62
     7
 10
73.75968668728216
 20
266.917463635049
 30
0.0
 11
73.73734320720764
 21
266.9045128956084
 31
0.0
  0
LINE
  5
1B6
  8
0
  6
CONTINUOUS
 62
     7
 10
73.73734320720764
 20
266.9045128956084
 30
0.0
 11
73.71540585214127
 21
266.8902055576301
 31
0.0
  0
LINE
  5
1B7
  8
0
  6
CONTINUOUS
 62
     7
 10
73.71540585214127
 20
266.8902055576301
 30
0.0
 11
73.69384939787675
 21
266.8744436971572
 31
0.0
  0
LINE
  5
1B8
  8
0
  6
CONTINUOUS
 62
     7
 10
73.69384939787675
 20
266.8744436971572
 30
0.0
 11
73.67282639086757
 21
266.8572438590209
 31
0.0
  0
LINE
  5
1B9
  8
0
  6
CONTINUOUS
 62
     7
 10
73.67282639086757
 20
266.8572438590209
 30
0.0
 11
73.65819371825545
 21
266.8440716212116
 31
0.0
  0
LINE
  5
1BA
  8
0
  6
CONTINUOUS
 62
     7
 10
73.65819371825545
 20
266.8440716212116
 30
0.0
 11
73.64390709001378
 21
266.8301397335554
 31
0.0
  0
LINE
  5
1BB
  8
0
  6
CONTINUOUS
 62
     7
 10
73.64390709001378
 20
266.8301397335554
 30
0.0
 11
73.62994749193797
 21
266.8153778314643
 31
0.0
  0
LINE
  5
1BC
  8
0
  6
CONTINUOUS
 62
     7
 10
73.62994749193797
 20
266.8153778314643
 30
0.0
 11
73.61640575364558
 21
266.7998237588865
 31
0.0
  0
LINE
  5
1BD
  8
0
  6
CONTINUOUS
 62
     7
 10
73.61640575364558
 20
266.7998237588865
 30
0.0
 11
73.60325238549737
 21
266.783374494982
 31
0.0
  0
LINE
  5
1BE
  8
0
  6
CONTINUOUS
 62
     7
 10
73.60325238549737
 20
266.783374494982
 30
0.0
 11
73.59060568384146
 21
266.7660998961657
 31
0.0
  0
LINE
  5
1BF
  8
0
  6
CONTINUOUS
 62
     7
 10
73.59060568384146
 20
266.7660998961657
 30
0.0
 11
73.57846887240716
 21
266.7479190255835
 31
0.0
  0
LINE
  5
1C0
  8
0
  6
CONTINUOUS
 62
     7
 10
73.57846887240716
 20
266.7479190255835
 30
0.0
 11
73.566944929738
 21
266.7288890835072
 31
0.0
  0
LINE
  5
1C1
  8
0
  6
CONTINUOUS
 62
     7
 10
73.566944929738
 20
266.7288890835072
 30
0.0
 11
73.55960949126155
 21
266.7156879298478
 31
0.0
  0
LINE
  5
1C2
  8
0
  6
CONTINUOUS
 62
     7
 10
73.55960949126155
 20
266.7156879298478
 30
0.0
 11
73.55259656269625
 21
266.7021131481167
 31
0.0
  0
LINE
  5
1C3
  8
0
  6
CONTINUOUS
 62
     7
 10
73.55259656269625
 20
266.7021131481167
 30
0.0
 11
73.54590368364732
 21
266.6881196966124
 31
0.0
  0
LINE
  5
1C4
  8
0
  6
CONTINUOUS
 62
     7
 10
73.54590368364732
 20
266.6881196966124
 30
0.0
 11
73.53958313738454
 21
266.6737756116112
 31
0.0
  0
LINE
  5
1C5
  8
0
  6
CONTINUOUS
 62
     7
 10
73.53958313738454
 20
266.6737756116112
 30
0.0
 11
73.5336237184553
 21
266.6590073942293
 31
0.0
  0
LINE
  5
1C6
  8
0
  6
CONTINUOUS
 62
     7
 10
73.5336237184553
 20
266.6590073942293
 30
0.0
 11
73.52808181398294
 21
266.6439041193223
 31
0.0
  0
LINE
  5
1C7
  8
0
  6
CONTINUOUS
 62
     7
 10
73.52808181398294
 20
266.6439041193223
 30
0.0
 11
73.52295048713341
 21
266.6283888127849
 31
0.0
  0
LINE
  5
1C8
  8
0
  6
CONTINUOUS
 62
     7
 10
73.52295048713341
 20
266.6283888127849
 30
0.0
 11
73.51827680178975
 21
266.6125370520696
 31
0.0
  0
LINE
  5
1C9
  8
0
  6
CONTINUOUS
 62
     7
 10
73.51827680178975
 20
266.6125370520696
 30
0.0
 11
73.51470104375228
 21
266.5988903216787
 31
0.0
  0
LINE
  5
1CA
  8
0
  6
CONTINUOUS
 62
     7
 10
73.51470104375228
 20
266.5988903216787
 30
0.0
 11
73.511483267247
 21
266.585029404611
 31
0.0
  0
LINE
  5
1CB
  8
0
  6
CONTINUOUS
 62
     7
 10
73.511483267247
 20
266.585029404611
 30
0.0
 11
73.5087520304245
 21
266.5715790712928
 31
0.0
  0
LINE
  5
1CC
  8
0
  6
CONTINUOUS
 62
     7
 10
73.5087520304245
 20
266.5715790712928
 30
0.0
 11
73.50637497500817
 21
266.5579772768988
 31
0.0
  0
LINE
  5
1CD
  8
0
  6
CONTINUOUS
 62
     7
 10
73.50637497500817
 20
266.5579772768988
 30
0.0
 11
73.50435160471065
 21
266.5441633238988
 31
0.0
  0
LINE
  5
1CE
  8
0
  6
CONTINUOUS
 62
     7
 10
73.50435160471065
 20
266.5441633238988
 30
0.0
 11
73.50270434525322
 21
266.5302299578165
 31
0.0
  0
LINE
  5
1CF
  8
0
  6
CONTINUOUS
 62
     7
 10
73.50270434525322
 20
266.5302299578165
 30
0.0
 11
73.50152134913054
 21
266.5172379726796
 31
0.0
  0
LINE
  5
1D0
  8
0
  6
CONTINUOUS
 62
     7
 10
73.50152134913054
 20
266.5172379726796
 30
0.0
 11
73.50067245564829
 21
266.5041755445105
 31
0.0
  0
LINE
  5
1D1
  8
0
  6
CONTINUOUS
 62
     7
 10
73.50067245564829
 20
266.5041755445105
 30
0.0
 11
73.50016033923062
 21
266.4909891029454
 31
0.0
  0
LINE
  5
1D2
  8
0
  6
CONTINUOUS
 62
     7
 10
73.50016033923062
 20
266.4909891029454
 30
0.0
 11
73.49999326975279
 21
266.4777656465652
 31
0.0
  0
ARC
  5
1D3
  8
0
  6
CONTINUOUS
 62
     7
 10
75.00000000000001
 20
244.0
 30
0.0
 40
23.0
 50
92.55839208306031
 51
178.0787177311063
  0
ARC
  5
1D4
  8
0
  6
CONTINUOUS
 62
     7
 10
75.00000000000001
 20
244.0
 30
0.0
 40
23.00000000000023
 50
92.54726965170936
 51
92.55839208306043
  0
LINE
  5
1D5
  8
0
  6
CONTINUOUS
 62
     7
 10
73.7304441673555
 20
219.2408764648893
 30
0.0
 11
73.71749566646643
 21
220.7246277029644
 31
0.0
  0
LINE
  5
1D6
  8
0
  6
CONTINUOUS
 62
     7
 10
76.28250433353358
 20
220.7246277029644
 30
0.0
 11
76.26955583264451
 21
219.2408764648893
 31
0.0
  0
LINE
  5
1D7
  8
0
  6
CONTINUOUS
 62
     7
 10
98.27537229703559
 20
245.2825043335336
 30
0.0
 11
99.75912353511073
 21
245.2695558326445
 31
0.0
  0
LINE
  5
1D8
  8
0
  6
CONTINUOUS
 62
     7
 10
99.75912353511073
 20
242.7304441673555
 30
0.0
 11
98.27537229703559
 21
242.7174956664664
 31
0.0
  0
LINE
  5
1D9
  8
0
  6
CONTINUOUS
 62
     7
 10
50.24087646488928
 20
245.2695558326445
 30
0.0
 11
51.72462770296443
 21
245.2825043335336
 31
0.0
  0
LINE
  5
1DA
  8
0
  6
CONTINUOUS
 62
     7
 10
51.72462770296443
 20
242.7174956664664
 30
0.0
 11
50.24087646488928
 21
242.7304441673555
 31
0.0
  0
LINE
  5
1DB
  8
0
  6
CONTINUOUS
 62
     7
 10
73.71749566646645
 20
267.2753722970356
 30
0.0
 11
73.7304441673555
 21
268.7591235351107
 31
0.0
  0
LINE
  5
1DC
  8
0
  6
CONTINUOUS
 62
     7
 10
76.26955583264453
 20
268.7591235351107
 30
0.0
 11
76.28250433353358
 21
267.2753722970356
 31
0.0
  0
LINE
  5
1DD
  8
0
  6
CONTINUOUS
 62
     7
 10
76.2852210853248
 20
221.035936623458
 30
0.0
 11
76.28250433353358
 21
220.7246277029644
 31
0.0
  0
LINE
  5
1DE
  8
0
  6
CONTINUOUS
 62
     7
 10
97.96406337654199
 20
245.2852210853248
 30
0.0
 11
98.27537229703559
 21
245.2825043335336
 31
0.0
  0
LINE
  5
1DF
  8
0
  6
CONTINUOUS
 62
     7
 10
52.03593662345804
 20
242.7147789146752
 30
0.0
 11
51.72462770296443
 21
242.7174956664664
 31
0.0
  0
LINE
  5
1E0
  8
0
  6
CONTINUOUS
 62
     7
 10
73.71477891467522
 20
266.964063376542
 30
0.0
 11
73.71749566646645
 21
267.2753722970356
 31
0.0
  0
LINE
  5
1E1
  8
0
  6
CONTINUOUS
 62
     7
 10
73.71749566646643
 20
220.7246277029644
 30
0.0
 11
73.71477891467521
 21
221.035936623458
 31
0.0
  0
LINE
  5
1E2
  8
0
  6
CONTINUOUS
 62
     7
 10
51.72462770296443
 20
245.2825043335336
 30
0.0
 11
52.03593662345804
 21
245.2852210853248
 31
0.0
  0
LINE
  5
1E3
  8
0
  6
CONTINUOUS
 62
     7
 10
98.27537229703559
 20
242.7174956664664
 30
0.0
 11
97.96406337654199
 21
242.7147789146752
 31
0.0
  0
LINE
  5
1E4
  8
0
  6
CONTINUOUS
 62
     7
 10
76.28250433353358
 20
267.2753722970356
 30
0.0
 11
76.28522108532482
 21
266.964063376542
 31
0.0
  0
LINE
  5
1E5
  8
0
  6
CONTINUOUS
 62
     7
 10
76.25447046457016
 20
217.5122645005462
 30
0.0
 11
76.25384926469486
 21
217.4911328696743
 31
0.0
  0
LINE
  5
1E6
  8
0
  6
CONTINUOUS
 62
     7
 10
76.25384926469486
 20
217.4911328696743
 30
0.0
 11
76.2523562908283
 21
217.4700448949
 31
0.0
  0
LINE
  5
1E7
  8
0
  6
CONTINUOUS
 62
     7
 10
76.2523562908283
 20
217.4700448949
 30
0.0
 11
76.24997385488997
 21
217.4488918002432
 31
0.0
  0
LINE
  5
1E8
  8
0
  6
CONTINUOUS
 62
     7
 10
76.24997385488997
 20
217.4488918002432
 30
0.0
 11
76.24671383936663
 21
217.427856080067
 31
0.0
  0
LINE
  5
1E9
  8
0
  6
CONTINUOUS
 62
     7
 10
76.24671383936663
 20
217.427856080067
 30
0.0
 11
76.24248158333566
 21
217.406523771945
 31
0.0
  0
LINE
  5
1EA
  8
0
  6
CONTINUOUS
 62
     7
 10
76.24248158333566
 20
217.406523771945
 30
0.0
 11
76.23734598526269
 21
217.3853907493412
 31
0.0
  0
LINE
  5
1EB
  8
0
  6
CONTINUOUS
 62
     7
 10
76.23734598526269
 20
217.3853907493412
 30
0.0
 11
76.23126735465537
 21
217.3643431170953
 31
0.0
  0
LINE
  5
1EC
  8
0
  6
CONTINUOUS
 62
     7
 10
76.23126735465537
 20
217.3643431170953
 30
0.0
 11
76.22429137900161
 21
217.3435756463922
 31
0.0
  0
LINE
  5
1ED
  8
0
  6
CONTINUOUS
 62
     7
 10
76.22429137900161
 20
217.3435756463922
 30
0.0
 11
76.21671938588479
 21
217.3238372174637
 31
0.0
  0
LINE
  5
1EE
  8
0
  6
CONTINUOUS
 62
     7
 10
76.21671938588479
 20
217.3238372174637
 30
0.0
 11
76.20833521668784
 21
217.3044298517092
 31
0.0
  0
LINE
  5
1EF
  8
0
  6
CONTINUOUS
 62
     7
 10
76.20833521668784
 20
217.3044298517092
 30
0.0
 11
76.19908484534628
 21
217.2852559715549
 31
0.0
  0
LINE
  5
1F0
  8
0
  6
CONTINUOUS
 62
     7
 10
76.19908484534628
 20
217.2852559715549
 30
0.0
 11
76.18904000198279
 21
217.2664861141789
 31
0.0
  0
LINE
  5
1F1
  8
0
  6
CONTINUOUS
 62
     7
 10
76.18904000198279
 20
217.2664861141789
 30
0.0
 11
76.17797012192128
 21
217.2477562657277
 31
0.0
  0
LINE
  5
1F2
  8
0
  6
CONTINUOUS
 62
     7
 10
76.17797012192128
 20
217.2477562657277
 30
0.0
 11
76.16610719928741
 21
217.2295183998262
 31
0.0
  0
LINE
  5
1F3
  8
0
  6
CONTINUOUS
 62
     7
 10
76.16610719928741
 20
217.2295183998262
 30
0.0
 11
76.15337392732062
 21
217.2116768787601
 31
0.0
  0
LINE
  5
1F4
  8
0
  6
CONTINUOUS
 62
     7
 10
76.15337392732062
 20
217.2116768787601
 30
0.0
 11
76.13987960578959
 21
217.1944038217523
 31
0.0
  0
LINE
  5
1F5
  8
0
  6
CONTINUOUS
 62
     7
 10
76.13987960578959
 20
217.1944038217523
 30
0.0
 11
76.12624434498099
 21
217.1784030550506
 31
0.0
  0
LINE
  5
1F6
  8
0
  6
CONTINUOUS
 62
     7
 10
76.12624434498099
 20
217.1784030550506
 30
0.0
 11
76.11195406644339
 21
217.1629844926261
 31
0.0
  0
LINE
  5
1F7
  8
0
  6
CONTINUOUS
 62
     7
 10
76.11195406644339
 20
217.1629844926261
 30
0.0
 11
76.09692460905946
 21
217.148074049796
 31
0.0
  0
LINE
  5
1F8
  8
0
  6
CONTINUOUS
 62
     7
 10
76.09692460905946
 20
217.148074049796
 30
0.0
 11
76.0812808334455
 21
217.1338094994668
 31
0.0
  0
LINE
  5
1F9
  8
0
  6
CONTINUOUS
 62
     7
 10
76.0812808334455
 20
217.1338094994668
 30
0.0
 11
76.06468154694134
 21
217.1199232328453
 31
0.0
  0
LINE
  5
1FA
  8
0
  6
CONTINUOUS
 62
     7
 10
76.06468154694134
 20
217.1199232328453
 30
0.0
 11
76.04749844596311
 21
217.1067662996386
 31
0.0
  0
LINE
  5
1FB
  8
0
  6
CONTINUOUS
 62
     7
 10
76.04749844596311
 20
217.1067662996386
 30
0.0
 11
76.02962580504206
 21
217.0942740195892
 31
0.0
  0
LINE
  5
1FC
  8
0
  6
CONTINUOUS
 62
     7
 10
76.02962580504206
 20
217.0942740195892
 30
0.0
 11
76.0112253915866
 21
217.082573067366
 31
0.0
  0
LINE
  5
1FD
  8
0
  6
CONTINUOUS
 62
     7
 10
76.0112253915866
 20
217.082573067366
 30
0.0
 11
75.99322408722722
 21
217.0721775763308
 31
0.0
  0
LINE
  5
1FE
  8
0
  6
CONTINUOUS
 62
     7
 10
75.99322408722722
 20
217.0721775763308
 30
0.0
 11
75.97480508558225
 21
217.0625415528706
 31
0.0
  0
LINE
  5
1FF
  8
0
  6
CONTINUOUS
 62
     7
 10
75.97480508558225
 20
217.0625415528706
 30
0.0
 11
75.95566120941827
 21
217.0535345209759
 31
0.0
  0
LINE
  5
200
  8
0
  6
CONTINUOUS
 62
     7
 10
75.95566120941827
 20
217.0535345209759
 30
0.0
 11
75.93613371377734
 21
217.0453427247579
 31
0.0
  0
LINE
  5
201
  8
0
  6
CONTINUOUS
 62
     7
 10
75.93613371377734
 20
217.0453427247579
 30
0.0
 11
75.91627581872133
 21
217.0379881649366
 31
0.0
  0
LINE
  5
202
  8
0
  6
CONTINUOUS
 62
     7
 10
75.91627581872133
 20
217.0379881649366
 30
0.0
 11
75.8961407443121
 21
217.0314928422319
 31
0.0
  0
LINE
  5
203
  8
0
  6
CONTINUOUS
 62
     7
 10
75.8961407443121
 20
217.0314928422319
 30
0.0
 11
75.87535470545937
 21
217.0257657308657
 31
0.0
  0
LINE
  5
204
  8
0
  6
CONTINUOUS
 62
     7
 10
75.87535470545937
 20
217.0257657308657
 30
0.0
 11
75.85433922025948
 21
217.0209482457567
 31
0.0
  0
LINE
  5
205
  8
0
  6
CONTINUOUS
 62
     7
 10
75.85433922025948
 20
217.0209482457567
 30
0.0
 11
75.83313448021502
 21
217.017051140214
 31
0.0
  0
LINE
  5
206
  8
0
  6
CONTINUOUS
 62
     7
 10
75.83313448021502
 20
217.017051140214
 30
0.0
 11
75.81178013669566
 21
217.0140812664748
 31
0.0
  0
LINE
  5
207
  8
0
  6
CONTINUOUS
 62
     7
 10
75.81178013669566
 20
217.0140812664748
 30
0.0
 11
75.79015084215682
 21
217.0120335318515
 31
0.0
  0
LINE
  5
208
  8
0
  6
CONTINUOUS
 62
     7
 10
75.79015084215682
 20
217.0120335318515
 30
0.0
 11
75.76845248447465
 21
217.0109377565817
 31
0.0
  0
LINE
  5
209
  8
0
  6
CONTINUOUS
 62
     7
 10
76.26955583264451
 20
219.2408764648893
 30
0.0
 11
76.25447046457016
 21
217.5122645005462
 31
0.0
  0
LINE
  5
20A
  8
0
  6
CONTINUOUS
 62
     7
 10
74.23154751552535
 20
217.0109377565817
 30
0.0
 11
74.21099084210543
 21
217.0119525518866
 31
0.0
  0
LINE
  5
20B
  8
0
  6
CONTINUOUS
 62
     7
 10
74.21099084210543
 20
217.0119525518866
 30
0.0
 11
74.19048528144171
 21
217.0138224828883
 31
0.0
  0
LINE
  5
20C
  8
0
  6
CONTINUOUS
 62
     7
 10
74.19048528144171
 20
217.0138224828883
 30
0.0
 11
74.17008408272626
 21
217.0165424483457
 31
0.0
  0
LINE
  5
20D
  8
0
  6
CONTINUOUS
 62
     7
 10
74.17008408272626
 20
217.0165424483457
 30
0.0
 11
74.14948976459219
 21
217.0201738454918
 31
0.0
  0
LINE
  5
20E
  8
0
  6
CONTINUOUS
 62
     7
 10
74.14948976459219
 20
217.0201738454918
 30
0.0
 11
74.12906715261632
 21
217.0246716458777
 31
0.0
  0
LINE
  5
20F
  8
0
  6
CONTINUOUS
 62
     7
 10
74.12906715261632
 20
217.0246716458777
 30
0.0
 11
74.10856010327456
 21
217.0301123556364
 31
0.0
  0
LINE
  5
210
  8
0
  6
CONTINUOUS
 62
     7
 10
74.10856010327456
 20
217.0301123556364
 30
0.0
 11
74.08830458000199
 21
217.0364254072015
 31
0.0
  0
LINE
  5
211
  8
0
  6
CONTINUOUS
 62
     7
 10
74.08830458000199
 20
217.0364254072015
 30
0.0
 11
74.06824633533245
 21
217.0436341280198
 31
0.0
  0
LINE
  5
212
  8
0
  6
CONTINUOUS
 62
     7
 10
74.06824633533245
 20
217.0436341280198
 30
0.0
 11
74.04909968330129
 21
217.0514461026022
 31
0.0
  0
LINE
  5
213
  8
0
  6
CONTINUOUS
 62
     7
 10
74.04909968330129
 20
217.0514461026022
 30
0.0
 11
74.03027827858136
 21
217.0600552265551
 31
0.0
  0
LINE
  5
214
  8
0
  6
CONTINUOUS
 62
     7
 10
74.03027827858136
 20
217.0600552265551
 30
0.0
 11
74.0118299308311
 21
217.0694373298658
 31
0.0
  0
LINE
  5
215
  8
0
  6
CONTINUOUS
 62
     7
 10
74.0118299308311
 20
217.0694373298658
 30
0.0
 11
73.9938024497089
 21
217.0795682425216
 31
0.0
  0
LINE
  5
216
  8
0
  6
CONTINUOUS
 62
     7
 10
73.9938024497089
 20
217.0795682425216
 30
0.0
 11
73.97584027500966
 21
217.0906815609623
 31
0.0
  0
LINE
  5
217
  8
0
  6
CONTINUOUS
 62
     7
 10
73.97584027500966
 20
217.0906815609623
 30
0.0
 11
73.95834842478575
 21
217.1025550340161
 31
0.0
  0
LINE
  5
218
  8
0
  6
CONTINUOUS
 62
     7
 10
73.95834842478575
 20
217.1025550340161
 30
0.0
 11
73.94137224537184
 21
217.1151549388621
 31
0.0
  0
LINE
  5
219
  8
0
  6
CONTINUOUS
 62
     7
 10
73.94137224537184
 20
217.1151549388621
 30
0.0
 11
73.92495708310264
 21
217.1284475526798
 31
0.0
  0
LINE
  5
21A
  8
0
  6
CONTINUOUS
 62
     7
 10
73.92495708310264
 20
217.1284475526798
 30
0.0
 11
73.90942853269227
 21
217.1421356833785
 31
0.0
  0
LINE
  5
21B
  8
0
  6
CONTINUOUS
 62
     7
 10
73.90942853269227
 20
217.1421356833785
 30
0.0
 11
73.89447041411394
 21
217.1564577197657
 31
0.0
  0
LINE
  5
21C
  8
0
  6
CONTINUOUS
 62
     7
 10
73.89447041411394
 20
217.1564577197657
 30
0.0
 11
73.88011990241736
 21
217.1713763678518
 31
0.0
  0
LINE
  5
21D
  8
0
  6
CONTINUOUS
 62
     7
 10
73.88011990241736
 20
217.1713763678518
 30
0.0
 11
73.86618543150905
 21
217.1871195268415
 31
0.0
  0
LINE
  5
21E
  8
0
  6
CONTINUOUS
 62
     7
 10
73.86618543150905
 20
217.1871195268415
 30
0.0
 11
73.85291871378888
 21
217.2034293850068
 31
0.0
  0
LINE
  5
21F
  8
0
  6
CONTINUOUS
 62
     7
 10
73.85291871378888
 20
217.2034293850068
 30
0.0
 11
73.84016933742762
 21
217.2205196613233
 31
0.0
  0
LINE
  5
220
  8
0
  6
CONTINUOUS
 62
     7
 10
73.84016933742762
 20
217.2205196613233
 30
0.0
 11
73.82815106136727
 21
217.2381317575686
 31
0.0
  0
LINE
  5
221
  8
0
  6
CONTINUOUS
 62
     7
 10
73.82815106136727
 20
217.2381317575686
 30
0.0
 11
73.81683609077525
 21
217.2563159443038
 31
0.0
  0
LINE
  5
222
  8
0
  6
CONTINUOUS
 62
     7
 10
73.81683609077525
 20
217.2563159443038
 30
0.0
 11
73.80652899100289
 21
217.2745353015583
 31
0.0
  0
LINE
  5
223
  8
0
  6
CONTINUOUS
 62
     7
 10
73.80652899100289
 20
217.2745353015583
 30
0.0
 11
73.7969768253423
 21
217.2931715783559
 31
0.0
  0
LINE
  5
224
  8
0
  6
CONTINUOUS
 62
     7
 10
73.7969768253423
 20
217.2931715783559
 30
0.0
 11
73.78820299267437
 21
217.3121769241028
 31
0.0
  0
LINE
  5
225
  8
0
  6
CONTINUOUS
 62
     7
 10
73.78820299267437
 20
217.3121769241028
 30
0.0
 11
73.78009998307185
 21
217.3318330810372
 31
0.0
  0
LINE
  5
226
  8
0
  6
CONTINUOUS
 62
     7
 10
73.78009998307185
 20
217.3318330810372
 30
0.0
 11
73.77282358782428
 21
217.3518100141083
 31
0.0
  0
LINE
  5
227
  8
0
  6
CONTINUOUS
 62
     7
 10
73.77282358782428
 20
217.3518100141083
 30
0.0
 11
73.76630110075266
 21
217.3723625494582
 31
0.0
  0
LINE
  5
228
  8
0
  6
CONTINUOUS
 62
     7
 10
73.76630110075266
 20
217.3723625494582
 30
0.0
 11
73.76065198556743
 21
217.3931721020931
 31
0.0
  0
LINE
  5
229
  8
0
  6
CONTINUOUS
 62
     7
 10
73.76065198556743
 20
217.3931721020931
 30
0.0
 11
73.75586686678166
 21
217.414296337056
 31
0.0
  0
LINE
  5
22A
  8
0
  6
CONTINUOUS
 62
     7
 10
73.75586686678166
 20
217.414296337056
 30
0.0
 11
73.7515350984599
 21
217.4384312946065
 31
0.0
  0
LINE
  5
22B
  8
0
  6
CONTINUOUS
 62
     7
 10
73.7515350984599
 20
217.4384312946065
 30
0.0
 11
73.74835033747671
 21
217.4628882370675
 31
0.0
  0
LINE
  5
22C
  8
0
  6
CONTINUOUS
 62
     7
 10
73.74835033747671
 20
217.4628882370675
 30
0.0
 11
73.74634712114906
 21
217.487470185142
 31
0.0
  0
LINE
  5
22D
  8
0
  6
CONTINUOUS
 62
     7
 10
73.74634712114906
 20
217.487470185142
 30
0.0
 11
73.74552953542984
 21
217.5122645005462
 31
0.0
  0
LINE
  5
22E
  8
0
  6
CONTINUOUS
 62
     7
 10
73.74552953542984
 20
217.5122645005462
 30
0.0
 11
73.7304441673555
 21
219.2408764648893
 31
0.0
  0
ARC
  5
22F
  8
0
  6
CONTINUOUS
 62
     7
 10
75.00000000000001
 20
244.0
 30
0.0
 40
27.00000000000001
 50
268.3690729442571
 51
271.6309270557429
  0
ARC
  5
230
  8
0
  6
CONTINUOUS
 62
     7
 10
75.00000000000001
 20
244.0
 30
0.0
 40
27.0
 50
178.369072944257
 51
181.6309270557429
  0
LINE
  5
231
  8
0
  6
CONTINUOUS
 62
     7
 10
101.4877354994538
 20
245.2544704645701
 30
0.0
 11
101.5089065784972
 21
245.2538467357682
 31
0.0
  0
LINE
  5
232
  8
0
  6
CONTINUOUS
 62
     7
 10
101.5089065784972
 20
245.2538467357682
 30
0.0
 11
101.5300428198905
 21
245.2523475123391
 31
0.0
  0
LINE
  5
233
  8
0
  6
CONTINUOUS
 62
     7
 10
101.5300428198905
 20
245.2523475123391
 30
0.0
 11
101.5510899462421
 21
245.2499764847605
 31
0.0
  0
LINE
  5
234
  8
0
  6
CONTINUOUS
 62
     7
 10
101.5510899462421
 20
245.2499764847605
 30
0.0
 11
101.572352271551
 21
245.246676849277
 31
0.0
  0
LINE
  5
235
  8
0
  6
CONTINUOUS
 62
     7
 10
101.572352271551
 20
245.246676849277
 30
0.0
 11
101.5934570298129
 21
245.2424860278591
 31
0.0
  0
LINE
  5
236
  8
0
  6
CONTINUOUS
 62
     7
 10
101.5934570298129
 20
245.2424860278591
 30
0.0
 11
101.6146671260612
 21
245.2373303889879
 31
0.0
  0
LINE
  5
237
  8
0
  6
CONTINUOUS
 62
     7
 10
101.6146671260612
 20
245.2373303889879
 30
0.0
 11
101.635637662581
 21
245.231273577131
 31
0.0
  0
LINE
  5
238
  8
0
  6
CONTINUOUS
 62
     7
 10
101.635637662581
 20
245.231273577131
 30
0.0
 11
101.6564243536078
 21
245.2242913790016
 31
0.0
  0
LINE
  5
239
  8
0
  6
CONTINUOUS
 62
     7
 10
101.6564243536078
 20
245.2242913790016
 30
0.0
 11
101.6761995765829
 21
245.216703777489
 31
0.0
  0
LINE
  5
23A
  8
0
  6
CONTINUOUS
 62
     7
 10
101.6761995765829
 20
245.216703777489
 30
0.0
 11
101.6956508895033
 21
245.2082974936629
 31
0.0
  0
LINE
  5
23B
  8
0
  6
CONTINUOUS
 62
     7
 10
101.6956508895033
 20
245.2082974936629
 30
0.0
 11
101.7147274587341
 21
245.1990934870308
 31
0.0
  0
LINE
  5
23C
  8
0
  6
CONTINUOUS
 62
     7
 10
101.7147274587341
 20
245.1990934870308
 30
0.0
 11
101.7337008687877
 21
245.188934550232
 31
0.0
  0
LINE
  5
23D
  8
0
  6
CONTINUOUS
 62
     7
 10
101.7337008687877
 20
245.188934550232
 30
0.0
 11
101.7522268096019
 21
245.1779808704888
 31
0.0
  0
LINE
  5
23E
  8
0
  6
CONTINUOUS
 62
     7
 10
101.7522268096019
 20
245.1779808704888
 30
0.0
 11
101.7705319343687
 21
245.1660726308021
 31
0.0
  0
LINE
  5
23F
  8
0
  6
CONTINUOUS
 62
     7
 10
101.7705319343687
 20
245.1660726308021
 30
0.0
 11
101.7883067353132
 21
245.1533864420445
 31
0.0
  0
LINE
  5
240
  8
0
  6
CONTINUOUS
 62
     7
 10
101.7883067353132
 20
245.1533864420445
 30
0.0
 11
101.8055961782477
 21
245.1398796057896
 31
0.0
  0
LINE
  5
241
  8
0
  6
CONTINUOUS
 62
     7
 10
101.8055961782477
 20
245.1398796057896
 30
0.0
 11
101.821626573119
 21
245.1262172364185
 31
0.0
  0
LINE
  5
242
  8
0
  6
CONTINUOUS
 62
     7
 10
101.821626573119
 20
245.1262172364185
 30
0.0
 11
101.8370793509766
 21
245.1118912877959
 31
0.0
  0
LINE
  5
243
  8
0
  6
CONTINUOUS
 62
     7
 10
101.8370793509766
 20
245.1118912877959
 30
0.0
 11
101.8519131401
 21
245.096938363267
 31
0.0
  0
LINE
  5
244
  8
0
  6
CONTINUOUS
 62
     7
 10
101.8519131401
 20
245.096938363267
 30
0.0
 11
101.8663324521551
 21
245.0811180171786
 31
0.0
  0
LINE
  5
245
  8
0
  6
CONTINUOUS
 62
     7
 10
101.8663324521551
 20
245.0811180171786
 30
0.0
 11
101.8800643156708
 21
245.0646974505055
 31
0.0
  0
LINE
  5
246
  8
0
  6
CONTINUOUS
 62
     7
 10
101.8800643156708
 20
245.0646974505055
 30
0.0
 11
101.8932698588721
 21
245.0474486599441
 31
0.0
  0
LINE
  5
247
  8
0
  6
CONTINUOUS
 62
     7
 10
101.8932698588721
 20
245.0474486599441
 30
0.0
 11
101.9057146393933
 21
245.0296432191466
 31
0.0
  0
LINE
  5
248
  8
0
  6
CONTINUOUS
 62
     7
 10
101.9057146393933
 20
245.0296432191466
 30
0.0
 11
101.9174269326341
 21
245.0112253915866
 31
0.0
  0
LINE
  5
249
  8
0
  6
CONTINUOUS
 62
     7
 10
101.9174269326341
 20
245.0112253915866
 30
0.0
 11
101.9278893979541
 21
244.9930989918534
 31
0.0
  0
LINE
  5
24A
  8
0
  6
CONTINUOUS
 62
     7
 10
101.9278893979541
 20
244.9930989918534
 30
0.0
 11
101.9375900844308
 21
244.9745328353352
 31
0.0
  0
LINE
  5
24B
  8
0
  6
CONTINUOUS
 62
     7
 10
101.9375900844308
 20
244.9745328353352
 30
0.0
 11
101.9465034032044
 21
244.9555761772811
 31
0.0
  0
LINE
  5
24C
  8
0
  6
CONTINUOUS
 62
     7
 10
101.9465034032044
 20
244.9555761772811
 30
0.0
 11
101.9546037654155
 21
244.9362782729401
 31
0.0
  0
LINE
  5
24D
  8
0
  6
CONTINUOUS
 62
     7
 10
101.9546037654155
 20
244.9362782729401
 30
0.0
 11
101.9620156934369
 21
244.9162677468776
 31
0.0
  0
LINE
  5
24E
  8
0
  6
CONTINUOUS
 62
     7
 10
101.9620156934369
 20
244.9162677468776
 30
0.0
 11
101.9685639183989
 21
244.8959478032432
 31
0.0
  0
LINE
  5
24F
  8
0
  6
CONTINUOUS
 62
     7
 10
101.9685639183989
 20
244.8959478032432
 30
0.0
 11
101.974229488284
 21
244.875374583023
 31
0.0
  0
LINE
  5
250
  8
0
  6
CONTINUOUS
 62
     7
 10
101.974229488284
 20
244.875374583023
 30
0.0
 11
101.9790517542433
 21
244.8543392202595
 31
0.0
  0
LINE
  5
251
  8
0
  6
CONTINUOUS
 62
     7
 10
101.9790517542433
 20
244.8543392202595
 30
0.0
 11
101.9829553342002
 21
244.8330899945379
 31
0.0
  0
LINE
  5
252
  8
0
  6
CONTINUOUS
 62
     7
 10
101.9829553342002
 20
244.8330899945379
 30
0.0
 11
101.9859294488036
 21
244.8116804642272
 31
0.0
  0
LINE
  5
253
  8
0
  6
CONTINUOUS
 62
     7
 10
101.9859294488036
 20
244.8116804642272
 30
0.0
 11
101.9879651832217
 21
244.7901718053867
 31
0.0
  0
LINE
  5
254
  8
0
  6
CONTINUOUS
 62
     7
 10
101.9879651832217
 20
244.7901718053867
 30
0.0
 11
101.9890622434183
 21
244.7684524844746
 31
0.0
  0
LINE
  5
255
  8
0
  6
CONTINUOUS
 62
     7
 10
99.75912353511073
 20
245.2695558326445
 30
0.0
 11
101.4877354994538
 21
245.2544704645701
 31
0.0
  0
LINE
  5
256
  8
0
  6
CONTINUOUS
 62
     7
 10
48.01093775658176
 20
244.7684524844746
 30
0.0
 11
48.01194926188904
 21
244.7889704379766
 31
0.0
  0
LINE
  5
257
  8
0
  6
CONTINUOUS
 62
     7
 10
48.01194926188904
 20
244.7889704379766
 30
0.0
 11
48.0138120696647
 21
244.8094286787612
 31
0.0
  0
LINE
  5
258
  8
0
  6
CONTINUOUS
 62
     7
 10
48.0138120696647
 20
244.8094286787612
 30
0.0
 11
48.01654540560873
 21
244.8299337780766
 31
0.0
  0
LINE
  5
259
  8
0
  6
CONTINUOUS
 62
     7
 10
48.01654540560873
 20
244.8299337780766
 30
0.0
 11
48.02013335034876
 21
244.8503067284441
 31
0.0
  0
LINE
  5
25A
  8
0
  6
CONTINUOUS
 62
     7
 10
48.02013335034876
 20
244.8503067284441
 30
0.0
 11
48.02467639182959
 21
244.8709515270591
 31
0.0
  0
LINE
  5
25B
  8
0
  6
CONTINUOUS
 62
     7
 10
48.02467639182959
 20
244.8709515270591
 30
0.0
 11
48.03009594833585
 21
244.8913837497523
 31
0.0
  0
LINE
  5
25C
  8
0
  6
CONTINUOUS
 62
     7
 10
48.03009594833585
 20
244.8913837497523
 30
0.0
 11
48.03643185406823
 21
244.9117139705284
 31
0.0
  0
LINE
  5
25D
  8
0
  6
CONTINUOUS
 62
     7
 10
48.03643185406823
 20
244.9117139705284
 30
0.0
 11
48.04363412801981
 21
244.9317536646676
 31
0.0
  0
LINE
  5
25E
  8
0
  6
CONTINUOUS
 62
     7
 10
48.04363412801981
 20
244.9317536646676
 30
0.0
 11
48.05139058665493
 21
244.9507756825046
 31
0.0
  0
LINE
  5
25F
  8
0
  6
CONTINUOUS
 62
     7
 10
48.05139058665493
 20
244.9507756825046
 30
0.0
 11
48.05992615759437
 21
244.9694610873395
 31
0.0
  0
LINE
  5
260
  8
0
  6
CONTINUOUS
 62
     7
 10
48.05992615759437
 20
244.9694610873395
 30
0.0
 11
48.06939491832339
 21
244.9880906755336
 31
0.0
  0
LINE
  5
261
  8
0
  6
CONTINUOUS
 62
     7
 10
48.06939491832339
 20
244.9880906755336
 30
0.0
 11
48.07964571959
 21
245.0063227718971
 31
0.0
  0
LINE
  5
262
  8
0
  6
CONTINUOUS
 62
     7
 10
48.07964571959
 20
245.0063227718971
 30
0.0
 11
48.09064963500497
 21
245.0241105692425
 31
0.0
  0
LINE
  5
263
  8
0
  6
CONTINUOUS
 62
     7
 10
48.09064963500497
 20
245.0241105692425
 30
0.0
 11
48.10237773817904
 21
245.0414072603824
 31
0.0
  0
LINE
  5
264
  8
0
  6
CONTINUOUS
 62
     7
 10
48.10237773817904
 20
245.0414072603824
 30
0.0
 11
48.11505539243618
 21
245.0585019711461
 31
0.0
  0
LINE
  5
265
  8
0
  6
CONTINUOUS
 62
     7
 10
48.11505539243618
 20
245.0585019711461
 30
0.0
 11
48.12844755267979
 21
245.0750429168974
 31
0.0
  0
LINE
  5
266
  8
0
  6
CONTINUOUS
 62
     7
 10
48.12844755267979
 20
245.0750429168974
 30
0.0
 11
48.14210943303087
 21
245.0905436956238
 31
0.0
  0
LINE
  5
267
  8
0
  6
CONTINUOUS
 62
     7
 10
48.14210943303087
 20
245.0905436956238
 30
0.0
 11
48.15639700605298
 21
245.1054697488937
 31
0.0
  0
LINE
  5
268
  8
0
  6
CONTINUOUS
 62
     7
 10
48.15639700605298
 20
245.1054697488937
 30
0.0
 11
48.17138953571482
 21
245.1198920030231
 31
0.0
  0
LINE
  5
269
  8
0
  6
CONTINUOUS
 62
     7
 10
48.17138953571482
 20
245.1198920030231
 30
0.0
 11
48.18696452383816
 21
245.1336832254286
 31
0.0
  0
LINE
  5
26A
  8
0
  6
CONTINUOUS
 62
     7
 10
48.18696452383816
 20
245.1336832254286
 30
0.0
 11
48.20344433468013
 21
245.1470926884616
 31
0.0
  0
LINE
  5
26B
  8
0
  6
CONTINUOUS
 62
     7
 10
48.20344433468013
 20
245.1470926884616
 30
0.0
 11
48.22047316133056
 21
245.1597977145449
 31
0.0
  0
LINE
  5
26C
  8
0
  6
CONTINUOUS
 62
     7
 10
48.22047316133056
 20
245.1597977145449
 30
0.0
 11
48.23814786674314
 21
245.1718592024319
 31
0.0
  0
LINE
  5
26D
  8
0
  6
CONTINUOUS
 62
     7
 10
48.23814786674314
 20
245.1718592024319
 30
0.0
 11
48.25631594430382
 21
245.1831639092247
 31
0.0
  0
LINE
  5
26E
  8
0
  6
CONTINUOUS
 62
     7
 10
48.25631594430382
 20
245.1831639092247
 30
0.0
 11
48.27450101056814
 21
245.1934531444267
 31
0.0
  0
LINE
  5
26F
  8
0
  6
CONTINUOUS
 62
     7
 10
48.27450101056814
 20
245.1934531444267
 30
0.0
 11
48.2930937232551
 21
245.2029860674856
 31
0.0
  0
LINE
  5
270
  8
0
  6
CONTINUOUS
 62
     7
 10
48.2930937232551
 20
245.2029860674856
 30
0.0
 11
48.31219346892545
 21
245.2118040360603
 31
0.0
  0
LINE
  5
271
  8
0
  6
CONTINUOUS
 62
     7
 10
48.31219346892545
 20
245.2118040360603
 30
0.0
 11
48.33164110578642
 21
245.2198256821977
 31
0.0
  0
LINE
  5
272
  8
0
  6
CONTINUOUS
 62
     7
 10
48.33164110578642
 20
245.2198256821977
 30
0.0
 11
48.35182813378443
 21
245.2271823787561
 31
0.0
  0
LINE
  5
273
  8
0
  6
CONTINUOUS
 62
     7
 10
48.35182813378443
 20
245.2271823787561
 30
0.0
 11
48.37230697074368
 21
245.2336827484984
 31
0.0
  0
LINE
  5
274
  8
0
  6
CONTINUOUS
 62
     7
 10
48.37230697074368
 20
245.2336827484984
 30
0.0
 11
48.39319100383094
 21
245.2393525116248
 31
0.0
  0
LINE
  5
275
  8
0
  6
CONTINUOUS
 62
     7
 10
48.39319100383094
 20
245.2393525116248
 30
0.0
 11
48.41429633705607
 21
245.2441331332183
 31
0.0
  0
LINE
  5
276
  8
0
  6
CONTINUOUS
 62
     7
 10
48.41429633705607
 20
245.2441331332183
 30
0.0
 11
48.43845931406513
 21
245.2484689035307
 31
0.0
  0
LINE
  5
277
  8
0
  6
CONTINUOUS
 62
     7
 10
48.43845931406513
 20
245.2484689035307
 30
0.0
 11
48.46280242698244
 21
245.2516409164428
 31
0.0
  0
LINE
  5
278
  8
0
  6
CONTINUOUS
 62
     7
 10
48.46280242698244
 20
245.2516409164428
 30
0.0
 11
48.48749922373612
 21
245.2536541970524
 31
0.0
  0
LINE
  5
279
  8
0
  6
CONTINUOUS
 62
     7
 10
48.48749922373612
 20
245.2536541970524
 30
0.0
 11
48.51226450054619
 21
245.2544704645701
 31
0.0
  0
LINE
  5
27A
  8
0
  6
CONTINUOUS
 62
     7
 10
48.51226450054619
 20
245.2544704645701
 30
0.0
 11
50.24087646488928
 21
245.2695558326445
 31
0.0
  0
ARC
  5
27B
  8
0
  6
CONTINUOUS
 62
     7
 10
75.00000000000001
 20
244.0
 30
0.0
 40
27.0
 50
358.3690729442571
 51
1.630927055742802
  0
LINE
  5
27C
  8
0
  6
CONTINUOUS
 62
     7
 10
101.9890622434183
 20
243.2315475155253
 30
0.0
 11
101.9880474481134
 21
243.2109908421054
 31
0.0
  0
LINE
  5
27D
  8
0
  6
CONTINUOUS
 62
     7
 10
101.9880474481134
 20
243.2109908421054
 30
0.0
 11
101.9861775171117
 21
243.1904852814417
 31
0.0
  0
LINE
  5
27E
  8
0
  6
CONTINUOUS
 62
     7
 10
101.9861775171117
 20
243.1904852814417
 30
0.0
 11
101.9834575516543
 21
243.1700840827262
 31
0.0
  0
LINE
  5
27F
  8
0
  6
CONTINUOUS
 62
     7
 10
101.9834575516543
 20
243.1700840827262
 30
0.0
 11
101.9798261545082
 21
243.1494897645921
 31
0.0
  0
LINE
  5
280
  8
0
  6
CONTINUOUS
 62
     7
 10
101.9798261545082
 20
243.1494897645921
 30
0.0
 11
101.9753283541223
 21
243.1290671526163
 31
0.0
  0
LINE
  5
281
  8
0
  6
CONTINUOUS
 62
     7
 10
101.9753283541223
 20
243.1290671526163
 30
0.0
 11
101.9698876443636
 21
243.1085601032746
 31
0.0
  0
LINE
  5
282
  8
0
  6
CONTINUOUS
 62
     7
 10
101.9698876443636
 20
243.1085601032746
 30
0.0
 11
101.9635745927985
 21
243.088304580002
 31
0.0
  0
LINE
  5
283
  8
0
  6
CONTINUOUS
 62
     7
 10
101.9635745927985
 20
243.088304580002
 30
0.0
 11
101.9563658719802
 21
243.0682463353324
 31
0.0
  0
LINE
  5
284
  8
0
  6
CONTINUOUS
 62
     7
 10
101.9563658719802
 20
243.0682463353324
 30
0.0
 11
101.9485538973978
 21
243.0490996833013
 31
0.0
  0
LINE
  5
285
  8
0
  6
CONTINUOUS
 62
     7
 10
101.9485538973978
 20
243.0490996833013
 30
0.0
 11
101.9399447734449
 21
243.0302782785814
 31
0.0
  0
LINE
  5
286
  8
0
  6
CONTINUOUS
 62
     7
 10
101.9399447734449
 20
243.0302782785814
 30
0.0
 11
101.9305626701342
 21
243.0118299308311
 31
0.0
  0
LINE
  5
287
  8
0
  6
CONTINUOUS
 62
     7
 10
101.9305626701342
 20
243.0118299308311
 30
0.0
 11
101.9204317574784
 21
242.9938024497089
 31
0.0
  0
LINE
  5
288
  8
0
  6
CONTINUOUS
 62
     7
 10
101.9204317574784
 20
242.9938024497089
 30
0.0
 11
101.9093184390377
 21
242.9758402750097
 31
0.0
  0
LINE
  5
289
  8
0
  6
CONTINUOUS
 62
     7
 10
101.9093184390377
 20
242.9758402750097
 30
0.0
 11
101.8974449659839
 21
242.9583484247858
 31
0.0
  0
LINE
  5
28A
  8
0
  6
CONTINUOUS
 62
     7
 10
101.8974449659839
 20
242.9583484247858
 30
0.0
 11
101.8848450611379
 21
242.9413722453718
 31
0.0
  0
LINE
  5
28B
  8
0
  6
CONTINUOUS
 62
     7
 10
101.8848450611379
 20
242.9413722453718
 30
0.0
 11
101.8715524473202
 21
242.9249570831026
 31
0.0
  0
LINE
  5
28C
  8
0
  6
CONTINUOUS
 62
     7
 10
101.8715524473202
 20
242.9249570831026
 30
0.0
 11
101.8578643166215
 21
242.9094285326923
 31
0.0
  0
LINE
  5
28D
  8
0
  6
CONTINUOUS
 62
     7
 10
101.8578643166215
 20
242.9094285326923
 30
0.0
 11
101.8435422802343
 21
242.8944704141139
 31
0.0
  0
LINE
  5
28E
  8
0
  6
CONTINUOUS
 62
     7
 10
101.8435422802343
 20
242.8944704141139
 30
0.0
 11
101.8286236321482
 21
242.8801199024173
 31
0.0
  0
LINE
  5
28F
  8
0
  6
CONTINUOUS
 62
     7
 10
101.8286236321482
 20
242.8801199024173
 30
0.0
 11
101.8128804731584
 21
242.866185431509
 31
0.0
  0
LINE
  5
290
  8
0
  6
CONTINUOUS
 62
     7
 10
101.8128804731584
 20
242.866185431509
 30
0.0
 11
101.7965706149932
 21
242.8529187137889
 31
0.0
  0
LINE
  5
291
  8
0
  6
CONTINUOUS
 62
     7
 10
101.7965706149932
 20
242.8529187137889
 30
0.0
 11
101.7794803386767
 21
242.8401693374276
 31
0.0
  0
LINE
  5
292
  8
0
  6
CONTINUOUS
 62
     7
 10
101.7794803386767
 20
242.8401693374276
 30
0.0
 11
101.7618682424314
 21
242.8281510613673
 31
0.0
  0
LINE
  5
293
  8
0
  6
CONTINUOUS
 62
     7
 10
101.7618682424314
 20
242.8281510613673
 30
0.0
 11
101.7436840556962
 21
242.8168360907752
 31
0.0
  0
LINE
  5
294
  8
0
  6
CONTINUOUS
 62
     7
 10
101.7436840556962
 20
242.8168360907752
 30
0.0
 11
101.7254646984417
 21
242.8065289910029
 31
0.0
  0
LINE
  5
295
  8
0
  6
CONTINUOUS
 62
     7
 10
101.7254646984417
 20
242.8065289910029
 30
0.0
 11
101.7068284216441
 21
242.7969768253423
 31
0.0
  0
LINE
  5
296
  8
0
  6
CONTINUOUS
 62
     7
 10
101.7068284216441
 20
242.7969768253423
 30
0.0
 11
101.6878230758972
 21
242.7882029926744
 31
0.0
  0
LINE
  5
297
  8
0
  6
CONTINUOUS
 62
     7
 10
101.6878230758972
 20
242.7882029926744
 30
0.0
 11
101.6681669189628
 21
242.7800999830718
 31
0.0
  0
LINE
  5
298
  8
0
  6
CONTINUOUS
 62
     7
 10
101.6681669189628
 20
242.7800999830718
 30
0.0
 11
101.6481899858917
 21
242.7728235878243
 31
0.0
  0
LINE
  5
299
  8
0
  6
CONTINUOUS
 62
     7
 10
101.6481899858917
 20
242.7728235878243
 30
0.0
 11
101.6276374505418
 21
242.7663011007526
 31
0.0
  0
LINE
  5
29A
  8
0
  6
CONTINUOUS
 62
     7
 10
101.6276374505418
 20
242.7663011007526
 30
0.0
 11
101.6068278979069
 21
242.7606519855674
 31
0.0
  0
LINE
  5
29B
  8
0
  6
CONTINUOUS
 62
     7
 10
101.6068278979069
 20
242.7606519855674
 30
0.0
 11
101.5857036629439
 21
242.7558668667816
 31
0.0
  0
LINE
  5
29C
  8
0
  6
CONTINUOUS
 62
     7
 10
101.5857036629439
 20
242.7558668667816
 30
0.0
 11
101.5615687053935
 21
242.7515350984599
 31
0.0
  0
LINE
  5
29D
  8
0
  6
CONTINUOUS
 62
     7
 10
101.5615687053935
 20
242.7515350984599
 30
0.0
 11
101.5371117629325
 21
242.7483503374767
 31
0.0
  0
LINE
  5
29E
  8
0
  6
CONTINUOUS
 62
     7
 10
101.5371117629325
 20
242.7483503374767
 30
0.0
 11
101.512529814858
 21
242.746347121149
 31
0.0
  0
LINE
  5
29F
  8
0
  6
CONTINUOUS
 62
     7
 10
101.512529814858
 20
242.746347121149
 30
0.0
 11
101.4877354994538
 21
242.7455295354298
 31
0.0
  0
LINE
  5
2A0
  8
0
  6
CONTINUOUS
 62
     7
 10
101.4877354994538
 20
242.7455295354298
 30
0.0
 11
99.75912353511073
 21
242.7304441673555
 31
0.0
  0
LINE
  5
2A1
  8
0
  6
CONTINUOUS
 62
     7
 10
48.51226450054619
 20
242.7455295354298
 30
0.0
 11
48.49106911611857
 21
242.7461554105371
 31
0.0
  0
LINE
  5
2A2
  8
0
  6
CONTINUOUS
 62
     7
 10
48.49106911611857
 20
242.7461554105371
 30
0.0
 11
48.46989964967833
 21
242.7476599969943
 31
0.0
  0
LINE
  5
2A3
  8
0
  6
CONTINUOUS
 62
     7
 10
48.46989964967833
 20
242.7476599969943
 30
0.0
 11
48.44881050355222
 21
242.7500385089701
 31
0.0
  0
LINE
  5
2A4
  8
0
  6
CONTINUOUS
 62
     7
 10
48.44881050355222
 20
242.7500385089701
 30
0.0
 11
48.42785608006697
 21
242.7532861606334
 31
0.0
  0
LINE
  5
2A5
  8
0
  6
CONTINUOUS
 62
     7
 10
48.42785608006697
 20
242.7532861606334
 30
0.0
 11
48.40645587509015
 21
242.7575351094721
 31
0.0
  0
LINE
  5
2A6
  8
0
  6
CONTINUOUS
 62
     7
 10
48.40645587509015
 20
242.7575351094721
 30
0.0
 11
48.38523714315542
 21
242.7626983024381
 31
0.0
  0
LINE
  5
2A7
  8
0
  6
CONTINUOUS
 62
     7
 10
48.38523714315542
 20
242.7626983024381
 30
0.0
 11
48.36425777125778
 21
242.768761039593
 31
0.0
  0
LINE
  5
2A8
  8
0
  6
CONTINUOUS
 62
     7
 10
48.36425777125778
 20
242.768761039593
 30
0.0
 11
48.34357564639225
 21
242.7757086209984
 31
0.0
  0
LINE
  5
2A9
  8
0
  6
CONTINUOUS
 62
     7
 10
48.34357564639225
 20
242.7757086209984
 30
0.0
 11
48.32377792997318
 21
242.7833064195124
 31
0.0
  0
LINE
  5
2AA
  8
0
  6
CONTINUOUS
 62
     7
 10
48.32377792997318
 20
242.7833064195124
 30
0.0
 11
48.30429667795457
 21
242.7917289768972
 31
0.0
  0
LINE
  5
2AB
  8
0
  6
CONTINUOUS
 62
     7
 10
48.30429667795457
 20
242.7917289768972
 30
0.0
 11
48.28518252710147
 21
242.8009542005873
 31
0.0
  0
LINE
  5
2AC
  8
0
  6
CONTINUOUS
 62
     7
 10
48.28518252710147
 20
242.8009542005873
 30
0.0
 11
48.26648611417888
 21
242.8109599980172
 31
0.0
  0
LINE
  5
2AD
  8
0
  6
CONTINUOUS
 62
     7
 10
48.26648611417888
 20
242.8109599980172
 30
0.0
 11
48.247696656179
 21
242.8220689071278
 31
0.0
  0
LINE
  5
2AE
  8
0
  6
CONTINUOUS
 62
     7
 10
48.247696656179
 20
242.8220689071278
 30
0.0
 11
48.22938577770665
 21
242.8339874092503
 31
0.0
  0
LINE
  5
2AF
  8
0
  6
CONTINUOUS
 62
     7
 10
48.22938577770665
 20
242.8339874092503
 30
0.0
 11
48.21160449436378
 21
242.8466823048046
 31
0.0
  0
LINE
  5
2B0
  8
0
  6
CONTINUOUS
 62
     7
 10
48.21160449436378
 20
242.8466823048046
 30
0.0
 11
48.1944038217523
 21
242.8601203942104
 31
0.0
  0
LINE
  5
2B1
  8
0
  6
CONTINUOUS
 62
     7
 10
48.1944038217523
 20
242.8601203942104
 30
0.0
 11
48.17835553405501
 21
242.8737999733643
 31
0.0
  0
LINE
  5
2B2
  8
0
  6
CONTINUOUS
 62
     7
 10
48.17835553405501
 20
242.8737999733643
 30
0.0
 11
48.16287985104517
 21
242.8881514007795
 31
0.0
  0
LINE
  5
2B3
  8
0
  6
CONTINUOUS
 62
     7
 10
48.16287985104517
 20
242.8881514007795
 30
0.0
 11
48.14801757281754
 21
242.9031370179962
 31
0.0
  0
LINE
  5
2B4
  8
0
  6
CONTINUOUS
 62
     7
 10
48.14801757281754
 20
242.9031370179962
 30
0.0
 11
48.13380949946686
 21
242.9187191665545
 31
0.0
  0
LINE
  5
2B5
  8
0
  6
CONTINUOUS
 62
     7
 10
48.13380949946686
 20
242.9187191665545
 30
0.0
 11
48.11987977840118
 21
242.9353756084876
 31
0.0
  0
LINE
  5
2B6
  8
0
  6
CONTINUOUS
 62
     7
 10
48.11987977840118
 20
242.9353756084876
 30
0.0
 11
48.10667226724378
 21
242.9526361211013
 31
0.0
  0
LINE
  5
2B7
  8
0
  6
CONTINUOUS
 62
     7
 10
48.10667226724378
 20
242.9526361211013
 30
0.0
 11
48.09422426417269
 21
242.9704520169063
 31
0.0
  0
LINE
  5
2B8
  8
0
  6
CONTINUOUS
 62
     7
 10
48.09422426417269
 20
242.9704520169063
 30
0.0
 11
48.08257306736595
 21
242.9887746084134
 31
0.0
  0
LINE
  5
2B9
  8
0
  6
CONTINUOUS
 62
     7
 10
48.08257306736595
 20
242.9887746084134
 30
0.0
 11
48.07214799174056
 21
243.0068329416332
 31
0.0
  0
LINE
  5
2BA
  8
0
  6
CONTINUOUS
 62
     7
 10
48.07214799174056
 20
243.0068329416332
 30
0.0
 11
48.06247901199153
 21
243.0253278299247
 31
0.0
  0
LINE
  5
2BB
  8
0
  6
CONTINUOUS
 62
     7
 10
48.06247901199153
 20
243.0253278299247
 30
0.0
 11
48.05359144855409
 21
243.0442105730721
 31
0.0
  0
LINE
  5
2BC
  8
0
  6
CONTINUOUS
 62
     7
 10
48.05359144855409
 20
243.0442105730721
 30
0.0
 11
48.04551062186351
 21
243.0634324708592
 31
0.0
  0
LINE
  5
2BD
  8
0
  6
CONTINUOUS
 62
     7
 10
48.04551062186351
 20
243.0634324708592
 30
0.0
 11
48.03804443463268
 21
243.083562134611
 31
0.0
  0
LINE
  5
2BE
  8
0
  6
CONTINUOUS
 62
     7
 10
48.03804443463268
 20
243.083562134611
 30
0.0
 11
48.03144995073038
 21
243.1040151716612
 31
0.0
  0
LINE
  5
2BF
  8
0
  6
CONTINUOUS
 62
     7
 10
48.03144995073038
 20
243.1040151716612
 30
0.0
 11
48.02574520836797
 21
243.1247339355307
 31
0.0
  0
LINE
  5
2C0
  8
0
  6
CONTINUOUS
 62
     7
 10
48.02574520836797
 20
243.1247339355307
 30
0.0
 11
48.02094824575676
 21
243.1456607797405
 31
0.0
  0
LINE
  5
2C1
  8
0
  6
CONTINUOUS
 62
     7
 10
48.02094824575676
 20
243.1456607797405
 30
0.0
 11
48.01704139981961
 21
243.1669375723598
 31
0.0
  0
LINE
  5
2C2
  8
0
  6
CONTINUOUS
 62
     7
 10
48.01704139981961
 20
243.1669375723598
 30
0.0
 11
48.01406567724661
 21
243.1883853785983
 31
0.0
  0
LINE
  5
2C3
  8
0
  6
CONTINUOUS
 62
     7
 10
48.01406567724661
 20
243.1883853785983
 30
0.0
 11
48.01202861663494
 21
243.2099425693542
 31
0.0
  0
LINE
  5
2C4
  8
0
  6
CONTINUOUS
 62
     7
 10
48.01202861663494
 20
243.2099425693542
 30
0.0
 11
48.01093775658176
 21
243.2315475155254
 31
0.0
  0
LINE
  5
2C5
  8
0
  6
CONTINUOUS
 62
     7
 10
50.24087646488928
 20
242.7304441673555
 30
0.0
 11
48.51226450054619
 21
242.7455295354298
 31
0.0
  0
ARC
  5
2C6
  8
0
  6
CONTINUOUS
 62
     7
 10
75.00000000000001
 20
244.0
 30
0.0
 40
26.99999999999999
 50
88.36907294425703
 51
91.6309270557428
  0
LINE
  5
2C7
  8
0
  6
CONTINUOUS
 62
     7
 10
75.76845248447465
 20
270.9890622434182
 30
0.0
 11
75.78903298125304
 21
270.9880448155906
 31
0.0
  0
LINE
  5
2C8
  8
0
  6
CONTINUOUS
 62
     7
 10
75.78903298125304
 20
270.9880448155906
 30
0.0
 11
75.80957105171144
 21
270.9861688843124
 31
0.0
  0
LINE
  5
2C9
  8
0
  6
CONTINUOUS
 62
     7
 10
75.80957105171144
 20
270.9861688843124
 30
0.0
 11
75.83001339954382
 21
270.9834407341453
 31
0.0
  0
LINE
  5
2CA
  8
0
  6
CONTINUOUS
 62
     7
 10
75.83001339954382
 20
270.9834407341453
 30
0.0
 11
75.85030672844417
 21
270.9798666496512
 31
0.0
  0
LINE
  5
2CB
  8
0
  6
CONTINUOUS
 62
     7
 10
75.85030672844417
 20
270.9798666496512
 30
0.0
 11
75.8710173629888
 21
270.9753058900491
 31
0.0
  0
LINE
  5
2CC
  8
0
  6
CONTINUOUS
 62
     7
 10
75.8710173629888
 20
270.9753058900491
 30
0.0
 11
75.89153255887398
 21
270.9698576076819
 31
0.0
  0
LINE
  5
2CD
  8
0
  6
CONTINUOUS
 62
     7
 10
75.89153255887398
 20
270.9698576076819
 30
0.0
 11
75.91179657360009
 21
270.9635386518816
 31
0.0
  0
LINE
  5
2CE
  8
0
  6
CONTINUOUS
 62
     7
 10
75.91179657360009
 20
270.9635386518816
 30
0.0
 11
75.93175366466755
 21
270.9563658719802
 31
0.0
  0
LINE
  5
2CF
  8
0
  6
CONTINUOUS
 62
     7
 10
75.93175366466755
 20
270.9563658719802
 30
0.0
 11
75.95083201520289
 21
270.9485834511627
 31
0.0
  0
LINE
  5
2D0
  8
0
  6
CONTINUOUS
 62
     7
 10
75.95083201520289
 20
270.9485834511627
 30
0.0
 11
75.96958751493662
 21
270.9400095832441
 31
0.0
  0
LINE
  5
2D1
  8
0
  6
CONTINUOUS
 62
     7
 10
75.96958751493662
 20
270.9400095832441
 30
0.0
 11
75.98797286021521
 21
270.9306681641892
 31
0.0
  0
LINE
  5
2D2
  8
0
  6
CONTINUOUS
 62
     7
 10
75.98797286021521
 20
270.9306681641892
 30
0.0
 11
76.00594074738503
 21
270.9205830899622
 31
0.0
  0
LINE
  5
2D3
  8
0
  6
CONTINUOUS
 62
     7
 10
76.00594074738503
 20
270.9205830899622
 30
0.0
 11
76.02397200786206
 21
270.9094400334283
 31
0.0
  0
LINE
  5
2D4
  8
0
  6
CONTINUOUS
 62
     7
 10
76.02397200786206
 20
270.9094400334283
 30
0.0
 11
76.04153001518516
 21
270.8975311960601
 31
0.0
  0
LINE
  5
2D5
  8
0
  6
CONTINUOUS
 62
     7
 10
76.04153001518516
 20
270.8975311960601
 30
0.0
 11
76.05856893098628
 21
270.8848906449825
 31
0.0
  0
LINE
  5
2D6
  8
0
  6
CONTINUOUS
 62
     7
 10
76.05856893098628
 20
270.8848906449825
 30
0.0
 11
76.07504291689739
 21
270.8715524473202
 31
0.0
  0
LINE
  5
2D7
  8
0
  6
CONTINUOUS
 62
     7
 10
76.07504291689739
 20
270.8715524473202
 30
0.0
 11
76.09058817435124
 21
270.8578477353815
 31
0.0
  0
LINE
  5
2D8
  8
0
  6
CONTINUOUS
 62
     7
 10
76.09058817435124
 20
270.8578477353815
 30
0.0
 11
76.10556762657944
 21
270.8435012477747
 31
0.0
  0
LINE
  5
2D9
  8
0
  6
CONTINUOUS
 62
     7
 10
76.10556762657944
 20
270.8435012477747
 30
0.0
 11
76.11994480109941
 21
270.8285511171511
 31
0.0
  0
LINE
  5
2DA
  8
0
  6
CONTINUOUS
 62
     7
 10
76.11994480109941
 20
270.8285511171511
 30
0.0
 11
76.1336832254286
 21
270.8130354761618
 31
0.0
  0
LINE
  5
2DB
  8
0
  6
CONTINUOUS
 62
     7
 10
76.1336832254286
 20
270.8130354761618
 30
0.0
 11
76.14713224566061
 21
270.796502326124
 31
0.0
  0
LINE
  5
2DC
  8
0
  6
CONTINUOUS
 62
     7
 10
76.14713224566061
 20
270.796502326124
 30
0.0
 11
76.15988331991726
 21
270.7794014392688
 31
0.0
  0
LINE
  5
2DD
  8
0
  6
CONTINUOUS
 62
     7
 10
76.15988331991726
 20
270.7794014392688
 30
0.0
 11
76.1719045178786
 21
270.7617797157437
 31
0.0
  0
LINE
  5
2DE
  8
0
  6
CONTINUOUS
 62
     7
 10
76.1719045178786
 20
270.7617797157437
 30
0.0
 11
76.18316390922476
 21
270.7436840556961
 31
0.0
  0
LINE
  5
2DF
  8
0
  6
CONTINUOUS
 62
     7
 10
76.18316390922476
 20
270.7436840556961
 30
0.0
 11
76.19348150594193
 21
270.7254433093619
 31
0.0
  0
LINE
  5
2E0
  8
0
  6
CONTINUOUS
 62
     7
 10
76.19348150594193
 20
270.7254433093619
 30
0.0
 11
76.20304599239462
 21
270.7067765825503
 31
0.0
  0
LINE
  5
2E1
  8
0
  6
CONTINUOUS
 62
     7
 10
76.20304599239462
 20
270.7067765825503
 30
0.0
 11
76.21183488050559
 21
270.6877323019411
 31
0.0
  0
LINE
  5
2E2
  8
0
  6
CONTINUOUS
 62
     7
 10
76.21183488050559
 20
270.6877323019411
 30
0.0
 11
76.2198256821977
 21
270.6683588942136
 31
0.0
  0
LINE
  5
2E3
  8
0
  6
CONTINUOUS
 62
     7
 10
76.2198256821977
 20
270.6683588942136
 30
0.0
 11
76.22720262045584
 21
270.6481075120683
 31
0.0
  0
LINE
  5
2E4
  8
0
  6
CONTINUOUS
 62
     7
 10
76.22720262045584
 20
270.6481075120683
 30
0.0
 11
76.23372322391597
 21
270.6275441883377
 31
0.0
  0
LINE
  5
2E5
  8
0
  6
CONTINUOUS
 62
     7
 10
76.23372322391597
 20
270.6275441883377
 30
0.0
 11
76.23937191927213
 21
270.6067244097275
 31
0.0
  0
LINE
  5
2E6
  8
0
  6
CONTINUOUS
 62
     7
 10
76.23937191927213
 20
270.6067244097275
 30
0.0
 11
76.24413313321836
 21
270.5857036629439
 31
0.0
  0
LINE
  5
2E7
  8
0
  6
CONTINUOUS
 62
     7
 10
76.24413313321836
 20
270.5857036629439
 30
0.0
 11
76.24848159993616
 21
270.5614409439007
 31
0.0
  0
LINE
  5
2E8
  8
0
  6
CONTINUOUS
 62
     7
 10
76.24848159993616
 20
270.5614409439007
 30
0.0
 11
76.25165972311208
 21
270.5369684330493
 31
0.0
  0
LINE
  5
2E9
  8
0
  6
CONTINUOUS
 62
     7
 10
76.25165972311208
 20
270.5369684330493
 30
0.0
 11
76.25365888417909
 21
270.5123714962727
 31
0.0
  0
LINE
  5
2EA
  8
0
  6
CONTINUOUS
 62
     7
 10
76.25365888417909
 20
270.5123714962727
 30
0.0
 11
76.25447046457018
 21
270.4877354994538
 31
0.0
  0
LINE
  5
2EB
  8
0
  6
CONTINUOUS
 62
     7
 10
76.25447046457018
 20
270.4877354994538
 30
0.0
 11
76.26955583264453
 21
268.7591235351107
 31
0.0
  0
LINE
  5
2EC
  8
0
  6
CONTINUOUS
 62
     7
 10
73.74552953542984
 20
270.4877354994538
 30
0.0
 11
73.74615073530515
 21
270.5088671303256
 31
0.0
  0
LINE
  5
2ED
  8
0
  6
CONTINUOUS
 62
     7
 10
73.74615073530515
 20
270.5088671303256
 30
0.0
 11
73.74764370917173
 21
270.5299551051
 31
0.0
  0
LINE
  5
2EE
  8
0
  6
CONTINUOUS
 62
     7
 10
73.74764370917173
 20
270.5299551051
 30
0.0
 11
73.75002614511004
 21
270.5511081997568
 31
0.0
  0
LINE
  5
2EF
  8
0
  6
CONTINUOUS
 62
     7
 10
73.75002614511004
 20
270.5511081997568
 30
0.0
 11
73.75328616063338
 21
270.5721439199331
 31
0.0
  0
LINE
  5
2F0
  8
0
  6
CONTINUOUS
 62
     7
 10
73.75328616063338
 20
270.5721439199331
 30
0.0
 11
73.75751841666437
 21
270.5934762280549
 31
0.0
  0
LINE
  5
2F1
  8
0
  6
CONTINUOUS
 62
     7
 10
73.75751841666437
 20
270.5934762280549
 30
0.0
 11
73.76265401473732
 21
270.6146092506588
 31
0.0
  0
LINE
  5
2F2
  8
0
  6
CONTINUOUS
 62
     7
 10
73.76265401473732
 20
270.6146092506588
 30
0.0
 11
73.76873264534464
 21
270.6356568829047
 31
0.0
  0
LINE
  5
2F3
  8
0
  6
CONTINUOUS
 62
     7
 10
73.76873264534464
 20
270.6356568829047
 30
0.0
 11
73.7757086209984
 21
270.6564243536077
 31
0.0
  0
LINE
  5
2F4
  8
0
  6
CONTINUOUS
 62
     7
 10
73.7757086209984
 20
270.6564243536077
 30
0.0
 11
73.78328061411523
 21
270.6761627825363
 31
0.0
  0
LINE
  5
2F5
  8
0
  6
CONTINUOUS
 62
     7
 10
73.78328061411523
 20
270.6761627825363
 30
0.0
 11
73.79166478331217
 21
270.6955701482907
 31
0.0
  0
LINE
  5
2F6
  8
0
  6
CONTINUOUS
 62
     7
 10
73.79166478331217
 20
270.6955701482907
 30
0.0
 11
73.80091515465372
 21
270.7147440284451
 31
0.0
  0
LINE
  5
2F7
  8
0
  6
CONTINUOUS
 62
     7
 10
73.80091515465372
 20
270.7147440284451
 30
0.0
 11
73.81095999801724
 21
270.7335138858211
 31
0.0
  0
LINE
  5
2F8
  8
0
  6
CONTINUOUS
 62
     7
 10
73.81095999801724
 20
270.7335138858211
 30
0.0
 11
73.82202987807874
 21
270.7522437342723
 31
0.0
  0
LINE
  5
2F9
  8
0
  6
CONTINUOUS
 62
     7
 10
73.82202987807874
 20
270.7522437342723
 30
0.0
 11
73.8338928007126
 21
270.7704816001739
 31
0.0
  0
LINE
  5
2FA
  8
0
  6
CONTINUOUS
 62
     7
 10
73.8338928007126
 20
270.7704816001739
 30
0.0
 11
73.8466260726794
 21
270.7883231212399
 31
0.0
  0
LINE
  5
2FB
  8
0
  6
CONTINUOUS
 62
     7
 10
73.8466260726794
 20
270.7883231212399
 30
0.0
 11
73.86012039421043
 21
270.8055961782478
 31
0.0
  0
LINE
  5
2FC
  8
0
  6
CONTINUOUS
 62
     7
 10
73.86012039421043
 20
270.8055961782478
 30
0.0
 11
73.87375565501904
 21
270.8215969449494
 31
0.0
  0
LINE
  5
2FD
  8
0
  6
CONTINUOUS
 62
     7
 10
73.87375565501904
 20
270.8215969449494
 30
0.0
 11
73.88804593355663
 21
270.8370155073738
 31
0.0
  0
LINE
  5
2FE
  8
0
  6
CONTINUOUS
 62
     7
 10
73.88804593355663
 20
270.8370155073738
 30
0.0
 11
73.90307539094057
 21
270.8519259502039
 31
0.0
  0
LINE
  5
2FF
  8
0
  6
CONTINUOUS
 62
     7
 10
73.90307539094057
 20
270.8519259502039
 30
0.0
 11
73.9187191665545
 21
270.8661905005331
 31
0.0
  0
LINE
  5
300
  8
0
  6
CONTINUOUS
 62
     7
 10
73.9187191665545
 20
270.8661905005331
 30
0.0
 11
73.93531845305867
 21
270.8800767671547
 31
0.0
  0
LINE
  5
301
  8
0
  6
CONTINUOUS
 62
     7
 10
73.93531845305867
 20
270.8800767671547
 30
0.0
 11
73.9525015540369
 21
270.8932337003615
 31
0.0
  0
LINE
  5
302
  8
0
  6
CONTINUOUS
 62
     7
 10
73.9525015540369
 20
270.8932337003615
 30
0.0
 11
73.97037419495796
 21
270.9057259804108
 31
0.0
  0
LINE
  5
303
  8
0
  6
CONTINUOUS
 62
     7
 10
73.97037419495796
 20
270.9057259804108
 30
0.0
 11
73.98877460841341
 21
270.917426932634
 31
0.0
  0
LINE
  5
304
  8
0
  6
CONTINUOUS
 62
     7
 10
73.98877460841341
 20
270.917426932634
 30
0.0
 11
74.0067759127728
 21
270.9278224236692
 31
0.0
  0
LINE
  5
305
  8
0
  6
CONTINUOUS
 62
     7
 10
74.0067759127728
 20
270.9278224236692
 30
0.0
 11
74.02519491441778
 21
270.9374584471294
 31
0.0
  0
LINE
  5
306
  8
0
  6
CONTINUOUS
 62
     7
 10
74.02519491441778
 20
270.9374584471294
 30
0.0
 11
74.04433879058175
 21
270.9464654790241
 31
0.0
  0
LINE
  5
307
  8
0
  6
CONTINUOUS
 62
     7
 10
74.04433879058175
 20
270.9464654790241
 30
0.0
 11
74.06386628622268
 21
270.9546572752421
 31
0.0
  0
LINE
  5
308
  8
0
  6
CONTINUOUS
 62
     7
 10
74.06386628622268
 20
270.9546572752421
 30
0.0
 11
74.08372418127868
 21
270.9620118350633
 31
0.0
  0
LINE
  5
309
  8
0
  6
CONTINUOUS
 62
     7
 10
74.08372418127868
 20
270.9620118350633
 30
0.0
 11
74.10385925568791
 21
270.968507157768
 31
0.0
  0
LINE
  5
30A
  8
0
  6
CONTINUOUS
 62
     7
 10
74.10385925568791
 20
270.968507157768
 30
0.0
 11
74.12464529454064
 21
270.9742342691343
 31
0.0
  0
LINE
  5
30B
  8
0
  6
CONTINUOUS
 62
     7
 10
74.12464529454064
 20
270.9742342691343
 30
0.0
 11
74.14566077974054
 21
270.9790517542432
 31
0.0
  0
LINE
  5
30C
  8
0
  6
CONTINUOUS
 62
     7
 10
74.14566077974054
 20
270.9790517542432
 30
0.0
 11
74.16686551978499
 21
270.982948859786
 31
0.0
  0
LINE
  5
30D
  8
0
  6
CONTINUOUS
 62
     7
 10
74.16686551978499
 20
270.982948859786
 30
0.0
 11
74.18821986330435
 21
270.9859187335252
 31
0.0
  0
LINE
  5
30E
  8
0
  6
CONTINUOUS
 62
     7
 10
74.18821986330435
 20
270.9859187335252
 30
0.0
 11
74.20984915784321
 21
270.9879664681485
 31
0.0
  0
LINE
  5
30F
  8
0
  6
CONTINUOUS
 62
     7
 10
74.20984915784321
 20
270.9879664681485
 30
0.0
 11
74.23154751552536
 21
270.9890622434182
 31
0.0
  0
LINE
  5
310
  8
0
  6
CONTINUOUS
 62
     7
 10
73.7304441673555
 20
268.7591235351107
 30
0.0
 11
73.74552953542984
 21
270.4877354994538
 31
0.0
  0
LINE
  5
311
  8
0
  6
CONTINUOUS
 62
     7
 10
52.80102449206492
 20
236.2892616178411
 30
0.0
 11
53.01049928190763
 21
235.7107383821589
 31
0.0
  0
LINE
  5
312
  8
0
  6
CONTINUOUS
 62
     7
 10
97.1989755079351
 20
251.7107383821588
 30
0.0
 11
96.9895007180924
 21
252.2892616178412
 31
0.0
  0
LINE
  5
313
  8
0
  6
CONTINUOUS
 62
     7
 10
53.33343589767865
 20
234.9
 30
0.0
 11
53.8767900166665
 21
234.9
 31
0.0
  0
ARC
  5
314
  8
0
  6
CONTINUOUS
 62
     7
 10
75.00000000000001
 20
244.0
 30
0.0
 40
23.50000000000002
 50
200.6546631110186
 51
202.7825025633875
  0
LINE
  5
315
  8
0
  6
CONTINUOUS
 62
     7
 10
52.53580626864166
 20
237.1
 30
0.0
 11
53.05939836741026
 21
237.1
 31
0.0
  0
ARC
  5
316
  8
0
  6
CONTINUOUS
 62
     7
 10
75.00000000000001
 20
244.0
 30
0.0
 40
23.50000000000001
 50
197.0746264321848
 51
199.1544961476084
  0
LINE
  5
317
  8
0
  6
CONTINUOUS
 62
     7
 10
97.46419373135836
 20
250.9
 30
0.0
 11
96.94060163258976
 21
250.9
 31
0.0
  0
ARC
  5
318
  8
0
  6
CONTINUOUS
 62
     7
 10
75.00000000000001
 20
244.0
 30
0.0
 40
23.50000000000002
 50
17.07462643218484
 51
19.15449614760833
  0
LINE
  5
319
  8
0
  6
CONTINUOUS
 62
     7
 10
96.66656410232137
 20
253.1
 30
0.0
 11
96.12320998333352
 21
253.1
 31
0.0
  0
ARC
  5
31A
  8
0
  6
CONTINUOUS
 62
     7
 10
75.00000000000001
 20
244.0
 30
0.0
 40
23.5
 50
20.65466311101866
 51
22.78250256338755
  0
ARC
  5
31B
  8
0
  6
CONTINUOUS
 62
     7
 10
75.00000000000001
 20
244.0
 30
0.0
 40
27.5
 50
90.0
 51
270.0
  0
ARC
  5
31C
  8
0
  6
CONTINUOUS
 62
     7
 10
75.00000000000001
 20
244.0
 30
0.0
 40
27.49999999999997
 50
270.0
 51
90.0
  0
LINE
  5
31D
  8
0
  6
CONTINUOUS
 62
     7
 10
102.5
 20
176.5337967401673
 30
0.0
 11
47.50000000000001
 21
176.5337967401673
 31
0.0
  0
LINE
  5
31E
  8
0
  6
CONTINUOUS
 62
     7
 10
102.5
 20
178.5337967401673
 30
0.0
 11
47.50000000000001
 21
178.5337967401673
 31
0.0
  0
LINE
  5
31F
  8
0
  6
CONTINUOUS
 62
     7
 10
74.08292428320509
 20
205.5337967401673
 30
0.0
 11
75.91707571679494
 21
205.5337967401673
 31
0.0
  0
LINE
  5
320
  8
0
  6
CONTINUOUS
 62
     7
 10
73.50003807766079
 20
195.5381600079164
 30
0.0
 11
73.50091091509414
 21
195.6381772711865
 31
0.0
  0
LINE
  5
321
  8
0
  6
CONTINUOUS
 62
     7
 10
73.50091091509414
 20
195.6381772711865
 30
0.0
 11
73.582943321673
 21
205.0381600079165
 31
0.0
  0
ARC
  5
322
  8
0
  6
CONTINUOUS
 62
     7
 10
74.08292428320509
 20
205.0337967401673
 30
0.0
 40
0.5000000000000016
 50
90.0
 51
179.4999999999994
  0
ARC
  5
323
  8
0
  6
CONTINUOUS
 62
     7
 10
75.91707571679493
 20
205.0337967401673
 30
0.0
 40
0.5000000000000004
 50
0.5000000000004547
 51
90.0
  0
LINE
  5
324
  8
0
  6
CONTINUOUS
 62
     7
 10
76.41705667832701
 20
205.0381600079165
 30
0.0
 11
76.49908919858983
 21
195.6381642442952
 31
0.0
  0
LINE
  5
325
  8
0
  6
CONTINUOUS
 62
     7
 10
76.49908919858983
 20
195.6381642442952
 30
0.0
 11
76.49996192233922
 21
195.5381600079164
 31
0.0
  0
LINE
  5
326
  8
0
  6
CONTINUOUS
 62
     7
 10
97.46525094451428
 20
195.5337967401673
 30
0.0
 11
97.48749574721266
 21
195.5333031804507
 31
0.0
  0
LINE
  5
327
  8
0
  6
CONTINUOUS
 62
     7
 10
97.98707012787548
 20
195.0337967401673
 30
0.0
 11
97.98695240119909
 21
195.0369905661334
 31
0.0
  0
LINE
  5
328
  8
0
  6
CONTINUOUS
 62
     7
 10
97.98695240119909
 20
195.0369905661334
 30
0.0
 11
97.9845920720436
 21
195.0692656145389
 31
0.0
  0
LINE
  5
329
  8
0
  6
CONTINUOUS
 62
     7
 10
97.9845920720436
 20
195.0692656145389
 30
0.0
 11
97.9800869745418
 21
195.101536106756
 31
0.0
  0
LINE
  5
32A
  8
0
  6
CONTINUOUS
 62
     7
 10
97.9800869745418
 20
195.101536106756
 30
0.0
 11
97.97340755528475
 21
195.1337505752425
 31
0.0
  0
LINE
  5
32B
  8
0
  6
CONTINUOUS
 62
     7
 10
97.97340755528475
 20
195.1337505752425
 30
0.0
 11
97.9645213203577
 21
195.1658177010853
 31
0.0
  0
LINE
  5
32C
  8
0
  6
CONTINUOUS
 62
     7
 10
97.9645213203577
 20
195.1658177010853
 30
0.0
 11
97.95665818992083
 21
195.1889734990871
 31
0.0
  0
LINE
  5
32D
  8
0
  6
CONTINUOUS
 62
     7
 10
97.95665818992083
 20
195.1889734990871
 30
0.0
 11
97.94756728240684
 21
195.212025249452
 31
0.0
  0
LINE
  5
32E
  8
0
  6
CONTINUOUS
 62
     7
 10
97.94756728240684
 20
195.212025249452
 30
0.0
 11
97.93724596010134
 21
195.2348776308959
 31
0.0
  0
LINE
  5
32F
  8
0
  6
CONTINUOUS
 62
     7
 10
97.93724596010134
 20
195.2348776308959
 30
0.0
 11
97.92559157382637
 21
195.2576362585934
 31
0.0
  0
LINE
  5
330
  8
0
  6
CONTINUOUS
 62
     7
 10
97.92559157382637
 20
195.2576362585934
 30
0.0
 11
97.91263870843358
 21
195.2801103571208
 31
0.0
  0
LINE
  5
331
  8
0
  6
CONTINUOUS
 62
     7
 10
97.91263870843358
 20
195.2801103571208
 30
0.0
 11
97.89825918888157
 21
195.3023949053101
 31
0.0
  0
LINE
  5
332
  8
0
  6
CONTINUOUS
 62
     7
 10
97.89825918888157
 20
195.3023949053101
 30
0.0
 11
97.88249900215423
 21
195.3242874583549
 31
0.0
  0
LINE
  5
333
  8
0
  6
CONTINUOUS
 62
     7
 10
97.88249900215423
 20
195.3242874583549
 30
0.0
 11
97.86527345556526
 21
195.3457826880358
 31
0.0
  0
LINE
  5
334
  8
0
  6
CONTINUOUS
 62
     7
 10
97.86527345556526
 20
195.3457826880358
 30
0.0
 11
97.85218037456744
 21
195.3607027529199
 31
0.0
  0
LINE
  5
335
  8
0
  6
CONTINUOUS
 62
     7
 10
97.85218037456744
 20
195.3607027529199
 30
0.0
 11
97.83830880877959
 21
195.3753587783141
 31
0.0
  0
LINE
  5
336
  8
0
  6
CONTINUOUS
 62
     7
 10
97.83830880877959
 20
195.3753587783141
 30
0.0
 11
97.82367758427317
 21
195.3896817419423
 31
0.0
  0
LINE
  5
337
  8
0
  6
CONTINUOUS
 62
     7
 10
97.82367758427317
 20
195.3896817419423
 30
0.0
 11
97.80817493017231
 21
195.4037235113079
 31
0.0
  0
LINE
  5
338
  8
0
  6
CONTINUOUS
 62
     7
 10
97.80817493017231
 20
195.4037235113079
 30
0.0
 11
97.7918778640177
 21
195.4173546961776
 31
0.0
  0
LINE
  5
339
  8
0
  6
CONTINUOUS
 62
     7
 10
97.7918778640177
 20
195.4173546961776
 30
0.0
 11
97.77466332670386
 21
195.4306156379835
 31
0.0
  0
LINE
  5
33A
  8
0
  6
CONTINUOUS
 62
     7
 10
97.77466332670386
 20
195.4306156379835
 30
0.0
 11
97.75662363149165
 21
195.443370278946
 31
0.0
  0
LINE
  5
33B
  8
0
  6
CONTINUOUS
 62
     7
 10
97.75662363149165
 20
195.443370278946
 30
0.0
 11
97.73770146615375
 21
195.4555977610964
 31
0.0
  0
LINE
  5
33C
  8
0
  6
CONTINUOUS
 62
     7
 10
97.73770146615375
 20
195.4555977610964
 30
0.0
 11
97.72451450259211
 21
195.463470601471
 31
0.0
  0
LINE
  5
33D
  8
0
  6
CONTINUOUS
 62
     7
 10
97.72451450259211
 20
195.463470601471
 30
0.0
 11
97.7109725603589
 21
195.4710327211438
 31
0.0
  0
LINE
  5
33E
  8
0
  6
CONTINUOUS
 62
     7
 10
97.7109725603589
 20
195.4710327211438
 30
0.0
 11
97.6970121948914
 21
195.4782994251743
 31
0.0
  0
LINE
  5
33F
  8
0
  6
CONTINUOUS
 62
     7
 10
97.6970121948914
 20
195.4782994251743
 30
0.0
 11
97.6827055917008
 21
195.4852134129852
 31
0.0
  0
LINE
  5
340
  8
0
  6
CONTINUOUS
 62
     7
 10
97.6827055917008
 20
195.4852134129852
 30
0.0
 11
97.66795882453391
 21
195.4917979294392
 31
0.0
  0
LINE
  5
341
  8
0
  6
CONTINUOUS
 62
     7
 10
97.66795882453391
 20
195.4917979294392
 30
0.0
 11
97.65288140663034
 21
195.4979826406207
 31
0.0
  0
LINE
  5
342
  8
0
  6
CONTINUOUS
 62
     7
 10
97.65288140663034
 20
195.4979826406207
 30
0.0
 11
97.63738802668482
 21
195.5037807305825
 31
0.0
  0
LINE
  5
343
  8
0
  6
CONTINUOUS
 62
     7
 10
97.63738802668482
 20
195.5037807305825
 30
0.0
 11
97.62159053533036
 21
195.5091297405542
 31
0.0
  0
LINE
  5
344
  8
0
  6
CONTINUOUS
 62
     7
 10
97.62159053533036
 20
195.5091297405542
 30
0.0
 11
97.60749821420474
 21
195.5134342846911
 31
0.0
  0
LINE
  5
345
  8
0
  6
CONTINUOUS
 62
     7
 10
97.60749821420474
 20
195.5134342846911
 30
0.0
 11
97.59320211656862
 21
195.5173618125103
 31
0.0
  0
LINE
  5
346
  8
0
  6
CONTINUOUS
 62
     7
 10
97.59320211656862
 20
195.5173618125103
 30
0.0
 11
97.57863093755705
 21
195.5209181062429
 31
0.0
  0
LINE
  5
347
  8
0
  6
CONTINUOUS
 62
     7
 10
97.57863093755705
 20
195.5209181062429
 30
0.0
 11
97.56388990100112
 21
195.5240650858407
 31
0.0
  0
LINE
  5
348
  8
0
  6
CONTINUOUS
 62
     7
 10
97.56388990100112
 20
195.5240650858407
 30
0.0
 11
97.55097099136405
 21
195.5264550462452
 31
0.0
  0
LINE
  5
349
  8
0
  6
CONTINUOUS
 62
     7
 10
97.55097099136405
 20
195.5264550462452
 30
0.0
 11
97.53795460673713
 21
195.5285194443993
 31
0.0
  0
LINE
  5
34A
  8
0
  6
CONTINUOUS
 62
     7
 10
97.53795460673713
 20
195.5285194443993
 30
0.0
 11
97.52478752207632
 21
195.5302594116013
 31
0.0
  0
LINE
  5
34B
  8
0
  6
CONTINUOUS
 62
     7
 10
97.52478752207632
 20
195.5302594116013
 30
0.0
 11
97.5115545506219
 21
195.531657616093
 31
0.0
  0
LINE
  5
34C
  8
0
  6
CONTINUOUS
 62
     7
 10
97.5115545506219
 20
195.531657616093
 30
0.0
 11
97.49954514541471
 21
195.5326234083219
 31
0.0
  0
LINE
  5
34D
  8
0
  6
CONTINUOUS
 62
     7
 10
97.49954514541471
 20
195.5326234083219
 30
0.0
 11
97.48749574721266
 21
195.5333031804507
 31
0.0
  0
LINE
  5
34E
  8
0
  6
CONTINUOUS
 62
     7
 10
76.02666315902924
 20
195.0337967401673
 30
0.0
 11
76.50000673024722
 21
195.5330255302238
 31
0.0
  0
LINE
  5
34F
  8
0
  6
CONTINUOUS
 62
     7
 10
76.50000000000001
 20
195.5337967401673
 30
0.0
 11
97.46525094451428
 21
195.5337967401673
 31
0.0
  0
LINE
  5
350
  8
0
  6
CONTINUOUS
 62
     7
 10
52.51250425278735
 20
195.5333031804507
 30
0.0
 11
52.53474905548573
 21
195.5337967401673
 31
0.0
  0
LINE
  5
351
  8
0
  6
CONTINUOUS
 62
     7
 10
52.53474905548574
 20
195.5337967401673
 30
0.0
 11
73.50000000000001
 21
195.5337967401673
 31
0.0
  0
LINE
  5
352
  8
0
  6
CONTINUOUS
 62
     7
 10
73.4999932697528
 20
195.5330255302238
 30
0.0
 11
73.97333684097077
 21
195.0337967401673
 31
0.0
  0
LINE
  5
353
  8
0
  6
CONTINUOUS
 62
     7
 10
52.51250425278735
 20
195.5333031804507
 30
0.0
 11
52.49787943846047
 21
195.5324404155209
 31
0.0
  0
LINE
  5
354
  8
0
  6
CONTINUOUS
 62
     7
 10
52.49787943846047
 20
195.5324404155209
 30
0.0
 11
52.48329768568853
 21
195.5311553994833
 31
0.0
  0
LINE
  5
355
  8
0
  6
CONTINUOUS
 62
     7
 10
52.48329768568853
 20
195.5311553994833
 30
0.0
 11
52.46868629575823
 21
195.5294405430117
 31
0.0
  0
LINE
  5
356
  8
0
  6
CONTINUOUS
 62
     7
 10
52.46868629575823
 20
195.5294405430117
 30
0.0
 11
52.45416579635739
 21
195.5273108277833
 31
0.0
  0
LINE
  5
357
  8
0
  6
CONTINUOUS
 62
     7
 10
52.45416579635739
 20
195.5273108277833
 30
0.0
 11
52.44101329162869
 21
195.5250123415279
 31
0.0
  0
LINE
  5
358
  8
0
  6
CONTINUOUS
 62
     7
 10
52.44101329162869
 20
195.5250123415279
 30
0.0
 11
52.42797074778925
 21
195.5223831957076
 31
0.0
  0
LINE
  5
359
  8
0
  6
CONTINUOUS
 62
     7
 10
52.42797074778925
 20
195.5223831957076
 30
0.0
 11
52.41498779050918
 21
195.519415637877
 31
0.0
  0
LINE
  5
35A
  8
0
  6
CONTINUOUS
 62
     7
 10
52.41498779050918
 20
195.519415637877
 30
0.0
 11
52.40214485482432
 21
195.5161315629978
 31
0.0
  0
LINE
  5
35B
  8
0
  6
CONTINUOUS
 62
     7
 10
52.40214485482432
 20
195.5161315629978
 30
0.0
 11
52.39021063095832
 21
195.5127640422624
 31
0.0
  0
LINE
  5
35C
  8
0
  6
CONTINUOUS
 62
     7
 10
52.39021063095832
 20
195.5127640422624
 30
0.0
 11
52.37840946466967
 21
195.5091297405542
 31
0.0
  0
LINE
  5
35D
  8
0
  6
CONTINUOUS
 62
     7
 10
52.37840946466967
 20
195.5091297405542
 30
0.0
 11
52.36290132314334
 21
195.5038837710672
 31
0.0
  0
LINE
  5
35E
  8
0
  6
CONTINUOUS
 62
     7
 10
52.36290132314334
 20
195.5038837710672
 30
0.0
 11
52.34768584777716
 21
195.4982047730938
 31
0.0
  0
LINE
  5
35F
  8
0
  6
CONTINUOUS
 62
     7
 10
52.34768584777716
 20
195.4982047730938
 30
0.0
 11
52.33268562154881
 21
195.4920734624584
 31
0.0
  0
LINE
  5
360
  8
0
  6
CONTINUOUS
 62
     7
 10
52.33268562154881
 20
195.4920734624584
 30
0.0
 11
52.31801157256968
 21
195.4855461909638
 31
0.0
  0
LINE
  5
361
  8
0
  6
CONTINUOUS
 62
     7
 10
52.31801157256968
 20
195.4855461909638
 30
0.0
 11
52.30358361873304
 21
195.4785979710287
 31
0.0
  0
LINE
  5
362
  8
0
  6
CONTINUOUS
 62
     7
 10
52.30358361873304
 20
195.4785979710287
 30
0.0
 11
52.2895066851553
 21
195.4712909451918
 31
0.0
  0
LINE
  5
363
  8
0
  6
CONTINUOUS
 62
     7
 10
52.2895066851553
 20
195.4712909451918
 30
0.0
 11
52.27571891370008
 21
195.4636053547721
 31
0.0
  0
LINE
  5
364
  8
0
  6
CONTINUOUS
 62
     7
 10
52.27571891370008
 20
195.4636053547721
 30
0.0
 11
52.26229853384627
 21
195.4555977610964
 31
0.0
  0
LINE
  5
365
  8
0
  6
CONTINUOUS
 62
     7
 10
52.26229853384627
 20
195.4555977610964
 30
0.0
 11
52.24392389410328
 21
195.443740183297
 31
0.0
  0
LINE
  5
366
  8
0
  6
CONTINUOUS
 62
     7
 10
52.24392389410328
 20
195.443740183297
 30
0.0
 11
52.2262216270588
 21
195.4312677456536
 31
0.0
  0
LINE
  5
367
  8
0
  6
CONTINUOUS
 62
     7
 10
52.2262216270588
 20
195.4312677456536
 30
0.0
 11
52.20924791977883
 21
195.4182564449953
 31
0.0
  0
LINE
  5
368
  8
0
  6
CONTINUOUS
 62
     7
 10
52.20924791977883
 20
195.4182564449953
 30
0.0
 11
52.1929122911415
 21
195.4046676461002
 31
0.0
  0
LINE
  5
369
  8
0
  6
CONTINUOUS
 62
     7
 10
52.1929122911415
 20
195.4046676461002
 30
0.0
 11
52.17732071461355
 21
195.3906197781922
 31
0.0
  0
LINE
  5
36A
  8
0
  6
CONTINUOUS
 62
     7
 10
52.17732071461355
 20
195.3906197781922
 30
0.0
 11
52.16238618293028
 21
195.3760644423566
 31
0.0
  0
LINE
  5
36B
  8
0
  6
CONTINUOUS
 62
     7
 10
52.16238618293028
 20
195.3760644423566
 30
0.0
 11
52.14820025953458
 21
195.3611200518442
 31
0.0
  0
LINE
  5
36C
  8
0
  6
CONTINUOUS
 62
     7
 10
52.14820025953458
 20
195.3611200518442
 30
0.0
 11
52.13472654443476
 21
195.3457826880358
 31
0.0
  0
LINE
  5
36D
  8
0
  6
CONTINUOUS
 62
     7
 10
52.13472654443476
 20
195.3457826880358
 30
0.0
 11
52.11799123163793
 21
195.3249319302766
 31
0.0
  0
LINE
  5
36E
  8
0
  6
CONTINUOUS
 62
     7
 10
52.11799123163793
 20
195.3249319302766
 30
0.0
 11
52.10250174920143
 21
195.3035081037664
 31
0.0
  0
LINE
  5
36F
  8
0
  6
CONTINUOUS
 62
     7
 10
52.10250174920143
 20
195.3035081037664
 30
0.0
 11
52.08828732754125
 21
195.2816227632827
 31
0.0
  0
LINE
  5
370
  8
0
  6
CONTINUOUS
 62
     7
 10
52.08828732754125
 20
195.2816227632827
 30
0.0
 11
52.07525916213726
 21
195.2591948617273
 31
0.0
  0
LINE
  5
371
  8
0
  6
CONTINUOUS
 62
     7
 10
52.07525916213726
 20
195.2591948617273
 30
0.0
 11
52.06349213948587
 21
195.2364048240547
 31
0.0
  0
LINE
  5
372
  8
0
  6
CONTINUOUS
 62
     7
 10
52.06349213948587
 20
195.2364048240547
 30
0.0
 11
52.05291383262873
 21
195.213159892137
 31
0.0
  0
LINE
  5
373
  8
0
  6
CONTINUOUS
 62
     7
 10
52.05291383262873
 20
195.213159892137
 30
0.0
 11
52.04358561931888
 21
195.1896371175093
 31
0.0
  0
LINE
  5
374
  8
0
  6
CONTINUOUS
 62
     7
 10
52.04358561931888
 20
195.1896371175093
 30
0.0
 11
52.03547867964231
 21
195.1658177010853
 31
0.0
  0
LINE
  5
375
  8
0
  6
CONTINUOUS
 62
     7
 10
52.03547867964231
 20
195.1658177010853
 30
0.0
 11
52.02664889214896
 21
195.1339837299186
 31
0.0
  0
LINE
  5
376
  8
0
  6
CONTINUOUS
 62
     7
 10
52.02664889214896
 20
195.1339837299186
 30
0.0
 11
52.01996838019669
 21
195.1018550763278
 31
0.0
  0
LINE
  5
377
  8
0
  6
CONTINUOUS
 62
     7
 10
52.01996838019669
 20
195.1018550763278
 30
0.0
 11
52.01543257578101
 21
195.0694971381023
 31
0.0
  0
LINE
  5
378
  8
0
  6
CONTINUOUS
 62
     7
 10
52.01543257578101
 20
195.0694971381023
 30
0.0
 11
52.01304759880093
 21
195.0369905661334
 31
0.0
  0
LINE
  5
379
  8
0
  6
CONTINUOUS
 62
     7
 10
52.01304759880093
 20
195.0369905661334
 30
0.0
 11
52.01292987212454
 21
195.0337967401673
 31
0.0
  0
LINE
  5
37A
  8
0
  6
CONTINUOUS
 62
     7
 10
52.01340028272865
 20
193.5337967401673
 30
0.0
 11
74.214788430618
 21
193.5337967401673
 31
0.0
  0
LINE
  5
37B
  8
0
  6
CONTINUOUS
 62
     7
 10
75.78521156938277
 20
193.5337967401673
 30
0.0
 11
93.25453871369268
 21
193.5337967401673
 31
0.0
  0
LINE
  5
37C
  8
0
  6
CONTINUOUS
 62
     7
 10
93.25453871369267
 20
193.5337967401673
 30
0.0
 11
97.98659971727136
 21
193.5337967401673
 31
0.0
  0
LINE
  5
37D
  8
0
  6
CONTINUOUS
 62
     7
 10
93.97366596101028
 20
191.6337967401673
 30
0.0
 11
95.12461179749812
 21
191.6337967401673
 31
0.0
  0
LINE
  5
37E
  8
0
  6
CONTINUOUS
 62
     7
 10
76.4825462644185
 20
197.5337967401673
 30
0.0
 11
96.4873681998634
 21
197.5337967401673
 31
0.0
  0
LINE
  5
37F
  8
0
  6
CONTINUOUS
 62
     7
 10
53.51263180013662
 20
197.5337967401673
 30
0.0
 11
73.51745373558153
 21
197.5337967401673
 31
0.0
  0
LINE
  5
380
  8
0
  6
CONTINUOUS
 62
     7
 10
53.50000000000002
 20
197.5337967401673
 30
0.0
 11
53.51263180013662
 21
197.5337967401673
 31
0.0
  0
LINE
  5
381
  8
0
  6
CONTINUOUS
 62
     7
 10
96.4873681998634
 20
197.5337967401673
 30
0.0
 11
96.5
 21
197.5337967401673
 31
0.0
  0
LINE
  5
382
  8
0
  6
CONTINUOUS
 62
     7
 10
47.50000000000006
 20
178.5337967401673
 30
0.0
 11
75.00000000000001
 21
178.5337967401673
 31
0.0
  0
LINE
  5
383
  8
0
  6
CONTINUOUS
 62
     7
 10
75.00000000000001
 20
178.5337967401673
 30
0.0
 11
102.5
 21
178.5337967401673
 31
0.0
  0
LINE
  5
384
  8
0
  6
CONTINUOUS
 62
     7
 10
102.0
 20
180.5337967401673
 30
0.0
 11
101.9890622434183
 21
180.5337967401673
 31
0.0
  0
LINE
  5
385
  8
0
  6
CONTINUOUS
 62
     7
 10
48.01093775658178
 20
180.5337967401673
 30
0.0
 11
48.00000000000003
 21
180.5337967401673
 31
0.0
  0
LINE
  5
386
  8
0
  6
CONTINUOUS
 62
     7
 10
48.01093775658178
 20
180.5337967401673
 30
0.0
 11
74.23154751552536
 21
180.5337967401673
 31
0.0
  0
LINE
  5
387
  8
0
  6
CONTINUOUS
 62
     7
 10
75.76845248447465
 20
180.5337967401673
 30
0.0
 11
74.23154751552536
 21
180.5337967401673
 31
0.0
  0
LINE
  5
388
  8
0
  6
CONTINUOUS
 62
     7
 10
75.76845248447465
 20
180.5337967401673
 30
0.0
 11
101.9890622434183
 21
180.5337967401673
 31
0.0
  0
LINE
  5
389
  8
0
  6
CONTINUOUS
 62
     7
 10
76.2852210853248
 20
180.5337967401673
 30
0.0
 11
76.2852210853248
 21
193.0337967401673
 31
0.0
  0
LINE
  5
38A
  8
0
  6
CONTINUOUS
 62
     7
 10
73.71477891467521
 20
180.5337967401673
 30
0.0
 11
73.71477891467521
 21
193.0337967401673
 31
0.0
  0
LINE
  5
38B
  8
0
  6
CONTINUOUS
 62
     7
 10
74.21747662799852
 20
193.5337967401673
 30
0.0
 11
75.78252337200142
 21
193.5337967401673
 31
0.0
  0
LINE
  5
38C
  8
0
  6
CONTINUOUS
 62
     7
 10
75.78500537446591
 20
193.5337967401673
 30
0.0
 11
75.80572343399442
 21
193.5333676098822
 31
0.0
  0
LINE
  5
38D
  8
0
  6
CONTINUOUS
 62
     7
 10
75.80572343399442
 20
193.5333676098822
 30
0.0
 11
75.82644085579521
 21
193.532078068134
 31
0.0
  0
LINE
  5
38E
  8
0
  6
CONTINUOUS
 62
     7
 10
75.82644085579521
 20
193.532078068134
 30
0.0
 11
75.84719372608963
 21
193.5299169871647
 31
0.0
  0
LINE
  5
38F
  8
0
  6
CONTINUOUS
 62
     7
 10
75.84719372608963
 20
193.5299169871647
 30
0.0
 11
75.86787378620271
 21
193.5268866486264
 31
0.0
  0
LINE
  5
390
  8
0
  6
CONTINUOUS
 62
     7
 10
75.86787378620271
 20
193.5268866486264
 30
0.0
 11
75.88881672039393
 21
193.5229090712186
 31
0.0
  0
LINE
  5
391
  8
0
  6
CONTINUOUS
 62
     7
 10
75.88881672039393
 20
193.5229090712186
 30
0.0
 11
75.90960835595095
 21
193.5180335280338
 31
0.0
  0
LINE
  5
392
  8
0
  6
CONTINUOUS
 62
     7
 10
75.90960835595095
 20
193.5180335280338
 30
0.0
 11
75.93028539819062
 21
193.5122411621983
 31
0.0
  0
LINE
  5
393
  8
0
  6
CONTINUOUS
 62
     7
 10
75.93028539819062
 20
193.5122411621983
 30
0.0
 11
75.95073199407821
 21
193.5055539617409
 31
0.0
  0
LINE
  5
394
  8
0
  6
CONTINUOUS
 62
     7
 10
75.95073199407821
 20
193.5055539617409
 30
0.0
 11
75.97013528324649
 21
193.4982882495959
 31
0.0
  0
LINE
  5
395
  8
0
  6
CONTINUOUS
 62
     7
 10
75.97013528324649
 20
193.4982882495959
 30
0.0
 11
75.98925352620516
 21
193.4902109906213
 31
0.0
  0
LINE
  5
396
  8
0
  6
CONTINUOUS
 62
     7
 10
75.98925352620516
 20
193.4902109906213
 30
0.0
 11
76.00811705554153
 21
193.4812996496665
 31
0.0
  0
LINE
  5
397
  8
0
  6
CONTINUOUS
 62
     7
 10
76.00811705554153
 20
193.4812996496665
 30
0.0
 11
76.02662456718656
 21
193.4715920835019
 31
0.0
  0
LINE
  5
398
  8
0
  6
CONTINUOUS
 62
     7
 10
76.02662456718656
 20
193.4715920835019
 30
0.0
 11
76.04506680820646
 21
193.4609035063044
 31
0.0
  0
LINE
  5
399
  8
0
  6
CONTINUOUS
 62
     7
 10
76.04506680820646
 20
193.4609035063044
 30
0.0
 11
76.06306947065866
 21
193.449417354665
 31
0.0
  0
LINE
  5
39A
  8
0
  6
CONTINUOUS
 62
     7
 10
76.06306947065866
 20
193.449417354665
 30
0.0
 11
76.0806609149357
 21
193.4371035373302
 31
0.0
  0
LINE
  5
39B
  8
0
  6
CONTINUOUS
 62
     7
 10
76.0806609149357
 20
193.4371035373302
 30
0.0
 11
76.09773903390196
 21
193.4240210543585
 31
0.0
  0
LINE
  5
39C
  8
0
  6
CONTINUOUS
 62
     7
 10
76.09773903390196
 20
193.4240210543585
 30
0.0
 11
76.1136421590002
 21
193.4107369765677
 31
0.0
  0
LINE
  5
39D
  8
0
  6
CONTINUOUS
 62
     7
 10
76.1136421590002
 20
193.4107369765677
 30
0.0
 11
76.12900776887565
 21
193.396780706299
 31
0.0
  0
LINE
  5
39E
  8
0
  6
CONTINUOUS
 62
     7
 10
76.12900776887565
 20
193.396780706299
 30
0.0
 11
76.14385699836946
 21
193.3821207640555
 31
0.0
  0
LINE
  5
39F
  8
0
  6
CONTINUOUS
 62
     7
 10
76.14385699836946
 20
193.3821207640555
 30
0.0
 11
76.15810657502652
 21
193.3668264609771
 31
0.0
  0
LINE
  5
3A0
  8
0
  6
CONTINUOUS
 62
     7
 10
76.15810657502652
 20
193.3668264609771
 30
0.0
 11
76.17197008364604
 21
193.3506263170488
 31
0.0
  0
LINE
  5
3A1
  8
0
  6
CONTINUOUS
 62
     7
 10
76.17197008364604
 20
193.3506263170488
 30
0.0
 11
76.1851542945189
 21
193.3338180943932
 31
0.0
  0
LINE
  5
3A2
  8
0
  6
CONTINUOUS
 62
     7
 10
76.1851542945189
 20
193.3338180943932
 30
0.0
 11
76.19767597962162
 21
193.3163637991678
 31
0.0
  0
LINE
  5
3A3
  8
0
  6
CONTINUOUS
 62
     7
 10
76.19767597962162
 20
193.3163637991678
 30
0.0
 11
76.20945801146866
 21
193.2983531876839
 31
0.0
  0
LINE
  5
3A4
  8
0
  6
CONTINUOUS
 62
     7
 10
76.20945801146866
 20
193.2983531876839
 30
0.0
 11
76.22005058374391
 21
193.2805641847465
 31
0.0
  0
LINE
  5
3A5
  8
0
  6
CONTINUOUS
 62
     7
 10
76.22005058374391
 20
193.2805641847465
 30
0.0
 11
76.22991428250246
 21
193.2623193459375
 31
0.0
  0
LINE
  5
3A6
  8
0
  6
CONTINUOUS
 62
     7
 10
76.22991428250246
 20
193.2623193459375
 30
0.0
 11
76.23913002791319
 21
193.2434269244883
 31
0.0
  0
LINE
  5
3A7
  8
0
  6
CONTINUOUS
 62
     7
 10
76.23913002791319
 20
193.2434269244883
 30
0.0
 11
76.24754408679087
 21
193.2241630999271
 31
0.0
  0
LINE
  5
3A8
  8
0
  6
CONTINUOUS
 62
     7
 10
76.24754408679087
 20
193.2241630999271
 30
0.0
 11
76.25519222761875
 21
193.2044197892599
 31
0.0
  0
LINE
  5
3A9
  8
0
  6
CONTINUOUS
 62
     7
 10
76.25519222761875
 20
193.2044197892599
 30
0.0
 11
76.26199801259571
 21
193.1843696496231
 31
0.0
  0
LINE
  5
3AA
  8
0
  6
CONTINUOUS
 62
     7
 10
76.26199801259571
 20
193.1843696496231
 30
0.0
 11
76.26802407925557
 21
193.1637682026304
 31
0.0
  0
LINE
  5
3AB
  8
0
  6
CONTINUOUS
 62
     7
 10
76.26802407925557
 20
193.1637682026304
 30
0.0
 11
76.27316887489094
 21
193.1428874796183
 31
0.0
  0
LINE
  5
3AC
  8
0
  6
CONTINUOUS
 62
     7
 10
76.27316887489094
 20
193.1428874796183
 30
0.0
 11
76.27596474978863
 21
193.129535206427
 31
0.0
  0
LINE
  5
3AD
  8
0
  6
CONTINUOUS
 62
     7
 10
76.27596474978863
 20
193.129535206427
 30
0.0
 11
76.27839525423211
 21
193.116111400592
 31
0.0
  0
LINE
  5
3AE
  8
0
  6
CONTINUOUS
 62
     7
 10
76.27839525423211
 20
193.116111400592
 30
0.0
 11
76.28046405671529
 21
193.1025854573128
 31
0.0
  0
LINE
  5
3AF
  8
0
  6
CONTINUOUS
 62
     7
 10
76.28046405671529
 20
193.1025854573128
 30
0.0
 11
76.28216186662874
 21
193.089007798024
 31
0.0
  0
LINE
  5
3B0
  8
0
  6
CONTINUOUS
 62
     7
 10
76.28216186662874
 20
193.089007798024
 30
0.0
 11
76.28349769218484
 21
193.0752633865427
 31
0.0
  0
LINE
  5
3B1
  8
0
  6
CONTINUOUS
 62
     7
 10
76.28349769218484
 20
193.0752633865427
 30
0.0
 11
76.28445332969123
 21
193.0614872207688
 31
0.0
  0
LINE
  5
3B2
  8
0
  6
CONTINUOUS
 62
     7
 10
76.28445332969123
 20
193.0614872207688
 30
0.0
 11
76.28502907180876
 21
193.0476473167873
 31
0.0
  0
LINE
  5
3B3
  8
0
  6
CONTINUOUS
 62
     7
 10
76.28502907180876
 20
193.0476473167873
 30
0.0
 11
76.2852210853248
 21
193.0337967401673
 31
0.0
  0
LINE
  5
3B4
  8
0
  6
CONTINUOUS
 62
     7
 10
75.78252337200149
 20
193.5337967401673
 30
0.0
 11
75.78500537446591
 21
193.5337967401673
 31
0.0
  0
LINE
  5
3B5
  8
0
  6
CONTINUOUS
 62
     7
 10
73.71477891467521
 20
193.0337967401673
 30
0.0
 11
73.71501972466145
 21
193.0493069592305
 31
0.0
  0
LINE
  5
3B6
  8
0
  6
CONTINUOUS
 62
     7
 10
73.71501972466145
 20
193.0493069592305
 30
0.0
 11
73.71574168530967
 21
193.064802191104
 31
0.0
  0
LINE
  5
3B7
  8
0
  6
CONTINUOUS
 62
     7
 10
73.71574168530967
 20
193.064802191104
 30
0.0
 11
73.71694994265572
 21
193.0803275707977
 31
0.0
  0
LINE
  5
3B8
  8
0
  6
CONTINUOUS
 62
     7
 10
73.71694994265572
 20
193.0803275707977
 30
0.0
 11
73.71864119872343
 21
193.0958076420408
 31
0.0
  0
LINE
  5
3B9
  8
0
  6
CONTINUOUS
 62
     7
 10
73.71864119872343
 20
193.0958076420408
 30
0.0
 11
73.72168938236571
 21
193.1166166303334
 31
0.0
  0
LINE
  5
3BA
  8
0
  6
CONTINUOUS
 62
     7
 10
73.72168938236571
 20
193.1166166303334
 30
0.0
 11
73.72561802861904
 21
193.1373151764356
 31
0.0
  0
LINE
  5
3BB
  8
0
  6
CONTINUOUS
 62
     7
 10
73.72561802861904
 20
193.1373151764356
 30
0.0
 11
73.73048179014977
 21
193.1580880638598
 31
0.0
  0
LINE
  5
3BC
  8
0
  6
CONTINUOUS
 62
     7
 10
73.73048179014977
 20
193.1580880638598
 30
0.0
 11
73.73623879594882
 21
193.1786712566874
 31
0.0
  0
LINE
  5
3BD
  8
0
  6
CONTINUOUS
 62
     7
 10
73.73623879594882
 20
193.1786712566874
 30
0.0
 11
73.74289630666554
 21
193.1990631181131
 31
0.0
  0
LINE
  5
3BE
  8
0
  6
CONTINUOUS
 62
     7
 10
73.74289630666554
 20
193.1990631181131
 30
0.0
 11
73.75016372956831
 21
193.2185004332404
 31
0.0
  0
LINE
  5
3BF
  8
0
  6
CONTINUOUS
 62
     7
 10
73.75016372956831
 20
193.2185004332404
 30
0.0
 11
73.75823096976681
 21
193.2376187552152
 31
0.0
  0
LINE
  5
3C0
  8
0
  6
CONTINUOUS
 62
     7
 10
73.75823096976681
 20
193.2376187552152
 30
0.0
 11
73.76714927344163
 21
193.2565147160466
 31
0.0
  0
LINE
  5
3C1
  8
0
  6
CONTINUOUS
 62
     7
 10
73.76714927344163
 20
193.2565147160466
 30
0.0
 11
73.77684862783725
 21
193.2750208778174
 31
0.0
  0
LINE
  5
3C2
  8
0
  6
CONTINUOUS
 62
     7
 10
73.77684862783725
 20
193.2750208778174
 30
0.0
 11
73.78746878375553
 21
193.2933617680621
 31
0.0
  0
LINE
  5
3C3
  8
0
  6
CONTINUOUS
 62
     7
 10
73.78746878375553
 20
193.2933617680621
 30
0.0
 11
73.79885581463543
 21
193.3112355129282
 31
0.0
  0
LINE
  5
3C4
  8
0
  6
CONTINUOUS
 62
     7
 10
73.79885581463543
 20
193.3112355129282
 30
0.0
 11
73.81108085687231
 21
193.3287342929993
 31
0.0
  0
LINE
  5
3C5
  8
0
  6
CONTINUOUS
 62
     7
 10
73.81108085687231
 20
193.3287342929993
 30
0.0
 11
73.8240406773405
 21
193.3456948829894
 31
0.0
  0
LINE
  5
3C6
  8
0
  6
CONTINUOUS
 62
     7
 10
73.8240406773405
 20
193.3456948829894
 30
0.0
 11
73.83391283501079
 21
193.3576721044453
 31
0.0
  0
LINE
  5
3C7
  8
0
  6
CONTINUOUS
 62
     7
 10
73.83391283501079
 20
193.3576721044453
 30
0.0
 11
73.84415153036379
 21
193.3693369227507
 31
0.0
  0
LINE
  5
3C8
  8
0
  6
CONTINUOUS
 62
     7
 10
73.84415153036379
 20
193.3693369227507
 30
0.0
 11
73.85478880866285
 21
193.38072134077
 31
0.0
  0
LINE
  5
3C9
  8
0
  6
CONTINUOUS
 62
     7
 10
73.85478880866285
 20
193.38072134077
 30
0.0
 11
73.86577515008683
 21
193.391768681226
 31
0.0
  0
LINE
  5
3CA
  8
0
  6
CONTINUOUS
 62
     7
 10
73.86577515008683
 20
193.391768681226
 30
0.0
 11
73.88114791726808
 21
193.4061345237097
 31
0.0
  0
LINE
  5
3CB
  8
0
  6
CONTINUOUS
 62
     7
 10
73.88114791726808
 20
193.4061345237097
 30
0.0
 11
73.89713956418329
 21
193.4198644392616
 31
0.0
  0
LINE
  5
3CC
  8
0
  6
CONTINUOUS
 62
     7
 10
73.89713956418329
 20
193.4198644392616
 30
0.0
 11
73.9139074544312
 21
193.4330683476797
 31
0.0
  0
LINE
  5
3CD
  8
0
  6
CONTINUOUS
 62
     7
 10
73.9139074544312
 20
193.4330683476797
 30
0.0
 11
73.93125495026953
 21
193.4455668060987
 31
0.0
  0
LINE
  5
3CE
  8
0
  6
CONTINUOUS
 62
     7
 10
73.93125495026953
 20
193.4455668060987
 30
0.0
 11
73.94918672717475
 21
193.4573540375945
 31
0.0
  0
LINE
  5
3CF
  8
0
  6
CONTINUOUS
 62
     7
 10
73.94918672717475
 20
193.4573540375945
 30
0.0
 11
73.96248342424636
 21
193.4654065265361
 31
0.0
  0
LINE
  5
3D0
  8
0
  6
CONTINUOUS
 62
     7
 10
73.96248342424636
 20
193.4654065265361
 30
0.0
 11
73.976023707363
 21
193.4730420787256
 31
0.0
  0
LINE
  5
3D1
  8
0
  6
CONTINUOUS
 62
     7
 10
73.976023707363
 20
193.4730420787256
 30
0.0
 11
73.98984853540395
 21
193.480280317597
 31
0.0
  0
LINE
  5
3D2
  8
0
  6
CONTINUOUS
 62
     7
 10
73.98984853540395
 20
193.480280317597
 30
0.0
 11
74.0038922774819
 21
193.4870839830974
 31
0.0
  0
LINE
  5
3D3
  8
0
  6
CONTINUOUS
 62
     7
 10
74.0038922774819
 20
193.4870839830974
 30
0.0
 11
74.02318277411624
 21
193.4955711683685
 31
0.0
  0
LINE
  5
3D4
  8
0
  6
CONTINUOUS
 62
     7
 10
74.02318277411624
 20
193.4955711683685
 30
0.0
 11
74.0428488100074
 21
193.5032513953866
 31
0.0
  0
LINE
  5
3D5
  8
0
  6
CONTINUOUS
 62
     7
 10
74.0428488100074
 20
193.5032513953866
 30
0.0
 11
74.06307599903462
 21
193.5101763937505
 31
0.0
  0
LINE
  5
3D6
  8
0
  6
CONTINUOUS
 62
     7
 10
74.06307599903462
 20
193.5101763937505
 30
0.0
 11
74.0836185415569
 21
193.5162413339078
 31
0.0
  0
LINE
  5
3D7
  8
0
  6
CONTINUOUS
 62
     7
 10
74.0836185415569
 20
193.5162413339078
 30
0.0
 11
74.10447898117144
 21
193.5214390412422
 31
0.0
  0
LINE
  5
3D8
  8
0
  6
CONTINUOUS
 62
     7
 10
74.10447898117144
 20
193.5214390412422
 30
0.0
 11
74.11799373108316
 21
193.5243041274281
 31
0.0
  0
LINE
  5
3D9
  8
0
  6
CONTINUOUS
 62
     7
 10
74.11799373108316
 20
193.5243041274281
 30
0.0
 11
74.13159300434499
 21
193.5267968059443
 31
0.0
  0
LINE
  5
3DA
  8
0
  6
CONTINUOUS
 62
     7
 10
74.13159300434499
 20
193.5267968059443
 30
0.0
 11
74.1453358393798
 21
193.5289240024892
 31
0.0
  0
LINE
  5
3DB
  8
0
  6
CONTINUOUS
 62
     7
 10
74.1453358393798
 20
193.5289240024892
 30
0.0
 11
74.15913270061108
 21
193.5306685635013
 31
0.0
  0
LINE
  5
3DC
  8
0
  6
CONTINUOUS
 62
     7
 10
74.15913270061108
 20
193.5306685635013
 30
0.0
 11
74.17301597938021
 21
193.5320325959892
 31
0.0
  0
LINE
  5
3DD
  8
0
  6
CONTINUOUS
 62
     7
 10
74.17301597938021
 20
193.5320325959892
 30
0.0
 11
74.18693214163089
 21
193.5330091545299
 31
0.0
  0
LINE
  5
3DE
  8
0
  6
CONTINUOUS
 62
     7
 10
74.18693214163089
 20
193.5330091545299
 30
0.0
 11
74.20095219620917
 21
193.5335996450775
 31
0.0
  0
LINE
  5
3DF
  8
0
  6
CONTINUOUS
 62
     7
 10
74.20095219620917
 20
193.5335996450775
 30
0.0
 11
74.2149946255341
 21
193.5337967401673
 31
0.0
  0
LINE
  5
3E0
  8
0
  6
CONTINUOUS
 62
     7
 10
74.2149946255341
 20
193.5337967401673
 30
0.0
 11
74.21747662799852
 21
193.5337967401673
 31
0.0
  0
LINE
  5
3E1
  8
0
  6
CONTINUOUS
 62
     7
 10
97.2036033111745
 20
189.7337967401673
 30
0.0
 11
93.97366596101027
 21
189.7337967401673
 31
0.0
  0
LINE
  5
3E2
  8
0
  6
CONTINUOUS
 62
     7
 10
97.20360331117453
 20
192.5337967401673
 30
0.0
 11
97.20360331117453
 21
189.7337967401673
 31
0.0
  0
LINE
  5
3E3
  8
0
  6
CONTINUOUS
 62
     7
 10
97.44994432064365
 20
193.5337967401673
 30
0.0
 11
97.36234606360067
 21
193.459500648799
 31
0.0
  0
LINE
  5
3E4
  8
0
  6
CONTINUOUS
 62
     7
 10
97.36234606360067
 20
193.459500648799
 30
0.0
 11
97.31593633298577
 21
193.3570433542659
 31
0.0
  0
ARC
  5
3E5
  8
0
  6
CONTINUOUS
 62
     7
 10
99.83134966359938
 20
192.5945247875464
 30
0.0
 40
2.628447980923454
 50
163.1359247481692
 51
181.3238878872567
  0
LINE
  5
3E6
  8
0
  6
CONTINUOUS
 62
     7
 10
97.44994432064364
 20
193.5337967401673
 30
0.0
 11
97.98659971727135
 21
193.5337967401673
 31
0.0
  0
LINE
  5
3E7
  8
0
  6
CONTINUOUS
 62
     7
 10
97.96406337654199
 20
193.0337967401673
 30
0.0
 11
97.98659971727136
 21
193.5337967401673
 31
0.0
  0
LINE
  5
3E8
  8
0
  6
CONTINUOUS
 62
     7
 10
97.96406337654199
 20
180.5337967401673
 30
0.0
 11
97.96406337654199
 21
193.0337967401673
 31
0.0
  0
ARC
  5
3E9
  8
0
  6
CONTINUOUS
 62
     7
 10
92.58764306158783
 20
192.5384592058126
 30
0.0
 40
1.386030741473406
 50
359.80726249467
 51
17.38547316620884
  0
LINE
  5
3EA
  8
0
  6
CONTINUOUS
 62
     7
 10
93.91035453679179
 20
192.9526035884536
 30
0.0
 11
93.8633575514878
 21
193.075684997171
 31
0.0
  0
LINE
  5
3EB
  8
0
  6
CONTINUOUS
 62
     7
 10
93.8633575514878
 20
193.075684997171
 30
0.0
 11
93.80319216163161
 21
193.1898791400551
 31
0.0
  0
LINE
  5
3EC
  8
0
  6
CONTINUOUS
 62
     7
 10
93.80319216163161
 20
193.1898791400551
 30
0.0
 11
93.73377666416707
 21
193.288012504955
 31
0.0
  0
LINE
  5
3ED
  8
0
  6
CONTINUOUS
 62
     7
 10
93.73377666416707
 20
193.288012504955
 30
0.0
 11
93.64356548364857
 21
193.381198083497
 31
0.0
  0
LINE
  5
3EE
  8
0
  6
CONTINUOUS
 62
     7
 10
93.64356548364857
 20
193.381198083497
 30
0.0
 11
93.54566263731667
 21
193.4518820148079
 31
0.0
  0
LINE
  5
3EF
  8
0
  6
CONTINUOUS
 62
     7
 10
93.54566263731667
 20
193.4518820148079
 30
0.0
 11
93.4220427548641
 21
193.5070756284977
 31
0.0
  0
LINE
  5
3F0
  8
0
  6
CONTINUOUS
 62
     7
 10
93.4220427548641
 20
193.5070756284977
 30
0.0
 11
93.29339674967429
 21
193.5320550500426
 31
0.0
  0
LINE
  5
3F1
  8
0
  6
CONTINUOUS
 62
     7
 10
93.29339674967429
 20
193.5320550500426
 30
0.0
 11
93.24828759089466
 21
193.5337967401673
 31
0.0
  0
LINE
  5
3F2
  8
0
  6
CONTINUOUS
 62
     7
 10
93.97366596101028
 20
192.5337967401673
 30
0.0
 11
93.97366596101028
 21
189.7337967401673
 31
0.0
  0
LINE
  5
3F3
  8
0
  6
CONTINUOUS
 62
     7
 10
75.78500537446591
 20
193.5337967401673
 30
0.0
 11
93.24828759089466
 21
193.5337967401673
 31
0.0
  0
LINE
  5
3F4
  8
0
  6
CONTINUOUS
 62
     7
 10
52.03593662345804
 20
180.5337967401673
 30
0.0
 11
52.03593662345804
 21
193.0337967401673
 31
0.0
  0
LINE
  5
3F5
  8
0
  6
CONTINUOUS
 62
     7
 10
52.01340028272865
 20
193.5337967401673
 30
0.0
 11
52.03593662345804
 21
193.0337967401673
 31
0.0
  0
LINE
  5
3F6
  8
0
  6
CONTINUOUS
 62
     7
 10
53.54567312099992
 20
189.981936311654
 30
0.0
 11
53.87679001666652
 21
187.0337967401672
 31
0.0
  0
LINE
  5
3F7
  8
0
  6
CONTINUOUS
 62
     7
 10
53.54567312099992
 20
189.981936311654
 30
0.0
 11
53.43614158255381
 21
190.202389366747
 31
0.0
  0
LINE
  5
3F8
  8
0
  6
CONTINUOUS
 62
     7
 10
52.01340028272865
 20
193.5337967401673
 30
0.0
 11
74.2149946255341
 21
193.5337967401673
 31
0.0
  0
ARC
  5
3F9
  8
0
  6
CONTINUOUS
 62
     7
 10
97.6870556653061
 20
192.5728184238602
 30
0.0
 40
2.562740967687722
 50
162.5946722464955
 51
180.8724503239255
  0
LINE
  5
3FA
  8
0
  6
CONTINUOUS
 62
     7
 10
95.24165615474526
 20
193.3394099064725
 30
0.0
 11
95.29017515991445
 21
193.4441829614319
 31
0.0
  0
LINE
  5
3FB
  8
0
  6
CONTINUOUS
 62
     7
 10
95.29017515991445
 20
193.4441829614319
 30
0.0
 11
95.35792331844156
 21
193.5219739729664
 31
0.0
  0
LINE
  5
3FC
  8
0
  6
CONTINUOUS
 62
     7
 10
95.35792331844156
 20
193.5219739729664
 30
0.0
 11
95.39607805437116
 21
193.5337967401673
 31
0.0
  0
LINE
  5
3FD
  8
0
  6
CONTINUOUS
 62
     7
 10
95.12461179749812
 20
192.5337967401673
 30
0.0
 11
95.12461179749812
 21
189.7337967401673
 31
0.0
  0
LINE
  5
3FE
  8
0
  6
CONTINUOUS
 62
     7
 10
53.01049928190762
 20
189.981936311654
 30
0.0
 11
53.33343589767867
 21
187.0337967401672
 31
0.0
  0
LINE
  5
3FF
  8
0
  6
CONTINUOUS
 62
     7
 10
53.33343589767865
 20
187.0337967401672
 30
0.0
 11
53.8767900166665
 21
187.0337967401672
 31
0.0
  0
LINE
  5
400
  8
0
  6
CONTINUOUS
 62
     7
 10
52.80102449206491
 20
189.9819363116541
 30
0.0
 11
52.53580626864165
 21
187.0337967401673
 31
0.0
  0
LINE
  5
401
  8
0
  6
CONTINUOUS
 62
     7
 10
52.80102449206492
 20
189.981936311654
 30
0.0
 11
52.90362026632261
 21
190.2023893667477
 31
0.0
  0
LINE
  5
402
  8
0
  6
CONTINUOUS
 62
     7
 10
53.33343589767866
 20
187.0337967401672
 30
0.0
 11
52.53580626864164
 21
187.0337967401672
 31
0.0
  0
LINE
  5
403
  8
0
  6
CONTINUOUS
 62
     7
 10
52.90362026632261
 20
190.2023893667477
 30
0.0
 11
53.01049928190763
 21
189.981936311654
 31
0.0
  0
LINE
  5
404
  8
0
  6
CONTINUOUS
 62
     7
 10
51.72899097071362
 20
193.5337967401673
 30
0.0
 11
52.01340028272865
 21
193.5337967401673
 31
0.0
  0
LINE
  5
405
  8
0
  6
CONTINUOUS
 62
     7
 10
97.98659971727136
 20
193.5337967401673
 30
0.0
 11
98.2710090292864
 21
193.5337967401673
 31
0.0
  0
LINE
  5
406
  8
0
  6
CONTINUOUS
 62
     7
 10
98.27100902928642
 20
193.5337967401673
 30
0.0
 11
98.28416208646681
 21
193.5337967401673
 31
0.0
  0
LINE
  5
407
  8
0
  6
CONTINUOUS
 62
     7
 10
51.71583791353323
 20
193.5337967401673
 30
0.0
 11
51.72899097071362
 21
193.5337967401673
 31
0.0
  0
LINE
  5
408
  8
0
  6
CONTINUOUS
 62
     7
 10
102.0
 20
174.5337967401673
 30
0.0
 11
75.00000000000001
 21
174.5337967401673
 31
0.0
  0
LINE
  5
409
  8
0
  6
CONTINUOUS
 62
     7
 10
75.00000000000001
 20
174.5337967401673
 30
0.0
 11
48.00000000000001
 21
174.5337967401673
 31
0.0
  0
LINE
  5
40A
  8
0
  6
CONTINUOUS
 62
     7
 10
98.75929307213002
 20
156.5570294204923
 30
0.0
 11
98.750478575402
 21
156.5570294204923
 31
0.0
  0
LINE
  5
40B
  8
0
  6
CONTINUOUS
 62
     7
 10
74.01751665580443
 20
156.5337967401672
 30
0.0
 11
74.35287193946141
 21
156.5570294204923
 31
0.0
  0
LINE
  5
40C
  8
0
  6
CONTINUOUS
 62
     7
 10
74.01751665580443
 20
156.5337967401672
 30
0.0
 11
51.41180070639081
 21
156.5337967401672
 31
0.0
  0
LINE
  5
40D
  8
0
  6
CONTINUOUS
 62
     7
 10
51.24952142459802
 20
156.5570294204923
 30
0.0
 11
51.41180070639083
 21
156.5337967401672
 31
0.0
  0
LINE
  5
40E
  8
0
  6
CONTINUOUS
 62
     7
 10
51.24952142459802
 20
156.5570294204923
 30
0.0
 11
51.24070692786999
 21
156.5570294204923
 31
0.0
  0
LINE
  5
40F
  8
0
  6
CONTINUOUS
 62
     7
 10
98.5881992936092
 20
156.5337967401672
 30
0.0
 11
98.750478575402
 21
156.5570294204923
 31
0.0
  0
LINE
  5
410
  8
0
  6
CONTINUOUS
 62
     7
 10
98.58819929360921
 20
156.5337967401672
 30
0.0
 11
75.98248334419557
 21
156.5337967401672
 31
0.0
  0
LINE
  5
411
  8
0
  6
CONTINUOUS
 62
     7
 10
75.6471280605386
 20
156.5570294204923
 30
0.0
 11
75.98248334419559
 21
156.5337967401672
 31
0.0
  0
LINE
  5
412
  8
0
  6
CONTINUOUS
 62
     7
 10
75.6471280605386
 20
156.5570294204923
 30
0.0
 11
74.35287193946144
 21
156.5570294204923
 31
0.0
  0
LINE
  5
413
  8
0
  6
CONTINUOUS
 62
     7
 10
73.96399374258286
 20
151.0965938460634
 30
0.0
 11
73.86908701303838
 21
156.5337967401672
 31
0.0
  0
LINE
  5
414
  8
0
  6
CONTINUOUS
 62
     7
 10
76.13091298696165
 20
156.5337967401672
 30
0.0
 11
76.03600625741716
 21
151.0965938460634
 31
0.0
  0
LINE
  5
415
  8
0
  6
CONTINUOUS
 62
     7
 10
75.50865136844216
 20
149.0337967401673
 30
0.0
 11
74.49134863155783
 21
149.0337967401673
 31
0.0
  0
ARC
  5
416
  8
0
  6
CONTINUOUS
 62
     7
 10
74.49134863155786
 20
149.5337967401673
 30
0.0
 40
0.5000000000000059
 50
180.9999999999999
 51
270.0
  0
LINE
  5
417
  8
0
  6
CONTINUOUS
 62
     7
 10
73.99142478397965
 20
149.5250705369486
 30
0.0
 11
73.96399374258286
 21
151.0965938460634
 31
0.0
  0
ARC
  5
418
  8
0
  6
CONTINUOUS
 62
     7
 10
75.50865136844216
 20
149.5337967401673
 30
0.0
 40
0.5000000000000004
 50
270.0
 51
355.5
  0
ARC
  5
419
  8
0
  6
CONTINUOUS
 62
     7
 10
75.50865136844216
 20
149.5337967401673
 30
0.0
 40
0.5000000000000051
 50
355.5
 51
359.0000000000001
  0
LINE
  5
41A
  8
0
  6
CONTINUOUS
 62
     7
 10
76.03600625741716
 20
151.0965938460634
 30
0.0
 11
76.00857521602036
 21
149.5250705369486
 31
0.0
  0
LINE
  5
41B
  8
0
  6
CONTINUOUS
 62
     7
 10
93.70715253917366
 20
156.2770821589382
 30
0.0
 11
93.7158631807085
 21
156.5337957819977
 31
0.0
  0
LINE
  5
41C
  8
0
  6
CONTINUOUS
 62
     7
 10
76.12643201727826
 20
156.2770821589382
 30
0.0
 11
93.70715253917366
 21
156.2770821589382
 31
0.0
  0
LINE
  5
41D
  8
0
  6
CONTINUOUS
 62
     7
 10
56.29284746082636
 20
156.2770821589382
 30
0.0
 11
73.87356798272175
 21
156.2770821589382
 31
0.0
  0
LINE
  5
41E
  8
0
  6
CONTINUOUS
 62
     7
 10
56.28413678678108
 20
156.5337967401672
 30
0.0
 11
56.29284746082636
 21
156.2770821589382
 31
0.0
  0
LINE
  5
41F
  8
0
  6
CONTINUOUS
 62
     7
 10
93.70715253917366
 20
156.2770821589382
 30
0.0
 11
91.94714356519457
 21
154.5338728940392
 31
0.0
  0
LINE
  5
420
  8
0
  6
CONTINUOUS
 62
     7
 10
91.94714356519248
 20
154.5338728940392
 30
0.0
 11
76.09600418637584
 21
154.533872894039
 31
0.0
  0
LINE
  5
421
  8
0
  6
CONTINUOUS
 62
     7
 10
73.90399581362416
 20
154.533872894039
 30
0.0
 11
58.05285643480754
 21
154.533872894039
 31
0.0
  0
LINE
  5
422
  8
0
  6
CONTINUOUS
 62
     7
 10
58.05285643480546
 20
154.5338728940385
 30
0.0
 11
56.29284746082636
 21
156.2770821589382
 31
0.0
  0
LINE
  5
423
  8
0
  6
CONTINUOUS
 62
     7
 10
91.90881632885566
 20
149.5294334724175
 30
0.0
 11
91.9087636560627
 21
149.5250705369486
 31
0.0
  0
LINE
  5
424
  8
0
  6
CONTINUOUS
 62
     7
 10
91.43102166974714
 20
149.0337967401673
 30
0.0
 11
91.4341352329493
 21
149.0338070555788
 31
0.0
  0
LINE
  5
425
  8
0
  6
CONTINUOUS
 62
     7
 10
91.4341352329493
 20
149.0338070555788
 30
0.0
 11
91.45195560399401
 21
149.0342637673288
 31
0.0
  0
LINE
  5
426
  8
0
  6
CONTINUOUS
 62
     7
 10
91.45195560399401
 20
149.0342637673288
 30
0.0
 11
91.4697852122784
 21
149.0354016582582
 31
0.0
  0
LINE
  5
427
  8
0
  6
CONTINUOUS
 62
     7
 10
91.4697852122784
 20
149.0354016582582
 30
0.0
 11
91.4875900694813
 21
149.0372245548616
 31
0.0
  0
LINE
  5
428
  8
0
  6
CONTINUOUS
 62
     7
 10
91.4875900694813
 20
149.0372245548616
 30
0.0
 11
91.50540999525298
 21
149.0397458133451
 31
0.0
  0
LINE
  5
429
  8
0
  6
CONTINUOUS
 62
     7
 10
91.50540999525298
 20
149.0397458133451
 30
0.0
 11
91.5231788570243
 21
149.042966884827
 31
0.0
  0
LINE
  5
42A
  8
0
  6
CONTINUOUS
 62
     7
 10
91.5231788570243
 20
149.042966884827
 30
0.0
 11
91.5409355881524
 21
149.0469073118441
 31
0.0
  0
LINE
  5
42B
  8
0
  6
CONTINUOUS
 62
     7
 10
91.5409355881524
 20
149.0469073118441
 30
0.0
 11
91.5586127866396
 21
149.0515663464208
 31
0.0
  0
LINE
  5
42C
  8
0
  6
CONTINUOUS
 62
     7
 10
91.5586127866396
 20
149.0515663464208
 30
0.0
 11
91.57621666560169
 21
149.0569597431995
 31
0.0
  0
LINE
  5
42D
  8
0
  6
CONTINUOUS
 62
     7
 10
91.57621666560169
 20
149.0569597431995
 30
0.0
 11
91.59764411008663
 21
149.0645806453923
 31
0.0
  0
LINE
  5
42E
  8
0
  6
CONTINUOUS
 62
     7
 10
91.59764411008663
 20
149.0645806453923
 30
0.0
 11
91.61893290358844
 21
149.0733582591552
 31
0.0
  0
LINE
  5
42F
  8
0
  6
CONTINUOUS
 62
     7
 10
91.61893290358844
 20
149.0733582591552
 30
0.0
 11
91.63999405357205
 21
149.0832980423279
 31
0.0
  0
LINE
  5
430
  8
0
  6
CONTINUOUS
 62
     7
 10
91.63999405357205
 20
149.0832980423279
 30
0.0
 11
91.66092227325487
 21
149.0945007833269
 31
0.0
  0
LINE
  5
431
  8
0
  6
CONTINUOUS
 62
     7
 10
91.66092227325487
 20
149.0945007833269
 30
0.0
 11
91.68154083108102
 21
149.1069355833072
 31
0.0
  0
LINE
  5
432
  8
0
  6
CONTINUOUS
 62
     7
 10
91.68154083108102
 20
149.1069355833072
 30
0.0
 11
91.70193390149898
 21
149.1207265453065
 31
0.0
  0
LINE
  5
433
  8
0
  6
CONTINUOUS
 62
     7
 10
91.70193390149898
 20
149.1207265453065
 30
0.0
 11
91.72191436932589
 21
149.1358307715423
 31
0.0
  0
LINE
  5
434
  8
0
  6
CONTINUOUS
 62
     7
 10
91.72191436932589
 20
149.1358307715423
 30
0.0
 11
91.74147488749936
 21
149.1523292988525
 31
0.0
  0
LINE
  5
435
  8
0
  6
CONTINUOUS
 62
     7
 10
91.74147488749936
 20
149.1523292988525
 30
0.0
 11
91.75368950955016
 21
149.1635928982805
 31
0.0
  0
LINE
  5
436
  8
0
  6
CONTINUOUS
 62
     7
 10
91.75368950955016
 20
149.1635928982805
 30
0.0
 11
91.76564611443801
 21
149.1754149514475
 31
0.0
  0
LINE
  5
437
  8
0
  6
CONTINUOUS
 62
     7
 10
91.76564611443801
 20
149.1754149514475
 30
0.0
 11
91.77737376557602
 21
149.187855607576
 31
0.0
  0
LINE
  5
438
  8
0
  6
CONTINUOUS
 62
     7
 10
91.77737376557602
 20
149.187855607576
 30
0.0
 11
91.78879805260904
 21
149.2008697197806
 31
0.0
  0
LINE
  5
439
  8
0
  6
CONTINUOUS
 62
     7
 10
91.78879805260904
 20
149.2008697197806
 30
0.0
 11
91.79842838867329
 21
149.2126069637282
 31
0.0
  0
LINE
  5
43A
  8
0
  6
CONTINUOUS
 62
     7
 10
91.79842838867329
 20
149.2126069637282
 30
0.0
 11
91.80779674966927
 21
149.2247788334853
 31
0.0
  0
LINE
  5
43B
  8
0
  6
CONTINUOUS
 62
     7
 10
91.80779674966927
 20
149.2247788334853
 30
0.0
 11
91.81692315889157
 21
149.2374401457848
 31
0.0
  0
LINE
  5
43C
  8
0
  6
CONTINUOUS
 62
     7
 10
91.81692315889157
 20
149.2374401457848
 30
0.0
 11
91.82574908185484
 21
149.2505401895436
 31
0.0
  0
LINE
  5
43D
  8
0
  6
CONTINUOUS
 62
     7
 10
91.82574908185484
 20
149.2505401895436
 30
0.0
 11
91.83344600995436
 21
149.2627480420579
 31
0.0
  0
LINE
  5
43E
  8
0
  6
CONTINUOUS
 62
     7
 10
91.83344600995436
 20
149.2627480420579
 30
0.0
 11
91.84087419346436
 21
149.275323576389
 31
0.0
  0
LINE
  5
43F
  8
0
  6
CONTINUOUS
 62
     7
 10
91.84087419346436
 20
149.275323576389
 30
0.0
 11
91.84814472720744
 21
149.2885044337364
 31
0.0
  0
LINE
  5
440
  8
0
  6
CONTINUOUS
 62
     7
 10
91.84814472720744
 20
149.2885044337364
 30
0.0
 11
91.85509391446003
 21
149.3020455295603
 31
0.0
  0
LINE
  5
441
  8
0
  6
CONTINUOUS
 62
     7
 10
91.85509391446003
 20
149.3020455295603
 30
0.0
 11
91.86173675796475
 21
149.3160125150954
 31
0.0
  0
LINE
  5
442
  8
0
  6
CONTINUOUS
 62
     7
 10
91.86173675796475
 20
149.3160125150954
 30
0.0
 11
91.86801845766765
 21
149.3303279069038
 31
0.0
  0
LINE
  5
443
  8
0
  6
CONTINUOUS
 62
     7
 10
91.86801845766765
 20
149.3303279069038
 30
0.0
 11
91.87396121481721
 21
149.3450884291553
 31
0.0
  0
LINE
  5
444
  8
0
  6
CONTINUOUS
 62
     7
 10
91.87396121481721
 20
149.3450884291553
 30
0.0
 11
91.87949919650777
 21
149.360178191287
 31
0.0
  0
LINE
  5
445
  8
0
  6
CONTINUOUS
 62
     7
 10
91.87949919650777
 20
149.360178191287
 30
0.0
 11
91.88464482346431
 21
149.3756836451018
 31
0.0
  0
LINE
  5
446
  8
0
  6
CONTINUOUS
 62
     7
 10
91.88464482346431
 20
149.3756836451018
 30
0.0
 11
91.88934155406308
 21
149.3914879656866
 31
0.0
  0
LINE
  5
447
  8
0
  6
CONTINUOUS
 62
     7
 10
91.88934155406308
 20
149.3914879656866
 30
0.0
 11
91.89350418696661
 21
149.4073020678744
 31
0.0
  0
LINE
  5
448
  8
0
  6
CONTINUOUS
 62
     7
 10
91.89350418696661
 20
149.4073020678744
 30
0.0
 11
91.89719761061048
 21
149.4233613996798
 31
0.0
  0
LINE
  5
449
  8
0
  6
CONTINUOUS
 62
     7
 10
91.89719761061048
 20
149.4233613996798
 30
0.0
 11
91.90042815261903
 21
149.4397664156589
 31
0.0
  0
LINE
  5
44A
  8
0
  6
CONTINUOUS
 62
     7
 10
91.90042815261903
 20
149.4397664156589
 30
0.0
 11
91.9031515763162
 21
149.4563655870715
 31
0.0
  0
LINE
  5
44B
  8
0
  6
CONTINUOUS
 62
     7
 10
91.9031515763162
 20
149.4563655870715
 30
0.0
 11
91.90537446785994
 21
149.4733033831293
 31
0.0
  0
LINE
  5
44C
  8
0
  6
CONTINUOUS
 62
     7
 10
91.90537446785994
 20
149.4733033831293
 30
0.0
 11
91.9070554761625
 21
149.4903732730577
 31
0.0
  0
LINE
  5
44D
  8
0
  6
CONTINUOUS
 62
     7
 10
91.9070554761625
 20
149.4903732730577
 30
0.0
 11
91.90819271355913
 21
149.5076922946373
 31
0.0
  0
LINE
  5
44E
  8
0
  6
CONTINUOUS
 62
     7
 10
91.90819271355913
 20
149.5076922946373
 30
0.0
 11
91.9087636560627
 21
149.5250705369486
 31
0.0
  0
LINE
  5
44F
  8
0
  6
CONTINUOUS
 62
     7
 10
91.43102166974714
 20
149.0337967401673
 30
0.0
 11
75.50865136844216
 21
149.0337967401673
 31
0.0
  0
LINE
  5
450
  8
0
  6
CONTINUOUS
 62
     7
 10
58.09123634393731
 20
149.5250705369486
 30
0.0
 11
58.09178322321369
 21
149.5081806618174
 31
0.0
  0
LINE
  5
451
  8
0
  6
CONTINUOUS
 62
     7
 10
58.09178322321369
 20
149.5081806618174
 30
0.0
 11
58.09286844876771
 21
149.4913096126963
 31
0.0
  0
LINE
  5
452
  8
0
  6
CONTINUOUS
 62
     7
 10
58.09286844876771
 20
149.4913096126963
 30
0.0
 11
58.09450239827682
 21
149.4743852538563
 31
0.0
  0
LINE
  5
453
  8
0
  6
CONTINUOUS
 62
     7
 10
58.09450239827682
 20
149.4743852538563
 30
0.0
 11
58.09666923196563
 21
149.457588442825
 31
0.0
  0
LINE
  5
454
  8
0
  6
CONTINUOUS
 62
     7
 10
58.09666923196563
 20
149.457588442825
 30
0.0
 11
58.09938402485935
 21
149.4408131573253
 31
0.0
  0
LINE
  5
455
  8
0
  6
CONTINUOUS
 62
     7
 10
58.09938402485935
 20
149.4408131573253
 30
0.0
 11
58.1026168760725
 21
149.4242339248757
 31
0.0
  0
LINE
  5
456
  8
0
  6
CONTINUOUS
 62
     7
 10
58.1026168760725
 20
149.4242339248757
 30
0.0
 11
58.10638594944925
 21
149.407747815967
 31
0.0
  0
LINE
  5
457
  8
0
  6
CONTINUOUS
 62
     7
 10
58.10638594944925
 20
149.407747815967
 30
0.0
 11
58.11065844593692
 21
149.3914879656866
 31
0.0
  0
LINE
  5
458
  8
0
  6
CONTINUOUS
 62
     7
 10
58.11065844593692
 20
149.3914879656866
 30
0.0
 11
58.11525489048638
 21
149.3760024427112
 31
0.0
  0
LINE
  5
459
  8
0
  6
CONTINUOUS
 62
     7
 10
58.11525489048638
 20
149.3760024427112
 30
0.0
 11
58.12029151631867
 21
149.3607782724583
 31
0.0
  0
LINE
  5
45A
  8
0
  6
CONTINUOUS
 62
     7
 10
58.12029151631867
 20
149.3607782724583
 30
0.0
 11
58.12577925475747
 21
149.3457643574226
 31
0.0
  0
LINE
  5
45B
  8
0
  6
CONTINUOUS
 62
     7
 10
58.12577925475747
 20
149.3457643574226
 30
0.0
 11
58.13166785327545
 21
149.3310751483025
 31
0.0
  0
LINE
  5
45C
  8
0
  6
CONTINUOUS
 62
     7
 10
58.13166785327545
 20
149.3310751483025
 30
0.0
 11
58.13797705057841
 21
149.3166396744695
 31
0.0
  0
LINE
  5
45D
  8
0
  6
CONTINUOUS
 62
     7
 10
58.13797705057841
 20
149.3166396744695
 30
0.0
 11
58.14465347286762
 21
149.3025572190457
 31
0.0
  0
LINE
  5
45E
  8
0
  6
CONTINUOUS
 62
     7
 10
58.14465347286762
 20
149.3025572190457
 30
0.0
 11
58.15171814224549
 21
149.2887620989445
 31
0.0
  0
LINE
  5
45F
  8
0
  6
CONTINUOUS
 62
     7
 10
58.15171814224549
 20
149.2887620989445
 30
0.0
 11
58.15912580653566
 21
149.275323576389
 31
0.0
  0
LINE
  5
460
  8
0
  6
CONTINUOUS
 62
     7
 10
58.15912580653566
 20
149.275323576389
 30
0.0
 11
58.16855595730712
 21
149.2594967546197
 31
0.0
  0
LINE
  5
461
  8
0
  6
CONTINUOUS
 62
     7
 10
58.16855595730712
 20
149.2594967546197
 30
0.0
 11
58.17843813716651
 21
149.2442130361665
 31
0.0
  0
LINE
  5
462
  8
0
  6
CONTINUOUS
 62
     7
 10
58.17843813716651
 20
149.2442130361665
 30
0.0
 11
58.18805917684702
 21
149.2304238100314
 31
0.0
  0
LINE
  5
463
  8
0
  6
CONTINUOUS
 62
     7
 10
58.18805917684702
 20
149.2304238100314
 30
0.0
 11
58.19801302286933
 21
149.2171382049437
 31
0.0
  0
LINE
  5
464
  8
0
  6
CONTINUOUS
 62
     7
 10
58.19801302286933
 20
149.2171382049437
 30
0.0
 11
58.20832750973052
 21
149.2042958408528
 31
0.0
  0
LINE
  5
465
  8
0
  6
CONTINUOUS
 62
     7
 10
58.20832750973052
 20
149.2042958408528
 30
0.0
 11
58.21893428051695
 21
149.1919597975151
 31
0.0
  0
LINE
  5
466
  8
0
  6
CONTINUOUS
 62
     7
 10
58.21893428051695
 20
149.1919597975151
 30
0.0
 11
58.22852978032331
 21
149.1814830409526
 31
0.0
  0
LINE
  5
467
  8
0
  6
CONTINUOUS
 62
     7
 10
58.22852978032331
 20
149.1814830409526
 30
0.0
 11
58.23832468563388
 21
149.1713966712818
 31
0.0
  0
LINE
  5
468
  8
0
  6
CONTINUOUS
 62
     7
 10
58.23832468563388
 20
149.1713966712818
 30
0.0
 11
58.24833661298848
 21
149.1616696884946
 31
0.0
  0
LINE
  5
469
  8
0
  6
CONTINUOUS
 62
     7
 10
58.24833661298848
 20
149.1616696884946
 30
0.0
 11
58.25852511250065
 21
149.1523292988525
 31
0.0
  0
LINE
  5
46A
  8
0
  6
CONTINUOUS
 62
     7
 10
58.25852511250065
 20
149.1523292988525
 30
0.0
 11
58.27749901970529
 21
149.1362998824409
 31
0.0
  0
LINE
  5
46B
  8
0
  6
CONTINUOUS
 62
     7
 10
58.27749901970529
 20
149.1362998824409
 30
0.0
 11
58.29700105695429
 21
149.1214903792084
 31
0.0
  0
LINE
  5
46C
  8
0
  6
CONTINUOUS
 62
     7
 10
58.29700105695429
 20
149.1214903792084
 30
0.0
 11
58.31707641616176
 21
149.1078221845456
 31
0.0
  0
LINE
  5
46D
  8
0
  6
CONTINUOUS
 62
     7
 10
58.31707641616176
 20
149.1078221845456
 30
0.0
 11
58.33757728607335
 21
149.0953574588032
 31
0.0
  0
LINE
  5
46E
  8
0
  6
CONTINUOUS
 62
     7
 10
58.33757728607335
 20
149.0953574588032
 30
0.0
 11
58.35860461790043
 21
149.0840057987494
 31
0.0
  0
LINE
  5
46F
  8
0
  6
CONTINUOUS
 62
     7
 10
58.35860461790043
 20
149.0840057987494
 30
0.0
 11
58.3799719740085
 21
149.0738436116079
 31
0.0
  0
LINE
  5
470
  8
0
  6
CONTINUOUS
 62
     7
 10
58.3799719740085
 20
149.0738436116079
 30
0.0
 11
58.40174518721572
 21
149.0648153756114
 31
0.0
  0
LINE
  5
471
  8
0
  6
CONTINUOUS
 62
     7
 10
58.40174518721572
 20
149.0648153756114
 30
0.0
 11
58.42378333439834
 21
149.0569597431995
 31
0.0
  0
LINE
  5
472
  8
0
  6
CONTINUOUS
 62
     7
 10
58.42378333439834
 20
149.0569597431995
 30
0.0
 11
58.44115581686108
 21
149.0516323059093
 31
0.0
  0
LINE
  5
473
  8
0
  6
CONTINUOUS
 62
     7
 10
58.44115581686108
 20
149.0516323059093
 30
0.0
 11
58.45864876572894
 21
149.0470083417148
 31
0.0
  0
LINE
  5
474
  8
0
  6
CONTINUOUS
 62
     7
 10
58.45864876572894
 20
149.0470083417148
 30
0.0
 11
58.47628517905078
 21
149.0430751734935
 31
0.0
  0
LINE
  5
475
  8
0
  6
CONTINUOUS
 62
     7
 10
58.47628517905078
 20
149.0430751734935
 30
0.0
 11
58.49401315955139
 21
149.0398392147839
 31
0.0
  0
LINE
  5
476
  8
0
  6
CONTINUOUS
 62
     7
 10
58.49401315955139
 20
149.0398392147839
 30
0.0
 11
58.51187317715424
 21
149.0372902578555
 31
0.0
  0
LINE
  5
477
  8
0
  6
CONTINUOUS
 62
     7
 10
58.51187317715424
 20
149.0372902578555
 30
0.0
 11
58.52979777196031
 21
149.0354364739621
 31
0.0
  0
LINE
  5
478
  8
0
  6
CONTINUOUS
 62
     7
 10
58.52979777196031
 20
149.0354364739621
 30
0.0
 11
58.5478120569528
 21
149.0342742033604
 31
0.0
  0
LINE
  5
479
  8
0
  6
CONTINUOUS
 62
     7
 10
58.5478120569528
 20
149.0342742033604
 30
0.0
 11
58.56586476705071
 21
149.0338070555788
 31
0.0
  0
LINE
  5
47A
  8
0
  6
CONTINUOUS
 62
     7
 10
58.56586476705071
 20
149.0338070555788
 30
0.0
 11
58.56897833025287
 21
149.0337967401673
 31
0.0
  0
LINE
  5
47B
  8
0
  6
CONTINUOUS
 62
     7
 10
58.09123634393731
 20
149.5250705369486
 30
0.0
 11
58.09118367114435
 21
149.5294334724182
 31
0.0
  0
LINE
  5
47C
  8
0
  6
CONTINUOUS
 62
     7
 10
74.49134863155786
 20
149.0337967401673
 30
0.0
 11
58.56897833025287
 21
149.0337967401673
 31
0.0
  0
LINE
  5
47D
  8
0
  6
CONTINUOUS
 62
     7
 10
58.05285643480539
 20
154.5338728940479
 30
0.0
 11
58.09118367114436
 21
149.5294334724188
 31
0.0
  0
LINE
  5
47E
  8
0
  6
CONTINUOUS
 62
     7
 10
91.90881632885565
 20
149.5294334724156
 30
0.0
 11
91.94714356519461
 21
154.5338728940442
 31
0.0
  0
LINE
  5
47F
  8
0
  6
CONTINUOUS
 62
     7
 10
93.71198901147227
 20
149.0337967401673
 30
0.0
 11
91.43102166974714
 21
149.0337967401673
 31
0.0
  0
LINE
  5
480
  8
0
  6
CONTINUOUS
 62
     7
 10
58.56897833025287
 20
149.0337967401673
 30
0.0
 11
56.28801098852774
 21
149.0337967401673
 31
0.0
  0
LINE
  5
481
  8
0
  6
CONTINUOUS
 62
     7
 10
93.7189011157193
 20
149.0337967401673
 30
0.0
 11
93.71198901147227
 21
149.0337967401673
 31
0.0
  0
LINE
  5
482
  8
0
  6
CONTINUOUS
 62
     7
 10
56.28801098852774
 20
149.0337967401673
 30
0.0
 11
56.28109888428072
 21
149.0337967401673
 31
0.0
  0
LINE
  5
483
  8
0
  6
CONTINUOUS
 62
     7
 10
102.5
 20
176.5337967401673
 30
0.0
 11
102.5
 21
178.5337967401673
 31
0.0
  0
LINE
  5
484
  8
0
  6
CONTINUOUS
 62
     7
 10
47.50000000000001
 20
178.5337967401673
 30
0.0
 11
47.50000000000001
 21
176.5337967401673
 31
0.0
  0
LINE
  5
485
  8
0
  6
CONTINUOUS
 62
     7
 10
52.00000000000001
 20
196.0337967401673
 30
0.0
 11
52.00000000000001
 21
193.5337967401673
 31
0.0
  0
LINE
  5
486
  8
0
  6
CONTINUOUS
 62
     7
 10
98.0
 20
193.5337967401673
 30
0.0
 11
98.0
 21
196.0337967401673
 31
0.0
  0
ARC
  5
487
  8
0
  6
CONTINUOUS
 62
     7
 10
53.50000000000002
 20
196.0337967401673
 30
0.0
 40
1.500000000000001
 50
90.0
 51
180.0
  0
ARC
  5
488
  8
0
  6
CONTINUOUS
 62
     7
 10
96.5
 20
196.0337967401673
 30
0.0
 40
1.500000000000001
 50
0.0
 51
90.0
  0
LINE
  5
489
  8
0
  6
CONTINUOUS
 62
     7
 10
47.50000000000001
 20
180.0337967401673
 30
0.0
 11
47.50000000000001
 21
178.5337967401673
 31
0.0
  0
LINE
  5
48A
  8
0
  6
CONTINUOUS
 62
     7
 10
102.5
 20
178.5337967401673
 30
0.0
 11
102.5
 21
180.0337967401673
 31
0.0
  0
ARC
  5
48B
  8
0
  6
CONTINUOUS
 62
     7
 10
102.0
 20
180.0337967401673
 30
0.0
 40
0.5000000000000004
 50
0.0
 51
89.99999999999962
  0
ARC
  5
48C
  8
0
  6
CONTINUOUS
 62
     7
 10
48.00000000000001
 20
180.0337967401673
 30
0.0
 40
0.5000000000000004
 50
90.00000000000043
 51
180.0
  0
LINE
  5
48D
  8
0
  6
CONTINUOUS
 62
     7
 10
53.43614257404047
 20
190.2023893667477
 30
0.0
 11
52.90362122727183
 21
190.2023893667477
 31
0.0
  0
ARC
  5
48E
  8
0
  6
CONTINUOUS
 62
     7
 10
98.28416208646678
 20
191.5337967401673
 30
0.0
 40
2.000000000000009
 50
8.746162262556341
 51
90.00000000000004
  0
ARC
  5
48F
  8
0
  6
CONTINUOUS
 62
     7
 10
51.71583791353323
 20
191.5337967401673
 30
0.0
 40
2.000000000000002
 50
90.0
 51
171.2538377374437
  0
LINE
  5
490
  8
0
  6
CONTINUOUS
 62
     7
 10
102.0
 20
180.5337967401673
 30
0.0
 11
100.260905481768
 21
191.8379111086752
 31
0.0
  0
LINE
  5
491
  8
0
  6
CONTINUOUS
 62
     7
 10
49.73909451823199
 20
191.8379111086752
 30
0.0
 11
48.00000000000001
 21
180.5337967401673
 31
0.0
  0
ARC
  5
492
  8
0
  6
CONTINUOUS
 62
     7
 10
102.0
 20
176.2337967401673
 30
0.0
 40
0.5000000000000004
 50
0.0
 51
36.86989764584376
  0
ARC
  5
493
  8
0
  6
CONTINUOUS
 62
     7
 10
48.00000000000001
 20
176.2337967401673
 30
0.0
 40
0.4999999999999949
 50
143.1301023541562
 51
180.0
  0
LINE
  5
494
  8
0
  6
CONTINUOUS
 62
     7
 10
47.50000000000001
 20
176.2337967401673
 30
0.0
 11
47.50000000000001
 21
175.0337967401673
 31
0.0
  0
LINE
  5
495
  8
0
  6
CONTINUOUS
 62
     7
 10
102.5
 20
175.0337967401673
 30
0.0
 11
102.5
 21
176.2337967401673
 31
0.0
  0
ARC
  5
496
  8
0
  6
CONTINUOUS
 62
     7
 10
48.00000000000001
 20
175.0337967401673
 30
0.0
 40
0.5000000000000004
 50
180.0
 51
270.0
  0
ARC
  5
497
  8
0
  6
CONTINUOUS
 62
     7
 10
102.0
 20
175.0337967401673
 30
0.0
 40
0.5000000000000004
 50
270.0
 51
0.0
  0
LINE
  5
498
  8
0
  6
CONTINUOUS
 62
     7
 10
50.58580883129208
 20
174.5337967401673
 30
0.0
 11
50.89142478397966
 21
157.0250705369485
 31
0.0
  0
LINE
  5
499
  8
0
  6
CONTINUOUS
 62
     7
 10
99.10857521602037
 20
157.0250705369485
 30
0.0
 11
99.41419116870793
 21
174.5337967401673
 31
0.0
  0
ARC
  5
49A
  8
0
  6
CONTINUOUS
 62
     7
 10
51.39134863155785
 20
157.0337967401672
 30
0.0
 40
0.5000000000000073
 50
181.0000000000113
 51
252.465296144036
  0
ARC
  5
49B
  8
0
  6
CONTINUOUS
 62
     7
 10
98.60865136844217
 20
157.0337967401672
 30
0.0
 40
0.5000000000000069
 50
287.534703855964
 51
358.9999999999886
  0
ARC
  5
49C
  8
0
  6
CONTINUOUS
 62
     7
 10
93.7189011157193
 20
152.0337967401673
 30
0.0
 40
3.000000000000003
 50
270.0
 51
338.1985905136481
  0
ARC
  5
49D
  8
0
  6
CONTINUOUS
 62
     7
 10
56.28109888428072
 20
152.0337967401673
 30
0.0
 40
2.999999999999996
 50
201.8014094863519
 51
270.0
  0
LINE
  5
49E
  8
0
  6
CONTINUOUS
 62
     7
 10
96.50433118837509
 20
150.919624711105
 30
0.0
 11
98.75929307213002
 21
156.5570294204923
 31
0.0
  0
LINE
  5
49F
  8
0
  6
CONTINUOUS
 62
     7
 10
51.24070692786999
 20
156.5570294204923
 30
0.0
 11
53.49566881162494
 21
150.919624711105
 31
0.0
  0
ARC
  5
4A0
  8
0
  6
CONTINUOUS
 62
     7
 10
75.00000000000001
 20
108.0
 30
0.0
 40
15.0
 50
183.8225537292744
 51
266.1774462707257
  0
ARC
  5
4A1
  8
0
  6
CONTINUOUS
 62
     7
 10
75.00000000000001
 20
108.0
 30
0.0
 40
13.0
 50
184.4117257857703
 51
265.58827421423
  0
CIRCLE
  5
4A2
  8
0
  6
CONTINUOUS
 62
     7
 10
67.0
 20
101.0717967697245
 30
0.0
 40
1.250000000000001
  0
LINE
  5
4A3
  8
0
  6
CONTINUOUS
 62
     7
 10
74.00000000000003
 20
120.9614813968158
 30
0.0
 11
74.00000000000001
 21
122.9666295470958
 31
0.0
  0
ARC
  5
4A4
  8
0
  6
CONTINUOUS
 62
     7
 10
75.00000000000001
 20
108.0
 30
0.0
 40
15.0
 50
93.82255372927435
 51
176.1774462707257
  0
LINE
  5
4A5
  8
0
  6
CONTINUOUS
 62
     7
 10
60.03337045290424
 20
109.0
 30
0.0
 11
62.03851860318429
 21
109.0000000000001
 31
0.0
  0
ARC
  5
4A6
  8
0
  6
CONTINUOUS
 62
     7
 10
75.00000000000001
 20
108.0
 30
0.0
 40
13.0
 50
94.4117257857702
 51
175.5882742142299
  0
CIRCLE
  5
4A7
  8
0
  6
CONTINUOUS
 62
     7
 10
65.0
 20
111.4641016151378
 30
0.0
 40
1.250000000000001
  0
CIRCLE
  5
4A8
  8
0
  6
CONTINUOUS
 62
     7
 10
69.0
 20
111.4641016151378
 30
0.0
 40
1.250000000000001
  0
CIRCLE
  5
4A9
  8
0
  6
CONTINUOUS
 62
     7
 10
73.00000000000001
 20
111.4641016151378
 30
0.0
 40
1.250000000000001
  0
CIRCLE
  5
4AA
  8
0
  6
CONTINUOUS
 62
     7
 10
67.0
 20
114.9282032302756
 30
0.0
 40
1.250000000000001
  0
CIRCLE
  5
4AB
  8
0
  6
CONTINUOUS
 62
     7
 10
71.0
 20
108.0
 30
0.0
 40
1.250000000000001
  0
CIRCLE
  5
4AC
  8
0
  6
CONTINUOUS
 62
     7
 10
67.0
 20
108.0
 30
0.0
 40
1.250000000000001
  0
LINE
  5
4AD
  8
0
  6
CONTINUOUS
 62
     7
 10
76.0
 20
95.03851860318431
 30
0.0
 11
76.00000000000001
 21
93.03337045290426
 31
0.0
  0
ARC
  5
4AE
  8
0
  6
CONTINUOUS
 62
     7
 10
75.00000000000001
 20
108.0
 30
0.0
 40
15.0
 50
273.8225537292743
 51
356.1774462707257
  0
LINE
  5
4AF
  8
0
  6
CONTINUOUS
 62
     7
 10
89.96662954709578
 20
107.0
 30
0.0
 11
87.96148139681573
 21
107.0
 31
0.0
  0
ARC
  5
4B0
  8
0
  6
CONTINUOUS
 62
     7
 10
75.00000000000001
 20
108.0
 30
0.0
 40
13.0
 50
274.41172578577
 51
355.5882742142297
  0
CIRCLE
  5
4B1
  8
0
  6
CONTINUOUS
 62
     7
 10
85.00000000000001
 20
104.5358983848623
 30
0.0
 40
1.250000000000001
  0
CIRCLE
  5
4B2
  8
0
  6
CONTINUOUS
 62
     7
 10
77.00000000000001
 20
104.5358983848623
 30
0.0
 40
1.250000000000001
  0
CIRCLE
  5
4B3
  8
0
  6
CONTINUOUS
 62
     7
 10
83.00000000000001
 20
101.0717967697245
 30
0.0
 40
1.250000000000001
  0
CIRCLE
  5
4B4
  8
0
  6
CONTINUOUS
 62
     7
 10
79.00000000000001
 20
101.0717967697245
 30
0.0
 40
1.250000000000001
  0
CIRCLE
  5
4B5
  8
0
  6
CONTINUOUS
 62
     7
 10
77.00000000000001
 20
97.60769515458678
 30
0.0
 40
1.250000000000001
  0
LINE
  5
4B6
  8
0
  6
CONTINUOUS
 62
     7
 10
89.96662954709578
 20
109.0
 30
0.0
 11
87.96148139681573
 21
109.0000000000001
 31
0.0
  0
ARC
  5
4B7
  8
0
  6
CONTINUOUS
 62
     7
 10
75.00000000000001
 20
108.0
 30
0.0
 40
15.0
 50
3.822553729274318
 51
86.17744627072568
  0
LINE
  5
4B8
  8
0
  6
CONTINUOUS
 62
     7
 10
76.0
 20
120.9614813968158
 30
0.0
 11
76.00000000000001
 21
122.9666295470958
 31
0.0
  0
ARC
  5
4B9
  8
0
  6
CONTINUOUS
 62
     7
 10
75.00000000000001
 20
108.0
 30
0.0
 40
13.0
 50
4.411725785770281
 51
85.58827421422997
  0
CIRCLE
  5
4BA
  8
0
  6
CONTINUOUS
 62
     7
 10
85.00000000000001
 20
111.4641016151378
 30
0.0
 40
1.250000000000001
  0
CIRCLE
  5
4BB
  8
0
  6
CONTINUOUS
 62
     7
 10
77.00000000000001
 20
111.4641016151378
 30
0.0
 40
1.250000000000001
  0
CIRCLE
  5
4BC
  8
0
  6
CONTINUOUS
 62
     7
 10
83.00000000000001
 20
114.9282032302756
 30
0.0
 40
1.250000000000001
  0
CIRCLE
  5
4BD
  8
0
  6
CONTINUOUS
 62
     7
 10
79.00000000000001
 20
114.9282032302756
 30
0.0
 40
1.250000000000001
  0
CIRCLE
  5
4BE
  8
0
  6
CONTINUOUS
 62
     7
 10
77.00000000000001
 20
118.3923048454133
 30
0.0
 40
1.250000000000001
  0
CIRCLE
  5
4BF
  8
0
  6
CONTINUOUS
 62
     7
 10
79.00000000000001
 20
108.0
 30
0.0
 40
1.250000000000001
  0
CIRCLE
  5
4C0
  8
0
  6
CONTINUOUS
 62
     7
 10
83.00000000000001
 20
108.0
 30
0.0
 40
1.250000000000001
  0
CIRCLE
  5
4C1
  8
0
  6
CONTINUOUS
 62
     7
 10
75.00000000000001
 20
101.0717967697245
 30
0.0
 40
1.250000000000001
  0
CIRCLE
  5
4C2
  8
0
  6
CONTINUOUS
 62
     7
 10
75.00000000000001
 20
108.0
 30
0.0
 40
1.250000000000001
  0
CIRCLE
  5
4C3
  8
0
  6
CONTINUOUS
 62
     7
 10
75.00000000000001
 20
114.9282032302756
 30
0.0
 40
1.250000000000001
  0
CIRCLE
  5
4C4
  8
0
  6
CONTINUOUS
 62
     7
 10
65.0
 20
104.5358983848623
 30
0.0
 40
1.250000000000001
  0
CIRCLE
  5
4C5
  8
0
  6
CONTINUOUS
 62
     7
 10
81.00000000000001
 20
104.5358983848623
 30
0.0
 40
1.250000000000001
  0
LINE
  5
4C6
  8
0
  6
CONTINUOUS
 62
     7
 10
74.00000000000003
 20
95.03851860318431
 30
0.0
 11
74.00000000000001
 21
93.03337045290426
 31
0.0
  0
LINE
  5
4C7
  8
0
  6
CONTINUOUS
 62
     7
 10
60.03337045290424
 20
107.0
 30
0.0
 11
62.03851860318429
 21
107.0
 31
0.0
  0
CIRCLE
  5
4C8
  8
0
  6
CONTINUOUS
 62
     7
 10
71.0
 20
101.0717967697245
 30
0.0
 40
1.250000000000001
  0
CIRCLE
  5
4C9
  8
0
  6
CONTINUOUS
 62
     7
 10
81.00000000000001
 20
111.4641016151378
 30
0.0
 40
1.250000000000001
  0
CIRCLE
  5
4CA
  8
0
  6
CONTINUOUS
 62
     7
 10
73.00000000000001
 20
118.3923048454133
 30
0.0
 40
1.250000000000001
  0
CIRCLE
  5
4CB
  8
0
  6
CONTINUOUS
 62
     7
 10
71.0
 20
114.9282032302756
 30
0.0
 40
1.250000000000001
  0
CIRCLE
  5
4CC
  8
0
  6
CONTINUOUS
 62
     7
 10
69.0
 20
104.5358983848623
 30
0.0
 40
1.250000000000001
  0
CIRCLE
  5
4CD
  8
0
  6
CONTINUOUS
 62
     7
 10
73.00000000000001
 20
97.60769515458678
 30
0.0
 40
1.250000000000001
  0
CIRCLE
  5
4CE
  8
0
  6
CONTINUOUS
 62
     7
 10
73.00000000000001
 20
104.5358983848623
 30
0.0
 40
1.250000000000001
  0
LINE
  5
4CF
  8
0
  6
CONTINUOUS
 62
     7
 10
58.09123634393731
 20
106.9914247839797
 30
0.0
 11
56.28801098852774
 21
106.9914247839797
 31
0.0
  0
LINE
  5
4D0
  8
0
  6
CONTINUOUS
 62
     7
 10
58.56897833025287
 20
107.4913486315579
 30
0.0
 11
58.09123634393731
 21
106.9914247839797
 31
0.0
  0
LINE
  5
4D1
  8
0
  6
CONTINUOUS
 62
     7
 10
56.28801098852774
 20
109.0085752160204
 30
0.0
 11
58.09123634393731
 21
109.0085752160204
 31
0.0
  0
LINE
  5
4D2
  8
0
  6
CONTINUOUS
 62
     7
 10
58.09123634393731
 20
109.0085752160204
 30
0.0
 11
58.56897833025287
 21
108.5086513684422
 31
0.0
  0
LINE
  5
4D3
  8
0
  6
CONTINUOUS
 62
     7
 10
91.9087636560627
 20
109.0085752160204
 30
0.0
 11
93.71198901147227
 21
109.0085752160204
 31
0.0
  0
LINE
  5
4D4
  8
0
  6
CONTINUOUS
 62
     7
 10
91.43102166974714
 20
108.5086513684422
 30
0.0
 11
91.9087636560627
 21
109.0085752160204
 31
0.0
  0
LINE
  5
4D5
  8
0
  6
CONTINUOUS
 62
     7
 10
93.71198901147227
 20
106.9914247839797
 30
0.0
 11
91.9087636560627
 21
106.9914247839797
 31
0.0
  0
LINE
  5
4D6
  8
0
  6
CONTINUOUS
 62
     7
 10
91.9087636560627
 20
106.9914247839797
 30
0.0
 11
91.43102166974714
 21
107.4913486315579
 31
0.0
  0
LINE
  5
4D7
  8
0
  6
CONTINUOUS
 62
     7
 10
75.50865136844216
 20
91.5689783302529
 30
0.0
 11
76.00857521602036
 21
91.09123634393734
 31
0.0
  0
LINE
  5
4D8
  8
0
  6
CONTINUOUS
 62
     7
 10
73.99142478397965
 20
91.09123634393734
 30
0.0
 11
74.49134863155786
 21
91.5689783302529
 31
0.0
  0
LINE
  5
4D9
  8
0
  6
CONTINUOUS
 62
     7
 10
76.00857521602036
 20
126.7119890114723
 30
0.0
 11
76.00857521602036
 21
124.9087636560627
 31
0.0
  0
LINE
  5
4DA
  8
0
  6
CONTINUOUS
 62
     7
 10
76.00857521602036
 20
124.9087636560627
 30
0.0
 11
75.50865136844216
 21
124.4310216697472
 31
0.0
  0
LINE
  5
4DB
  8
0
  6
CONTINUOUS
 62
     7
 10
73.99142478397965
 20
89.28801098852777
 30
0.0
 11
73.99142478397965
 21
91.09123634393734
 31
0.0
  0
LINE
  5
4DC
  8
0
  6
CONTINUOUS
 62
     7
 10
76.00857521602036
 20
91.09123634393734
 30
0.0
 11
76.00857521602036
 21
89.28801098852777
 31
0.0
  0
LINE
  5
4DD
  8
0
  6
CONTINUOUS
 62
     7
 10
73.99142478397965
 20
124.9087636560627
 30
0.0
 11
73.99142478397965
 21
126.7119890114723
 31
0.0
  0
LINE
  5
4DE
  8
0
  6
CONTINUOUS
 62
     7
 10
74.49134863155786
 20
124.4310216697472
 30
0.0
 11
73.99142478397965
 21
124.9087636560627
 31
0.0
  0
LINE
  5
4DF
  8
0
  6
CONTINUOUS
 62
     7
 10
58.09118367114436
 20
106.9913486286578
 30
0.0
 11
58.05285643480546
 21
106.9039958136241
 31
0.0
  0
LINE
  5
4E0
  8
0
  6
CONTINUOUS
 62
     7
 10
56.29284746082636
 20
106.8735679827218
 30
0.0
 11
58.05285643480546
 21
106.9039958136241
 31
0.0
  0
LINE
  5
4E1
  8
0
  6
CONTINUOUS
 62
     7
 10
56.29284746082636
 20
106.8735679827218
 30
0.0
 11
55.6753836138419
 21
106.5548958443305
 31
0.0
  0
LINE
  5
4E2
  8
0
  6
CONTINUOUS
 62
     7
 10
55.6753836138419
 20
106.5548958443305
 30
0.0
 11
53.57725939900298
 21
106.5548958443305
 31
0.0
  0
LINE
  5
4E3
  8
0
  6
CONTINUOUS
 62
     7
 10
52.92895480916408
 20
106.8690870130384
 30
0.0
 11
53.57725939900298
 21
106.5548958443305
 31
0.0
  0
LINE
  5
4E4
  8
0
  6
CONTINUOUS
 62
     7
 10
51.79360280971417
 20
106.8690870130384
 30
0.0
 11
52.92895480916408
 21
106.8690870130384
 31
0.0
  0
LINE
  5
4E5
  8
0
  6
CONTINUOUS
 62
     7
 10
76.0086513713425
 20
91.09118367114425
 30
0.0
 11
76.09600418637622
 21
91.05285643480536
 31
0.0
  0
LINE
  5
4E6
  8
0
  6
CONTINUOUS
 62
     7
 10
76.12643201727826
 20
89.29284746082638
 30
0.0
 11
76.09600418637598
 21
91.05285643480548
 31
0.0
  0
LINE
  5
4E7
  8
0
  6
CONTINUOUS
 62
     7
 10
76.12643201727826
 20
89.29284746082638
 30
0.0
 11
76.44510415566955
 21
88.67538361384193
 31
0.0
  0
LINE
  5
4E8
  8
0
  6
CONTINUOUS
 62
     7
 10
76.44510415566955
 20
88.67538361384193
 30
0.0
 11
76.44510415566955
 21
86.57725939900301
 31
0.0
  0
LINE
  5
4E9
  8
0
  6
CONTINUOUS
 62
     7
 10
76.13091298696165
 20
85.9289548091641
 30
0.0
 11
76.44510415566955
 21
86.57725939900301
 31
0.0
  0
LINE
  5
4EA
  8
0
  6
CONTINUOUS
 62
     7
 10
76.13091298696165
 20
84.79360280971419
 30
0.0
 11
76.13091298696165
 21
85.9289548091641
 31
0.0
  0
LINE
  5
4EB
  8
0
  6
CONTINUOUS
 62
     7
 10
91.90881632885566
 20
109.0086513713423
 30
0.0
 11
91.94714356519458
 21
109.096004186376
 31
0.0
  0
LINE
  5
4EC
  8
0
  6
CONTINUOUS
 62
     7
 10
93.70715253917366
 20
109.1264320172783
 30
0.0
 11
91.94714356519457
 21
109.096004186376
 31
0.0
  0
LINE
  5
4ED
  8
0
  6
CONTINUOUS
 62
     7
 10
93.70715253917366
 20
109.1264320172783
 30
0.0
 11
94.32461638615811
 21
109.4451041556696
 31
0.0
  0
LINE
  5
4EE
  8
0
  6
CONTINUOUS
 62
     7
 10
94.32461638615811
 20
109.4451041556696
 30
0.0
 11
96.42274060099703
 21
109.4451041556696
 31
0.0
  0
LINE
  5
4EF
  8
0
  6
CONTINUOUS
 62
     7
 10
97.07104519083595
 20
109.1309129869617
 30
0.0
 11
96.42274060099703
 21
109.4451041556696
 31
0.0
  0
LINE
  5
4F0
  8
0
  6
CONTINUOUS
 62
     7
 10
98.20639719028586
 20
109.1309129869617
 30
0.0
 11
97.07104519083595
 21
109.1309129869617
 31
0.0
  0
LINE
  5
4F1
  8
0
  6
CONTINUOUS
 62
     7
 10
73.99134862865802
 20
124.9088163288556
 30
0.0
 11
73.90399581362428
 21
124.9471435651945
 31
0.0
  0
LINE
  5
4F2
  8
0
  6
CONTINUOUS
 62
     7
 10
73.87356798272175
 20
126.7071525391737
 30
0.0
 11
73.90399581362402
 21
124.9471435651946
 31
0.0
  0
LINE
  5
4F3
  8
0
  6
CONTINUOUS
 62
     7
 10
73.87356798272175
 20
126.7071525391737
 30
0.0
 11
73.55489584433046
 21
127.3246163861582
 31
0.0
  0
LINE
  5
4F4
  8
0
  6
CONTINUOUS
 62
     7
 10
73.55489584433046
 20
127.3246163861582
 30
0.0
 11
73.55489584433046
 21
129.4227406009971
 31
0.0
  0
LINE
  5
4F5
  8
0
  6
CONTINUOUS
 62
     7
 10
73.86908701303838
 20
130.071045190836
 30
0.0
 11
73.55489584433046
 21
129.4227406009971
 31
0.0
  0
LINE
  5
4F6
  8
0
  6
CONTINUOUS
 62
     7
 10
73.86908701303838
 20
131.2063971902859
 30
0.0
 11
73.86908701303838
 21
130.071045190836
 31
0.0
  0
LINE
  5
4F7
  8
0
  6
CONTINUOUS
 62
     7
 10
76.44510415566955
 20
129.4227406009971
 30
0.0
 11
76.13091298696165
 21
130.071045190836
 31
0.0
  0
LINE
  5
4F8
  8
0
  6
CONTINUOUS
 62
     7
 10
76.44510415566955
 20
129.4227406009971
 30
0.0
 11
76.44510415566955
 21
127.3246163861582
 31
0.0
  0
LINE
  5
4F9
  8
0
  6
CONTINUOUS
 62
     7
 10
76.44510415566955
 20
127.3246163861582
 30
0.0
 11
76.12643201727826
 21
126.7071525391737
 31
0.0
  0
LINE
  5
4FA
  8
0
  6
CONTINUOUS
 62
     7
 10
76.09600418637598
 20
124.9471435651946
 30
0.0
 11
76.12643201727826
 21
126.7071525391737
 31
0.0
  0
LINE
  5
4FB
  8
0
  6
CONTINUOUS
 62
     7
 10
76.09600418637574
 20
124.9471435651945
 30
0.0
 11
76.00865137134203
 21
124.9088163288556
 31
0.0
  0
LINE
  5
4FC
  8
0
  6
CONTINUOUS
 62
     7
 10
76.13091298696165
 20
130.071045190836
 30
0.0
 11
76.13091298696165
 21
131.2063971902859
 31
0.0
  0
LINE
  5
4FD
  8
0
  6
CONTINUOUS
 62
     7
 10
53.57725939900298
 20
109.4451041556696
 30
0.0
 11
52.92895480916408
 21
109.1309129869617
 31
0.0
  0
LINE
  5
4FE
  8
0
  6
CONTINUOUS
 62
     7
 10
53.57725939900298
 20
109.4451041556696
 30
0.0
 11
55.6753836138419
 21
109.4451041556696
 31
0.0
  0
LINE
  5
4FF
  8
0
  6
CONTINUOUS
 62
     7
 10
55.6753836138419
 20
109.4451041556696
 30
0.0
 11
56.29284746082636
 21
109.1264320172783
 31
0.0
  0
LINE
  5
500
  8
0
  6
CONTINUOUS
 62
     7
 10
58.05285643480546
 20
109.096004186376
 30
0.0
 11
56.29284746082636
 21
109.1264320172783
 31
0.0
  0
LINE
  5
501
  8
0
  6
CONTINUOUS
 62
     7
 10
58.05285643480546
 20
109.096004186376
 30
0.0
 11
58.09118367114436
 21
109.0086513713423
 31
0.0
  0
LINE
  5
502
  8
0
  6
CONTINUOUS
 62
     7
 10
52.92895480916408
 20
109.1309129869617
 30
0.0
 11
51.79360280971417
 21
109.1309129869617
 31
0.0
  0
LINE
  5
503
  8
0
  6
CONTINUOUS
 62
     7
 10
73.55489584433046
 20
86.57725939900301
 30
0.0
 11
73.86908701303838
 21
85.92895480916411
 31
0.0
  0
LINE
  5
504
  8
0
  6
CONTINUOUS
 62
     7
 10
73.55489584433046
 20
86.57725939900301
 30
0.0
 11
73.55489584433046
 21
88.67538361384193
 31
0.0
  0
LINE
  5
505
  8
0
  6
CONTINUOUS
 62
     7
 10
73.55489584433046
 20
88.67538361384193
 30
0.0
 11
73.87356798272175
 21
89.29284746082638
 31
0.0
  0
LINE
  5
506
  8
0
  6
CONTINUOUS
 62
     7
 10
73.90399581362404
 20
91.05285643480548
 30
0.0
 11
73.87356798272175
 21
89.29284746082638
 31
0.0
  0
LINE
  5
507
  8
0
  6
CONTINUOUS
 62
     7
 10
73.90399581362382
 20
91.05285643480536
 30
0.0
 11
73.99134862865753
 21
91.09118367114425
 31
0.0
  0
LINE
  5
508
  8
0
  6
CONTINUOUS
 62
     7
 10
73.86908701303838
 20
85.92895480916411
 30
0.0
 11
73.86908701303838
 21
84.79360280971419
 31
0.0
  0
LINE
  5
509
  8
0
  6
CONTINUOUS
 62
     7
 10
96.42274060099703
 20
106.5548958443305
 30
0.0
 11
97.07104519083593
 21
106.8690870130384
 31
0.0
  0
LINE
  5
50A
  8
0
  6
CONTINUOUS
 62
     7
 10
96.42274060099703
 20
106.5548958443305
 30
0.0
 11
94.32461638615811
 21
106.5548958443305
 31
0.0
  0
LINE
  5
50B
  8
0
  6
CONTINUOUS
 62
     7
 10
94.32461638615811
 20
106.5548958443305
 30
0.0
 11
93.70715253917366
 21
106.8735679827218
 31
0.0
  0
LINE
  5
50C
  8
0
  6
CONTINUOUS
 62
     7
 10
91.94714356519457
 20
106.9039958136241
 30
0.0
 11
93.70715253917366
 21
106.8735679827218
 31
0.0
  0
LINE
  5
50D
  8
0
  6
CONTINUOUS
 62
     7
 10
91.94714356519457
 20
106.9039958136241
 30
0.0
 11
91.90881632885566
 21
106.9913486286578
 31
0.0
  0
LINE
  5
50E
  8
0
  6
CONTINUOUS
 62
     7
 10
97.07104519083593
 20
106.8690870130384
 30
0.0
 11
98.20639719028586
 21
106.8690870130384
 31
0.0
  0
ARC
  5
50F
  8
0
  6
CONTINUOUS
 62
     7
 10
75.00000000000001
 20
108.0
 30
0.0
 40
16.98254692900325
 50
183.7002746367972
 51
266.2997253632028
  0
ARC
  5
510
  8
0
  6
CONTINUOUS
 62
     7
 10
75.00000000000001
 20
108.0
 30
0.0
 40
16.98254692900326
 50
3.70027463679725
 51
86.2997253632028
  0
ARC
  5
511
  8
0
  6
CONTINUOUS
 62
     7
 10
75.00000000000001
 20
108.0
 30
0.0
 40
16.98254692900326
 50
273.7002746367972
 51
356.2997253632028
  0
ARC
  5
512
  8
0
  6
CONTINUOUS
 62
     7
 10
75.00000000000001
 20
108.0
 30
0.0
 40
16.98254692900326
 50
93.70027463679725
 51
176.2997253632028
  0
LINE
  5
513
  8
0
  6
CONTINUOUS
 62
     7
 10
75.98248334419559
 20
131.5881992936092
 30
0.0
 11
76.13091298696165
 21
131.2063971902859
 31
0.0
  0
LINE
  5
514
  8
0
  6
CONTINUOUS
 62
     7
 10
75.6471280605386
 20
131.750478575402
 30
0.0
 11
75.98248334419559
 21
131.5881992936092
 31
0.0
  0
LINE
  5
515
  8
0
  6
CONTINUOUS
 62
     7
 10
51.41180070639083
 20
107.0175166558045
 30
0.0
 11
51.24952142459802
 21
107.3528719394614
 31
0.0
  0
LINE
  5
516
  8
0
  6
CONTINUOUS
 62
     7
 10
51.79360280971417
 20
106.8690870130384
 30
0.0
 11
51.41180070639083
 21
107.0175166558045
 31
0.0
  0
LINE
  5
517
  8
0
  6
CONTINUOUS
 62
     7
 10
98.5881992936092
 20
107.0175166558045
 30
0.0
 11
98.20639719028586
 21
106.8690870130384
 31
0.0
  0
LINE
  5
518
  8
0
  6
CONTINUOUS
 62
     7
 10
98.750478575402
 20
107.3528719394614
 30
0.0
 11
98.5881992936092
 21
107.0175166558045
 31
0.0
  0
LINE
  5
519
  8
0
  6
CONTINUOUS
 62
     7
 10
74.01751665580443
 20
131.5881992936092
 30
0.0
 11
74.35287193946141
 21
131.750478575402
 31
0.0
  0
LINE
  5
51A
  8
0
  6
CONTINUOUS
 62
     7
 10
73.86908701303838
 20
131.2063971902859
 30
0.0
 11
74.01751665580443
 21
131.5881992936092
 31
0.0
  0
LINE
  5
51B
  8
0
  6
CONTINUOUS
 62
     7
 10
51.41180070639083
 20
108.9824833441956
 30
0.0
 11
51.79360280971417
 21
109.1309129869617
 31
0.0
  0
LINE
  5
51C
  8
0
  6
CONTINUOUS
 62
     7
 10
51.24952142459802
 20
108.6471280605386
 30
0.0
 11
51.41180070639083
 21
108.9824833441956
 31
0.0
  0
LINE
  5
51D
  8
0
  6
CONTINUOUS
 62
     7
 10
74.01751665580443
 20
84.41180070639085
 30
0.0
 11
73.86908701303838
 21
84.79360280971419
 31
0.0
  0
LINE
  5
51E
  8
0
  6
CONTINUOUS
 62
     7
 10
74.35287193946141
 20
84.24952142459804
 30
0.0
 11
74.01751665580443
 21
84.41180070639085
 31
0.0
  0
LINE
  5
51F
  8
0
  6
CONTINUOUS
 62
     7
 10
75.98248334419559
 20
84.41180070639085
 30
0.0
 11
75.6471280605386
 21
84.24952142459804
 31
0.0
  0
LINE
  5
520
  8
0
  6
CONTINUOUS
 62
     7
 10
76.13091298696165
 20
84.79360280971419
 30
0.0
 11
75.98248334419559
 21
84.41180070639085
 31
0.0
  0
LINE
  5
521
  8
0
  6
CONTINUOUS
 62
     7
 10
98.5881992936092
 20
108.9824833441956
 30
0.0
 11
98.750478575402
 21
108.6471280605386
 31
0.0
  0
LINE
  5
522
  8
0
  6
CONTINUOUS
 62
     7
 10
98.20639719028586
 20
109.1309129869617
 30
0.0
 11
98.5881992936092
 21
108.9824833441956
 31
0.0
  0
ARC
  5
523
  8
0
  6
CONTINUOUS
 62
     7
 10
75.00000000000001
 20
108.0
 30
0.0
 40
23.75929307213002
 50
358.4392510158809
 51
1.560748984119016
  0
ARC
  5
524
  8
0
  6
CONTINUOUS
 62
     7
 10
75.00000000000001
 20
108.0
 30
0.0
 40
23.75929307213002
 50
268.439251015881
 51
271.560748984119
  0
ARC
  5
525
  8
0
  6
CONTINUOUS
 62
     7
 10
75.00000000000001
 20
108.0
 30
0.0
 40
23.75929307213002
 50
88.43925101588094
 51
91.56074898411902
  0
ARC
  5
526
  8
0
  6
CONTINUOUS
 62
     7
 10
75.00000000000001
 20
108.0
 30
0.0
 40
23.75929307213002
 50
178.4392510158809
 51
181.560748984119
  0
ARC
  5
527
  8
0
  6
CONTINUOUS
 62
     7
 10
75.00000000000001
 20
108.0
 30
0.0
 40
18.74103532928373
 50
273.4458460992149
 51
356.5541539007851
  0
ARC
  5
528
  8
0
  6
CONTINUOUS
 62
     7
 10
75.00000000000001
 20
108.0
 30
0.0
 40
18.74103532928373
 50
3.445846099214918
 51
86.5541539007851
  0
ARC
  5
529
  8
0
  6
CONTINUOUS
 62
     7
 10
75.00000000000001
 20
108.0
 30
0.0
 40
18.74103532928373
 50
183.4458460992149
 51
266.554153900785
  0
ARC
  5
52A
  8
0
  6
CONTINUOUS
 62
     7
 10
75.00000000000001
 20
108.0
 30
0.0
 40
18.74103532928373
 50
93.44584609921492
 51
176.5541539007851
  0
ARC
  5
52B
  8
0
  6
CONTINUOUS
 62
     7
 10
75.00000000000001
 20
108.0
 30
0.0
 40
19.37857385085147
 50
274.2766461038818
 51
355.7233538961183
  0
ARC
  5
52C
  8
0
  6
CONTINUOUS
 62
     7
 10
75.00000000000001
 20
108.0
 30
0.0
 40
19.37857385085146
 50
94.27664610388183
 51
175.7233538961184
  0
ARC
  5
52D
  8
0
  6
CONTINUOUS
 62
     7
 10
75.00000000000001
 20
108.0
 30
0.0
 40
19.37857385085147
 50
4.276646103881717
 51
85.72335389611828
  0
ARC
  5
52E
  8
0
  6
CONTINUOUS
 62
     7
 10
75.00000000000001
 20
108.0
 30
0.0
 40
19.37857385085147
 50
184.2766461038817
 51
265.7233538961183
  0
ARC
  5
52F
  8
0
  6
CONTINUOUS
 62
     7
 10
75.00000000000001
 20
108.0
 30
0.0
 40
22.1
 50
182.9332513212851
 51
267.0667486787148
  0
ARC
  5
530
  8
0
  6
CONTINUOUS
 62
     7
 10
75.00000000000001
 20
108.0
 30
0.0
 40
21.47142614914854
 50
3.859129147388851
 51
86.14087085261129
  0
ARC
  5
531
  8
0
  6
CONTINUOUS
 62
     7
 10
75.00000000000001
 20
108.0
 30
0.0
 40
22.1
 50
2.933251321285124
 51
87.06674867871484
  0
ARC
  5
532
  8
0
  6
CONTINUOUS
 62
     7
 10
75.00000000000001
 20
108.0
 30
0.0
 40
22.1
 50
272.9332513212851
 51
357.0667486787148
  0
ARC
  5
533
  8
0
  6
CONTINUOUS
 62
     7
 10
75.00000000000001
 20
108.0
 30
0.0
 40
21.47142614914855
 50
183.8591291473888
 51
266.1408708526113
  0
ARC
  5
534
  8
0
  6
CONTINUOUS
 62
     7
 10
75.00000000000001
 20
108.0
 30
0.0
 40
22.10000000000002
 50
92.93325132128516
 51
177.0667486787149
  0
ARC
  5
535
  8
0
  6
CONTINUOUS
 62
     7
 10
75.00000000000001
 20
108.0
 30
0.0
 40
21.47142614914854
 50
273.8591291473888
 51
356.1408708526112
  0
ARC
  5
536
  8
0
  6
CONTINUOUS
 62
     7
 10
75.00000000000001
 20
108.0
 30
0.0
 40
21.47142614914854
 50
93.85912914738878
 51
176.1408708526112
  0
CIRCLE
  5
537
  8
0
  6
CONTINUOUS
 62
     7
 10
75.00000000000001
 20
108.0
 30
0.0
 40
24.41419116870792
  0
ARC
  5
538
  8
0
  6
CONTINUOUS
 62
     7
 10
75.00000000000001
 20
108.0
 30
0.0
 40
27.5
 50
90.0
 51
270.0
  0
ARC
  5
539
  8
0
  6
CONTINUOUS
 62
     7
 10
75.00000000000001
 20
108.0
 30
0.0
 40
27.5
 50
270.0
 51
90.0
  0
LINE
  5
53A
  8
0
  6
CENTER
 62
     1
 10
45.50000000000001
 20
244.0
 30
0.0
 11
104.5
 21
244.0
 31
0.0
  0
LINE
  5
53B
  8
0
  6
CENTER
 62
     1
 10
45.50000000000001
 20
108.0
 30
0.0
 11
104.5
 21
108.0
 31
0.0
  0
LINE
  5
53C
  8
0
  6
CENTER
 62
     1
 10
75.00000000000001
 20
214.5
 30
0.0
 11
75.00000000000001
 21
273.5
 31
0.0
  0
LINE
  5
53D
  8
0
  6
CENTER
 62
     1
 10
75.00000000000001
 20
78.5
 30
0.0
 11
75.00000000000001
 21
137.5
 31
0.0
  0
ENDSEC
  0
EOF
