  0
SECTION
  2
HEADER
  9
$ACADVER
  1
AC1006
  9
$DWGCODEPAGE
  3
ansi_932
  9
$INSBASE
 10
0.0
 20
0.0
 30
0.0
  9
$EXTMIN
 10
48.00000000000001
 20
-61.01363636363634
  9
$EXTMAX
 10
107.0
 20
138.5
  9
$LIMMIN
 10
0.0
 20
0.0
  9
$LIMMAX
 10
12.0
 20
9.0
  9
$ORTHOMODE
 70
     0
  9
$REGENMODE
 70
     1
  9
$FILLMODE
 70
     1
  9
$QTEXTMODE
 70
     0
  9
$MIRRTEXT
 70
     1
  9
$DRAGMODE
 70
     2
  9
$LTSCALE
 40
1.0
  9
$OSMODE
 70
    37
  9
$ATTMODE
 70
     1
  9
$TEXTSIZE
 40
0.2
  9
$TRACEWID
 40
0.05
  9
$TEXTSTYLE
  7
STANDARD
  9
$CLAYER
  8
0
  9
$CELTYPE
  6
BYLAYER
  9
$CECOLOR
 62
   256
  9
$DIMSCALE
 40
1.0
  9
$DIMASZ
 40
3.0
  9
$DIMEXO
 40
0.0625
  9
$DIMDLI
 40
0.38
  9
$DIMRND
 40
0.0
  9
$DIMDLE
 40
0.0
  9
$DIMEXE
 40
1.5
  9
$DIMTP
 40
0.0
  9
$DIMTM
 40
0.0
  9
$DIMTXT
 40
3.0
  9
$DIMCEN
 40
0.09
  9
$DIMTSZ
 40
0.0
  9
$DIMTOL
 70
     0
  9
$DIMLIM
 70
     0
  9
$DIMTIH
 70
     1
  9
$DIMTOH
 70
     1
  9
$DIMSE1
 70
     0
  9
$DIMSE2
 70
     0
  9
$DIMTAD
 70
     1
  9
$DIMZIN
 70
     0
  9
$DIMBLK
  1

  9
$DIMASO
 70
     1
  9
$DIMSHO
 70
     1
  9
$DIMPOST
  1

  9
$DIMAPOST
  1

  9
$DIMALT
 70
     0
  9
$DIMALTD
 70
     2
  9
$DIMALTF
 40
25.4
  9
$DIMLFAC
 40
1.0
  9
$DIMTOFL
 70
     0
  9
$DIMTVP
 40
0.0
  9
$DIMTIX
 70
     0
  9
$DIMSOXD
 70
     0
  9
$DIMSAH
 70
     0
  9
$DIMBLK1
  1

  9
$DIMBLK2
  1

  9
$LUNITS
 70
     2
  9
$LUPREC
 70
     4
  9
$SKETCHINC
 40
0.1
  9
$FILLETRAD
 40
0.5
  9
$AUNITS
 70
     0
  9
$AUPREC
 70
     0
  9
$MENU
  1
.
  9
$ELEVATION
 40
0.0
  9
$THICKNESS
 40
0.0
  9
$LIMCHECK
 70
     0
  9
$CHAMFERA
 40
0.0
  9
$CHAMFERB
 40
0.0
  9
$SKPOLY
 70
     0
  9
$TDCREATE
 40
2460413.617365671
  9
$TDUPDATE
 40
2460413.617365949
  9
$TDINDWG
 40
0.0000000116
  9
$TDUSRTIMER
 40
0.0000000116
  9
$USRTIMER
 70
     1
  9
$ANGBASE
 50
0.0
  9
$ANGDIR
 70
     0
  9
$PDMODE
 70
     0
  9
$PDSIZE
 40
0.0
  9
$PLINEWID
 40
0.0
  9
$COORDS
 70
     1
  9
$SPLFRAME
 70
     0
  9
$SPLINETYPE
 70
     6
  9
$SPLINESEGS
 70
     8
  9
$ATTDIA
 70
     0
  9
$ATTREQ
 70
     1
  9
$HANDLING
 70
     1
  9
$HANDSEED
  5
595
  9
$SURFTAB1
 70
     6
  9
$SURFTAB2
 70
     6
  9
$SURFTYPE
 70
     6
  9
$SURFU
 70
     6
  9
$SURFV
 70
     6
  9
$UCSNAME
  2

  9
$UCSORG
 10
0.0
 20
0.0
 30
0.0
  9
$UCSXDIR
 10
1.0
 20
0.0
 30
0.0
  9
$UCSYDIR
 10
0.0
 20
1.0
 30
0.0
  9
$USERI1
 70
     0
  9
$USERI2
 70
     0
  9
$USERI3
 70
     0
  9
$USERI4
 70
     0
  9
$USERI5
 70
     0
  9
$USERR1
 40
0.0
  9
$USERR2
 40
0.0
  9
$USERR3
 40
0.0
  9
$USERR4
 40
0.0
  9
$USERR5
 40
0.0
  9
$WORLDVIEW
 70
     1
  0
ENDSEC
  0
SECTION
  2
TABLES
  0
TABLE
  2
VPORT
 70
     1
  0
VPORT
  2
*ACTIVE
 70
     0
 10
0.0
 20
0.0
 11
1.0
 21
1.0
 12
77.50000000000001
 22
38.74318181818181
 13
0.0
 23
0.0
 14
0.5
 24
0.5
 15
0.5
 25
0.5
 16
0.0
 26
0.0
 36
1.0
 17
0.0
 27
0.0
 37
0.0
 40
199.5136363636363
 41
1.6
 42
50.0
 43
0.0
 44
0.0
 50
0.0
 51
0.0
 71
     0
 72
   100
 73
     1
 74
     3
 75
     0
 76
     0
 77
     0
 78
     0
  0
ENDTAB
  0
TABLE
  2
LTYPE
 70
     2
  0
LTYPE
  2
CONTINUOUS
 70
     0
  3
Solid line
 72
    65
 73
     0
 40
0.0
  0
LTYPE
  2
CENTER
 70
     0
  3

 72
    65
 73
     0
 40
0.0
  0
ENDTAB
  0
TABLE
  2
LAYER
 70
     1
  0
LAYER
  2
0
 70
     0
 62
     7
  6
CONTINUOUS
  0
ENDTAB
  0
TABLE
  2
STYLE
 70
     2
  0
STYLE
  2
STANDARD
 70
     0
 40
0.0
 41
1.0
 50
0.0
 71
     0
 42
0.2
  3
txt
  4

  0
STYLE
  2
ＭＳ_ゴシック
 70
     0
 40
0.0
 41
1.0
 50
0.0
 71
     0
 42
0.2
  3
ＭＳ ゴシック.shx
  4

  0
ENDTAB
  0
TABLE
  2
VIEW
 70
     0
  0
ENDTAB
  0
TABLE
  2
UCS
 70
     0
  0
ENDTAB
  0
ENDSEC
  0
SECTION
  2
BLOCKS
  0
ENDSEC
  0
SECTION
  2
ENTITIES
  0
LINE
  5
6F
  8
0
  6
CENTER
 62
     1
 10
77.50000000000001
 20
-52.50000000000001
 30
0.0
 11
77.50000000000001
 21
6.499999999999992
 31
0.0
  0
TEXT
  5
71
  8
0
  6
CONTINUOUS
 62
     7
 10
65.87536263598852
 20
-61.34090909090907
 30
0.0
 40
3.0
  1
ＭＨＧＢ－４０
  0
LINE
  5
72
  8
0
  6
CENTER
 62
     1
 10
48.00000000000001
 20
109.0
 30
0.0
 11
107.0
 21
109.0
 31
0.0
  0
LINE
  5
73
  8
0
  6
CENTER
 62
     1
 10
77.50000000000001
 20
79.49999999999999
 30
0.0
 11
77.50000000000001
 21
138.5
 31
0.0
  0
LINE
  5
74
  8
0
  6
CENTER
 62
     1
 10
48.00000000000001
 20
-23.00000000000001
 30
0.0
 11
107.0
 21
-23.00000000000001
 31
0.0
  0
LINE
  5
75
  8
0
  6
CENTER
 62
     1
 10
77.50000000000001
 20
13.5337967401673
 30
0.0
 11
77.50000000000001
 21
79.0337967401673
 31
0.0
  0
ARC
  5
76
  8
0
  6
CONTINUOUS
 62
     7
 10
77.50000000000001
 20
-23.00000000000001
 30
0.0
 40
15.0
 50
93.82255372927435
 51
176.1774462707257
  0
LINE
  5
77
  8
0
  6
CONTINUOUS
 62
     7
 10
76.99134863155786
 20
-6.568978330252883
 30
0.0
 11
76.49142478397965
 21
-6.091236343937322
 31
0.0
  0
LINE
  5
78
  8
0
  6
CONTINUOUS
 62
     7
 10
60.59123634393732
 20
-21.9914247839796
 30
0.0
 11
61.06897833025287
 21
-22.4913486315578
 31
0.0
  0
LINE
  5
79
  8
0
  6
CONTINUOUS
 62
     7
 10
60.59123634393732
 20
-24.00857521602031
 30
0.0
 11
58.78801098852774
 21
-24.00857521602031
 31
0.0
  0
LINE
  5
7A
  8
0
  6
CONTINUOUS
 62
     7
 10
61.06897833025287
 20
-23.50865136844212
 30
0.0
 11
60.59123634393732
 21
-24.00857521602031
 31
0.0
  0
ARC
  5
7B
  8
0
  6
CONTINUOUS
 62
     7
 10
77.50000000000001
 20
-23.00000000000001
 30
0.0
 40
15.0
 50
183.8225537292744
 51
266.1774462707257
  0
LINE
  5
7C
  8
0
  6
CONTINUOUS
 62
     7
 10
93.93102166974715
 20
-22.4913486315578
 30
0.0
 11
94.4087636560627
 21
-21.9914247839796
 31
0.0
  0
LINE
  5
7D
  8
0
  6
CONTINUOUS
 62
     7
 10
78.50857521602036
 20
-6.091236343937322
 30
0.0
 11
78.00865136844216
 21
-6.568978330252883
 31
0.0
  0
LINE
  5
7E
  8
0
  6
CONTINUOUS
 62
     7
 10
78.00865136844216
 20
-39.43102166974713
 30
0.0
 11
78.50857521602036
 21
-39.90876365606269
 31
0.0
  0
LINE
  5
7F
  8
0
  6
CONTINUOUS
 62
     7
 10
94.4087636560627
 20
-24.00857521602031
 30
0.0
 11
93.93102166974715
 21
-23.50865136844212
 31
0.0
  0
LINE
  5
80
  8
0
  6
CONTINUOUS
 62
     7
 10
76.49142478397965
 20
-39.90876365606269
 30
0.0
 11
76.99134863155786
 21
-39.43102166974713
 31
0.0
  0
ARC
  5
81
  8
0
  6
CONTINUOUS
 62
     7
 10
77.50000000000001
 20
-23.00000000000001
 30
0.0
 40
15.0
 50
3.822553729274318
 51
86.17744627072568
  0
LINE
  5
82
  8
0
  6
CONTINUOUS
 62
     7
 10
62.53337045290423
 20
-24.00000000000001
 30
0.0
 11
64.5385186031843
 21
-24.00000000000001
 31
0.0
  0
CIRCLE
  5
83
  8
0
  6
CONTINUOUS
 62
     7
 10
69.5
 20
-29.92820323027551
 30
0.0
 40
1.250000000000001
  0
LINE
  5
84
  8
0
  6
CONTINUOUS
 62
     7
 10
78.5
 20
-35.96148139681572
 30
0.0
 11
78.50000000000001
 21
-37.96662954709576
 31
0.0
  0
ARC
  5
85
  8
0
  6
CONTINUOUS
 62
     7
 10
77.50000000000001
 20
-23.00000000000001
 30
0.0
 40
15.0
 50
273.8225537292743
 51
356.1774462707257
  0
LINE
  5
86
  8
0
  6
CONTINUOUS
 62
     7
 10
92.46662954709578
 20
-24.00000000000001
 30
0.0
 11
90.46148139681573
 21
-24.00000000000001
 31
0.0
  0
CIRCLE
  5
87
  8
0
  6
CONTINUOUS
 62
     7
 10
87.50000000000001
 20
-26.46410161513769
 30
0.0
 40
1.250000000000001
  0
CIRCLE
  5
88
  8
0
  6
CONTINUOUS
 62
     7
 10
83.50000000000001
 20
-26.46410161513769
 30
0.0
 40
1.250000000000001
  0
CIRCLE
  5
89
  8
0
  6
CONTINUOUS
 62
     7
 10
79.50000000000001
 20
-26.46410161513769
 30
0.0
 40
1.250000000000001
  0
CIRCLE
  5
8A
  8
0
  6
CONTINUOUS
 62
     7
 10
85.50000000000001
 20
-29.92820323027551
 30
0.0
 40
1.250000000000001
  0
LINE
  5
8B
  8
0
  6
CONTINUOUS
 62
     7
 10
92.46662954709578
 20
-22.0
 30
0.0
 11
90.46148139681573
 21
-22.0
 31
0.0
  0
ARC
  5
8C
  8
0
  6
CONTINUOUS
 62
     7
 10
77.50000000000001
 20
-23.00000000000001
 30
0.0
 40
13.0
 50
4.411725785770281
 51
85.58827421422997
  0
CIRCLE
  5
8D
  8
0
  6
CONTINUOUS
 62
     7
 10
87.50000000000001
 20
-19.53589838486219
 30
0.0
 40
1.250000000000001
  0
CIRCLE
  5
8E
  8
0
  6
CONTINUOUS
 62
     7
 10
83.50000000000001
 20
-19.53589838486219
 30
0.0
 40
1.250000000000001
  0
CIRCLE
  5
8F
  8
0
  6
CONTINUOUS
 62
     7
 10
79.50000000000001
 20
-19.53589838486219
 30
0.0
 40
1.250000000000001
  0
CIRCLE
  5
90
  8
0
  6
CONTINUOUS
 62
     7
 10
85.50000000000001
 20
-16.0717967697245
 30
0.0
 40
1.250000000000001
  0
CIRCLE
  5
91
  8
0
  6
CONTINUOUS
 62
     7
 10
77.50000000000001
 20
-23.00000000000001
 30
0.0
 40
1.250000000000001
  0
CIRCLE
  5
92
  8
0
  6
CONTINUOUS
 62
     7
 10
81.50000000000001
 20
-23.00000000000001
 30
0.0
 40
1.250000000000001
  0
CIRCLE
  5
93
  8
0
  6
CONTINUOUS
 62
     7
 10
77.50000000000001
 20
-16.0717967697245
 30
0.0
 40
1.250000000000001
  0
CIRCLE
  5
94
  8
0
  6
CONTINUOUS
 62
     7
 10
79.50000000000001
 20
-12.60769515458669
 30
0.0
 40
1.250000000000001
  0
CIRCLE
  5
95
  8
0
  6
CONTINUOUS
 62
     7
 10
81.50000000000001
 20
-16.0717967697245
 30
0.0
 40
1.250000000000001
  0
CIRCLE
  5
96
  8
0
  6
CONTINUOUS
 62
     7
 10
67.5
 20
-26.46410161513782
 30
0.0
 40
1.249999999999987
  0
CIRCLE
  5
97
  8
0
  6
CONTINUOUS
 62
     7
 10
85.50000000000001
 20
-23.00000000000001
 30
0.0
 40
1.250000000000001
  0
CIRCLE
  5
98
  8
0
  6
CONTINUOUS
 62
     7
 10
79.50000000000001
 20
-33.39230484541319
 30
0.0
 40
1.250000000000001
  0
CIRCLE
  5
99
  8
0
  6
CONTINUOUS
 62
     7
 10
81.50000000000001
 20
-29.92820323027551
 30
0.0
 40
1.250000000000001
  0
CIRCLE
  5
9A
  8
0
  6
CONTINUOUS
 62
     7
 10
69.5
 20
-23.00000000000001
 30
0.0
 40
1.250000000000001
  0
LINE
  5
9B
  8
0
  6
CONTINUOUS
 62
     7
 10
78.5
 20
-10.03851860318421
 30
0.0
 11
78.50000000000001
 21
-8.033370452904197
 31
0.0
  0
CIRCLE
  5
9C
  8
0
  6
CONTINUOUS
 62
     7
 10
75.50000000000001
 20
-12.60769515458669
 30
0.0
 40
1.250000000000001
  0
ARC
  5
9D
  8
0
  6
CONTINUOUS
 62
     7
 10
77.50000000000001
 20
-23.00000000000001
 30
0.0
 40
13.0
 50
274.41172578577
 51
355.5882742142297
  0
CIRCLE
  5
9E
  8
0
  6
CONTINUOUS
 62
     7
 10
69.5
 20
-16.0717967697245
 30
0.0
 40
1.250000000000001
  0
CIRCLE
  5
9F
  8
0
  6
CONTINUOUS
 62
     7
 10
75.50000000000001
 20
-19.53589838486219
 30
0.0
 40
1.250000000000001
  0
CIRCLE
  5
A0
  8
0
  6
CONTINUOUS
 62
     7
 10
71.5
 20
-19.53589838486219
 30
0.0
 40
1.250000000000001
  0
CIRCLE
  5
A1
  8
0
  6
CONTINUOUS
 62
     7
 10
75.50000000000001
 20
-26.46410161513769
 30
0.0
 40
1.250000000000001
  0
CIRCLE
  5
A2
  8
0
  6
CONTINUOUS
 62
     7
 10
75.50000000000001
 20
-33.39230484541319
 30
0.0
 40
1.250000000000001
  0
CIRCLE
  5
A3
  8
0
  6
CONTINUOUS
 62
     7
 10
73.50000000000001
 20
-29.92820323027551
 30
0.0
 40
1.250000000000001
  0
LINE
  5
A4
  8
0
  6
CONTINUOUS
 62
     7
 10
76.50000000000003
 20
-10.03851860318421
 30
0.0
 11
76.50000000000001
 21
-8.033370452904197
 31
0.0
  0
LINE
  5
A5
  8
0
  6
CONTINUOUS
 62
     7
 10
76.50000000000003
 20
-35.96148139681572
 30
0.0
 11
76.50000000000001
 21
-37.96662954709576
 31
0.0
  0
CIRCLE
  5
A6
  8
0
  6
CONTINUOUS
 62
     7
 10
71.5
 20
-26.46410161513769
 30
0.0
 40
1.250000000000001
  0
ARC
  5
A7
  8
0
  6
CONTINUOUS
 62
     7
 10
77.50000000000001
 20
-23.00000000000001
 30
0.0
 40
13.0
 50
184.4117257857703
 51
265.58827421423
  0
CIRCLE
  5
A8
  8
0
  6
CONTINUOUS
 62
     7
 10
77.50000000000001
 20
-29.92820323027551
 30
0.0
 40
1.250000000000001
  0
CIRCLE
  5
A9
  8
0
  6
CONTINUOUS
 62
     7
 10
73.50000000000001
 20
-16.0717967697245
 30
0.0
 40
1.250000000000001
  0
CIRCLE
  5
AA
  8
0
  6
CONTINUOUS
 62
     7
 10
73.50000000000001
 20
-23.00000000000001
 30
0.0
 40
1.250000000000001
  0
ARC
  5
AB
  8
0
  6
CONTINUOUS
 62
     7
 10
77.50000000000001
 20
-23.00000000000001
 30
0.0
 40
13.0
 50
94.4117257857702
 51
175.5882742142299
  0
CIRCLE
  5
AC
  8
0
  6
CONTINUOUS
 62
     7
 10
67.5
 20
-19.53589838486219
 30
0.0
 40
1.249999999999987
  0
LINE
  5
AD
  8
0
  6
CONTINUOUS
 62
     7
 10
62.53337045290423
 20
-22.0
 30
0.0
 11
64.5385186031843
 21
-22.0
 31
0.0
  0
LINE
  5
AE
  8
0
  6
CONTINUOUS
 62
     7
 10
58.78801098852774
 20
-21.9914247839796
 30
0.0
 11
60.59123634393732
 21
-21.9914247839796
 31
0.0
  0
LINE
  5
AF
  8
0
  6
CONTINUOUS
 62
     7
 10
76.49142478397965
 20
-6.091236343937322
 30
0.0
 11
76.49142478397965
 21
-4.288010988527713
 31
0.0
  0
LINE
  5
B0
  8
0
  6
CONTINUOUS
 62
     7
 10
78.50857521602036
 20
-4.288010988527713
 30
0.0
 11
78.50857521602036
 21
-6.091236343937322
 31
0.0
  0
LINE
  5
B1
  8
0
  6
CONTINUOUS
 62
     7
 10
94.4087636560627
 20
-21.9914247839796
 30
0.0
 11
96.21198901147228
 21
-21.9914247839796
 31
0.0
  0
LINE
  5
B2
  8
0
  6
CONTINUOUS
 62
     7
 10
76.49142478397965
 20
-41.71198901147226
 30
0.0
 11
76.49142478397965
 21
-39.90876365606269
 31
0.0
  0
LINE
  5
B3
  8
0
  6
CONTINUOUS
 62
     7
 10
78.50857521602036
 20
-39.90876365606269
 30
0.0
 11
78.50857521602036
 21
-41.71198901147226
 31
0.0
  0
LINE
  5
B4
  8
0
  6
CONTINUOUS
 62
     7
 10
96.21198901147228
 20
-24.00857521602031
 30
0.0
 11
94.4087636560627
 21
-24.00857521602031
 31
0.0
  0
LINE
  5
B5
  8
0
  6
CONTINUOUS
 62
     7
 10
60.59118367114436
 20
-24.0086513713422
 30
0.0
 11
60.55285643480546
 21
-24.0960041863759
 31
0.0
  0
LINE
  5
B6
  8
0
  6
CONTINUOUS
 62
     7
 10
58.79284746082636
 20
-24.12643201727821
 30
0.0
 11
60.55285643480546
 21
-24.09600418637601
 31
0.0
  0
LINE
  5
B7
  8
0
  6
CONTINUOUS
 62
     7
 10
58.79284746082636
 20
-24.12643201727821
 30
0.0
 11
58.1753836138419
 21
-24.4451041556695
 31
0.0
  0
LINE
  5
B8
  8
0
  6
CONTINUOUS
 62
     7
 10
58.1753836138419
 20
-24.4451041556695
 30
0.0
 11
56.07725939900298
 21
-24.4451041556695
 31
0.0
  0
LINE
  5
B9
  8
0
  6
CONTINUOUS
 62
     7
 10
55.42895480916408
 20
-24.13091298696162
 30
0.0
 11
56.07725939900298
 21
-24.4451041556695
 31
0.0
  0
LINE
  5
BA
  8
0
  6
CONTINUOUS
 62
     7
 10
54.29360280971417
 20
-24.13091298696162
 30
0.0
 11
55.42895480916408
 21
-24.13091298696162
 31
0.0
  0
LINE
  5
BB
  8
0
  6
CONTINUOUS
 62
     7
 10
76.49134862865802
 20
-6.091183671144501
 30
0.0
 11
76.40399581362428
 21
-6.052856434805603
 31
0.0
  0
LINE
  5
BC
  8
0
  6
CONTINUOUS
 62
     7
 10
76.37356798272175
 20
-4.29284746082631
 30
0.0
 11
76.40399581362404
 21
-6.052856434805409
 31
0.0
  0
LINE
  5
BD
  8
0
  6
CONTINUOUS
 62
     7
 10
76.37356798272175
 20
-4.29284746082631
 30
0.0
 11
76.05489584433046
 21
-3.675383613841898
 31
0.0
  0
LINE
  5
BE
  8
0
  6
CONTINUOUS
 62
     7
 10
76.05489584433046
 20
-3.675383613841898
 30
0.0
 11
76.05489584433046
 21
-1.577259399002995
 31
0.0
  0
LINE
  5
BF
  8
0
  6
CONTINUOUS
 62
     7
 10
76.36908701303838
 20
-0.9289548091641064
 30
0.0
 11
76.05489584433046
 21
-1.577259399002995
 31
0.0
  0
LINE
  5
C0
  8
0
  6
CONTINUOUS
 62
     7
 10
76.36908701303838
 20
0.2063971902858952
 30
0.0
 11
76.36908701303838
 21
-0.9289548091641064
 31
0.0
  0
LINE
  5
C1
  8
0
  6
CONTINUOUS
 62
     7
 10
78.5086513713425
 20
-39.90881632885579
 30
0.0
 11
78.59600418637622
 21
-39.94714356519467
 31
0.0
  0
LINE
  5
C2
  8
0
  6
CONTINUOUS
 62
     7
 10
78.62643201727828
 20
-41.70715253917365
 30
0.0
 11
78.59600418637598
 21
-39.94714356519454
 31
0.0
  0
LINE
  5
C3
  8
0
  6
CONTINUOUS
 62
     7
 10
78.62643201727828
 20
-41.70715253917365
 30
0.0
 11
78.94510415566955
 21
-42.3246163861581
 31
0.0
  0
LINE
  5
C4
  8
0
  6
CONTINUOUS
 62
     7
 10
78.94510415566955
 20
-42.3246163861581
 30
0.0
 11
78.94510415566955
 21
-44.42274060099702
 31
0.0
  0
LINE
  5
C5
  8
0
  6
CONTINUOUS
 62
     7
 10
78.63091298696165
 20
-45.07104519083593
 30
0.0
 11
78.94510415566955
 21
-44.42274060099702
 31
0.0
  0
LINE
  5
C6
  8
0
  6
CONTINUOUS
 62
     7
 10
78.63091298696165
 20
-46.20639719028584
 30
0.0
 11
78.63091298696165
 21
-45.07104519083593
 31
0.0
  0
LINE
  5
C7
  8
0
  6
CONTINUOUS
 62
     7
 10
94.40881632885566
 20
-21.99134862865781
 30
0.0
 11
94.44714356519458
 21
-21.903995813624
 31
0.0
  0
LINE
  5
C8
  8
0
  6
CONTINUOUS
 62
     7
 10
96.20715253917366
 20
-21.87356798272171
 30
0.0
 11
94.44714356519457
 21
-21.903995813624
 31
0.0
  0
LINE
  5
C9
  8
0
  6
CONTINUOUS
 62
     7
 10
96.20715253917366
 20
-21.87356798272171
 30
0.0
 11
96.82461638615813
 21
-21.55489584433041
 31
0.0
  0
LINE
  5
CA
  8
0
  6
CONTINUOUS
 62
     7
 10
96.82461638615813
 20
-21.55489584433041
 30
0.0
 11
98.92274060099703
 21
-21.55489584433041
 31
0.0
  0
LINE
  5
CB
  8
0
  6
CONTINUOUS
 62
     7
 10
99.57104519083595
 20
-21.8690870130384
 30
0.0
 11
98.92274060099703
 21
-21.55489584433041
 31
0.0
  0
LINE
  5
CC
  8
0
  6
CONTINUOUS
 62
     7
 10
100.7063971902859
 20
-21.8690870130384
 30
0.0
 11
99.57104519083595
 21
-21.8690870130384
 31
0.0
  0
LINE
  5
CD
  8
0
  6
CONTINUOUS
 62
     7
 10
98.92274060099703
 20
-24.4451041556695
 30
0.0
 11
99.57104519083595
 21
-24.13091298696162
 31
0.0
  0
LINE
  5
CE
  8
0
  6
CONTINUOUS
 62
     7
 10
98.92274060099703
 20
-24.4451041556695
 30
0.0
 11
96.82461638615813
 21
-24.4451041556695
 31
0.0
  0
LINE
  5
CF
  8
0
  6
CONTINUOUS
 62
     7
 10
96.82461638615813
 20
-24.4451041556695
 30
0.0
 11
96.20715253917366
 21
-24.12643201727821
 31
0.0
  0
LINE
  5
D0
  8
0
  6
CONTINUOUS
 62
     7
 10
94.44714356519457
 20
-24.0960041863759
 30
0.0
 11
96.20715253917366
 21
-24.12643201727821
 31
0.0
  0
LINE
  5
D1
  8
0
  6
CONTINUOUS
 62
     7
 10
94.44714356519457
 20
-24.0960041863759
 30
0.0
 11
94.40881632885566
 21
-24.0086513713422
 31
0.0
  0
LINE
  5
D2
  8
0
  6
CONTINUOUS
 62
     7
 10
99.57104519083595
 20
-24.13091298696162
 30
0.0
 11
100.7063971902859
 21
-24.13091298696162
 31
0.0
  0
LINE
  5
D3
  8
0
  6
CONTINUOUS
 62
     7
 10
76.05489584433046
 20
-44.42274060099702
 30
0.0
 11
76.36908701303838
 21
-45.07104519083592
 31
0.0
  0
LINE
  5
D4
  8
0
  6
CONTINUOUS
 62
     7
 10
76.05489584433046
 20
-44.42274060099702
 30
0.0
 11
76.05489584433046
 21
-42.3246163861581
 31
0.0
  0
LINE
  5
D5
  8
0
  6
CONTINUOUS
 62
     7
 10
76.05489584433046
 20
-42.3246163861581
 30
0.0
 11
76.37356798272175
 21
-41.70715253917365
 31
0.0
  0
LINE
  5
D6
  8
0
  6
CONTINUOUS
 62
     7
 10
76.40399581362405
 20
-39.94714356519454
 30
0.0
 11
76.37356798272175
 21
-41.70715253917365
 31
0.0
  0
LINE
  5
D7
  8
0
  6
CONTINUOUS
 62
     7
 10
76.40399581362382
 20
-39.94714356519467
 30
0.0
 11
76.49134862865753
 21
-39.90881632885579
 31
0.0
  0
LINE
  5
D8
  8
0
  6
CONTINUOUS
 62
     7
 10
76.36908701303838
 20
-45.07104519083592
 30
0.0
 11
76.36908701303838
 21
-46.20639719028584
 31
0.0
  0
LINE
  5
D9
  8
0
  6
CONTINUOUS
 62
     7
 10
78.94510415566955
 20
-1.577259399002995
 30
0.0
 11
78.63091298696165
 21
-0.9289548091641064
 31
0.0
  0
LINE
  5
DA
  8
0
  6
CONTINUOUS
 62
     7
 10
78.94510415566955
 20
-1.577259399002995
 30
0.0
 11
78.94510415566955
 21
-3.675383613841898
 31
0.0
  0
LINE
  5
DB
  8
0
  6
CONTINUOUS
 62
     7
 10
78.94510415566955
 20
-3.675383613841898
 30
0.0
 11
78.62643201727828
 21
-4.29284746082631
 31
0.0
  0
LINE
  5
DC
  8
0
  6
CONTINUOUS
 62
     7
 10
78.59600418637598
 20
-6.052856434805409
 30
0.0
 11
78.62643201727828
 21
-4.29284746082631
 31
0.0
  0
LINE
  5
DD
  8
0
  6
CONTINUOUS
 62
     7
 10
78.59600418637574
 20
-6.052856434805603
 30
0.0
 11
78.50865137134203
 21
-6.09118367114439
 31
0.0
  0
LINE
  5
DE
  8
0
  6
CONTINUOUS
 62
     7
 10
78.63091298696165
 20
-0.9289548091641064
 30
0.0
 11
78.63091298696165
 21
0.2063971902858952
 31
0.0
  0
LINE
  5
DF
  8
0
  6
CONTINUOUS
 62
     7
 10
56.07725939900298
 20
-21.55489584433041
 30
0.0
 11
55.42895480916408
 21
-21.8690870130384
 31
0.0
  0
LINE
  5
E0
  8
0
  6
CONTINUOUS
 62
     7
 10
56.07725939900298
 20
-21.55489584433041
 30
0.0
 11
58.1753836138419
 21
-21.55489584433041
 31
0.0
  0
LINE
  5
E1
  8
0
  6
CONTINUOUS
 62
     7
 10
58.1753836138419
 20
-21.55489584433041
 30
0.0
 11
58.79284746082636
 21
-21.87356798272171
 31
0.0
  0
LINE
  5
E2
  8
0
  6
CONTINUOUS
 62
     7
 10
60.55285643480546
 20
-21.903995813624
 30
0.0
 11
58.79284746082636
 21
-21.87356798272171
 31
0.0
  0
LINE
  5
E3
  8
0
  6
CONTINUOUS
 62
     7
 10
60.55285643480546
 20
-21.903995813624
 30
0.0
 11
60.59118367114436
 21
-21.99134862865772
 31
0.0
  0
LINE
  5
E4
  8
0
  6
CONTINUOUS
 62
     7
 10
55.42895480916408
 20
-21.8690870130384
 30
0.0
 11
54.29360280971417
 21
-21.8690870130384
 31
0.0
  0
ARC
  5
E5
  8
0
  6
CONTINUOUS
 62
     7
 10
77.50000000000001
 20
-23.00000000000001
 30
0.0
 40
16.98254692900326
 50
3.70027463679725
 51
86.2997253632028
  0
ARC
  5
E6
  8
0
  6
CONTINUOUS
 62
     7
 10
77.50000000000001
 20
-23.00000000000001
 30
0.0
 40
16.98254692900325
 50
183.7002746367972
 51
266.2997253632028
  0
ARC
  5
E7
  8
0
  6
CONTINUOUS
 62
     7
 10
77.50000000000001
 20
-23.00000000000001
 30
0.0
 40
16.98254692900326
 50
273.7002746367972
 51
356.2997253632028
  0
ARC
  5
E8
  8
0
  6
CONTINUOUS
 62
     7
 10
77.50000000000001
 20
-23.00000000000001
 30
0.0
 40
16.98254692900326
 50
93.70027463679725
 51
176.2997253632028
  0
LINE
  5
E9
  8
0
  6
CONTINUOUS
 62
     7
 10
76.51751665580443
 20
-46.58819929360917
 30
0.0
 11
76.36908701303838
 21
-46.20639719028584
 31
0.0
  0
LINE
  5
EA
  8
0
  6
CONTINUOUS
 62
     7
 10
76.85287193946141
 20
-46.75047857540198
 30
0.0
 11
76.51751665580443
 21
-46.58819929360917
 31
0.0
  0
LINE
  5
EB
  8
0
  6
CONTINUOUS
 62
     7
 10
78.48248334419559
 20
-46.58819929360917
 30
0.0
 11
78.1471280605386
 21
-46.75047857540198
 31
0.0
  0
LINE
  5
EC
  8
0
  6
CONTINUOUS
 62
     7
 10
78.63091298696165
 20
-46.20639719028584
 30
0.0
 11
78.48248334419559
 21
-46.58819929360917
 31
0.0
  0
LINE
  5
ED
  8
0
  6
CONTINUOUS
 62
     7
 10
101.0881992936092
 20
-22.01751665580441
 30
0.0
 11
101.250478575402
 21
-22.35287193946141
 31
0.0
  0
LINE
  5
EE
  8
0
  6
CONTINUOUS
 62
     7
 10
100.7063971902859
 20
-21.8690870130384
 30
0.0
 11
101.0881992936092
 21
-22.01751665580441
 31
0.0
  0
LINE
  5
EF
  8
0
  6
CONTINUOUS
 62
     7
 10
53.91180070639083
 20
-22.01751665580441
 30
0.0
 11
54.29360280971417
 21
-21.8690870130384
 31
0.0
  0
LINE
  5
F0
  8
0
  6
CONTINUOUS
 62
     7
 10
53.74952142459802
 20
-22.35287193946141
 30
0.0
 11
53.91180070639083
 21
-22.01751665580441
 31
0.0
  0
LINE
  5
F1
  8
0
  6
CONTINUOUS
 62
     7
 10
101.0881992936092
 20
-23.9824833441956
 30
0.0
 11
100.7063971902859
 21
-24.13091298696162
 31
0.0
  0
LINE
  5
F2
  8
0
  6
CONTINUOUS
 62
     7
 10
101.250478575402
 20
-23.64712806053861
 30
0.0
 11
101.0881992936092
 21
-23.9824833441956
 31
0.0
  0
LINE
  5
F3
  8
0
  6
CONTINUOUS
 62
     7
 10
53.91180070639083
 20
-23.9824833441956
 30
0.0
 11
53.74952142459802
 21
-23.64712806053861
 31
0.0
  0
LINE
  5
F4
  8
0
  6
CONTINUOUS
 62
     7
 10
54.29360280971417
 20
-24.13091298696162
 30
0.0
 11
53.91180070639083
 21
-23.9824833441956
 31
0.0
  0
LINE
  5
F5
  8
0
  6
CONTINUOUS
 62
     7
 10
76.51751665580443
 20
0.5881992936091762
 30
0.0
 11
76.85287193946141
 21
0.7504785754020027
 31
0.0
  0
LINE
  5
F6
  8
0
  6
CONTINUOUS
 62
     7
 10
76.36908701303838
 20
0.2063971902858952
 30
0.0
 11
76.51751665580443
 21
0.5881992936091762
 31
0.0
  0
LINE
  5
F7
  8
0
  6
CONTINUOUS
 62
     7
 10
78.48248334419559
 20
0.5881992936091762
 30
0.0
 11
78.63091298696165
 21
0.2063971902858952
 31
0.0
  0
LINE
  5
F8
  8
0
  6
CONTINUOUS
 62
     7
 10
78.1471280605386
 20
0.7504785754020027
 30
0.0
 11
78.48248334419559
 21
0.5881992936091762
 31
0.0
  0
ARC
  5
F9
  8
0
  6
CONTINUOUS
 62
     7
 10
77.50000000000001
 20
-23.00000000000001
 30
0.0
 40
23.75929307213002
 50
88.43925101588094
 51
91.56074898411902
  0
ARC
  5
FA
  8
0
  6
CONTINUOUS
 62
     7
 10
77.50000000000001
 20
-23.00000000000001
 30
0.0
 40
23.75929307213002
 50
178.4392510158809
 51
181.560748984119
  0
ARC
  5
FB
  8
0
  6
CONTINUOUS
 62
     7
 10
77.50000000000001
 20
-23.00000000000001
 30
0.0
 40
23.75929307213002
 50
268.439251015881
 51
271.560748984119
  0
ARC
  5
FC
  8
0
  6
CONTINUOUS
 62
     7
 10
77.50000000000001
 20
-23.00000000000001
 30
0.0
 40
23.75929307213002
 50
358.4392510158809
 51
1.560748984119016
  0
ARC
  5
FD
  8
0
  6
CONTINUOUS
 62
     7
 10
77.50000000000001
 20
-23.00000000000001
 30
0.0
 40
18.74103532928373
 50
273.4458460992149
 51
356.5541539007851
  0
ARC
  5
FE
  8
0
  6
CONTINUOUS
 62
     7
 10
77.50000000000001
 20
-23.00000000000001
 30
0.0
 40
18.74103532928373
 50
93.44584609921492
 51
176.5541539007851
  0
ARC
  5
FF
  8
0
  6
CONTINUOUS
 62
     7
 10
77.50000000000001
 20
-23.00000000000001
 30
0.0
 40
18.74103532928373
 50
3.445846099214918
 51
86.5541539007851
  0
ARC
  5
100
  8
0
  6
CONTINUOUS
 62
     7
 10
77.50000000000001
 20
-23.00000000000001
 30
0.0
 40
18.74103532928373
 50
183.4458460992149
 51
266.554153900785
  0
ARC
  5
101
  8
0
  6
CONTINUOUS
 62
     7
 10
77.50000000000001
 20
-23.00000000000001
 30
0.0
 40
19.37857385085147
 50
184.2766461038817
 51
265.7233538961183
  0
ARC
  5
102
  8
0
  6
CONTINUOUS
 62
     7
 10
77.50000000000001
 20
-23.00000000000001
 30
0.0
 40
19.37857385085147
 50
274.2766461038818
 51
355.7233538961183
  0
ARC
  5
103
  8
0
  6
CONTINUOUS
 62
     7
 10
77.50000000000001
 20
-23.00000000000001
 30
0.0
 40
19.37857385085146
 50
94.27664610388183
 51
175.7233538961184
  0
ARC
  5
104
  8
0
  6
CONTINUOUS
 62
     7
 10
77.50000000000001
 20
-23.00000000000001
 30
0.0
 40
19.37857385085147
 50
4.276646103881717
 51
85.72335389611828
  0
ARC
  5
105
  8
0
  6
CONTINUOUS
 62
     7
 10
77.50000000000001
 20
-23.00000000000001
 30
0.0
 40
21.47142614914854
 50
183.8591291473888
 51
266.1408708526113
  0
ARC
  5
106
  8
0
  6
CONTINUOUS
 62
     7
 10
77.50000000000001
 20
-23.00000000000001
 30
0.0
 40
22.10000000000001
 50
182.9332513212851
 51
267.0667486787148
  0
ARC
  5
107
  8
0
  6
CONTINUOUS
 62
     7
 10
77.50000000000001
 20
-23.00000000000001
 30
0.0
 40
22.10000000000001
 50
2.933251321285124
 51
87.06674867871484
  0
ARC
  5
108
  8
0
  6
CONTINUOUS
 62
     7
 10
77.50000000000001
 20
-23.00000000000001
 30
0.0
 40
21.47142614914854
 50
93.85912914738878
 51
176.1408708526112
  0
ARC
  5
109
  8
0
  6
CONTINUOUS
 62
     7
 10
77.50000000000001
 20
-23.00000000000001
 30
0.0
 40
22.10000000000002
 50
92.93325132128516
 51
177.0667486787149
  0
ARC
  5
10A
  8
0
  6
CONTINUOUS
 62
     7
 10
77.50000000000001
 20
-23.00000000000001
 30
0.0
 40
21.47142614914854
 50
3.859129147388851
 51
86.14087085261129
  0
ARC
  5
10B
  8
0
  6
CONTINUOUS
 62
     7
 10
77.50000000000001
 20
-23.00000000000001
 30
0.0
 40
22.10000000000001
 50
272.9332513212851
 51
357.0667486787148
  0
ARC
  5
10C
  8
0
  6
CONTINUOUS
 62
     7
 10
77.50000000000001
 20
-23.00000000000001
 30
0.0
 40
21.47142614914854
 50
273.8591291473888
 51
356.1408708526112
  0
CIRCLE
  5
10D
  8
0
  6
CONTINUOUS
 62
     7
 10
77.50000000000001
 20
-23.00000000000001
 30
0.0
 40
24.41419116870792
  0
ARC
  5
10E
  8
0
  6
CONTINUOUS
 62
     7
 10
77.50000000000001
 20
-23.00000000000001
 30
0.0
 40
27.5
 50
90.0
 51
270.0
  0
ARC
  5
10F
  8
0
  6
CONTINUOUS
 62
     7
 10
77.50000000000001
 20
-23.00000000000001
 30
0.0
 40
27.5
 50
270.0
 51
90.0
  0
LINE
  5
110
  8
0
  6
CONTINUOUS
 62
     7
 10
76.58292428320509
 20
73.0337967401673
 30
0.0
 11
78.41707571679494
 21
73.0337967401673
 31
0.0
  0
LINE
  5
111
  8
0
  6
CONTINUOUS
 62
     7
 10
76.0000380776608
 20
63.03816000791637
 30
0.0
 11
76.00091091556507
 21
63.1381773251492
 31
0.0
  0
LINE
  5
112
  8
0
  6
CONTINUOUS
 62
     7
 10
76.00091091556507
 20
63.1381773251492
 30
0.0
 11
76.082943321673
 21
72.53816000791649
 31
0.0
  0
ARC
  5
113
  8
0
  6
CONTINUOUS
 62
     7
 10
76.58292428320509
 20
72.5337967401673
 30
0.0
 40
0.5000000000000004
 50
90.0
 51
179.4999999999994
  0
ARC
  5
114
  8
0
  6
CONTINUOUS
 62
     7
 10
78.41707571679493
 20
72.5337967401673
 30
0.0
 40
0.5000000000000004
 50
0.5000000000004547
 51
90.0
  0
LINE
  5
115
  8
0
  6
CONTINUOUS
 62
     7
 10
78.91705667832701
 20
72.53816000791649
 30
0.0
 11
78.99908919858983
 21
63.13816424429522
 31
0.0
  0
LINE
  5
116
  8
0
  6
CONTINUOUS
 62
     7
 10
78.99908919858983
 20
63.13816424429522
 30
0.0
 11
78.99996192233922
 21
63.03816000791637
 31
0.0
  0
LINE
  5
117
  8
0
  6
CONTINUOUS
 62
     7
 10
99.9652509445143
 20
63.03379674016729
 30
0.0
 11
99.98749574721266
 21
63.03330318045069
 31
0.0
  0
LINE
  5
118
  8
0
  6
CONTINUOUS
 62
     7
 10
100.4870701278755
 20
62.53379674016729
 30
0.0
 11
100.4869524011991
 21
62.5369905661334
 31
0.0
  0
LINE
  5
119
  8
0
  6
CONTINUOUS
 62
     7
 10
100.4869524011991
 20
62.5369905661334
 30
0.0
 11
100.4845930365946
 21
62.56925653313919
 31
0.0
  0
LINE
  5
11A
  8
0
  6
CONTINUOUS
 62
     7
 10
100.4845930365946
 20
62.56925653313919
 30
0.0
 11
100.4800869745418
 21
62.60153610675598
 31
0.0
  0
LINE
  5
11B
  8
0
  6
CONTINUOUS
 62
     7
 10
100.4800869745418
 20
62.60153610675598
 30
0.0
 11
100.4734097463456
 21
62.63374151529477
 31
0.0
  0
LINE
  5
11C
  8
0
  6
CONTINUOUS
 62
     7
 10
100.4734097463456
 20
62.63374151529477
 30
0.0
 11
100.4645213203577
 21
62.66581770108528
 31
0.0
  0
LINE
  5
11D
  8
0
  6
CONTINUOUS
 62
     7
 10
100.4645213203577
 20
62.66581770108528
 30
0.0
 11
100.4566581899208
 21
62.68897349908708
 31
0.0
  0
LINE
  5
11E
  8
0
  6
CONTINUOUS
 62
     7
 10
100.4566581899208
 20
62.68897349908708
 30
0.0
 11
100.4475921928307
 21
62.7119662946041
 31
0.0
  0
LINE
  5
11F
  8
0
  6
CONTINUOUS
 62
     7
 10
100.4475921928307
 20
62.7119662946041
 30
0.0
 11
100.4372459601013
 21
62.73487763089591
 31
0.0
  0
LINE
  5
120
  8
0
  6
CONTINUOUS
 62
     7
 10
100.4372459601013
 20
62.73487763089591
 30
0.0
 11
100.4256386415353
 21
62.75754965649219
 31
0.0
  0
LINE
  5
121
  8
0
  6
CONTINUOUS
 62
     7
 10
100.4256386415353
 20
62.75754965649219
 30
0.0
 11
100.4126387084336
 21
62.7801103571208
 31
0.0
  0
LINE
  5
122
  8
0
  6
CONTINUOUS
 62
     7
 10
100.4126387084336
 20
62.7801103571208
 30
0.0
 11
100.398299449596
 21
62.8023358356142
 31
0.0
  0
LINE
  5
123
  8
0
  6
CONTINUOUS
 62
     7
 10
100.398299449596
 20
62.8023358356142
 30
0.0
 11
100.3824990021542
 21
62.82428745835489
 31
0.0
  0
LINE
  5
124
  8
0
  6
CONTINUOUS
 62
     7
 10
100.3824990021542
 20
62.82428745835489
 30
0.0
 11
100.3652734555653
 21
62.84578268803578
 31
0.0
  0
LINE
  5
125
  8
0
  6
CONTINUOUS
 62
     7
 10
100.3652734555653
 20
62.84578268803578
 30
0.0
 11
100.3521803745674
 21
62.86070275291991
 31
0.0
  0
LINE
  5
126
  8
0
  6
CONTINUOUS
 62
     7
 10
100.3521803745674
 20
62.86070275291991
 30
0.0
 11
100.3383444162939
 21
62.87532255331021
 31
0.0
  0
LINE
  5
127
  8
0
  6
CONTINUOUS
 62
     7
 10
100.3383444162939
 20
62.87532255331021
 30
0.0
 11
100.3236775842732
 21
62.88968174194229
 31
0.0
  0
LINE
  5
128
  8
0
  6
CONTINUOUS
 62
     7
 10
100.3236775842732
 20
62.88968174194229
 30
0.0
 11
100.3082344873284
 21
62.90367164374569
 31
0.0
  0
LINE
  5
129
  8
0
  6
CONTINUOUS
 62
     7
 10
100.3082344873284
 20
62.90367164374569
 30
0.0
 11
100.2918778640177
 21
62.9173546961776
 31
0.0
  0
LINE
  5
12A
  8
0
  6
CONTINUOUS
 62
     7
 10
100.2918778640177
 20
62.9173546961776
 30
0.0
 11
100.2747097049644
 21
62.93058138518548
 31
0.0
  0
LINE
  5
12B
  8
0
  6
CONTINUOUS
 62
     7
 10
100.2747097049644
 20
62.93058138518548
 30
0.0
 11
100.2566236314916
 21
62.94337027894598
 31
0.0
  0
LINE
  5
12C
  8
0
  6
CONTINUOUS
 62
     7
 10
100.2566236314916
 20
62.94337027894598
 30
0.0
 11
100.2377014661538
 21
62.95559776109641
 31
0.0
  0
LINE
  5
12D
  8
0
  6
CONTINUOUS
 62
     7
 10
100.2377014661538
 20
62.95559776109641
 30
0.0
 11
100.2245312369781
 21
62.96346098702038
 31
0.0
  0
LINE
  5
12E
  8
0
  6
CONTINUOUS
 62
     7
 10
100.2245312369781
 20
62.96346098702038
 30
0.0
 11
100.2109911363108
 21
62.97102269943389
 31
0.0
  0
LINE
  5
12F
  8
0
  6
CONTINUOUS
 62
     7
 10
100.2109911363108
 20
62.97102269943389
 30
0.0
 11
100.1970217186412
 21
62.97829464526019
 31
0.0
  0
LINE
  5
130
  8
0
  6
CONTINUOUS
 62
     7
 10
100.1970217186412
 20
62.97829464526019
 30
0.0
 11
100.1827055917008
 21
62.98521341298518
 31
0.0
  0
LINE
  5
131
  8
0
  6
CONTINUOUS
 62
     7
 10
100.1827055917008
 20
62.98521341298518
 30
0.0
 11
100.1679689720087
 21
62.99179358310577
 31
0.0
  0
LINE
  5
132
  8
0
  6
CONTINUOUS
 62
     7
 10
100.1679689720087
 20
62.99179358310577
 30
0.0
 11
100.1529021421768
 21
62.99797450640889
 31
0.0
  0
LINE
  5
133
  8
0
  6
CONTINUOUS
 62
     7
 10
100.1529021421768
 20
62.99797450640889
 30
0.0
 11
100.137412034709
 21
63.0037723038385
 31
0.0
  0
LINE
  5
134
  8
0
  6
CONTINUOUS
 62
     7
 10
100.137412034709
 20
63.0037723038385
 30
0.0
 11
100.1215905353304
 21
63.00912974055417
 31
0.0
  0
LINE
  5
135
  8
0
  6
CONTINUOUS
 62
     7
 10
100.1215905353304
 20
63.00912974055417
 30
0.0
 11
100.106782023911
 21
63.01364158726
 31
0.0
  0
LINE
  5
136
  8
0
  6
CONTINUOUS
 62
     7
 10
100.106782023911
 20
63.01364158726
 30
0.0
 11
100.0917252054567
 21
63.0177426803594
 31
0.0
  0
LINE
  5
137
  8
0
  6
CONTINUOUS
 62
     7
 10
100.0917252054567
 20
63.0177426803594
 30
0.0
 11
100.0778835990251
 21
63.0210885229493
 31
0.0
  0
LINE
  5
138
  8
0
  6
CONTINUOUS
 62
     7
 10
100.0778835990251
 20
63.0210885229493
 30
0.0
 11
100.0638899010011
 21
63.02406508584068
 31
0.0
  0
LINE
  5
139
  8
0
  6
CONTINUOUS
 62
     7
 10
100.0638899010011
 20
63.02406508584068
 30
0.0
 11
100.0496775834433
 21
63.02667552518118
 31
0.0
  0
LINE
  5
13A
  8
0
  6
CONTINUOUS
 62
     7
 10
100.0496775834433
 20
63.02667552518118
 30
0.0
 11
100.0353492759804
 21
63.02889145371421
 31
0.0
  0
LINE
  5
13B
  8
0
  6
CONTINUOUS
 62
     7
 10
100.0353492759804
 20
63.02889145371421
 30
0.0
 11
100.0234779663239
 21
63.03041344326307
 31
0.0
  0
LINE
  5
13C
  8
0
  6
CONTINUOUS
 62
     7
 10
100.0234779663239
 20
63.03041344326307
 30
0.0
 11
100.0115545506219
 21
63.031657616093
 31
0.0
  0
LINE
  5
13D
  8
0
  6
CONTINUOUS
 62
     7
 10
100.0115545506219
 20
63.031657616093
 30
0.0
 11
99.99953830930562
 21
63.03262381576899
 31
0.0
  0
LINE
  5
13E
  8
0
  6
CONTINUOUS
 62
     7
 10
99.99953830930562
 20
63.03262381576899
 30
0.0
 11
99.98749574721266
 21
63.03330318045069
 31
0.0
  0
LINE
  5
13F
  8
0
  6
CONTINUOUS
 62
     7
 10
78.52666315902924
 20
62.53379674016729
 30
0.0
 11
79.00000673024722
 21
63.0330255302238
 31
0.0
  0
LINE
  5
140
  8
0
  6
CONTINUOUS
 62
     7
 10
79.00000000000001
 20
63.03379674016729
 30
0.0
 11
99.9652509445143
 21
63.03379674016729
 31
0.0
  0
LINE
  5
141
  8
0
  6
CONTINUOUS
 62
     7
 10
55.01250425278736
 20
63.03330318045069
 30
0.0
 11
55.03474905548573
 21
63.03379674016729
 31
0.0
  0
LINE
  5
142
  8
0
  6
CONTINUOUS
 62
     7
 10
55.03474905548574
 20
63.03379674016729
 30
0.0
 11
76.00000000000001
 21
63.03379674016729
 31
0.0
  0
LINE
  5
143
  8
0
  6
CONTINUOUS
 62
     7
 10
75.9999932697528
 20
63.0330255302238
 30
0.0
 11
76.47333684097077
 21
62.53379674016729
 31
0.0
  0
LINE
  5
144
  8
0
  6
CONTINUOUS
 62
     7
 10
55.01250425278736
 20
63.03330318045069
 30
0.0
 11
54.99558012750676
 21
63.0322661040048
 31
0.0
  0
LINE
  5
145
  8
0
  6
CONTINUOUS
 62
     7
 10
54.99558012750676
 20
63.0322661040048
 30
0.0
 11
54.97868105091177
 21
63.03065988787257
 31
0.0
  0
LINE
  5
146
  8
0
  6
CONTINUOUS
 62
     7
 10
54.97868105091177
 20
63.03065988787257
 30
0.0
 11
54.9638074420408
 21
63.02877241054158
 31
0.0
  0
LINE
  5
147
  8
0
  6
CONTINUOUS
 62
     7
 10
54.9638074420408
 20
63.02877241054158
 30
0.0
 11
54.94903620376483
 21
63.02645635774359
 31
0.0
  0
LINE
  5
148
  8
0
  6
CONTINUOUS
 62
     7
 10
54.94903620376483
 20
63.02645635774359
 30
0.0
 11
54.93429337432592
 21
63.02370141462401
 31
0.0
  0
LINE
  5
149
  8
0
  6
CONTINUOUS
 62
     7
 10
54.93429337432592
 20
63.02370141462401
 30
0.0
 11
54.91969946437647
 21
63.02053333741969
 31
0.0
  0
LINE
  5
14A
  8
0
  6
CONTINUOUS
 62
     7
 10
54.91969946437647
 20
63.02053333741969
 30
0.0
 11
54.90924246972168
 21
63.01798968989827
 31
0.0
  0
LINE
  5
14B
  8
0
  6
CONTINUOUS
 62
     7
 10
54.90924246972168
 20
63.01798968989827
 30
0.0
 11
54.89888125187844
 21
63.01524109630618
 31
0.0
  0
LINE
  5
14C
  8
0
  6
CONTINUOUS
 62
     7
 10
54.89888125187844
 20
63.01524109630618
 30
0.0
 11
54.88859076558603
 21
63.01228320208757
 31
0.0
  0
LINE
  5
14D
  8
0
  6
CONTINUOUS
 62
     7
 10
54.88859076558603
 20
63.01228320208757
 30
0.0
 11
54.87840946466967
 21
63.00912974055417
 31
0.0
  0
LINE
  5
14E
  8
0
  6
CONTINUOUS
 62
     7
 10
54.87840946466967
 20
63.00912974055417
 30
0.0
 11
54.86295367908639
 21
63.00390251499668
 31
0.0
  0
LINE
  5
14F
  8
0
  6
CONTINUOUS
 62
     7
 10
54.86295367908639
 20
63.00390251499668
 30
0.0
 11
54.84776407760143
 21
62.99823534796769
 31
0.0
  0
LINE
  5
150
  8
0
  6
CONTINUOUS
 62
     7
 10
54.84776407760143
 20
62.99823534796769
 30
0.0
 11
54.83275702745514
 21
62.99210392949739
 31
0.0
  0
LINE
  5
151
  8
0
  6
CONTINUOUS
 62
     7
 10
54.83275702745514
 20
62.99210392949739
 30
0.0
 11
54.81807632186545
 21
62.98557617192157
 31
0.0
  0
LINE
  5
152
  8
0
  6
CONTINUOUS
 62
     7
 10
54.81807632186545
 20
62.98557617192157
 30
0.0
 11
54.80365240288483
 21
62.9786323770719
 31
0.0
  0
LINE
  5
153
  8
0
  6
CONTINUOUS
 62
     7
 10
54.80365240288483
 20
62.9786323770719
 30
0.0
 11
54.78957919063054
 21
62.97132995708798
 31
0.0
  0
LINE
  5
154
  8
0
  6
CONTINUOUS
 62
     7
 10
54.78957919063054
 20
62.97132995708798
 30
0.0
 11
54.77576232963537
 21
62.96363045928957
 31
0.0
  0
LINE
  5
155
  8
0
  6
CONTINUOUS
 62
     7
 10
54.77576232963537
 20
62.96363045928957
 30
0.0
 11
54.76229853384627
 21
62.95559776109641
 31
0.0
  0
LINE
  5
156
  8
0
  6
CONTINUOUS
 62
     7
 10
54.76229853384627
 20
62.95559776109641
 30
0.0
 11
54.74397884704701
 21
62.94377725472177
 31
0.0
  0
LINE
  5
157
  8
0
  6
CONTINUOUS
 62
     7
 10
54.74397884704701
 20
62.94377725472177
 30
0.0
 11
54.72637056677144
 21
62.93137722130449
 31
0.0
  0
LINE
  5
158
  8
0
  6
CONTINUOUS
 62
     7
 10
54.72637056677144
 20
62.93137722130449
 30
0.0
 11
54.70937710875211
 21
62.9183596066426
 31
0.0
  0
LINE
  5
159
  8
0
  6
CONTINUOUS
 62
     7
 10
54.70937710875211
 20
62.9183596066426
 30
0.0
 11
54.69311844644095
 21
62.90484609146959
 31
0.0
  0
LINE
  5
15A
  8
0
  6
CONTINUOUS
 62
     7
 10
54.69311844644095
 20
62.90484609146959
 30
0.0
 11
54.67743607359544
 21
62.89072786316879
 31
0.0
  0
LINE
  5
15B
  8
0
  6
CONTINUOUS
 62
     7
 10
54.67743607359544
 20
62.89072786316879
 30
0.0
 11
54.66250457550119
 21
62.87618439187989
 31
0.0
  0
LINE
  5
15C
  8
0
  6
CONTINUOUS
 62
     7
 10
54.66250457550119
 20
62.87618439187989
 30
0.0
 11
54.64823971338761
 21
62.86116325524249
 31
0.0
  0
LINE
  5
15D
  8
0
  6
CONTINUOUS
 62
     7
 10
54.64823971338761
 20
62.86116325524249
 30
0.0
 11
54.63472654443476
 21
62.84578268803578
 31
0.0
  0
LINE
  5
15E
  8
0
  6
CONTINUOUS
 62
     7
 10
54.63472654443476
 20
62.84578268803578
 30
0.0
 11
54.61804008164948
 21
62.82499603735319
 31
0.0
  0
LINE
  5
15F
  8
0
  6
CONTINUOUS
 62
     7
 10
54.61804008164948
 20
62.82499603735319
 30
0.0
 11
54.60262885941949
 21
62.8036934609614
 31
0.0
  0
LINE
  5
160
  8
0
  6
CONTINUOUS
 62
     7
 10
54.60262885941949
 20
62.8036934609614
 30
0.0
 11
54.5883928761934
 21
62.78179441688727
 31
0.0
  0
LINE
  5
161
  8
0
  6
CONTINUOUS
 62
     7
 10
54.5883928761934
 20
62.78179441688727
 30
0.0
 11
54.57541947314979
 21
62.75948715002058
 31
0.0
  0
LINE
  5
162
  8
0
  6
CONTINUOUS
 62
     7
 10
54.57541947314979
 20
62.75948715002058
 30
0.0
 11
54.56357691429874
 21
62.73657941448069
 31
0.0
  0
LINE
  5
163
  8
0
  6
CONTINUOUS
 62
     7
 10
54.56357691429874
 20
62.73657941448069
 30
0.0
 11
54.55299531799707
 21
62.71335131614028
 31
0.0
  0
LINE
  5
164
  8
0
  6
CONTINUOUS
 62
     7
 10
54.55299531799707
 20
62.71335131614028
 30
0.0
 11
54.5436106889582
 21
62.68970519315617
 31
0.0
  0
LINE
  5
165
  8
0
  6
CONTINUOUS
 62
     7
 10
54.5436106889582
 20
62.68970519315617
 30
0.0
 11
54.53547867964231
 21
62.66581770108528
 31
0.0
  0
LINE
  5
166
  8
0
  6
CONTINUOUS
 62
     7
 10
54.53547867964231
 20
62.66581770108528
 30
0.0
 11
54.52665667458071
 21
62.63401583690942
 31
0.0
  0
LINE
  5
167
  8
0
  6
CONTINUOUS
 62
     7
 10
54.52665667458071
 20
62.63401583690942
 30
0.0
 11
54.51997321009163
 21
62.60188284930521
 31
0.0
  0
LINE
  5
168
  8
0
  6
CONTINUOUS
 62
     7
 10
54.51997321009163
 20
62.60188284930521
 30
0.0
 11
54.51543605773792
 21
62.5695297617678
 31
0.0
  0
LINE
  5
169
  8
0
  6
CONTINUOUS
 62
     7
 10
54.51543605773792
 20
62.5695297617678
 30
0.0
 11
54.51304759880093
 21
62.5369905661334
 31
0.0
  0
LINE
  5
16A
  8
0
  6
CONTINUOUS
 62
     7
 10
54.51304759880093
 20
62.5369905661334
 30
0.0
 11
54.51292987212454
 21
62.53379674016729
 31
0.0
  0
LINE
  5
16B
  8
0
  6
CONTINUOUS
 62
     7
 10
54.51340028272865
 20
61.03379674016729
 30
0.0
 11
76.71478843061752
 21
61.03379674016729
 31
0.0
  0
LINE
  5
16C
  8
0
  6
CONTINUOUS
 62
     7
 10
78.28521156938277
 20
61.03379674016729
 30
0.0
 11
95.75453871369268
 21
61.03379674016729
 31
0.0
  0
LINE
  5
16D
  8
0
  6
CONTINUOUS
 62
     7
 10
95.75453871369267
 20
61.03379674016729
 30
0.0
 11
100.4865997172714
 21
61.03379674016729
 31
0.0
  0
LINE
  5
16E
  8
0
  6
CONTINUOUS
 62
     7
 10
96.47366596101028
 20
59.13379674016731
 30
0.0
 11
97.62461179749812
 21
59.13379674016731
 31
0.0
  0
LINE
  5
16F
  8
0
  6
CONTINUOUS
 62
     7
 10
78.9825462644185
 20
65.03379674016729
 30
0.0
 11
98.9873681998634
 21
65.03379674016729
 31
0.0
  0
LINE
  5
170
  8
0
  6
CONTINUOUS
 62
     7
 10
56.01263180013663
 20
65.03379674016729
 30
0.0
 11
76.01745373558153
 21
65.03379674016729
 31
0.0
  0
LINE
  5
171
  8
0
  6
CONTINUOUS
 62
     7
 10
56.00000000000002
 20
65.03379674016729
 30
0.0
 11
56.01263180013663
 21
65.03379674016729
 31
0.0
  0
LINE
  5
172
  8
0
  6
CONTINUOUS
 62
     7
 10
98.9873681998634
 20
65.03379674016729
 30
0.0
 11
99.0
 21
65.03379674016729
 31
0.0
  0
LINE
  5
173
  8
0
  6
CONTINUOUS
 62
     7
 10
105.0
 20
44.0337967401673
 30
0.0
 11
50.00000000000001
 21
44.0337967401673
 31
0.0
  0
LINE
  5
174
  8
0
  6
CONTINUOUS
 62
     7
 10
105.0
 20
46.0337967401673
 30
0.0
 11
50.00000000000001
 21
46.0337967401673
 31
0.0
  0
LINE
  5
175
  8
0
  6
CONTINUOUS
 62
     7
 10
50.00000000000006
 20
46.0337967401673
 30
0.0
 11
77.50000000000001
 21
46.0337967401673
 31
0.0
  0
LINE
  5
176
  8
0
  6
CONTINUOUS
 62
     7
 10
77.50000000000001
 20
46.0337967401673
 30
0.0
 11
105.0
 21
46.0337967401673
 31
0.0
  0
LINE
  5
177
  8
0
  6
CONTINUOUS
 62
     7
 10
104.5
 20
48.0337967401673
 30
0.0
 11
104.4890622434183
 21
48.0337967401673
 31
0.0
  0
LINE
  5
178
  8
0
  6
CONTINUOUS
 62
     7
 10
50.51093775658178
 20
48.0337967401673
 30
0.0
 11
50.50000000000003
 21
48.0337967401673
 31
0.0
  0
LINE
  5
179
  8
0
  6
CONTINUOUS
 62
     7
 10
50.51093775658178
 20
48.0337967401673
 30
0.0
 11
76.73154751552536
 21
48.0337967401673
 31
0.0
  0
LINE
  5
17A
  8
0
  6
CONTINUOUS
 62
     7
 10
78.26845248447465
 20
48.0337967401673
 30
0.0
 11
76.73154751552536
 21
48.0337967401673
 31
0.0
  0
LINE
  5
17B
  8
0
  6
CONTINUOUS
 62
     7
 10
78.26845248447465
 20
48.0337967401673
 30
0.0
 11
104.4890622434183
 21
48.0337967401673
 31
0.0
  0
LINE
  5
17C
  8
0
  6
CONTINUOUS
 62
     7
 10
76.21477891467521
 20
48.0337967401673
 30
0.0
 11
76.21477891467521
 21
60.53379674016729
 31
0.0
  0
LINE
  5
17D
  8
0
  6
CONTINUOUS
 62
     7
 10
78.7852210853248
 20
48.0337967401673
 30
0.0
 11
78.7852210853248
 21
60.53379674016729
 31
0.0
  0
LINE
  5
17E
  8
0
  6
CONTINUOUS
 62
     7
 10
76.71747662799852
 20
61.03379674016729
 30
0.0
 11
78.28252337200142
 21
61.03379674016729
 31
0.0
  0
LINE
  5
17F
  8
0
  6
CONTINUOUS
 62
     7
 10
78.28500537446591
 20
61.03379674016729
 30
0.0
 11
78.30572343399442
 21
61.03336760988218
 31
0.0
  0
LINE
  5
180
  8
0
  6
CONTINUOUS
 62
     7
 10
78.30572343399442
 20
61.03336760988218
 30
0.0
 11
78.32644085579521
 21
61.03207806813401
 31
0.0
  0
LINE
  5
181
  8
0
  6
CONTINUOUS
 62
     7
 10
78.32644085579521
 20
61.03207806813401
 30
0.0
 11
78.34719372608963
 21
61.0299169871647
 31
0.0
  0
LINE
  5
182
  8
0
  6
CONTINUOUS
 62
     7
 10
78.34719372608963
 20
61.0299169871647
 30
0.0
 11
78.36787378620271
 21
61.0268866486264
 31
0.0
  0
LINE
  5
183
  8
0
  6
CONTINUOUS
 62
     7
 10
78.36787378620271
 20
61.0268866486264
 30
0.0
 11
78.38881672039393
 21
61.0229090712186
 31
0.0
  0
LINE
  5
184
  8
0
  6
CONTINUOUS
 62
     7
 10
78.38881672039393
 20
61.0229090712186
 30
0.0
 11
78.40960835595095
 21
61.01803352803381
 31
0.0
  0
LINE
  5
185
  8
0
  6
CONTINUOUS
 62
     7
 10
78.40960835595095
 20
61.01803352803381
 30
0.0
 11
78.43028539819062
 21
61.0122411621983
 31
0.0
  0
LINE
  5
186
  8
0
  6
CONTINUOUS
 62
     7
 10
78.43028539819062
 20
61.0122411621983
 30
0.0
 11
78.45073199407821
 21
61.0055539617409
 31
0.0
  0
LINE
  5
187
  8
0
  6
CONTINUOUS
 62
     7
 10
78.45073199407821
 20
61.0055539617409
 30
0.0
 11
78.47013528324649
 21
60.99828824959588
 31
0.0
  0
LINE
  5
188
  8
0
  6
CONTINUOUS
 62
     7
 10
78.47013528324649
 20
60.99828824959588
 30
0.0
 11
78.48925352620518
 21
60.99021099062129
 31
0.0
  0
LINE
  5
189
  8
0
  6
CONTINUOUS
 62
     7
 10
78.48925352620518
 20
60.99021099062129
 30
0.0
 11
78.50811705554153
 21
60.9812996496665
 31
0.0
  0
LINE
  5
18A
  8
0
  6
CONTINUOUS
 62
     7
 10
78.50811705554153
 20
60.9812996496665
 30
0.0
 11
78.52662456718656
 21
60.97159208350189
 31
0.0
  0
LINE
  5
18B
  8
0
  6
CONTINUOUS
 62
     7
 10
78.52662456718656
 20
60.97159208350189
 30
0.0
 11
78.54506680820646
 21
60.9609035063044
 31
0.0
  0
LINE
  5
18C
  8
0
  6
CONTINUOUS
 62
     7
 10
78.54506680820646
 20
60.9609035063044
 30
0.0
 11
78.56306947065866
 21
60.94941735466499
 31
0.0
  0
LINE
  5
18D
  8
0
  6
CONTINUOUS
 62
     7
 10
78.56306947065866
 20
60.94941735466499
 30
0.0
 11
78.5806609149357
 21
60.93710353733017
 31
0.0
  0
LINE
  5
18E
  8
0
  6
CONTINUOUS
 62
     7
 10
78.5806609149357
 20
60.93710353733017
 30
0.0
 11
78.59773903390196
 21
60.92402105435848
 31
0.0
  0
LINE
  5
18F
  8
0
  6
CONTINUOUS
 62
     7
 10
78.59773903390196
 20
60.92402105435848
 30
0.0
 11
78.6136421590002
 21
60.9107369765677
 31
0.0
  0
LINE
  5
190
  8
0
  6
CONTINUOUS
 62
     7
 10
78.6136421590002
 20
60.9107369765677
 30
0.0
 11
78.62900776887565
 21
60.896780706299
 31
0.0
  0
LINE
  5
191
  8
0
  6
CONTINUOUS
 62
     7
 10
78.62900776887565
 20
60.896780706299
 30
0.0
 11
78.64385699836946
 21
60.88212076405547
 31
0.0
  0
LINE
  5
192
  8
0
  6
CONTINUOUS
 62
     7
 10
78.64385699836946
 20
60.88212076405547
 30
0.0
 11
78.65810657502654
 21
60.8668264609771
 31
0.0
  0
LINE
  5
193
  8
0
  6
CONTINUOUS
 62
     7
 10
78.65810657502654
 20
60.8668264609771
 30
0.0
 11
78.67197008364604
 21
60.85062631704879
 31
0.0
  0
LINE
  5
194
  8
0
  6
CONTINUOUS
 62
     7
 10
78.67197008364604
 20
60.85062631704879
 30
0.0
 11
78.6851542945189
 21
60.8338180943932
 31
0.0
  0
LINE
  5
195
  8
0
  6
CONTINUOUS
 62
     7
 10
78.6851542945189
 20
60.8338180943932
 30
0.0
 11
78.69767597962162
 21
60.81636379916777
 31
0.0
  0
LINE
  5
196
  8
0
  6
CONTINUOUS
 62
     7
 10
78.69767597962162
 20
60.81636379916777
 30
0.0
 11
78.70945801146866
 21
60.79835318768389
 31
0.0
  0
LINE
  5
197
  8
0
  6
CONTINUOUS
 62
     7
 10
78.70945801146866
 20
60.79835318768389
 30
0.0
 11
78.72005058374391
 21
60.7805641847465
 31
0.0
  0
LINE
  5
198
  8
0
  6
CONTINUOUS
 62
     7
 10
78.72005058374391
 20
60.7805641847465
 30
0.0
 11
78.72991428250246
 21
60.76231934593748
 31
0.0
  0
LINE
  5
199
  8
0
  6
CONTINUOUS
 62
     7
 10
78.72991428250246
 20
60.76231934593748
 30
0.0
 11
78.73913002791319
 21
60.74342692448828
 31
0.0
  0
LINE
  5
19A
  8
0
  6
CONTINUOUS
 62
     7
 10
78.73913002791319
 20
60.74342692448828
 30
0.0
 11
78.74754408679087
 21
60.72416309992709
 31
0.0
  0
LINE
  5
19B
  8
0
  6
CONTINUOUS
 62
     7
 10
78.74754408679087
 20
60.72416309992709
 30
0.0
 11
78.75519222761876
 21
60.70441978925989
 31
0.0
  0
LINE
  5
19C
  8
0
  6
CONTINUOUS
 62
     7
 10
78.75519222761876
 20
60.70441978925989
 30
0.0
 11
78.76199801259571
 21
60.68436964962309
 31
0.0
  0
LINE
  5
19D
  8
0
  6
CONTINUOUS
 62
     7
 10
78.76199801259571
 20
60.68436964962309
 30
0.0
 11
78.76802407925557
 21
60.66376820263039
 31
0.0
  0
LINE
  5
19E
  8
0
  6
CONTINUOUS
 62
     7
 10
78.76802407925557
 20
60.66376820263039
 30
0.0
 11
78.77316887489094
 21
60.6428874796183
 31
0.0
  0
LINE
  5
19F
  8
0
  6
CONTINUOUS
 62
     7
 10
78.77316887489094
 20
60.6428874796183
 30
0.0
 11
78.77596474978864
 21
60.629535206427
 31
0.0
  0
LINE
  5
1A0
  8
0
  6
CONTINUOUS
 62
     7
 10
78.77596474978864
 20
60.629535206427
 30
0.0
 11
78.77839525423211
 21
60.61611140059198
 31
0.0
  0
LINE
  5
1A1
  8
0
  6
CONTINUOUS
 62
     7
 10
78.77839525423211
 20
60.61611140059198
 30
0.0
 11
78.78046405671529
 21
60.60258545731281
 31
0.0
  0
LINE
  5
1A2
  8
0
  6
CONTINUOUS
 62
     7
 10
78.78046405671529
 20
60.60258545731281
 30
0.0
 11
78.78216186662874
 21
60.58900779802401
 31
0.0
  0
LINE
  5
1A3
  8
0
  6
CONTINUOUS
 62
     7
 10
78.78216186662874
 20
60.58900779802401
 30
0.0
 11
78.78349769218484
 21
60.5752633865427
 31
0.0
  0
LINE
  5
1A4
  8
0
  6
CONTINUOUS
 62
     7
 10
78.78349769218484
 20
60.5752633865427
 30
0.0
 11
78.78445332969123
 21
60.56148722076882
 31
0.0
  0
LINE
  5
1A5
  8
0
  6
CONTINUOUS
 62
     7
 10
78.78445332969123
 20
60.56148722076882
 30
0.0
 11
78.78502907180878
 21
60.5476473167873
 31
0.0
  0
LINE
  5
1A6
  8
0
  6
CONTINUOUS
 62
     7
 10
78.78502907180878
 20
60.5476473167873
 30
0.0
 11
78.7852210853248
 21
60.53379674016729
 31
0.0
  0
LINE
  5
1A7
  8
0
  6
CONTINUOUS
 62
     7
 10
78.28252337200149
 20
61.03379674016729
 30
0.0
 11
78.28500537446591
 21
61.03379674016729
 31
0.0
  0
LINE
  5
1A8
  8
0
  6
CONTINUOUS
 62
     7
 10
76.21477891467521
 20
60.53379674016729
 30
0.0
 11
76.21520700653971
 21
60.55447278879139
 31
0.0
  0
LINE
  5
1A9
  8
0
  6
CONTINUOUS
 62
     7
 10
76.21520700653971
 20
60.55447278879139
 30
0.0
 11
76.21648979987863
 21
60.57511333465371
 31
0.0
  0
LINE
  5
1AA
  8
0
  6
CONTINUOUS
 62
     7
 10
76.21648979987863
 20
60.57511333465371
 30
0.0
 11
76.21864363854847
 21
60.59582562146429
 31
0.0
  0
LINE
  5
1AB
  8
0
  6
CONTINUOUS
 62
     7
 10
76.21864363854847
 20
60.59582562146429
 30
0.0
 11
76.22165804397135
 21
60.61642992914018
 31
0.0
  0
LINE
  5
1AC
  8
0
  6
CONTINUOUS
 62
     7
 10
76.22165804397135
 20
60.61642992914018
 30
0.0
 11
76.22562223823716
 21
60.6373340595319
 31
0.0
  0
LINE
  5
1AD
  8
0
  6
CONTINUOUS
 62
     7
 10
76.22562223823716
 20
60.6373340595319
 30
0.0
 11
76.23047203800242
 21
60.6580500778795
 31
0.0
  0
LINE
  5
1AE
  8
0
  6
CONTINUOUS
 62
     7
 10
76.23047203800242
 20
60.6580500778795
 30
0.0
 11
76.23624472821362
 21
60.67869010834958
 31
0.0
  0
LINE
  5
1AF
  8
0
  6
CONTINUOUS
 62
     7
 10
76.23624472821362
 20
60.67869010834958
 30
0.0
 11
76.24289630666554
 21
60.69906311811307
 31
0.0
  0
LINE
  5
1B0
  8
0
  6
CONTINUOUS
 62
     7
 10
76.24289630666554
 20
60.69906311811307
 30
0.0
 11
76.25013607287809
 21
60.7184308888821
 31
0.0
  0
LINE
  5
1B1
  8
0
  6
CONTINUOUS
 62
     7
 10
76.25013607287809
 20
60.7184308888821
 30
0.0
 11
76.25816994901672
 21
60.73748208074819
 31
0.0
  0
LINE
  5
1B2
  8
0
  6
CONTINUOUS
 62
     7
 10
76.25816994901672
 20
60.73748208074819
 30
0.0
 11
76.26704857035314
 21
60.75631229978609
 31
0.0
  0
LINE
  5
1B3
  8
0
  6
CONTINUOUS
 62
     7
 10
76.26704857035314
 20
60.75631229978609
 30
0.0
 11
76.27670272014286
 21
60.77475591402121
 31
0.0
  0
LINE
  5
1B4
  8
0
  6
CONTINUOUS
 62
     7
 10
76.27670272014286
 20
60.77475591402121
 30
0.0
 11
76.28735059298141
 21
60.79316717069619
 31
0.0
  0
LINE
  5
1B5
  8
0
  6
CONTINUOUS
 62
     7
 10
76.28735059298141
 20
60.79316717069619
 30
0.0
 11
76.29877097456851
 21
60.81110833236927
 31
0.0
  0
LINE
  5
1B6
  8
0
  6
CONTINUOUS
 62
     7
 10
76.29877097456851
 20
60.81110833236927
 30
0.0
 11
76.31103576114799
 21
60.82867257566802
 31
0.0
  0
LINE
  5
1B7
  8
0
  6
CONTINUOUS
 62
     7
 10
76.31103576114799
 20
60.82867257566802
 30
0.0
 11
76.3240406773405
 21
60.84569488298938
 31
0.0
  0
LINE
  5
1B8
  8
0
  6
CONTINUOUS
 62
     7
 10
76.3240406773405
 20
60.84569488298938
 30
0.0
 11
76.33728451233894
 21
60.8615943226132
 31
0.0
  0
LINE
  5
1B9
  8
0
  6
CONTINUOUS
 62
     7
 10
76.33728451233894
 20
60.8615943226132
 30
0.0
 11
76.35117391412209
 21
60.8769319279196
 31
0.0
  0
LINE
  5
1BA
  8
0
  6
CONTINUOUS
 62
     7
 10
76.35117391412209
 20
60.8769319279196
 30
0.0
 11
76.36578822412596
 21
60.89178116207599
 31
0.0
  0
LINE
  5
1BB
  8
0
  6
CONTINUOUS
 62
     7
 10
76.36578822412596
 20
60.89178116207599
 30
0.0
 11
76.38100749117194
 21
60.90600867528201
 31
0.0
  0
LINE
  5
1BC
  8
0
  6
CONTINUOUS
 62
     7
 10
76.38100749117194
 20
60.90600867528201
 30
0.0
 11
76.39715456887934
 21
60.91987651756217
 31
0.0
  0
LINE
  5
1BD
  8
0
  6
CONTINUOUS
 62
     7
 10
76.39715456887934
 20
60.91987651756217
 30
0.0
 11
76.41387627120494
 21
60.93304485061948
 31
0.0
  0
LINE
  5
1BE
  8
0
  6
CONTINUOUS
 62
     7
 10
76.41387627120494
 20
60.93304485061948
 30
0.0
 11
76.43127127559798
 21
60.9455777907717
 31
0.0
  0
LINE
  5
1BF
  8
0
  6
CONTINUOUS
 62
     7
 10
76.43127127559798
 20
60.9455777907717
 30
0.0
 11
76.44918672717475
 21
60.9573540375945
 31
0.0
  0
LINE
  5
1C0
  8
0
  6
CONTINUOUS
 62
     7
 10
76.44918672717475
 20
60.9573540375945
 30
0.0
 11
76.46696906075192
 21
60.96799747617959
 31
0.0
  0
LINE
  5
1C1
  8
0
  6
CONTINUOUS
 62
     7
 10
76.46696906075192
 20
60.96799747617959
 30
0.0
 11
76.48517657955408
 21
60.97789557564259
 31
0.0
  0
LINE
  5
1C2
  8
0
  6
CONTINUOUS
 62
     7
 10
76.48517657955408
 20
60.97789557564259
 30
0.0
 11
76.50390879760396
 21
60.98709146268791
 31
0.0
  0
LINE
  5
1C3
  8
0
  6
CONTINUOUS
 62
     7
 10
76.50390879760396
 20
60.98709146268791
 30
0.0
 11
76.52300801157925
 21
60.99549859349268
 31
0.0
  0
LINE
  5
1C4
  8
0
  6
CONTINUOUS
 62
     7
 10
76.52300801157925
 20
60.99549859349268
 30
0.0
 11
76.54286704124787
 21
61.0032578566172
 31
0.0
  0
LINE
  5
1C5
  8
0
  6
CONTINUOUS
 62
     7
 10
76.54286704124787
 20
61.0032578566172
 30
0.0
 11
76.56303863239981
 21
61.01016448486768
 31
0.0
  0
LINE
  5
1C6
  8
0
  6
CONTINUOUS
 62
     7
 10
76.56303863239981
 20
61.01016448486768
 30
0.0
 11
76.58363767729399
 21
61.01624632147348
 31
0.0
  0
LINE
  5
1C7
  8
0
  6
CONTINUOUS
 62
     7
 10
76.58363767729399
 20
61.01624632147348
 30
0.0
 11
76.60447898117144
 21
61.02143904124219
 31
0.0
  0
LINE
  5
1C8
  8
0
  6
CONTINUOUS
 62
     7
 10
76.60447898117144
 20
61.02143904124219
 30
0.0
 11
76.62254831238091
 21
61.02518178478189
 31
0.0
  0
LINE
  5
1C9
  8
0
  6
CONTINUOUS
 62
     7
 10
76.62254831238091
 20
61.02518178478189
 30
0.0
 11
76.64074984105906
 21
61.028257164329
 31
0.0
  0
LINE
  5
1CA
  8
0
  6
CONTINUOUS
 62
     7
 10
76.64074984105906
 20
61.028257164329
 30
0.0
 11
76.65904651619773
 21
61.0306588732831
 31
0.0
  0
LINE
  5
1CB
  8
0
  6
CONTINUOUS
 62
     7
 10
76.65904651619773
 20
61.0306588732831
 30
0.0
 11
76.67764986107827
 21
61.0324006313794
 31
0.0
  0
LINE
  5
1CC
  8
0
  6
CONTINUOUS
 62
     7
 10
76.67764986107827
 20
61.0324006313794
 30
0.0
 11
76.69631222265916
 21
61.03344733764929
 31
0.0
  0
LINE
  5
1CD
  8
0
  6
CONTINUOUS
 62
     7
 10
76.69631222265916
 20
61.03344733764929
 30
0.0
 11
76.7149946255341
 21
61.03379674016729
 31
0.0
  0
LINE
  5
1CE
  8
0
  6
CONTINUOUS
 62
     7
 10
76.7149946255341
 20
61.03379674016729
 30
0.0
 11
76.71747662799852
 21
61.03379674016729
 31
0.0
  0
LINE
  5
1CF
  8
0
  6
CONTINUOUS
 62
     7
 10
54.53593662345804
 20
48.0337967401673
 30
0.0
 11
54.53593662345804
 21
60.53379674016729
 31
0.0
  0
LINE
  5
1D0
  8
0
  6
CONTINUOUS
 62
     7
 10
54.51340028272865
 20
61.03379674016729
 30
0.0
 11
54.53593662345804
 21
60.53379674016729
 31
0.0
  0
LINE
  5
1D1
  8
0
  6
CONTINUOUS
 62
     7
 10
56.04567312099992
 20
57.48193631165399
 30
0.0
 11
56.37679001666652
 21
54.53379674016717
 31
0.0
  0
LINE
  5
1D2
  8
0
  6
CONTINUOUS
 62
     7
 10
56.04567312099992
 20
57.48193631165399
 30
0.0
 11
55.93614158255381
 21
57.70238936674701
 31
0.0
  0
LINE
  5
1D3
  8
0
  6
CONTINUOUS
 62
     7
 10
54.51340028272865
 20
61.03379674016729
 30
0.0
 11
76.7149946255341
 21
61.03379674016729
 31
0.0
  0
LINE
  5
1D4
  8
0
  6
CONTINUOUS
 62
     7
 10
99.7036033111745
 20
57.23379674016729
 30
0.0
 11
96.47366596101027
 21
57.23379674016729
 31
0.0
  0
LINE
  5
1D5
  8
0
  6
CONTINUOUS
 62
     7
 10
99.70360331117453
 20
60.03379674016729
 30
0.0
 11
99.70360331117453
 21
57.23379674016729
 31
0.0
  0
LINE
  5
1D6
  8
0
  6
CONTINUOUS
 62
     7
 10
99.94994432064367
 20
61.03379674016729
 30
0.0
 11
99.86234606360067
 21
60.95950064879901
 31
0.0
  0
LINE
  5
1D7
  8
0
  6
CONTINUOUS
 62
     7
 10
99.86234606360067
 20
60.95950064879901
 30
0.0
 11
99.81593633298577
 21
60.85704335426589
 31
0.0
  0
ARC
  5
1D8
  8
0
  6
CONTINUOUS
 62
     7
 10
102.3313496635994
 20
60.0945247875464
 30
0.0
 40
2.628447980923459
 50
163.1359247481692
 51
181.3238878872567
  0
LINE
  5
1D9
  8
0
  6
CONTINUOUS
 62
     7
 10
99.94994432064364
 20
61.03379674016729
 30
0.0
 11
100.4865997172713
 21
61.03379674016729
 31
0.0
  0
LINE
  5
1DA
  8
0
  6
CONTINUOUS
 62
     7
 10
100.464063376542
 20
60.53379674016729
 30
0.0
 11
100.4865997172714
 21
61.03379674016729
 31
0.0
  0
LINE
  5
1DB
  8
0
  6
CONTINUOUS
 62
     7
 10
100.464063376542
 20
48.0337967401673
 30
0.0
 11
100.464063376542
 21
60.53379674016729
 31
0.0
  0
ARC
  5
1DC
  8
0
  6
CONTINUOUS
 62
     7
 10
95.08764306158783
 20
60.03845920581258
 30
0.0
 40
1.386030741473407
 50
359.80726249467
 51
17.38547316620884
  0
LINE
  5
1DD
  8
0
  6
CONTINUOUS
 62
     7
 10
96.4103545367918
 20
60.45260358845358
 30
0.0
 11
96.3633575514878
 21
60.575684997171
 31
0.0
  0
LINE
  5
1DE
  8
0
  6
CONTINUOUS
 62
     7
 10
96.3633575514878
 20
60.575684997171
 30
0.0
 11
96.30319216163161
 21
60.68987914005522
 31
0.0
  0
LINE
  5
1DF
  8
0
  6
CONTINUOUS
 62
     7
 10
96.30319216163161
 20
60.68987914005522
 30
0.0
 11
96.23377666416707
 21
60.788012504955
 31
0.0
  0
LINE
  5
1E0
  8
0
  6
CONTINUOUS
 62
     7
 10
96.23377666416707
 20
60.788012504955
 30
0.0
 11
96.14356548364857
 21
60.88119808349698
 31
0.0
  0
LINE
  5
1E1
  8
0
  6
CONTINUOUS
 62
     7
 10
96.14356548364857
 20
60.88119808349698
 30
0.0
 11
96.04566263731667
 21
60.95188201480789
 31
0.0
  0
LINE
  5
1E2
  8
0
  6
CONTINUOUS
 62
     7
 10
96.04566263731667
 20
60.95188201480789
 30
0.0
 11
95.9220427548641
 21
61.00707562849769
 31
0.0
  0
LINE
  5
1E3
  8
0
  6
CONTINUOUS
 62
     7
 10
95.9220427548641
 20
61.00707562849769
 30
0.0
 11
95.7933967496743
 21
61.03205505004258
 31
0.0
  0
LINE
  5
1E4
  8
0
  6
CONTINUOUS
 62
     7
 10
95.7933967496743
 20
61.03205505004258
 30
0.0
 11
95.74828759089466
 21
61.03379674016729
 31
0.0
  0
LINE
  5
1E5
  8
0
  6
CONTINUOUS
 62
     7
 10
96.47366596101028
 20
60.03379674016729
 30
0.0
 11
96.47366596101028
 21
57.23379674016729
 31
0.0
  0
LINE
  5
1E6
  8
0
  6
CONTINUOUS
 62
     7
 10
78.28500537446591
 20
61.03379674016729
 30
0.0
 11
95.74828759089466
 21
61.03379674016729
 31
0.0
  0
ARC
  5
1E7
  8
0
  6
CONTINUOUS
 62
     7
 10
100.1870556653061
 20
60.0728184238602
 30
0.0
 40
2.562740967687716
 50
162.5946722464955
 51
180.8724503239255
  0
LINE
  5
1E8
  8
0
  6
CONTINUOUS
 62
     7
 10
97.74165615474526
 20
60.83940990647249
 30
0.0
 11
97.79017515991445
 21
60.94418296143189
 31
0.0
  0
LINE
  5
1E9
  8
0
  6
CONTINUOUS
 62
     7
 10
97.79017515991445
 20
60.94418296143189
 30
0.0
 11
97.85792331844156
 21
61.02197397296641
 31
0.0
  0
LINE
  5
1EA
  8
0
  6
CONTINUOUS
 62
     7
 10
97.85792331844156
 20
61.02197397296641
 30
0.0
 11
97.89607805437116
 21
61.03379674016729
 31
0.0
  0
LINE
  5
1EB
  8
0
  6
CONTINUOUS
 62
     7
 10
97.62461179749812
 20
60.03379674016729
 30
0.0
 11
97.62461179749812
 21
57.23379674016729
 31
0.0
  0
LINE
  5
1EC
  8
0
  6
CONTINUOUS
 62
     7
 10
55.51049928190762
 20
57.48193631165399
 30
0.0
 11
55.83343589767867
 21
54.53379674016717
 31
0.0
  0
LINE
  5
1ED
  8
0
  6
CONTINUOUS
 62
     7
 10
55.83343589767865
 20
54.53379674016717
 30
0.0
 11
56.3767900166665
 21
54.53379674016717
 31
0.0
  0
LINE
  5
1EE
  8
0
  6
CONTINUOUS
 62
     7
 10
55.30102449206491
 20
57.4819363116541
 30
0.0
 11
55.03580626864165
 21
54.53379674016731
 31
0.0
  0
LINE
  5
1EF
  8
0
  6
CONTINUOUS
 62
     7
 10
55.30102449206492
 20
57.48193631165399
 30
0.0
 11
55.40362026632262
 21
57.70238936674768
 31
0.0
  0
LINE
  5
1F0
  8
0
  6
CONTINUOUS
 62
     7
 10
55.83343589767867
 20
54.53379674016717
 30
0.0
 11
55.03580626864164
 21
54.53379674016717
 31
0.0
  0
LINE
  5
1F1
  8
0
  6
CONTINUOUS
 62
     7
 10
55.40362026632262
 20
57.70238936674768
 30
0.0
 11
55.51049928190763
 21
57.48193631165399
 31
0.0
  0
LINE
  5
1F2
  8
0
  6
CONTINUOUS
 62
     7
 10
54.22899097071362
 20
61.03379674016729
 30
0.0
 11
54.51340028272865
 21
61.03379674016729
 31
0.0
  0
LINE
  5
1F3
  8
0
  6
CONTINUOUS
 62
     7
 10
100.4865997172714
 20
61.03379674016729
 30
0.0
 11
100.7710090292864
 21
61.03379674016729
 31
0.0
  0
LINE
  5
1F4
  8
0
  6
CONTINUOUS
 62
     7
 10
100.7710090292864
 20
61.03379674016729
 30
0.0
 11
100.7841620864668
 21
61.03379674016729
 31
0.0
  0
LINE
  5
1F5
  8
0
  6
CONTINUOUS
 62
     7
 10
54.21583791353323
 20
61.03379674016729
 30
0.0
 11
54.22899097071362
 21
61.03379674016729
 31
0.0
  0
LINE
  5
1F6
  8
0
  6
CONTINUOUS
 62
     7
 10
104.5
 20
42.0337967401673
 30
0.0
 11
77.50000000000001
 21
42.0337967401673
 31
0.0
  0
LINE
  5
1F7
  8
0
  6
CONTINUOUS
 62
     7
 10
77.50000000000001
 20
42.0337967401673
 30
0.0
 11
50.50000000000001
 21
42.0337967401673
 31
0.0
  0
LINE
  5
1F8
  8
0
  6
CONTINUOUS
 62
     7
 10
101.25929307213
 20
24.05702942049231
 30
0.0
 11
101.250478575402
 21
24.05702942049231
 31
0.0
  0
LINE
  5
1F9
  8
0
  6
CONTINUOUS
 62
     7
 10
76.51751665580443
 20
24.03379674016728
 30
0.0
 11
76.85287193946141
 21
24.05702942049231
 31
0.0
  0
LINE
  5
1FA
  8
0
  6
CONTINUOUS
 62
     7
 10
76.51751665580443
 20
24.03379674016728
 30
0.0
 11
53.91180070639081
 21
24.03379674016728
 31
0.0
  0
LINE
  5
1FB
  8
0
  6
CONTINUOUS
 62
     7
 10
53.74952142459802
 20
24.05702942049231
 30
0.0
 11
53.91180070639083
 21
24.03379674016728
 31
0.0
  0
LINE
  5
1FC
  8
0
  6
CONTINUOUS
 62
     7
 10
53.74952142459802
 20
24.05702942049231
 30
0.0
 11
53.74070692786999
 21
24.05702942049231
 31
0.0
  0
LINE
  5
1FD
  8
0
  6
CONTINUOUS
 62
     7
 10
101.0881992936092
 20
24.03379674016728
 30
0.0
 11
101.250478575402
 21
24.05702942049231
 31
0.0
  0
LINE
  5
1FE
  8
0
  6
CONTINUOUS
 62
     7
 10
101.0881992936092
 20
24.03379674016728
 30
0.0
 11
78.48248334419557
 21
24.03379674016728
 31
0.0
  0
LINE
  5
1FF
  8
0
  6
CONTINUOUS
 62
     7
 10
78.1471280605386
 20
24.05702942049231
 30
0.0
 11
78.48248334419559
 21
24.03379674016728
 31
0.0
  0
LINE
  5
200
  8
0
  6
CONTINUOUS
 62
     7
 10
78.1471280605386
 20
24.05702942049231
 30
0.0
 11
76.85287193946144
 21
24.05702942049231
 31
0.0
  0
LINE
  5
201
  8
0
  6
CONTINUOUS
 62
     7
 10
76.46399374258286
 20
18.59659384606338
 30
0.0
 11
76.36908701303838
 21
24.03379674016728
 31
0.0
  0
LINE
  5
202
  8
0
  6
CONTINUOUS
 62
     7
 10
78.63091298696165
 20
24.03379674016728
 30
0.0
 11
78.53600625741716
 21
18.59659384606338
 31
0.0
  0
LINE
  5
203
  8
0
  6
CONTINUOUS
 62
     7
 10
78.00865136844216
 20
16.5337967401673
 30
0.0
 11
76.99134863155783
 21
16.5337967401673
 31
0.0
  0
ARC
  5
204
  8
0
  6
CONTINUOUS
 62
     7
 10
76.99134863155786
 20
17.03379674016731
 30
0.0
 40
0.5000000000000004
 50
180.9999999999999
 51
270.0
  0
LINE
  5
205
  8
0
  6
CONTINUOUS
 62
     7
 10
76.49142478397965
 20
17.02507053694857
 30
0.0
 11
76.46399374258286
 21
18.59659384606338
 31
0.0
  0
ARC
  5
206
  8
0
  6
CONTINUOUS
 62
     7
 10
78.00865136844216
 20
17.03379674016731
 30
0.0
 40
0.5000000000000004
 50
270.0
 51
355.5
  0
ARC
  5
207
  8
0
  6
CONTINUOUS
 62
     7
 10
78.00865136844216
 20
17.03379674016731
 30
0.0
 40
0.5000000000000004
 50
355.5
 51
359.0000000000001
  0
LINE
  5
208
  8
0
  6
CONTINUOUS
 62
     7
 10
78.53600625741716
 20
18.59659384606338
 30
0.0
 11
78.50857521602036
 21
17.02507053694857
 31
0.0
  0
LINE
  5
209
  8
0
  6
CONTINUOUS
 62
     7
 10
58.79284746082636
 20
23.7770821589382
 30
0.0
 11
76.37356798272175
 21
23.7770821589382
 31
0.0
  0
LINE
  5
20A
  8
0
  6
CONTINUOUS
 62
     7
 10
58.78413678678108
 20
24.03379674016728
 30
0.0
 11
58.79284746082636
 21
23.7770821589382
 31
0.0
  0
LINE
  5
20B
  8
0
  6
CONTINUOUS
 62
     7
 10
96.20715253917366
 20
23.7770821589382
 30
0.0
 11
96.2158631807085
 21
24.03379578199769
 31
0.0
  0
LINE
  5
20C
  8
0
  6
CONTINUOUS
 62
     7
 10
78.62643201727828
 20
23.7770821589382
 30
0.0
 11
96.20715253917366
 21
23.7770821589382
 31
0.0
  0
LINE
  5
20D
  8
0
  6
CONTINUOUS
 62
     7
 10
96.20715253917366
 20
23.7770821589382
 30
0.0
 11
94.44714356519457
 21
22.03387289403921
 31
0.0
  0
LINE
  5
20E
  8
0
  6
CONTINUOUS
 62
     7
 10
94.44714356519249
 20
22.03387289403921
 30
0.0
 11
78.59600418637584
 21
22.03387289403899
 31
0.0
  0
LINE
  5
20F
  8
0
  6
CONTINUOUS
 62
     7
 10
76.40399581362416
 20
22.03387289403899
 30
0.0
 11
60.55285643480754
 21
22.03387289403899
 31
0.0
  0
LINE
  5
210
  8
0
  6
CONTINUOUS
 62
     7
 10
60.55285643480546
 20
22.03387289403849
 30
0.0
 11
58.79284746082636
 21
23.7770821589382
 31
0.0
  0
LINE
  5
211
  8
0
  6
CONTINUOUS
 62
     7
 10
60.59123634393732
 20
17.02507053694871
 30
0.0
 11
60.59178037368853
 21
17.00824394863598
 31
0.0
  0
LINE
  5
212
  8
0
  6
CONTINUOUS
 62
     7
 10
60.59178037368853
 20
17.00824394863598
 30
0.0
 11
60.59285544738041
 21
16.99147172343291
 31
0.0
  0
LINE
  5
213
  8
0
  6
CONTINUOUS
 62
     7
 10
60.59285544738041
 20
16.99147172343291
 30
0.0
 11
60.59447294054674
 21
16.9746470231123
 31
0.0
  0
LINE
  5
214
  8
0
  6
CONTINUOUS
 62
     7
 10
60.59447294054674
 20
16.9746470231123
 30
0.0
 11
60.59661712502218
 21
16.95794782741358
 31
0.0
  0
LINE
  5
215
  8
0
  6
CONTINUOUS
 62
     7
 10
60.59661712502218
 20
16.95794782741358
 30
0.0
 11
60.59825266957253
 21
16.94739475726431
 31
0.0
  0
LINE
  5
216
  8
0
  6
CONTINUOUS
 62
     7
 10
60.59825266957253
 20
16.94739475726431
 30
0.0
 11
60.60009456665336
 21
16.93691414456089
 31
0.0
  0
LINE
  5
217
  8
0
  6
CONTINUOUS
 62
     7
 10
60.60009456665336
 20
16.93691414456089
 30
0.0
 11
60.60214641478449
 21
16.92648024817231
 31
0.0
  0
LINE
  5
218
  8
0
  6
CONTINUOUS
 62
     7
 10
60.60214641478449
 20
16.92648024817231
 30
0.0
 11
60.60439869816807
 21
16.91613448352119
 31
0.0
  0
LINE
  5
219
  8
0
  6
CONTINUOUS
 62
     7
 10
60.60439869816807
 20
16.91613448352119
 30
0.0
 11
60.60738664898146
 21
16.9037424606707
 31
0.0
  0
LINE
  5
21A
  8
0
  6
CONTINUOUS
 62
     7
 10
60.60738664898146
 20
16.9037424606707
 30
0.0
 11
60.61065844593692
 21
16.8914879656866
 31
0.0
  0
LINE
  5
21B
  8
0
  6
CONTINUOUS
 62
     7
 10
60.61065844593692
 20
16.8914879656866
 30
0.0
 11
60.61524791251593
 21
16.87602509197889
 31
0.0
  0
LINE
  5
21C
  8
0
  6
CONTINUOUS
 62
     7
 10
60.61524791251593
 20
16.87602509197889
 30
0.0
 11
60.62026732169117
 21
16.86084779787619
 31
0.0
  0
LINE
  5
21D
  8
0
  6
CONTINUOUS
 62
     7
 10
60.62026732169117
 20
16.86084779787619
 30
0.0
 11
60.62573551036418
 21
16.84587856422359
 31
0.0
  0
LINE
  5
21E
  8
0
  6
CONTINUOUS
 62
     7
 10
60.62573551036418
 20
16.84587856422359
 30
0.0
 11
60.63160221884462
 21
16.83123191602537
 31
0.0
  0
LINE
  5
21F
  8
0
  6
CONTINUOUS
 62
     7
 10
60.63160221884462
 20
16.83123191602537
 30
0.0
 11
60.63792714836151
 21
16.81674926144608
 31
0.0
  0
LINE
  5
220
  8
0
  6
CONTINUOUS
 62
     7
 10
60.63792714836151
 20
16.81674926144608
 30
0.0
 11
60.64462169083676
 21
16.802621699023
 31
0.0
  0
LINE
  5
221
  8
0
  6
CONTINUOUS
 62
     7
 10
60.64462169083676
 20
16.802621699023
 30
0.0
 11
60.6517060678256
 21
16.7887849510894
 31
0.0
  0
LINE
  5
222
  8
0
  6
CONTINUOUS
 62
     7
 10
60.6517060678256
 20
16.7887849510894
 30
0.0
 11
60.65912580653566
 21
16.775323576389
 31
0.0
  0
LINE
  5
223
  8
0
  6
CONTINUOUS
 62
     7
 10
60.65912580653566
 20
16.775323576389
 30
0.0
 11
60.66698993764891
 21
16.7620352945621
 31
0.0
  0
LINE
  5
224
  8
0
  6
CONTINUOUS
 62
     7
 10
60.66698993764891
 20
16.7620352945621
 30
0.0
 11
60.67517244458983
 21
16.74912960304662
 31
0.0
  0
LINE
  5
225
  8
0
  6
CONTINUOUS
 62
     7
 10
60.67517244458983
 20
16.74912960304662
 30
0.0
 11
60.68226952196596
 21
16.7386017241726
 31
0.0
  0
LINE
  5
226
  8
0
  6
CONTINUOUS
 62
     7
 10
60.68226952196596
 20
16.7386017241726
 30
0.0
 11
60.68956186647514
 21
16.72835736402498
 31
0.0
  0
LINE
  5
227
  8
0
  6
CONTINUOUS
 62
     7
 10
60.68956186647514
 20
16.72835736402498
 30
0.0
 11
60.70473758428624
 21
16.70866582164818
 31
0.0
  0
LINE
  5
228
  8
0
  6
CONTINUOUS
 62
     7
 10
60.70473758428624
 20
16.70866582164818
 30
0.0
 11
60.72081607309055
 21
16.68985613229759
 31
0.0
  0
LINE
  5
229
  8
0
  6
CONTINUOUS
 62
     7
 10
60.72081607309055
 20
16.68985613229759
 30
0.0
 11
60.73755671558839
 21
16.67216650179731
 31
0.0
  0
LINE
  5
22A
  8
0
  6
CONTINUOUS
 62
     7
 10
60.73755671558839
 20
16.67216650179731
 30
0.0
 11
60.74794146128319
 21
16.66204299190222
 31
0.0
  0
LINE
  5
22B
  8
0
  6
CONTINUOUS
 62
     7
 10
60.74794146128319
 20
16.66204299190222
 30
0.0
 11
60.75852511250066
 21
16.65232929885249
 31
0.0
  0
LINE
  5
22C
  8
0
  6
CONTINUOUS
 62
     7
 10
60.75852511250066
 20
16.65232929885249
 30
0.0
 11
60.77744056670242
 21
16.63634671062569
 31
0.0
  0
LINE
  5
22D
  8
0
  6
CONTINUOUS
 62
     7
 10
60.77744056670242
 20
16.63634671062569
 30
0.0
 11
60.7968809990868
 21
16.62157676469247
 31
0.0
  0
LINE
  5
22E
  8
0
  6
CONTINUOUS
 62
     7
 10
60.7968809990868
 20
16.62157676469247
 30
0.0
 11
60.81691918789039
 21
16.60792343034798
 31
0.0
  0
LINE
  5
22F
  8
0
  6
CONTINUOUS
 62
     7
 10
60.81691918789039
 20
16.60792343034798
 30
0.0
 11
60.83738176116368
 21
16.59546963641509
 31
0.0
  0
LINE
  5
230
  8
0
  6
CONTINUOUS
 62
     7
 10
60.83738176116368
 20
16.59546963641509
 30
0.0
 11
60.85844412529194
 21
16.58408723632848
 31
0.0
  0
LINE
  5
231
  8
0
  6
CONTINUOUS
 62
     7
 10
60.85844412529194
 20
16.58408723632848
 30
0.0
 11
60.8798481300361
 21
16.57389871149439
 31
0.0
  0
LINE
  5
232
  8
0
  6
CONTINUOUS
 62
     7
 10
60.8798481300361
 20
16.57389871149439
 30
0.0
 11
60.90168240769689
 21
16.56483956169027
 31
0.0
  0
LINE
  5
233
  8
0
  6
CONTINUOUS
 62
     7
 10
60.90168240769689
 20
16.56483956169027
 30
0.0
 11
60.92378333439834
 21
16.55695974319951
 31
0.0
  0
LINE
  5
234
  8
0
  6
CONTINUOUS
 62
     7
 10
60.92378333439834
 20
16.55695974319951
 30
0.0
 11
60.94112647590575
 21
16.55164067882028
 31
0.0
  0
LINE
  5
235
  8
0
  6
CONTINUOUS
 62
     7
 10
60.94112647590575
 20
16.55164067882028
 30
0.0
 11
60.96743538766776
 21
16.54495864973818
 31
0.0
  0
LINE
  5
236
  8
0
  6
CONTINUOUS
 62
     7
 10
60.96743538766776
 20
16.54495864973818
 30
0.0
 11
60.9939814647323
 21
16.5398443683023
 31
0.0
  0
LINE
  5
237
  8
0
  6
CONTINUOUS
 62
     7
 10
60.9939814647323
 20
16.5398443683023
 30
0.0
 11
61.02080928103494
 21
16.53627856994669
 31
0.0
  0
LINE
  5
238
  8
0
  6
CONTINUOUS
 62
     7
 10
61.02080928103494
 20
16.53627856994669
 30
0.0
 11
61.04778248737999
 21
16.53427553983869
 31
0.0
  0
LINE
  5
239
  8
0
  6
CONTINUOUS
 62
     7
 10
61.04778248737999
 20
16.53427553983869
 30
0.0
 11
61.06586476705072
 21
16.53380705557878
 31
0.0
  0
LINE
  5
23A
  8
0
  6
CONTINUOUS
 62
     7
 10
61.06586476705072
 20
16.53380705557878
 30
0.0
 11
61.06897833025287
 21
16.5337967401673
 31
0.0
  0
LINE
  5
23B
  8
0
  6
CONTINUOUS
 62
     7
 10
60.59123634393732
 20
17.02507053694871
 30
0.0
 11
60.59118367114436
 21
17.0294334724182
 31
0.0
  0
LINE
  5
23C
  8
0
  6
CONTINUOUS
 62
     7
 10
76.99134863155786
 20
16.5337967401673
 30
0.0
 11
61.06897833025287
 21
16.5337967401673
 31
0.0
  0
LINE
  5
23D
  8
0
  6
CONTINUOUS
 62
     7
 10
94.40881632885566
 20
17.02943347241751
 30
0.0
 11
94.4087636560627
 21
17.02507053694857
 31
0.0
  0
LINE
  5
23E
  8
0
  6
CONTINUOUS
 62
     7
 10
93.93102166974715
 20
16.5337967401673
 30
0.0
 11
93.9341352329493
 21
16.53380705557878
 31
0.0
  0
LINE
  5
23F
  8
0
  6
CONTINUOUS
 62
     7
 10
93.9341352329493
 20
16.53380705557878
 30
0.0
 11
93.95193784926805
 21
16.53426297459068
 31
0.0
  0
LINE
  5
240
  8
0
  6
CONTINUOUS
 62
     7
 10
93.95193784926805
 20
16.53426297459068
 30
0.0
 11
93.96972835969282
 21
16.53539694091008
 31
0.0
  0
LINE
  5
241
  8
0
  6
CONTINUOUS
 62
     7
 10
93.96972835969282
 20
16.53539694091008
 30
0.0
 11
93.98757885206427
 21
16.53722319320899
 31
0.0
  0
LINE
  5
242
  8
0
  6
CONTINUOUS
 62
     7
 10
93.98757885206427
 20
16.53722319320899
 30
0.0
 11
94.00537867803082
 21
16.53974076382411
 31
0.0
  0
LINE
  5
243
  8
0
  6
CONTINUOUS
 62
     7
 10
94.00537867803082
 20
16.53974076382411
 30
0.0
 11
94.0231669682903
 21
16.54296449558429
 31
0.0
  0
LINE
  5
244
  8
0
  6
CONTINUOUS
 62
     7
 10
94.0231669682903
 20
16.54296449558429
 30
0.0
 11
94.04087691238104
 21
16.54689308240448
 31
0.0
  0
LINE
  5
245
  8
0
  6
CONTINUOUS
 62
     7
 10
94.04087691238104
 20
16.54689308240448
 30
0.0
 11
94.05859428014718
 21
16.55156107676231
 31
0.0
  0
LINE
  5
246
  8
0
  6
CONTINUOUS
 62
     7
 10
94.05859428014718
 20
16.55156107676231
 30
0.0
 11
94.07621666560169
 21
16.55695974319951
 31
0.0
  0
LINE
  5
247
  8
0
  6
CONTINUOUS
 62
     7
 10
94.07621666560169
 20
16.55695974319951
 30
0.0
 11
94.09760067054097
 21
16.5645639866025
 31
0.0
  0
LINE
  5
248
  8
0
  6
CONTINUOUS
 62
     7
 10
94.09760067054097
 20
16.5645639866025
 30
0.0
 11
94.11882192453518
 21
16.5733092623366
 31
0.0
  0
LINE
  5
249
  8
0
  6
CONTINUOUS
 62
     7
 10
94.11882192453518
 20
16.5733092623366
 30
0.0
 11
94.1398170870414
 21
16.58320908490299
 31
0.0
  0
LINE
  5
24A
  8
0
  6
CONTINUOUS
 62
     7
 10
94.1398170870414
 20
16.58320908490299
 30
0.0
 11
94.16074333868663
 21
16.59439911142308
 31
0.0
  0
LINE
  5
24B
  8
0
  6
CONTINUOUS
 62
     7
 10
94.16074333868663
 20
16.59439911142308
 30
0.0
 11
94.18136042899135
 21
16.60682041536651
 31
0.0
  0
LINE
  5
24C
  8
0
  6
CONTINUOUS
 62
     7
 10
94.18136042899135
 20
16.60682041536651
 30
0.0
 11
94.20182087361972
 21
16.6206457460682
 31
0.0
  0
LINE
  5
24D
  8
0
  6
CONTINUOUS
 62
     7
 10
94.20182087361972
 20
16.6206457460682
 30
0.0
 11
94.22186652497366
 21
16.63579257770018
 31
0.0
  0
LINE
  5
24E
  8
0
  6
CONTINUOUS
 62
     7
 10
94.22186652497366
 20
16.63579257770018
 30
0.0
 11
94.24147488749936
 21
16.65232929885249
 31
0.0
  0
LINE
  5
24F
  8
0
  6
CONTINUOUS
 62
     7
 10
94.24147488749936
 20
16.65232929885249
 30
0.0
 11
94.25172161121026
 21
16.6617246429297
 31
0.0
  0
LINE
  5
250
  8
0
  6
CONTINUOUS
 62
     7
 10
94.25172161121026
 20
16.6617246429297
 30
0.0
 11
94.26178965422206
 21
16.67151106806059
 31
0.0
  0
LINE
  5
251
  8
0
  6
CONTINUOUS
 62
     7
 10
94.26178965422206
 20
16.67151106806059
 30
0.0
 11
94.27169602935103
 21
16.68172260955627
 31
0.0
  0
LINE
  5
252
  8
0
  6
CONTINUOUS
 62
     7
 10
94.27169602935103
 20
16.68172260955627
 30
0.0
 11
94.28139799037126
 21
16.69233381093768
 31
0.0
  0
LINE
  5
253
  8
0
  6
CONTINUOUS
 62
     7
 10
94.28139799037126
 20
16.69233381093768
 30
0.0
 11
94.29413068596214
 21
16.70727701100072
 31
0.0
  0
LINE
  5
254
  8
0
  6
CONTINUOUS
 62
     7
 10
94.29413068596214
 20
16.70727701100072
 30
0.0
 11
94.30645166532878
 21
16.72298216915161
 31
0.0
  0
LINE
  5
255
  8
0
  6
CONTINUOUS
 62
     7
 10
94.30645166532878
 20
16.72298216915161
 30
0.0
 11
94.31549145694247
 21
16.73539735433088
 31
0.0
  0
LINE
  5
256
  8
0
  6
CONTINUOUS
 62
     7
 10
94.31549145694247
 20
16.73539735433088
 30
0.0
 11
94.32424221383489
 21
16.74823899810321
 31
0.0
  0
LINE
  5
257
  8
0
  6
CONTINUOUS
 62
     7
 10
94.32424221383489
 20
16.74823899810321
 30
0.0
 11
94.3327233882855
 21
16.76156816291891
 31
0.0
  0
LINE
  5
258
  8
0
  6
CONTINUOUS
 62
     7
 10
94.3327233882855
 20
16.76156816291891
 30
0.0
 11
94.34087419346436
 21
16.775323576389
 31
0.0
  0
LINE
  5
259
  8
0
  6
CONTINUOUS
 62
     7
 10
94.34087419346436
 20
16.775323576389
 30
0.0
 11
94.34810526480075
 21
16.78843019027781
 31
0.0
  0
LINE
  5
25A
  8
0
  6
CONTINUOUS
 62
     7
 10
94.34810526480075
 20
16.78843019027781
 30
0.0
 11
94.35502667534521
 21
16.80190957421188
 31
0.0
  0
LINE
  5
25B
  8
0
  6
CONTINUOUS
 62
     7
 10
94.35502667534521
 20
16.80190957421188
 30
0.0
 11
94.36167731861869
 21
16.81588254200658
 31
0.0
  0
LINE
  5
25C
  8
0
  6
CONTINUOUS
 62
     7
 10
94.36167731861869
 20
16.81588254200658
 30
0.0
 11
94.36796650627653
 21
16.83020447140948
 31
0.0
  0
LINE
  5
25D
  8
0
  6
CONTINUOUS
 62
     7
 10
94.36796650627653
 20
16.83020447140948
 30
0.0
 11
94.37390829567941
 21
16.84495095016081
 31
0.0
  0
LINE
  5
25E
  8
0
  6
CONTINUOUS
 62
     7
 10
94.37390829567941
 20
16.84495095016081
 30
0.0
 11
94.37944609425297
 21
16.8600263089996
 31
0.0
  0
LINE
  5
25F
  8
0
  6
CONTINUOUS
 62
     7
 10
94.37944609425297
 20
16.8600263089996
 30
0.0
 11
94.38461621551426
 21
16.87559226323179
 31
0.0
  0
LINE
  5
260
  8
0
  6
CONTINUOUS
 62
     7
 10
94.38461621551426
 20
16.87559226323179
 30
0.0
 11
94.38934155406308
 21
16.8914879656866
 31
0.0
  0
LINE
  5
261
  8
0
  6
CONTINUOUS
 62
     7
 10
94.38934155406308
 20
16.8914879656866
 30
0.0
 11
94.392485430353
 21
16.90324013130379
 31
0.0
  0
LINE
  5
262
  8
0
  6
CONTINUOUS
 62
     7
 10
94.392485430353
 20
16.90324013130379
 30
0.0
 11
94.39537136950166
 21
16.9151318208566
 31
0.0
  0
LINE
  5
263
  8
0
  6
CONTINUOUS
 62
     7
 10
94.39537136950166
 20
16.9151318208566
 30
0.0
 11
94.39800281371865
 21
16.92720323895638
 31
0.0
  0
LINE
  5
264
  8
0
  6
CONTINUOUS
 62
     7
 10
94.39800281371865
 20
16.92720323895638
 30
0.0
 11
94.40036097415033
 21
16.93939394864422
 31
0.0
  0
LINE
  5
265
  8
0
  6
CONTINUOUS
 62
     7
 10
94.40036097415033
 20
16.93939394864422
 30
0.0
 11
94.40310573927998
 21
16.95605594816851
 31
0.0
  0
LINE
  5
266
  8
0
  6
CONTINUOUS
 62
     7
 10
94.40310573927998
 20
16.95605594816851
 30
0.0
 11
94.40533030669411
 21
16.97291826933078
 31
0.0
  0
LINE
  5
267
  8
0
  6
CONTINUOUS
 62
     7
 10
94.40533030669411
 20
16.97291826933078
 30
0.0
 11
94.40666414755249
 21
16.98584782099952
 31
0.0
  0
LINE
  5
268
  8
0
  6
CONTINUOUS
 62
     7
 10
94.40666414755249
 20
16.98584782099952
 30
0.0
 11
94.40768258008944
 21
16.99883819196429
 31
0.0
  0
LINE
  5
269
  8
0
  6
CONTINUOUS
 62
     7
 10
94.40768258008944
 20
16.99883819196429
 30
0.0
 11
94.40838504188163
 21
17.01194018262978
 31
0.0
  0
LINE
  5
26A
  8
0
  6
CONTINUOUS
 62
     7
 10
94.40838504188163
 20
17.01194018262978
 30
0.0
 11
94.4087636560627
 21
17.02507053694857
 31
0.0
  0
LINE
  5
26B
  8
0
  6
CONTINUOUS
 62
     7
 10
93.93102166974715
 20
16.5337967401673
 30
0.0
 11
78.00865136844216
 21
16.5337967401673
 31
0.0
  0
LINE
  5
26C
  8
0
  6
CONTINUOUS
 62
     7
 10
60.55285643480539
 20
22.03387289404779
 30
0.0
 11
60.59118367114436
 21
17.02943347241859
 31
0.0
  0
LINE
  5
26D
  8
0
  6
CONTINUOUS
 62
     7
 10
94.40881632885565
 20
17.02943347241548
 30
0.0
 11
94.44714356519461
 21
22.0338728940441
 31
0.0
  0
LINE
  5
26E
  8
0
  6
CONTINUOUS
 62
     7
 10
96.21198901147228
 20
16.5337967401673
 30
0.0
 11
93.93102166974715
 21
16.5337967401673
 31
0.0
  0
LINE
  5
26F
  8
0
  6
CONTINUOUS
 62
     7
 10
61.06897833025287
 20
16.5337967401673
 30
0.0
 11
58.78801098852774
 21
16.5337967401673
 31
0.0
  0
LINE
  5
270
  8
0
  6
CONTINUOUS
 62
     7
 10
96.2189011157193
 20
16.5337967401673
 30
0.0
 11
96.21198901147228
 21
16.5337967401673
 31
0.0
  0
LINE
  5
271
  8
0
  6
CONTINUOUS
 62
     7
 10
58.78801098852774
 20
16.5337967401673
 30
0.0
 11
58.78109888428073
 21
16.5337967401673
 31
0.0
  0
LINE
  5
272
  8
0
  6
CONTINUOUS
 62
     7
 10
54.50000000000002
 20
63.53379674016729
 30
0.0
 11
54.50000000000002
 21
61.03379674016729
 31
0.0
  0
LINE
  5
273
  8
0
  6
CONTINUOUS
 62
     7
 10
100.5
 20
61.03379674016729
 30
0.0
 11
100.5
 21
63.53379674016729
 31
0.0
  0
ARC
  5
274
  8
0
  6
CONTINUOUS
 62
     7
 10
56.00000000000002
 20
63.53379674016729
 30
0.0
 40
1.500000000000001
 50
90.0
 51
180.0
  0
ARC
  5
275
  8
0
  6
CONTINUOUS
 62
     7
 10
99.0
 20
63.53379674016729
 30
0.0
 40
1.500000000000001
 50
0.0
 51
90.0
  0
LINE
  5
276
  8
0
  6
CONTINUOUS
 62
     7
 10
105.0
 20
44.0337967401673
 30
0.0
 11
105.0
 21
46.0337967401673
 31
0.0
  0
LINE
  5
277
  8
0
  6
CONTINUOUS
 62
     7
 10
50.00000000000001
 20
46.0337967401673
 30
0.0
 11
50.00000000000001
 21
44.0337967401673
 31
0.0
  0
LINE
  5
278
  8
0
  6
CONTINUOUS
 62
     7
 10
50.00000000000001
 20
47.5337967401673
 30
0.0
 11
50.00000000000001
 21
46.0337967401673
 31
0.0
  0
LINE
  5
279
  8
0
  6
CONTINUOUS
 62
     7
 10
105.0
 20
46.0337967401673
 30
0.0
 11
105.0
 21
47.5337967401673
 31
0.0
  0
ARC
  5
27A
  8
0
  6
CONTINUOUS
 62
     7
 10
104.5
 20
47.5337967401673
 30
0.0
 40
0.5000000000000004
 50
0.0
 51
89.99999999999962
  0
ARC
  5
27B
  8
0
  6
CONTINUOUS
 62
     7
 10
50.50000000000001
 20
47.5337967401673
 30
0.0
 40
0.5000000000000004
 50
90.00000000000043
 51
180.0
  0
LINE
  5
27C
  8
0
  6
CONTINUOUS
 62
     7
 10
55.93614257404047
 20
57.70238936674768
 30
0.0
 11
55.40362122727184
 21
57.70238936674768
 31
0.0
  0
ARC
  5
27D
  8
0
  6
CONTINUOUS
 62
     7
 10
100.7841620864668
 20
59.03379674016729
 30
0.0
 40
2.000000000000002
 50
8.746162262556341
 51
90.00000000000004
  0
ARC
  5
27E
  8
0
  6
CONTINUOUS
 62
     7
 10
54.21583791353323
 20
59.03379674016729
 30
0.0
 40
2.000000000000002
 50
90.0
 51
171.2538377374437
  0
LINE
  5
27F
  8
0
  6
CONTINUOUS
 62
     7
 10
104.5
 20
48.0337967401673
 30
0.0
 11
102.760905481768
 21
59.3379111086752
 31
0.0
  0
LINE
  5
280
  8
0
  6
CONTINUOUS
 62
     7
 10
52.239094518232
 20
59.3379111086752
 30
0.0
 11
50.50000000000001
 21
48.0337967401673
 31
0.0
  0
ARC
  5
281
  8
0
  6
CONTINUOUS
 62
     7
 10
104.5
 20
43.73379674016728
 30
0.0
 40
0.5000000000000004
 50
0.0
 51
36.86989764584376
  0
ARC
  5
282
  8
0
  6
CONTINUOUS
 62
     7
 10
50.50000000000001
 20
43.73379674016728
 30
0.0
 40
0.4999999999999935
 50
143.1301023541562
 51
180.0
  0
ARC
  5
283
  8
0
  6
CONTINUOUS
 62
     7
 10
50.50000000000001
 20
42.5337967401673
 30
0.0
 40
0.5000000000000004
 50
180.0
 51
270.0
  0
ARC
  5
284
  8
0
  6
CONTINUOUS
 62
     7
 10
104.5
 20
42.5337967401673
 30
0.0
 40
0.5000000000000004
 50
270.0
 51
0.0
  0
LINE
  5
285
  8
0
  6
CONTINUOUS
 62
     7
 10
50.00000000000001
 20
43.73379674016728
 30
0.0
 11
50.00000000000001
 21
42.5337967401673
 31
0.0
  0
LINE
  5
286
  8
0
  6
CONTINUOUS
 62
     7
 10
105.0
 20
42.5337967401673
 30
0.0
 11
105.0
 21
43.73379674016728
 31
0.0
  0
LINE
  5
287
  8
0
  6
CONTINUOUS
 62
     7
 10
53.08580883129209
 20
42.0337967401673
 30
0.0
 11
53.39142478397966
 21
24.52507053694849
 31
0.0
  0
LINE
  5
288
  8
0
  6
CONTINUOUS
 62
     7
 10
101.6085752160204
 20
24.52507053694849
 30
0.0
 11
101.9141911687079
 21
42.0337967401673
 31
0.0
  0
ARC
  5
289
  8
0
  6
CONTINUOUS
 62
     7
 10
53.89134863155785
 20
24.53379674016729
 30
0.0
 40
0.5000000000000073
 50
181.0000000000113
 51
252.465296144036
  0
ARC
  5
28A
  8
0
  6
CONTINUOUS
 62
     7
 10
101.1086513684422
 20
24.53379674016729
 30
0.0
 40
0.5000000000000004
 50
287.534703855964
 51
358.9999999999886
  0
ARC
  5
28B
  8
0
  6
CONTINUOUS
 62
     7
 10
96.2189011157193
 20
19.53379674016731
 30
0.0
 40
3.000000000000003
 50
270.0
 51
338.1985905136481
  0
ARC
  5
28C
  8
0
  6
CONTINUOUS
 62
     7
 10
58.78109888428072
 20
19.53379674016731
 30
0.0
 40
2.999999999999996
 50
201.8014094863519
 51
270.0
  0
LINE
  5
28D
  8
0
  6
CONTINUOUS
 62
     7
 10
53.74070692786999
 20
24.05702942049231
 30
0.0
 11
55.99566881162494
 21
18.419624711105
 31
0.0
  0
LINE
  5
28E
  8
0
  6
CONTINUOUS
 62
     7
 10
99.00433118837509
 20
18.419624711105
 30
0.0
 11
101.25929307213
 21
24.05702942049231
 31
0.0
  0
ARC
  5
28F
  8
0
  6
CONTINUOUS
 62
     7
 10
77.50000000000001
 20
109.0
 30
0.0
 40
3.99999999999999
 50
300.0
 51
311.030220923117
  0
LINE
  5
290
  8
0
  6
CONTINUOUS
 62
     7
 10
79.50000000000001
 20
101.2540333075852
 30
0.0
 11
79.50000000000001
 21
105.5358983848623
 31
0.0
  0
ARC
  5
291
  8
0
  6
CONTINUOUS
 62
     7
 10
77.50000000000001
 20
109.0
 30
0.0
 40
7.999999999999993
 50
284.47751218593
 51
337.840779394616
  0
LINE
  5
292
  8
0
  6
CONTINUOUS
 62
     7
 10
75.50000000000001
 20
105.5358983848623
 30
0.0
 11
75.50000000000001
 21
101.2540333075852
 31
0.0
  0
ARC
  5
293
  8
0
  6
CONTINUOUS
 62
     7
 10
77.50000000000001
 20
109.0
 30
0.0
 40
4.000000000000004
 50
228.969779076883
 51
239.9999999999999
  0
ARC
  5
294
  8
0
  6
CONTINUOUS
 62
     7
 10
77.50000000000001
 20
109.0
 30
0.0
 40
8.000000000000007
 50
202.1592206053839
 51
255.52248781407
  0
LINE
  5
295
  8
0
  6
CONTINUOUS
 62
     7
 10
79.50000000000001
 20
112.4641016151378
 30
0.0
 11
79.50000000000001
 21
116.7459666924149
 31
0.0
  0
ARC
  5
296
  8
0
  6
CONTINUOUS
 62
     7
 10
77.50000000000001
 20
109.0
 30
0.0
 40
4.000000000000004
 50
48.96977907688305
 51
60.0
  0
ARC
  5
297
  8
0
  6
CONTINUOUS
 62
     7
 10
77.50000000000001
 20
109.0
 30
0.0
 40
8.000000000000007
 50
22.15922060538395
 51
75.52248781407009
  0
ARC
  5
298
  8
0
  6
CONTINUOUS
 62
     7
 10
77.50000000000001
 20
109.0
 30
0.0
 40
3.99999999999999
 50
120.0
 51
131.0302209231168
  0
LINE
  5
299
  8
0
  6
CONTINUOUS
 62
     7
 10
75.50000000000001
 20
116.7459666924149
 30
0.0
 11
75.50000000000001
 21
112.4641016151378
 31
0.0
  0
ARC
  5
29A
  8
0
  6
CONTINUOUS
 62
     7
 10
77.50000000000001
 20
109.0
 30
0.0
 40
7.999999999999993
 50
104.47751218593
 51
157.840779394616
  0
ARC
  5
29B
  8
0
  6
CONTINUOUS
 62
     7
 10
77.50000000000001
 20
109.0
 30
0.0
 40
22.99999999999999
 50
267.4527303482907
 51
270.0
  0
ARC
  5
29C
  8
0
  6
CONTINUOUS
 62
     7
 10
77.50000000000001
 20
109.0
 30
0.0
 40
22.99999999999999
 50
270.0
 51
272.5472696517093
  0
ARC
  5
29D
  8
0
  6
CONTINUOUS
 62
     7
 10
77.50000000000001
 20
109.0
 30
0.0
 40
23.00000000000001
 50
87.4527303482907
 51
92.54726965170936
  0
LINE
  5
29E
  8
0
  6
CONTINUOUS
 62
     7
 10
79.00000000000001
 20
131.4499443206437
 30
0.0
 11
79.00000673024724
 21
131.4777656465652
 31
0.0
  0
LINE
  5
29F
  8
0
  6
CONTINUOUS
 62
     7
 10
79.00000000000001
 20
124.929532322074
 30
0.0
 11
79.00000000000001
 21
131.4499443206437
 31
0.0
  0
LINE
  5
2A0
  8
0
  6
CONTINUOUS
 62
     7
 10
79.01745373558153
 20
124.9278791482222
 30
0.0
 11
79.01745373558153
 21
120.4170519273423
 31
0.0
  0
LINE
  5
2A1
  8
0
  6
CONTINUOUS
 62
     7
 10
79.00000000000001
 20
120.4017542509914
 30
0.0
 11
79.01745373558153
 21
120.4170519273423
 31
0.0
  0
LINE
  5
2A2
  8
0
  6
CONTINUOUS
 62
     7
 10
79.00000000000001
 20
117.3666002653407
 30
0.0
 11
79.00000000000001
 21
120.4017542509914
 31
0.0
  0
LINE
  5
2A3
  8
0
  6
CONTINUOUS
 62
     7
 10
79.01745373558153
 20
117.345712988617
 30
0.0
 11
79.00000000000001
 21
117.3666002653407
 31
0.0
  0
LINE
  5
2A4
  8
0
  6
CONTINUOUS
 62
     7
 10
79.01745373558153
 20
117.345712988617
 30
0.0
 11
79.01745373558153
 21
112.0174537355815
 31
0.0
  0
LINE
  5
2A5
  8
0
  6
CONTINUOUS
 62
     7
 10
79.00000000000001
 20
112.0
 30
0.0
 11
79.01745373558153
 21
112.0174537355815
 31
0.0
  0
LINE
  5
2A6
  8
0
  6
CONTINUOUS
 62
     7
 10
79.00000000000001
 20
110.25
 30
0.0
 11
79.00000000000001
 21
112.0
 31
0.0
  0
LINE
  5
2A7
  8
0
  6
CONTINUOUS
 62
     7
 10
78.98687162065309
 20
110.2368716206531
 30
0.0
 11
79.00000000000001
 21
110.25
 31
0.0
  0
LINE
  5
2A8
  8
0
  6
CONTINUOUS
 62
     7
 10
78.9825462644185
 20
109.736890659121
 30
0.0
 11
78.98687162065309
 21
110.2368716206531
 31
0.0
  0
LINE
  5
2A9
  8
0
  6
CONTINUOUS
 62
     7
 10
78.9825462644185
 20
108.263109340879
 30
0.0
 11
78.9825462644185
 21
109.736890659121
 31
0.0
  0
LINE
  5
2AA
  8
0
  6
CONTINUOUS
 62
     7
 10
78.98687162065309
 20
107.7631283793469
 30
0.0
 11
78.9825462644185
 21
108.263109340879
 31
0.0
  0
LINE
  5
2AB
  8
0
  6
CONTINUOUS
 62
     7
 10
79.00000000000001
 20
107.75
 30
0.0
 11
78.98687162065309
 21
107.7631283793469
 31
0.0
  0
LINE
  5
2AC
  8
0
  6
CONTINUOUS
 62
     7
 10
79.00000000000001
 20
106.0
 30
0.0
 11
79.00000000000001
 21
107.75
 31
0.0
  0
LINE
  5
2AD
  8
0
  6
CONTINUOUS
 62
     7
 10
79.00000000000001
 20
106.0
 30
0.0
 11
79.01745373558153
 21
105.9825462644185
 31
0.0
  0
LINE
  5
2AE
  8
0
  6
CONTINUOUS
 62
     7
 10
79.01745373558153
 20
100.6542870113831
 30
0.0
 11
79.01745373558153
 21
105.9825462644185
 31
0.0
  0
LINE
  5
2AF
  8
0
  6
CONTINUOUS
 62
     7
 10
79.00000000000001
 20
100.6333997346593
 30
0.0
 11
79.01745373558153
 21
100.6542870113831
 31
0.0
  0
LINE
  5
2B0
  8
0
  6
CONTINUOUS
 62
     7
 10
79.00000000000001
 20
97.5982457490086
 30
0.0
 11
79.00000000000001
 21
100.6333997346593
 31
0.0
  0
LINE
  5
2B1
  8
0
  6
CONTINUOUS
 62
     7
 10
79.01745373558153
 20
97.58294807265769
 30
0.0
 11
79.00000000000001
 21
97.5982457490086
 31
0.0
  0
LINE
  5
2B2
  8
0
  6
CONTINUOUS
 62
     7
 10
79.01745373558153
 20
93.07212085177788
 30
0.0
 11
79.01745373558153
 21
97.58294807265769
 31
0.0
  0
LINE
  5
2B3
  8
0
  6
CONTINUOUS
 62
     7
 10
79.00000000000001
 20
86.55005567935639
 30
0.0
 11
79.00000000000001
 21
93.07046767792598
 31
0.0
  0
LINE
  5
2B4
  8
0
  6
CONTINUOUS
 62
     7
 10
79.00000673024722
 20
86.52223435343481
 30
0.0
 11
79.00000000000001
 21
86.55005567935639
 31
0.0
  0
LINE
  5
2B5
  8
0
  6
CONTINUOUS
 62
     7
 10
76.00000000000001
 20
86.55005567935639
 30
0.0
 11
75.9999932697528
 21
86.52223435343481
 31
0.0
  0
LINE
  5
2B6
  8
0
  6
CONTINUOUS
 62
     7
 10
76.00000000000001
 20
93.07046767792598
 30
0.0
 11
76.00000000000001
 21
86.55005567935639
 31
0.0
  0
LINE
  5
2B7
  8
0
  6
CONTINUOUS
 62
     7
 10
75.9825462644185
 20
93.07212085177788
 30
0.0
 11
75.9825462644185
 21
97.58294807265769
 31
0.0
  0
LINE
  5
2B8
  8
0
  6
CONTINUOUS
 62
     7
 10
76.00000000000001
 20
97.5982457490086
 30
0.0
 11
75.9825462644185
 21
97.58294807265769
 31
0.0
  0
LINE
  5
2B9
  8
0
  6
CONTINUOUS
 62
     7
 10
76.00000000000001
 20
100.6333997346593
 30
0.0
 11
76.00000000000001
 21
97.5982457490086
 31
0.0
  0
LINE
  5
2BA
  8
0
  6
CONTINUOUS
 62
     7
 10
75.9825462644185
 20
100.6542870113831
 30
0.0
 11
76.00000000000001
 21
100.6333997346593
 31
0.0
  0
LINE
  5
2BB
  8
0
  6
CONTINUOUS
 62
     7
 10
75.9825462644185
 20
100.6542870113831
 30
0.0
 11
75.9825462644185
 21
105.9825462644185
 31
0.0
  0
LINE
  5
2BC
  8
0
  6
CONTINUOUS
 62
     7
 10
76.00000000000001
 20
106.0
 30
0.0
 11
75.9825462644185
 21
105.9825462644185
 31
0.0
  0
LINE
  5
2BD
  8
0
  6
CONTINUOUS
 62
     7
 10
76.00000000000001
 20
107.75
 30
0.0
 11
76.00000000000001
 21
106.0
 31
0.0
  0
LINE
  5
2BE
  8
0
  6
CONTINUOUS
 62
     7
 10
76.01312837934692
 20
107.7631283793469
 30
0.0
 11
76.00000000000001
 21
107.75
 31
0.0
  0
LINE
  5
2BF
  8
0
  6
CONTINUOUS
 62
     7
 10
76.01745373558153
 20
108.263109340879
 30
0.0
 11
76.01312837934692
 21
107.7631283793469
 31
0.0
  0
LINE
  5
2C0
  8
0
  6
CONTINUOUS
 62
     7
 10
76.01745373558153
 20
109.736890659121
 30
0.0
 11
76.01745373558153
 21
108.263109340879
 31
0.0
  0
LINE
  5
2C1
  8
0
  6
CONTINUOUS
 62
     7
 10
76.01312837934692
 20
110.2368716206531
 30
0.0
 11
76.01745373558153
 21
109.736890659121
 31
0.0
  0
LINE
  5
2C2
  8
0
  6
CONTINUOUS
 62
     7
 10
76.00000000000001
 20
110.25
 30
0.0
 11
76.01312837934692
 21
110.2368716206531
 31
0.0
  0
LINE
  5
2C3
  8
0
  6
CONTINUOUS
 62
     7
 10
76.00000000000001
 20
112.0
 30
0.0
 11
76.00000000000001
 21
110.25
 31
0.0
  0
LINE
  5
2C4
  8
0
  6
CONTINUOUS
 62
     7
 10
76.00000000000001
 20
112.0
 30
0.0
 11
75.9825462644185
 21
112.0174537355815
 31
0.0
  0
LINE
  5
2C5
  8
0
  6
CONTINUOUS
 62
     7
 10
75.9825462644185
 20
117.345712988617
 30
0.0
 11
75.9825462644185
 21
112.0174537355815
 31
0.0
  0
LINE
  5
2C6
  8
0
  6
CONTINUOUS
 62
     7
 10
76.00000000000001
 20
117.3666002653407
 30
0.0
 11
75.9825462644185
 21
117.345712988617
 31
0.0
  0
LINE
  5
2C7
  8
0
  6
CONTINUOUS
 62
     7
 10
76.00000000000001
 20
120.4017542509914
 30
0.0
 11
76.00000000000001
 21
117.3666002653407
 31
0.0
  0
LINE
  5
2C8
  8
0
  6
CONTINUOUS
 62
     7
 10
75.9825462644185
 20
120.4170519273423
 30
0.0
 11
76.00000000000001
 21
120.4017542509914
 31
0.0
  0
LINE
  5
2C9
  8
0
  6
CONTINUOUS
 62
     7
 10
75.9825462644185
 20
124.9278791482222
 30
0.0
 11
75.9825462644185
 21
120.4170519273423
 31
0.0
  0
LINE
  5
2CA
  8
0
  6
CONTINUOUS
 62
     7
 10
76.00000000000001
 20
131.4499443206437
 30
0.0
 11
76.00000000000001
 21
124.929532322074
 31
0.0
  0
LINE
  5
2CB
  8
0
  6
CONTINUOUS
 62
     7
 10
75.99999326975279
 20
131.4777656465652
 30
0.0
 11
76.00000000000001
 21
131.4499443206437
 31
0.0
  0
ARC
  5
2CC
  8
0
  6
CONTINUOUS
 62
     7
 10
77.50000000000001
 20
109.0
 30
0.0
 40
22.99999999999999
 50
358.1009528732547
 51
1.899047126745586
  0
ARC
  5
2CD
  8
0
  6
CONTINUOUS
 62
     7
 10
77.50000000000001
 20
109.0
 30
0.0
 40
22.99999999999999
 50
178.1009528732548
 51
181.8990471267456
  0
LINE
  5
2CE
  8
0
  6
CONTINUOUS
 62
     7
 10
55.03474905548573
 20
107.75
 30
0.0
 11
76.00000000000001
 21
107.75
 31
0.0
  0
LINE
  5
2CF
  8
0
  6
CONTINUOUS
 62
     7
 10
55.01250425278736
 20
107.7499956927696
 30
0.0
 11
55.03474905548573
 21
107.75
 31
0.0
  0
LINE
  5
2D0
  8
0
  6
CONTINUOUS
 62
     7
 10
99.9652509445143
 20
110.25
 30
0.0
 11
79.00000000000001
 21
110.25
 31
0.0
  0
LINE
  5
2D1
  8
0
  6
CONTINUOUS
 62
     7
 10
99.98749574721266
 20
110.2500043072304
 30
0.0
 11
99.9652509445143
 21
110.25
 31
0.0
  0
LINE
  5
2D2
  8
0
  6
CONTINUOUS
 62
     7
 10
99.9652509445143
 20
107.75
 30
0.0
 11
99.98749574721266
 21
107.7499956927696
 31
0.0
  0
LINE
  5
2D3
  8
0
  6
CONTINUOUS
 62
     7
 10
79.00000000000001
 20
107.75
 30
0.0
 11
99.9652509445143
 21
107.75
 31
0.0
  0
LINE
  5
2D4
  8
0
  6
CONTINUOUS
 62
     7
 10
55.03474905548573
 20
110.25
 30
0.0
 11
55.01250425278736
 21
110.2500043072304
 31
0.0
  0
LINE
  5
2D5
  8
0
  6
CONTINUOUS
 62
     7
 10
76.00000000000001
 20
110.25
 30
0.0
 11
55.03474905548573
 21
110.25
 31
0.0
  0
LINE
  5
2D6
  8
0
  6
CONTINUOUS
 62
     7
 10
55.01250425278736
 20
107.7499956927696
 30
0.0
 11
54.99658837750221
 21
107.7502409014082
 31
0.0
  0
LINE
  5
2D7
  8
0
  6
CONTINUOUS
 62
     7
 10
54.99658837750221
 20
107.7502409014082
 30
0.0
 11
54.98072600264909
 21
107.7509855486495
 31
0.0
  0
LINE
  5
2D8
  8
0
  6
CONTINUOUS
 62
     7
 10
54.98072600264909
 20
107.7509855486495
 30
0.0
 11
54.96482361019552
 21
107.7522364207816
 31
0.0
  0
LINE
  5
2D9
  8
0
  6
CONTINUOUS
 62
     7
 10
54.96482361019552
 20
107.7522364207816
 30
0.0
 11
54.94903620376483
 21
107.7539809005041
 31
0.0
  0
LINE
  5
2DA
  8
0
  6
CONTINUOUS
 62
     7
 10
54.94903620376483
 20
107.7539809005041
 30
0.0
 11
54.93635143760269
 21
107.7557494668113
 31
0.0
  0
LINE
  5
2DB
  8
0
  6
CONTINUOUS
 62
     7
 10
54.93635143760269
 20
107.7557494668113
 30
0.0
 11
54.92377463057823
 21
107.7578292052413
 31
0.0
  0
LINE
  5
2DC
  8
0
  6
CONTINUOUS
 62
     7
 10
54.92377463057823
 20
107.7578292052413
 30
0.0
 11
54.91126068583346
 21
107.7602253723827
 31
0.0
  0
LINE
  5
2DD
  8
0
  6
CONTINUOUS
 62
     7
 10
54.91126068583346
 20
107.7602253723827
 30
0.0
 11
54.89888125187844
 21
107.762921090505
 31
0.0
  0
LINE
  5
2DE
  8
0
  6
CONTINUOUS
 62
     7
 10
54.89888125187844
 20
107.762921090505
 30
0.0
 11
54.88859458907888
 21
107.7654112790623
 31
0.0
  0
LINE
  5
2DF
  8
0
  6
CONTINUOUS
 62
     7
 10
54.88859458907888
 20
107.7654112790623
 30
0.0
 11
54.87840946466967
 21
107.7681042982843
 31
0.0
  0
LINE
  5
2E0
  8
0
  6
CONTINUOUS
 62
     7
 10
54.87840946466967
 20
107.7681042982843
 30
0.0
 11
54.86291841669661
 21
107.7726430156847
 31
0.0
  0
LINE
  5
2E1
  8
0
  6
CONTINUOUS
 62
     7
 10
54.86291841669661
 20
107.7726430156847
 30
0.0
 11
54.84771936605532
 21
107.7776284991692
 31
0.0
  0
LINE
  5
2E2
  8
0
  6
CONTINUOUS
 62
     7
 10
54.84771936605532
 20
107.7776284991692
 30
0.0
 11
54.83273514254805
 21
107.7830768509886
 31
0.0
  0
LINE
  5
2E3
  8
0
  6
CONTINUOUS
 62
     7
 10
54.83273514254805
 20
107.7830768509886
 30
0.0
 11
54.81807632186545
 21
107.788937201353
 31
0.0
  0
LINE
  5
2E4
  8
0
  6
CONTINUOUS
 62
     7
 10
54.81807632186545
 20
107.788937201353
 30
0.0
 11
54.80363115397167
 21
107.795245695453
 31
0.0
  0
LINE
  5
2E5
  8
0
  6
CONTINUOUS
 62
     7
 10
54.80363115397167
 20
107.795245695453
 30
0.0
 11
54.78953775053719
 21
107.8019324162436
 31
0.0
  0
LINE
  5
2E6
  8
0
  6
CONTINUOUS
 62
     7
 10
54.78953775053719
 20
107.8019324162436
 30
0.0
 11
54.77573404065726
 21
107.8090146361509
 31
0.0
  0
LINE
  5
2E7
  8
0
  6
CONTINUOUS
 62
     7
 10
54.77573404065726
 20
107.8090146361509
 30
0.0
 11
54.76229853384627
 21
107.81643923325
 31
0.0
  0
LINE
  5
2E8
  8
0
  6
CONTINUOUS
 62
     7
 10
54.76229853384627
 20
107.81643923325
 30
0.0
 11
54.74397884704701
 21
107.8274589093223
 31
0.0
  0
LINE
  5
2E9
  8
0
  6
CONTINUOUS
 62
     7
 10
54.74397884704701
 20
107.8274589093223
 30
0.0
 11
54.72631539961689
 21
107.8391347859323
 31
0.0
  0
LINE
  5
2EA
  8
0
  6
CONTINUOUS
 62
     7
 10
54.72631539961689
 20
107.8391347859323
 30
0.0
 11
54.70937710875211
 21
107.8513863804595
 31
0.0
  0
LINE
  5
2EB
  8
0
  6
CONTINUOUS
 62
     7
 10
54.70937710875211
 20
107.8513863804595
 30
0.0
 11
54.6930345101971
 21
107.8642807687389
 31
0.0
  0
LINE
  5
2EC
  8
0
  6
CONTINUOUS
 62
     7
 10
54.6930345101971
 20
107.8642807687389
 30
0.0
 11
54.67743607359544
 21
107.8776745555221
 31
0.0
  0
LINE
  5
2ED
  8
0
  6
CONTINUOUS
 62
     7
 10
54.67743607359544
 20
107.8776745555221
 30
0.0
 11
54.66246185118847
 21
107.8916442760109
 31
0.0
  0
LINE
  5
2EE
  8
0
  6
CONTINUOUS
 62
     7
 10
54.66246185118847
 20
107.8916442760109
 30
0.0
 11
54.64823971338761
 21
107.9060449162372
 31
0.0
  0
LINE
  5
2EF
  8
0
  6
CONTINUOUS
 62
     7
 10
54.64823971338761
 20
107.9060449162372
 30
0.0
 11
54.63472654443476
 21
107.9208859333233
 31
0.0
  0
LINE
  5
2F0
  8
0
  6
CONTINUOUS
 62
     7
 10
54.63472654443476
 20
107.9208859333233
 30
0.0
 11
54.61804008164948
 21
107.9410198643868
 31
0.0
  0
LINE
  5
2F1
  8
0
  6
CONTINUOUS
 62
     7
 10
54.61804008164948
 20
107.9410198643868
 30
0.0
 11
54.60258189495795
 21
107.9618015669537
 31
0.0
  0
LINE
  5
2F2
  8
0
  6
CONTINUOUS
 62
     7
 10
54.60258189495795
 20
107.9618015669537
 30
0.0
 11
54.5883928761934
 21
107.9831064008784
 31
0.0
  0
LINE
  5
2F3
  8
0
  6
CONTINUOUS
 62
     7
 10
54.5883928761934
 20
107.9831064008784
 30
0.0
 11
54.57535419741262
 21
108.0050647199361
 31
0.0
  0
LINE
  5
2F4
  8
0
  6
CONTINUOUS
 62
     7
 10
54.57535419741262
 20
108.0050647199361
 30
0.0
 11
54.56357691429874
 21
108.0274459409496
 31
0.0
  0
LINE
  5
2F5
  8
0
  6
CONTINUOUS
 62
     7
 10
54.56357691429874
 20
108.0274459409496
 30
0.0
 11
54.55296581185199
 21
108.0503912552133
 31
0.0
  0
LINE
  5
2F6
  8
0
  6
CONTINUOUS
 62
     7
 10
54.55296581185199
 20
108.0503912552133
 30
0.0
 11
54.5436106889582
 21
108.0736728145115
 31
0.0
  0
LINE
  5
2F7
  8
0
  6
CONTINUOUS
 62
     7
 10
54.5436106889582
 20
108.0736728145115
 30
0.0
 11
54.53547867964231
 21
108.0973189417737
 31
0.0
  0
LINE
  5
2F8
  8
0
  6
CONTINUOUS
 62
     7
 10
54.53547867964231
 20
108.0973189417737
 30
0.0
 11
54.526652227143
 21
108.1289008834949
 31
0.0
  0
LINE
  5
2F9
  8
0
  6
CONTINUOUS
 62
     7
 10
54.526652227143
 20
108.1289008834949
 30
0.0
 11
54.51997321009163
 21
108.1608637897779
 31
0.0
  0
LINE
  5
2FA
  8
0
  6
CONTINUOUS
 62
     7
 10
54.51997321009163
 20
108.1608637897779
 30
0.0
 11
54.51543406775128
 21
108.1931656120231
 31
0.0
  0
LINE
  5
2FB
  8
0
  6
CONTINUOUS
 62
     7
 10
54.51543406775128
 20
108.1931656120231
 30
0.0
 11
54.51304759880093
 21
108.2256938097837
 31
0.0
  0
LINE
  5
2FC
  8
0
  6
CONTINUOUS
 62
     7
 10
54.51304759880093
 20
108.2256938097837
 30
0.0
 11
54.51292987212454
 21
108.2288923965263
 31
0.0
  0
ARC
  5
2FD
  8
0
  6
CONTINUOUS
 62
     7
 10
77.50000000000001
 20
109.0000000000001
 30
0.0
 40
23.00000000000047
 50
181.8990471267456
 51
181.9212822688938
  0
LINE
  5
2FE
  8
0
  6
CONTINUOUS
 62
     7
 10
99.98749574721266
 20
110.2500043072304
 30
0.0
 11
100.0026370386378
 21
110.2497826917234
 31
0.0
  0
LINE
  5
2FF
  8
0
  6
CONTINUOUS
 62
     7
 10
100.0026370386378
 20
110.2497826917234
 30
0.0
 11
100.0177312671758
 21
110.2491088838438
 31
0.0
  0
LINE
  5
300
  8
0
  6
CONTINUOUS
 62
     7
 10
100.0177312671758
 20
110.2491088838438
 30
0.0
 11
100.0328590459324
 21
110.2479774071244
 31
0.0
  0
LINE
  5
301
  8
0
  6
CONTINUOUS
 62
     7
 10
100.0328590459324
 20
110.2479774071244
 30
0.0
 11
100.047886740007
 21
110.2463986963274
 31
0.0
  0
LINE
  5
302
  8
0
  6
CONTINUOUS
 62
     7
 10
100.047886740007
 20
110.2463986963274
 30
0.0
 11
100.0608389202256
 21
110.2446706100212
 31
0.0
  0
LINE
  5
303
  8
0
  6
CONTINUOUS
 62
     7
 10
100.0608389202256
 20
110.2446706100212
 30
0.0
 11
100.0736821089809
 21
110.2426177749174
 31
0.0
  0
LINE
  5
304
  8
0
  6
CONTINUOUS
 62
     7
 10
100.0736821089809
 20
110.2426177749174
 30
0.0
 11
100.08646437558
 21
110.240234662089
 31
0.0
  0
LINE
  5
305
  8
0
  6
CONTINUOUS
 62
     7
 10
100.08646437558
 20
110.240234662089
 30
0.0
 11
100.0991091161362
 21
110.2375387586685
 31
0.0
  0
LINE
  5
306
  8
0
  6
CONTINUOUS
 62
     7
 10
100.0991091161362
 20
110.2375387586685
 30
0.0
 11
100.1104101030674
 21
110.2348396910797
 31
0.0
  0
LINE
  5
307
  8
0
  6
CONTINUOUS
 62
     7
 10
100.1104101030674
 20
110.2348396910797
 30
0.0
 11
100.1215905353304
 21
110.2318957017157
 31
0.0
  0
LINE
  5
308
  8
0
  6
CONTINUOUS
 62
     7
 10
100.1215905353304
 20
110.2318957017157
 30
0.0
 11
100.1370929802291
 21
110.2273534451673
 31
0.0
  0
LINE
  5
309
  8
0
  6
CONTINUOUS
 62
     7
 10
100.1370929802291
 20
110.2273534451673
 30
0.0
 11
100.152302981953
 21
110.2223637736884
 31
0.0
  0
LINE
  5
30A
  8
0
  6
CONTINUOUS
 62
     7
 10
100.152302981953
 20
110.2223637736884
 30
0.0
 11
100.1672978752111
 21
110.2169105454742
 31
0.0
  0
LINE
  5
30B
  8
0
  6
CONTINUOUS
 62
     7
 10
100.1672978752111
 20
110.2169105454742
 30
0.0
 11
100.1819668494201
 21
110.2110447445846
 31
0.0
  0
LINE
  5
30C
  8
0
  6
CONTINUOUS
 62
     7
 10
100.1819668494201
 20
110.2110447445846
 30
0.0
 11
100.1964005398428
 21
110.204739865398
 31
0.0
  0
LINE
  5
30D
  8
0
  6
CONTINUOUS
 62
     7
 10
100.1964005398428
 20
110.204739865398
 30
0.0
 11
100.2104829620659
 21
110.1980573581183
 31
0.0
  0
LINE
  5
30E
  8
0
  6
CONTINUOUS
 62
     7
 10
100.2104829620659
 20
110.1980573581183
 30
0.0
 11
100.2242760450782
 21
110.1909799904401
 31
0.0
  0
LINE
  5
30F
  8
0
  6
CONTINUOUS
 62
     7
 10
100.2242760450782
 20
110.1909799904401
 30
0.0
 11
100.2377014661538
 21
110.18356076675
 31
0.0
  0
LINE
  5
310
  8
0
  6
CONTINUOUS
 62
     7
 10
100.2377014661538
 20
110.18356076675
 30
0.0
 11
100.2560498536542
 21
110.1725229790653
 31
0.0
  0
LINE
  5
311
  8
0
  6
CONTINUOUS
 62
     7
 10
100.2560498536542
 20
110.1725229790653
 30
0.0
 11
100.2737350581356
 21
110.1608302978783
 31
0.0
  0
LINE
  5
312
  8
0
  6
CONTINUOUS
 62
     7
 10
100.2737350581356
 20
110.1608302978783
 30
0.0
 11
100.2906932075402
 21
110.14856047213
 31
0.0
  0
LINE
  5
313
  8
0
  6
CONTINUOUS
 62
     7
 10
100.2906932075402
 20
110.14856047213
 30
0.0
 11
100.3070318504417
 21
110.1356645774909
 31
0.0
  0
LINE
  5
314
  8
0
  6
CONTINUOUS
 62
     7
 10
100.3070318504417
 20
110.1356645774909
 30
0.0
 11
100.3226264060096
 21
110.1222695054238
 31
0.0
  0
LINE
  5
315
  8
0
  6
CONTINUOUS
 62
     7
 10
100.3226264060096
 20
110.1222695054238
 30
0.0
 11
100.3375785557928
 21
110.1083164374002
 31
0.0
  0
LINE
  5
316
  8
0
  6
CONTINUOUS
 62
     7
 10
100.3375785557928
 20
110.1083164374002
 30
0.0
 11
100.3517805627895
 21
110.093933698128
 31
0.0
  0
LINE
  5
317
  8
0
  6
CONTINUOUS
 62
     7
 10
100.3517805627895
 20
110.093933698128
 30
0.0
 11
100.3652734555653
 21
110.0791140666767
 31
0.0
  0
LINE
  5
318
  8
0
  6
CONTINUOUS
 62
     7
 10
100.3652734555653
 20
110.0791140666767
 30
0.0
 11
100.3819853918159
 21
110.0589476926369
 31
0.0
  0
LINE
  5
319
  8
0
  6
CONTINUOUS
 62
     7
 10
100.3819853918159
 20
110.0589476926369
 30
0.0
 11
100.3974611977547
 21
110.0381372112951
 31
0.0
  0
LINE
  5
31A
  8
0
  6
CONTINUOUS
 62
     7
 10
100.3974611977547
 20
110.0381372112951
 30
0.0
 11
100.4116645456668
 21
110.0168023270036
 31
0.0
  0
LINE
  5
31B
  8
0
  6
CONTINUOUS
 62
     7
 10
100.4116645456668
 20
110.0168023270036
 30
0.0
 11
100.4246974072315
 21
109.9948430009499
 31
0.0
  0
LINE
  5
31C
  8
0
  6
CONTINUOUS
 62
     7
 10
100.4246974072315
 20
109.9948430009499
 30
0.0
 11
100.4364690304487
 21
109.9724610161288
 31
0.0
  0
LINE
  5
31D
  8
0
  6
CONTINUOUS
 62
     7
 10
100.4364690304487
 20
109.9724610161288
 30
0.0
 11
100.4470619723116
 21
109.9495443722097
 31
0.0
  0
LINE
  5
31E
  8
0
  6
CONTINUOUS
 62
     7
 10
100.4470619723116
 20
109.9495443722097
 30
0.0
 11
100.4564022216702
 21
109.9262925266341
 31
0.0
  0
LINE
  5
31F
  8
0
  6
CONTINUOUS
 62
     7
 10
100.4564022216702
 20
109.9262925266341
 30
0.0
 11
100.4645213203577
 21
109.9026810582263
 31
0.0
  0
LINE
  5
320
  8
0
  6
CONTINUOUS
 62
     7
 10
100.4645213203577
 20
109.9026810582263
 30
0.0
 11
100.4733499962512
 21
109.8710899988693
 31
0.0
  0
LINE
  5
321
  8
0
  6
CONTINUOUS
 62
     7
 10
100.4733499962512
 20
109.8710899988693
 30
0.0
 11
100.4800300100439
 21
109.8391177579452
 31
0.0
  0
LINE
  5
322
  8
0
  6
CONTINUOUS
 62
     7
 10
100.4800300100439
 20
109.8391177579452
 30
0.0
 11
100.4845669269492
 21
109.8068250757527
 31
0.0
  0
LINE
  5
323
  8
0
  6
CONTINUOUS
 62
     7
 10
100.4845669269492
 20
109.8068250757527
 30
0.0
 11
100.4869524011991
 21
109.7743061902163
 31
0.0
  0
LINE
  5
324
  8
0
  6
CONTINUOUS
 62
     7
 10
100.4869524011991
 20
109.7743061902163
 30
0.0
 11
100.4870701278755
 21
109.7711076034737
 31
0.0
  0
ARC
  5
325
  8
0
  6
CONTINUOUS
 62
     7
 10
77.50000000000001
 20
109.0000000000001
 30
0.0
 40
22.99999999999999
 50
1.899047126745529
 51
1.921282268893662
  0
ARC
  5
326
  8
0
  6
CONTINUOUS
 62
     7
 10
77.50000000000001
 20
109.0000000000001
 30
0.0
 40
22.99999999999999
 50
178.0787177311063
 51
178.1009528732544
  0
LINE
  5
327
  8
0
  6
CONTINUOUS
 62
     7
 10
54.51292987212454
 20
109.7711076034737
 30
0.0
 11
54.51304759880093
 21
109.7743061902163
 31
0.0
  0
LINE
  5
328
  8
0
  6
CONTINUOUS
 62
     7
 10
54.51304759880093
 20
109.7743061902163
 30
0.0
 11
54.51540792795642
 21
109.8065891108235
 31
0.0
  0
LINE
  5
329
  8
0
  6
CONTINUOUS
 62
     7
 10
54.51540792795642
 20
109.8065891108235
 30
0.0
 11
54.51991459839002
 21
109.8387996964417
 31
0.0
  0
LINE
  5
32A
  8
0
  6
CONTINUOUS
 62
     7
 10
54.51991459839002
 20
109.8387996964417
 30
0.0
 11
54.52659244471528
 21
109.870853698759
 31
0.0
  0
LINE
  5
32B
  8
0
  6
CONTINUOUS
 62
     7
 10
54.52659244471528
 20
109.870853698759
 30
0.0
 11
54.53547867964231
 21
109.9026810582263
 31
0.0
  0
LINE
  5
32C
  8
0
  6
CONTINUOUS
 62
     7
 10
54.53547867964231
 20
109.9026810582263
 30
0.0
 11
54.54335269556052
 21
109.9256330822188
 31
0.0
  0
LINE
  5
32D
  8
0
  6
CONTINUOUS
 62
     7
 10
54.54335269556052
 20
109.9256330822188
 30
0.0
 11
54.55243271759319
 21
109.9483692126184
 31
0.0
  0
LINE
  5
32E
  8
0
  6
CONTINUOUS
 62
     7
 10
54.55243271759319
 20
109.9483692126184
 30
0.0
 11
54.5627891740223
 21
109.9709519334592
 31
0.0
  0
LINE
  5
32F
  8
0
  6
CONTINUOUS
 62
     7
 10
54.5627891740223
 20
109.9709519334592
 30
0.0
 11
54.57440842617365
 21
109.9932366462567
 31
0.0
  0
LINE
  5
330
  8
0
  6
CONTINUOUS
 62
     7
 10
54.57440842617365
 20
109.9932366462567
 30
0.0
 11
54.58740566866277
 21
110.0153182505012
 31
0.0
  0
LINE
  5
331
  8
0
  6
CONTINUOUS
 62
     7
 10
54.58740566866277
 20
110.0153182505012
 30
0.0
 11
54.60174081111845
 21
110.0369999379672
 31
0.0
  0
LINE
  5
332
  8
0
  6
CONTINUOUS
 62
     7
 10
54.60174081111845
 20
110.0369999379672
 30
0.0
 11
54.61752302402957
 21
110.0583205209905
 31
0.0
  0
LINE
  5
333
  8
0
  6
CONTINUOUS
 62
     7
 10
54.61752302402957
 20
110.0583205209905
 30
0.0
 11
54.63472654443476
 21
110.0791140666767
 31
0.0
  0
LINE
  5
334
  8
0
  6
CONTINUOUS
 62
     7
 10
54.63472654443476
 20
110.0791140666767
 30
0.0
 11
54.64783647944986
 21
110.0935293083571
 31
0.0
  0
LINE
  5
335
  8
0
  6
CONTINUOUS
 62
     7
 10
54.64783647944986
 20
110.0935293083571
 30
0.0
 11
54.66169119122044
 21
110.1076048947958
 31
0.0
  0
LINE
  5
336
  8
0
  6
CONTINUOUS
 62
     7
 10
54.66169119122044
 20
110.1076048947958
 30
0.0
 11
54.67636947933666
 21
110.1213678977235
 31
0.0
  0
LINE
  5
337
  8
0
  6
CONTINUOUS
 62
     7
 10
54.67636947933666
 20
110.1213678977235
 30
0.0
 11
54.69182506982771
 21
110.1347201293489
 31
0.0
  0
LINE
  5
338
  8
0
  6
CONTINUOUS
 62
     7
 10
54.69182506982771
 20
110.1347201293489
 30
0.0
 11
54.70817553915994
 21
110.1477027446811
 31
0.0
  0
LINE
  5
339
  8
0
  6
CONTINUOUS
 62
     7
 10
54.70817553915994
 20
110.1477027446811
 30
0.0
 11
54.72533667329617
 21
110.1601863087421
 31
0.0
  0
LINE
  5
33A
  8
0
  6
CONTINUOUS
 62
     7
 10
54.72533667329617
 20
110.1601863087421
 30
0.0
 11
54.74340067625126
 21
110.1721757097183
 31
0.0
  0
LINE
  5
33B
  8
0
  6
CONTINUOUS
 62
     7
 10
54.74340067625126
 20
110.1721757097183
 30
0.0
 11
54.76229853384627
 21
110.18356076675
 31
0.0
  0
LINE
  5
33C
  8
0
  6
CONTINUOUS
 62
     7
 10
54.76229853384627
 20
110.18356076675
 30
0.0
 11
54.7754777963064
 21
110.1908488065438
 31
0.0
  0
LINE
  5
33D
  8
0
  6
CONTINUOUS
 62
     7
 10
54.7754777963064
 20
110.1908488065438
 30
0.0
 11
54.78902743964112
 21
110.1978153017309
 31
0.0
  0
LINE
  5
33E
  8
0
  6
CONTINUOUS
 62
     7
 10
54.78902743964112
 20
110.1978153017309
 30
0.0
 11
54.80299740537162
 21
110.2044650726065
 31
0.0
  0
LINE
  5
33F
  8
0
  6
CONTINUOUS
 62
     7
 10
54.80299740537162
 20
110.2044650726065
 30
0.0
 11
54.81731407336471
 21
110.2107433335843
 31
0.0
  0
LINE
  5
340
  8
0
  6
CONTINUOUS
 62
     7
 10
54.81731407336471
 20
110.2107433335843
 30
0.0
 11
54.83205123483697
 21
110.2166615476795
 31
0.0
  0
LINE
  5
341
  8
0
  6
CONTINUOUS
 62
     7
 10
54.83205123483697
 20
110.2166615476795
 30
0.0
 11
54.84711859336967
 21
110.22216336541
 31
0.0
  0
LINE
  5
342
  8
0
  6
CONTINUOUS
 62
     7
 10
54.84711859336967
 20
110.22216336541
 30
0.0
 11
54.86259857108528
 21
110.2272576814431
 31
0.0
  0
LINE
  5
343
  8
0
  6
CONTINUOUS
 62
     7
 10
54.86259857108528
 20
110.2272576814431
 30
0.0
 11
54.87840946466967
 21
110.2318957017157
 31
0.0
  0
LINE
  5
344
  8
0
  6
CONTINUOUS
 62
     7
 10
54.87840946466967
 20
110.2318957017157
 30
0.0
 11
54.8924914671844
 21
110.2355590321032
 31
0.0
  0
LINE
  5
345
  8
0
  6
CONTINUOUS
 62
     7
 10
54.8924914671844
 20
110.2355590321032
 30
0.0
 11
54.9067978834314
 21
110.2388404366596
 31
0.0
  0
LINE
  5
346
  8
0
  6
CONTINUOUS
 62
     7
 10
54.9067978834314
 20
110.2388404366596
 30
0.0
 11
54.92036402511157
 21
110.2415501581194
 31
0.0
  0
LINE
  5
347
  8
0
  6
CONTINUOUS
 62
     7
 10
54.92036402511157
 20
110.2415501581194
 30
0.0
 11
54.93407875581396
 21
110.2438989391331
 31
0.0
  0
LINE
  5
348
  8
0
  6
CONTINUOUS
 62
     7
 10
54.93407875581396
 20
110.2438989391331
 30
0.0
 11
54.94800464889336
 21
110.2458874372532
 31
0.0
  0
LINE
  5
349
  8
0
  6
CONTINUOUS
 62
     7
 10
54.94800464889336
 20
110.2458874372532
 30
0.0
 11
54.9620453932629
 21
110.2474932043549
 31
0.0
  0
LINE
  5
34A
  8
0
  6
CONTINUOUS
 62
     7
 10
54.9620453932629
 20
110.2474932043549
 30
0.0
 11
54.97455337244257
 21
110.248589014607
 31
0.0
  0
LINE
  5
34B
  8
0
  6
CONTINUOUS
 62
     7
 10
54.97455337244257
 20
110.248589014607
 30
0.0
 11
54.98712160662681
 21
110.2493750058376
 31
0.0
  0
LINE
  5
34C
  8
0
  6
CONTINUOUS
 62
     7
 10
54.98712160662681
 20
110.2493750058376
 30
0.0
 11
54.99979786585017
 21
110.2498490712939
 31
0.0
  0
LINE
  5
34D
  8
0
  6
CONTINUOUS
 62
     7
 10
54.99979786585017
 20
110.2498490712939
 30
0.0
 11
55.01250425278736
 21
110.2500043072304
 31
0.0
  0
ARC
  5
34E
  8
0
  6
CONTINUOUS
 62
     7
 10
77.50000000000001
 20
109.0000000000001
 30
0.0
 40
23.00000000000047
 50
358.0787177311062
 51
358.1009528732543
  0
LINE
  5
34F
  8
0
  6
CONTINUOUS
 62
     7
 10
100.4870701278755
 20
108.2288923965263
 30
0.0
 11
100.4869524011991
 21
108.2256938097837
 31
0.0
  0
LINE
  5
350
  8
0
  6
CONTINUOUS
 62
     7
 10
100.4869524011991
 20
108.2256938097837
 30
0.0
 11
100.4845920720436
 21
108.1934108891765
 31
0.0
  0
LINE
  5
351
  8
0
  6
CONTINUOUS
 62
     7
 10
100.4845920720436
 20
108.1934108891765
 30
0.0
 11
100.48008540161
 21
108.1612003035583
 31
0.0
  0
LINE
  5
352
  8
0
  6
CONTINUOUS
 62
     7
 10
100.48008540161
 20
108.1612003035583
 30
0.0
 11
100.4734075552848
 21
108.1291463012411
 31
0.0
  0
LINE
  5
353
  8
0
  6
CONTINUOUS
 62
     7
 10
100.4734075552848
 20
108.1291463012411
 30
0.0
 11
100.4645213203577
 21
108.0973189417737
 31
0.0
  0
LINE
  5
354
  8
0
  6
CONTINUOUS
 62
     7
 10
100.4645213203577
 20
108.0973189417737
 30
0.0
 11
100.4566473044395
 21
108.0743669177812
 31
0.0
  0
LINE
  5
355
  8
0
  6
CONTINUOUS
 62
     7
 10
100.4566473044395
 20
108.0743669177812
 30
0.0
 11
100.4475672824068
 21
108.0516307873817
 31
0.0
  0
LINE
  5
356
  8
0
  6
CONTINUOUS
 62
     7
 10
100.4475672824068
 20
108.0516307873817
 30
0.0
 11
100.4372108259777
 21
108.0290480665409
 31
0.0
  0
LINE
  5
357
  8
0
  6
CONTINUOUS
 62
     7
 10
100.4372108259777
 20
108.0290480665409
 30
0.0
 11
100.4255915738264
 21
108.0067633537433
 31
0.0
  0
LINE
  5
358
  8
0
  6
CONTINUOUS
 62
     7
 10
100.4255915738264
 20
108.0067633537433
 30
0.0
 11
100.4125943313373
 21
107.9846817494988
 31
0.0
  0
LINE
  5
359
  8
0
  6
CONTINUOUS
 62
     7
 10
100.4125943313373
 20
107.9846817494988
 30
0.0
 11
100.3982591888816
 21
107.9630000620328
 31
0.0
  0
LINE
  5
35A
  8
0
  6
CONTINUOUS
 62
     7
 10
100.3982591888816
 20
107.9630000620328
 30
0.0
 11
100.3824769759704
 21
107.9416794790095
 31
0.0
  0
LINE
  5
35B
  8
0
  6
CONTINUOUS
 62
     7
 10
100.3824769759704
 20
107.9416794790095
 30
0.0
 11
100.3652734555653
 21
107.9208859333233
 31
0.0
  0
LINE
  5
35C
  8
0
  6
CONTINUOUS
 62
     7
 10
100.3652734555653
 20
107.9208859333233
 30
0.0
 11
100.3521635205502
 21
107.9064706916429
 31
0.0
  0
LINE
  5
35D
  8
0
  6
CONTINUOUS
 62
     7
 10
100.3521635205502
 20
107.9064706916429
 30
0.0
 11
100.3383088087796
 21
107.8923951052042
 31
0.0
  0
LINE
  5
35E
  8
0
  6
CONTINUOUS
 62
     7
 10
100.3383088087796
 20
107.8923951052042
 30
0.0
 11
100.3236305206634
 21
107.8786321022765
 31
0.0
  0
LINE
  5
35F
  8
0
  6
CONTINUOUS
 62
     7
 10
100.3236305206634
 20
107.8786321022765
 30
0.0
 11
100.3081749301723
 21
107.8652798706511
 31
0.0
  0
LINE
  5
360
  8
0
  6
CONTINUOUS
 62
     7
 10
100.3081749301723
 20
107.8652798706511
 30
0.0
 11
100.2918244608401
 21
107.8522972553189
 31
0.0
  0
LINE
  5
361
  8
0
  6
CONTINUOUS
 62
     7
 10
100.2918244608401
 20
107.8522972553189
 30
0.0
 11
100.2746633267039
 21
107.8398136912579
 31
0.0
  0
LINE
  5
362
  8
0
  6
CONTINUOUS
 62
     7
 10
100.2746633267039
 20
107.8398136912579
 30
0.0
 11
100.2565993237488
 21
107.8278242902817
 31
0.0
  0
LINE
  5
363
  8
0
  6
CONTINUOUS
 62
     7
 10
100.2565993237488
 20
107.8278242902817
 30
0.0
 11
100.2377014661538
 21
107.81643923325
 31
0.0
  0
LINE
  5
364
  8
0
  6
CONTINUOUS
 62
     7
 10
100.2377014661538
 20
107.81643923325
 30
0.0
 11
100.2245222036936
 21
107.8091511934562
 31
0.0
  0
LINE
  5
365
  8
0
  6
CONTINUOUS
 62
     7
 10
100.2245222036936
 20
107.8091511934562
 30
0.0
 11
100.2109725603589
 21
107.8021846982691
 31
0.0
  0
LINE
  5
366
  8
0
  6
CONTINUOUS
 62
     7
 10
100.2109725603589
 20
107.8021846982691
 30
0.0
 11
100.1970025946284
 21
107.7955349273936
 31
0.0
  0
LINE
  5
367
  8
0
  6
CONTINUOUS
 62
     7
 10
100.1970025946284
 20
107.7955349273936
 30
0.0
 11
100.1826859266353
 21
107.7892566664158
 31
0.0
  0
LINE
  5
368
  8
0
  6
CONTINUOUS
 62
     7
 10
100.1826859266353
 20
107.7892566664158
 30
0.0
 11
100.167948765163
 21
107.7833384523206
 31
0.0
  0
LINE
  5
369
  8
0
  6
CONTINUOUS
 62
     7
 10
100.167948765163
 20
107.7833384523206
 30
0.0
 11
100.1528814066304
 21
107.77783663459
 31
0.0
  0
LINE
  5
36A
  8
0
  6
CONTINUOUS
 62
     7
 10
100.1528814066304
 20
107.77783663459
 30
0.0
 11
100.1374014289148
 21
107.7727423185569
 31
0.0
  0
LINE
  5
36B
  8
0
  6
CONTINUOUS
 62
     7
 10
100.1374014289148
 20
107.7727423185569
 30
0.0
 11
100.1215905353304
 21
107.7681042982843
 31
0.0
  0
LINE
  5
36C
  8
0
  6
CONTINUOUS
 62
     7
 10
100.1215905353304
 20
107.7681042982843
 30
0.0
 11
100.1075085328156
 21
107.7644409678968
 31
0.0
  0
LINE
  5
36D
  8
0
  6
CONTINUOUS
 62
     7
 10
100.1075085328156
 20
107.7644409678968
 30
0.0
 11
100.0932021165686
 21
107.7611595633404
 31
0.0
  0
LINE
  5
36E
  8
0
  6
CONTINUOUS
 62
     7
 10
100.0932021165686
 20
107.7611595633404
 30
0.0
 11
100.0796359748885
 21
107.7584498418806
 31
0.0
  0
LINE
  5
36F
  8
0
  6
CONTINUOUS
 62
     7
 10
100.0796359748885
 20
107.7584498418806
 30
0.0
 11
100.0659212441861
 21
107.756101060867
 31
0.0
  0
LINE
  5
370
  8
0
  6
CONTINUOUS
 62
     7
 10
100.0659212441861
 20
107.756101060867
 30
0.0
 11
100.0519953511067
 21
107.7541125627468
 31
0.0
  0
LINE
  5
371
  8
0
  6
CONTINUOUS
 62
     7
 10
100.0519953511067
 20
107.7541125627468
 30
0.0
 11
100.0379546067371
 21
107.7525067956452
 31
0.0
  0
LINE
  5
372
  8
0
  6
CONTINUOUS
 62
     7
 10
100.0379546067371
 20
107.7525067956452
 30
0.0
 11
100.0254466275575
 21
107.751410985393
 31
0.0
  0
LINE
  5
373
  8
0
  6
CONTINUOUS
 62
     7
 10
100.0254466275575
 20
107.751410985393
 30
0.0
 11
100.0128783933732
 21
107.7506249941624
 31
0.0
  0
LINE
  5
374
  8
0
  6
CONTINUOUS
 62
     7
 10
100.0128783933732
 20
107.7506249941624
 30
0.0
 11
100.0002021341499
 21
107.7501509287061
 31
0.0
  0
LINE
  5
375
  8
0
  6
CONTINUOUS
 62
     7
 10
100.0002021341499
 20
107.7501509287061
 30
0.0
 11
99.98749574721266
 21
107.7499956927696
 31
0.0
  0
LINE
  5
376
  8
0
  6
CONTINUOUS
 62
     7
 10
78.52666315902924
 20
86.0229252784892
 30
0.0
 11
78.52986023289476
 21
86.0230785641294
 31
0.0
  0
LINE
  5
377
  8
0
  6
CONTINUOUS
 62
     7
 10
78.52986023289476
 20
86.0230785641294
 30
0.0
 11
78.55715675305328
 21
86.0252402516652
 31
0.0
  0
LINE
  5
378
  8
0
  6
CONTINUOUS
 62
     7
 10
78.55715675305328
 20
86.0252402516652
 30
0.0
 11
78.58437835254747
 21
86.02893316943971
 31
0.0
  0
LINE
  5
379
  8
0
  6
CONTINUOUS
 62
     7
 10
78.58437835254747
 20
86.02893316943971
 30
0.0
 11
78.61161156088542
 21
86.0341987922284
 31
0.0
  0
LINE
  5
37A
  8
0
  6
CONTINUOUS
 62
     7
 10
78.61161156088542
 20
86.0341987922284
 30
0.0
 11
78.63867599155347
 21
86.04103985055491
 31
0.0
  0
LINE
  5
37B
  8
0
  6
CONTINUOUS
 62
     7
 10
78.63867599155347
 20
86.04103985055491
 30
0.0
 11
78.66570785349656
 21
86.04954263680261
 31
0.0
  0
LINE
  5
37C
  8
0
  6
CONTINUOUS
 62
     7
 10
78.66570785349656
 20
86.04954263680261
 30
0.0
 11
78.6924632123578
 21
86.0596924275313
 31
0.0
  0
LINE
  5
37D
  8
0
  6
CONTINUOUS
 62
     7
 10
78.6924632123578
 20
86.0596924275313
 30
0.0
 11
78.7190119171265
 21
86.07158442649629
 31
0.0
  0
LINE
  5
37E
  8
0
  6
CONTINUOUS
 62
     7
 10
78.7190119171265
 20
86.07158442649629
 30
0.0
 11
78.74515552359125
 21
86.08521167618058
 31
0.0
  0
LINE
  5
37F
  8
0
  6
CONTINUOUS
 62
     7
 10
78.74515552359125
 20
86.08521167618058
 30
0.0
 11
78.7640880531743
 21
86.09637079954379
 31
0.0
  0
LINE
  5
380
  8
0
  6
CONTINUOUS
 62
     7
 10
78.7640880531743
 20
86.09637079954379
 30
0.0
 11
78.78272100140126
 21
86.10850720146831
 31
0.0
  0
LINE
  5
381
  8
0
  6
CONTINUOUS
 62
     7
 10
78.78272100140126
 20
86.10850720146831
 30
0.0
 11
78.80109836091658
 21
86.12170041620321
 31
0.0
  0
LINE
  5
382
  8
0
  6
CONTINUOUS
 62
     7
 10
78.80109836091658
 20
86.12170041620321
 30
0.0
 11
78.81909815949679
 21
86.13592069453269
 31
0.0
  0
LINE
  5
383
  8
0
  6
CONTINUOUS
 62
     7
 10
78.81909815949679
 20
86.13592069453269
 30
0.0
 11
78.83678651149663
 21
86.1512905799938
 31
0.0
  0
LINE
  5
384
  8
0
  6
CONTINUOUS
 62
     7
 10
78.83678651149663
 20
86.1512905799938
 30
0.0
 11
78.85399894391736
 21
86.16774732004158
 31
0.0
  0
LINE
  5
385
  8
0
  6
CONTINUOUS
 62
     7
 10
78.85399894391736
 20
86.16774732004158
 30
0.0
 11
78.87075431555493
 21
86.18539696978151
 31
0.0
  0
LINE
  5
386
  8
0
  6
CONTINUOUS
 62
     7
 10
78.87075431555493
 20
86.18539696978151
 30
0.0
 11
78.88691183488763
 21
86.204192507326
 31
0.0
  0
LINE
  5
387
  8
0
  6
CONTINUOUS
 62
     7
 10
78.88691183488763
 20
86.204192507326
 30
0.0
 11
78.89679924453465
 21
86.2166929560852
 31
0.0
  0
LINE
  5
388
  8
0
  6
CONTINUOUS
 62
     7
 10
78.89679924453465
 20
86.2166929560852
 30
0.0
 11
78.9063946233416
 21
86.2296598912147
 31
0.0
  0
LINE
  5
389
  8
0
  6
CONTINUOUS
 62
     7
 10
78.9063946233416
 20
86.2296598912147
 30
0.0
 11
78.91507122247117
 21
86.24219019929937
 31
0.0
  0
LINE
  5
38A
  8
0
  6
CONTINUOUS
 62
     7
 10
78.91507122247117
 20
86.24219019929937
 30
0.0
 11
78.92344874154817
 21
86.25511827472079
 31
0.0
  0
LINE
  5
38B
  8
0
  6
CONTINUOUS
 62
     7
 10
78.92344874154817
 20
86.25511827472079
 30
0.0
 11
78.93154248596358
 21
86.2685012880135
 31
0.0
  0
LINE
  5
38C
  8
0
  6
CONTINUOUS
 62
     7
 10
78.93154248596358
 20
86.2685012880135
 30
0.0
 11
78.93929642706789
 21
86.28228245305478
 31
0.0
  0
LINE
  5
38D
  8
0
  6
CONTINUOUS
 62
     7
 10
78.93929642706789
 20
86.28228245305478
 30
0.0
 11
78.94584750750764
 21
86.2947860695859
 31
0.0
  0
LINE
  5
38E
  8
0
  6
CONTINUOUS
 62
     7
 10
78.94584750750764
 20
86.2947860695859
 30
0.0
 11
78.95210269289497
 21
86.3075941003893
 31
0.0
  0
LINE
  5
38F
  8
0
  6
CONTINUOUS
 62
     7
 10
78.95210269289497
 20
86.3075941003893
 30
0.0
 11
78.95807158979959
 21
86.3207590107063
 31
0.0
  0
LINE
  5
390
  8
0
  6
CONTINUOUS
 62
     7
 10
78.95807158979959
 20
86.3207590107063
 30
0.0
 11
78.9637109627963
 21
86.33421994794018
 31
0.0
  0
LINE
  5
391
  8
0
  6
CONTINUOUS
 62
     7
 10
78.9637109627963
 20
86.33421994794018
 30
0.0
 11
78.96911841918593
 21
86.34827878904241
 31
0.0
  0
LINE
  5
392
  8
0
  6
CONTINUOUS
 62
     7
 10
78.96911841918593
 20
86.34827878904241
 30
0.0
 11
78.97415366939067
 21
86.3626485840629
 31
0.0
  0
LINE
  5
393
  8
0
  6
CONTINUOUS
 62
     7
 10
78.97415366939067
 20
86.3626485840629
 30
0.0
 11
78.97881728648258
 21
86.37738465298658
 31
0.0
  0
LINE
  5
394
  8
0
  6
CONTINUOUS
 62
     7
 10
78.97881728648258
 20
86.37738465298658
 30
0.0
 11
78.98306127019111
 21
86.39238945018101
 31
0.0
  0
LINE
  5
395
  8
0
  6
CONTINUOUS
 62
     7
 10
78.98306127019111
 20
86.39238945018101
 30
0.0
 11
78.98689083565881
 21
86.40774545242307
 31
0.0
  0
LINE
  5
396
  8
0
  6
CONTINUOUS
 62
     7
 10
78.98689083565881
 20
86.40774545242307
 30
0.0
 11
78.9902605179414
 21
86.4233369906957
 31
0.0
  0
LINE
  5
397
  8
0
  6
CONTINUOUS
 62
     7
 10
78.9902605179414
 20
86.4233369906957
 30
0.0
 11
78.99317226208662
 21
86.43925387541731
 31
0.0
  0
LINE
  5
398
  8
0
  6
CONTINUOUS
 62
     7
 10
78.99317226208662
 20
86.43925387541731
 30
0.0
 11
78.99558954375614
 21
86.45539281382469
 31
0.0
  0
LINE
  5
399
  8
0
  6
CONTINUOUS
 62
     7
 10
78.99558954375614
 20
86.45539281382469
 30
0.0
 11
78.99751026053673
 21
86.47187390367408
 31
0.0
  0
LINE
  5
39A
  8
0
  6
CONTINUOUS
 62
     7
 10
78.99751026053673
 20
86.47187390367408
 30
0.0
 11
78.99889559002922
 21
86.48853081928681
 31
0.0
  0
LINE
  5
39B
  8
0
  6
CONTINUOUS
 62
     7
 10
78.99889559002922
 20
86.48853081928681
 30
0.0
 11
78.99973145190916
 21
86.50532749471567
 31
0.0
  0
LINE
  5
39C
  8
0
  6
CONTINUOUS
 62
     7
 10
78.99973145190916
 20
86.50532749471567
 30
0.0
 11
79.00000673024722
 21
86.52223435343481
 31
0.0
  0
ARC
  5
39D
  8
0
  6
CONTINUOUS
 62
     7
 10
77.50000000000001
 20
109.0
 30
0.0
 40
22.99999999999999
 50
272.5583920830604
 51
358.0787177311063
  0
ARC
  5
39E
  8
0
  6
CONTINUOUS
 62
     7
 10
77.50000000000001
 20
109.0000000000001
 30
0.0
 40
23.00000000000023
 50
272.5472696517093
 51
272.5583920830604
  0
LINE
  5
39F
  8
0
  6
CONTINUOUS
 62
     7
 10
79.00000673024724
 20
131.4777656465652
 30
0.0
 11
78.99978424663348
 21
131.4929904962389
 31
0.0
  0
LINE
  5
3A0
  8
0
  6
CONTINUOUS
 62
     7
 10
78.99978424663348
 20
131.4929904962389
 30
0.0
 11
78.9991029133349
 21
131.5081900794839
 31
0.0
  0
LINE
  5
3A1
  8
0
  6
CONTINUOUS
 62
     7
 10
78.9991029133349
 20
131.5081900794839
 30
0.0
 11
78.99805217541156
 21
131.5223656182316
 31
0.0
  0
LINE
  5
3A2
  8
0
  6
CONTINUOUS
 62
     7
 10
78.99805217541156
 20
131.5223656182316
 30
0.0
 11
78.99660887799759
 21
131.5364504572657
 31
0.0
  0
LINE
  5
3A3
  8
0
  6
CONTINUOUS
 62
     7
 10
78.99660887799759
 20
131.5364504572657
 30
0.0
 11
78.9947674904972
 21
131.5505085358224
 31
0.0
  0
LINE
  5
3A4
  8
0
  6
CONTINUOUS
 62
     7
 10
78.9947674904972
 20
131.5505085358224
 30
0.0
 11
78.99254428830903
 21
131.5644357278917
 31
0.0
  0
LINE
  5
3A5
  8
0
  6
CONTINUOUS
 62
     7
 10
78.99254428830903
 20
131.5644357278917
 30
0.0
 11
78.99026542008507
 21
131.5766381785243
 31
0.0
  0
LINE
  5
3A6
  8
0
  6
CONTINUOUS
 62
     7
 10
78.99026542008507
 20
131.5766381785243
 30
0.0
 11
78.98770182844441
 21
131.5887129851971
 31
0.0
  0
LINE
  5
3A7
  8
0
  6
CONTINUOUS
 62
     7
 10
78.98770182844441
 20
131.5887129851971
 30
0.0
 11
78.984848337387
 21
131.6006993991289
 31
0.0
  0
LINE
  5
3A8
  8
0
  6
CONTINUOUS
 62
     7
 10
78.984848337387
 20
131.6006993991289
 30
0.0
 11
78.98172319821028
 21
131.6125370520696
 31
0.0
  0
LINE
  5
3A9
  8
0
  6
CONTINUOUS
 62
     7
 10
78.98172319821028
 20
131.6125370520696
 30
0.0
 11
78.97714744540957
 21
131.6280753574742
 31
0.0
  0
LINE
  5
3AA
  8
0
  6
CONTINUOUS
 62
     7
 10
78.97714744540957
 20
131.6280753574742
 30
0.0
 11
78.97211448331073
 21
131.6433403661562
 31
0.0
  0
LINE
  5
3AB
  8
0
  6
CONTINUOUS
 62
     7
 10
78.97211448331073
 20
131.6433403661562
 30
0.0
 11
78.9666164016699
 21
131.6583828069649
 31
0.0
  0
LINE
  5
3AC
  8
0
  6
CONTINUOUS
 62
     7
 10
78.9666164016699
 20
131.6583828069649
 30
0.0
 11
78.96070400435653
 21
131.6730939476763
 31
0.0
  0
LINE
  5
3AD
  8
0
  6
CONTINUOUS
 62
     7
 10
78.96070400435653
 20
131.6730939476763
 30
0.0
 11
78.9543607849222
 21
131.6875430757198
 31
0.0
  0
LINE
  5
3AE
  8
0
  6
CONTINUOUS
 62
     7
 10
78.9543607849222
 20
131.6875430757198
 30
0.0
 11
78.94763974085939
 21
131.7016374835395
 31
0.0
  0
LINE
  5
3AF
  8
0
  6
CONTINUOUS
 62
     7
 10
78.94763974085939
 20
131.7016374835395
 30
0.0
 11
78.94052294341093
 21
131.7154407259514
 31
0.0
  0
LINE
  5
3B0
  8
0
  6
CONTINUOUS
 62
     7
 10
78.94052294341093
 20
131.7154407259514
 30
0.0
 11
78.93305507026201
 21
131.7288890835072
 31
0.0
  0
LINE
  5
3B1
  8
0
  6
CONTINUOUS
 62
     7
 10
78.93305507026201
 20
131.7288890835072
 30
0.0
 11
78.92185278935482
 21
131.7474129084221
 31
0.0
  0
LINE
  5
3B2
  8
0
  6
CONTINUOUS
 62
     7
 10
78.92185278935482
 20
131.7474129084221
 30
0.0
 11
78.91001875477286
 21
131.7652053342179
 31
0.0
  0
LINE
  5
3B3
  8
0
  6
CONTINUOUS
 62
     7
 10
78.91001875477286
 20
131.7652053342179
 30
0.0
 11
78.89753657074341
 21
131.78234117318
 31
0.0
  0
LINE
  5
3B4
  8
0
  6
CONTINUOUS
 62
     7
 10
78.89753657074341
 20
131.78234117318
 30
0.0
 11
78.88450893679959
 21
131.798724949202
 31
0.0
  0
LINE
  5
3B5
  8
0
  6
CONTINUOUS
 62
     7
 10
78.88450893679959
 20
131.798724949202
 30
0.0
 11
78.87088123617623
 21
131.8144625590747
 31
0.0
  0
LINE
  5
3B6
  8
0
  6
CONTINUOUS
 62
     7
 10
78.87088123617623
 20
131.8144625590747
 30
0.0
 11
78.85678297503937
 21
131.82943784672
 31
0.0
  0
LINE
  5
3B7
  8
0
  6
CONTINUOUS
 62
     7
 10
78.85678297503937
 20
131.82943784672
 30
0.0
 11
78.84217971945819
 21
131.8437214453214
 31
0.0
  0
LINE
  5
3B8
  8
0
  6
CONTINUOUS
 62
     7
 10
78.84217971945819
 20
131.8437214453214
 30
0.0
 11
78.82717360913246
 21
131.8572438590209
 31
0.0
  0
LINE
  5
3B9
  8
0
  6
CONTINUOUS
 62
     7
 10
78.82717360913246
 20
131.8572438590209
 30
0.0
 11
78.80673159563402
 21
131.8739936670328
 31
0.0
  0
LINE
  5
3BA
  8
0
  6
CONTINUOUS
 62
     7
 10
78.80673159563402
 20
131.8739936670328
 30
0.0
 11
78.7856971364172
 21
131.8894416308464
 31
0.0
  0
LINE
  5
3BB
  8
0
  6
CONTINUOUS
 62
     7
 10
78.7856971364172
 20
131.8894416308464
 30
0.0
 11
78.76402302115602
 21
131.9036694988148
 31
0.0
  0
LINE
  5
3BC
  8
0
  6
CONTINUOUS
 62
     7
 10
78.76402302115602
 20
131.9036694988148
 30
0.0
 11
78.74187027356552
 21
131.9166111311355
 31
0.0
  0
LINE
  5
3BD
  8
0
  6
CONTINUOUS
 62
     7
 10
78.74187027356552
 20
131.9166111311355
 30
0.0
 11
78.71913061403826
 21
131.9283581247821
 31
0.0
  0
LINE
  5
3BE
  8
0
  6
CONTINUOUS
 62
     7
 10
78.71913061403826
 20
131.9283581247821
 30
0.0
 11
78.69600701885808
 21
131.9388279451541
 31
0.0
  0
LINE
  5
3BF
  8
0
  6
CONTINUOUS
 62
     7
 10
78.69600701885808
 20
131.9388279451541
 30
0.0
 11
78.67242908572241
 21
131.9480739696737
 31
0.0
  0
LINE
  5
3C0
  8
0
  6
CONTINUOUS
 62
     7
 10
78.67242908572241
 20
131.9480739696737
 30
0.0
 11
78.64855100095842
 21
131.956051812588
 31
0.0
  0
LINE
  5
3C1
  8
0
  6
CONTINUOUS
 62
     7
 10
78.64855100095842
 20
131.956051812588
 30
0.0
 11
78.6193132362809
 21
131.9640203181086
 31
0.0
  0
LINE
  5
3C2
  8
0
  6
CONTINUOUS
 62
     7
 10
78.6193132362809
 20
131.9640203181086
 30
0.0
 11
78.58974211984781
 21
131.9701553880139
 31
0.0
  0
LINE
  5
3C3
  8
0
  6
CONTINUOUS
 62
     7
 10
78.58974211984781
 20
131.9701553880139
 30
0.0
 11
78.5599069742062
 21
131.9744568214384
 31
0.0
  0
LINE
  5
3C4
  8
0
  6
CONTINUOUS
 62
     7
 10
78.5599069742062
 20
131.9744568214384
 30
0.0
 11
78.52986023289758
 21
131.9769214358685
 31
0.0
  0
LINE
  5
3C5
  8
0
  6
CONTINUOUS
 62
     7
 10
78.52986023289758
 20
131.9769214358685
 30
0.0
 11
78.52666315902924
 21
131.9770747215108
 31
0.0
  0
ARC
  5
3C6
  8
0
  6
CONTINUOUS
 62
     7
 10
77.50000000000001
 20
109.0
 30
0.0
 40
22.99999999999998
 50
1.921282268893719
 51
87.44160791693963
  0
ARC
  5
3C7
  8
0
  6
CONTINUOUS
 62
     7
 10
77.50000000000001
 20
109.0000000000001
 30
0.0
 40
23.00000000000023
 50
87.44160791693963
 51
87.45273034829064
  0
LINE
  5
3C8
  8
0
  6
CONTINUOUS
 62
     7
 10
75.9999932697528
 20
86.52223435343481
 30
0.0
 11
76.00027270685659
 21
86.5052021651524
 31
0.0
  0
LINE
  5
3C9
  8
0
  6
CONTINUOUS
 62
     7
 10
76.00027270685659
 20
86.5052021651524
 30
0.0
 11
76.001126410827
 21
86.48820159498
 31
0.0
  0
LINE
  5
3CA
  8
0
  6
CONTINUOUS
 62
     7
 10
76.001126410827
 20
86.48820159498
 30
0.0
 11
76.00235495777234
 21
86.47324348788219
 31
0.0
  0
LINE
  5
3CB
  8
0
  6
CONTINUOUS
 62
     7
 10
76.00235495777234
 20
86.47324348788219
 30
0.0
 11
76.0040197209894
 21
86.4583937226808
 31
0.0
  0
LINE
  5
3CC
  8
0
  6
CONTINUOUS
 62
     7
 10
76.0040197209894
 20
86.4583937226808
 30
0.0
 11
76.00612777284834
 21
86.44357762546848
 31
0.0
  0
LINE
  5
3CD
  8
0
  6
CONTINUOUS
 62
     7
 10
76.00612777284834
 20
86.44357762546848
 30
0.0
 11
76.00865859443306
 21
86.42891644197239
 31
0.0
  0
LINE
  5
3CE
  8
0
  6
CONTINUOUS
 62
     7
 10
76.00865859443306
 20
86.42891644197239
 30
0.0
 11
76.01074760703841
 21
86.41841419447222
 31
0.0
  0
LINE
  5
3CF
  8
0
  6
CONTINUOUS
 62
     7
 10
76.01074760703841
 20
86.41841419447222
 30
0.0
 11
76.01304736461987
 21
86.40801070928009
 31
0.0
  0
LINE
  5
3D0
  8
0
  6
CONTINUOUS
 62
     7
 10
76.01304736461987
 20
86.40801070928009
 30
0.0
 11
76.01556111099346
 21
86.39768083647589
 31
0.0
  0
LINE
  5
3D1
  8
0
  6
CONTINUOUS
 62
     7
 10
76.01556111099346
 20
86.39768083647589
 30
0.0
 11
76.01827680178975
 21
86.38746294793049
 31
0.0
  0
LINE
  5
3D2
  8
0
  6
CONTINUOUS
 62
     7
 10
76.01827680178975
 20
86.38746294793049
 30
0.0
 11
76.02284198493179
 21
86.3719585161756
 31
0.0
  0
LINE
  5
3D3
  8
0
  6
CONTINUOUS
 62
     7
 10
76.02284198493179
 20
86.3719585161756
 30
0.0
 11
76.02786239029885
 21
86.35672619365589
 31
0.0
  0
LINE
  5
3D4
  8
0
  6
CONTINUOUS
 62
     7
 10
76.02786239029885
 20
86.35672619365589
 30
0.0
 11
76.03335850128147
 21
86.34168261832498
 31
0.0
  0
LINE
  5
3D5
  8
0
  6
CONTINUOUS
 62
     7
 10
76.03335850128147
 20
86.34168261832498
 30
0.0
 11
76.0392690025289
 21
86.32697027769461
 31
0.0
  0
LINE
  5
3D6
  8
0
  6
CONTINUOUS
 62
     7
 10
76.0392690025289
 20
86.32697027769461
 30
0.0
 11
76.04561039902177
 21
86.3125198679699
 31
0.0
  0
LINE
  5
3D7
  8
0
  6
CONTINUOUS
 62
     7
 10
76.04561039902177
 20
86.3125198679699
 30
0.0
 11
76.05232969559769
 21
86.29842413152097
 31
0.0
  0
LINE
  5
3D8
  8
0
  6
CONTINUOUS
 62
     7
 10
76.05232969559769
 20
86.29842413152097
 30
0.0
 11
76.05946096996465
 21
86.28458932416879
 31
0.0
  0
LINE
  5
3D9
  8
0
  6
CONTINUOUS
 62
     7
 10
76.05946096996465
 20
86.28458932416879
 30
0.0
 11
76.066944929738
 21
86.2711109164928
 31
0.0
  0
LINE
  5
3DA
  8
0
  6
CONTINUOUS
 62
     7
 10
76.066944929738
 20
86.2711109164928
 30
0.0
 11
76.07811207783723
 21
86.25264245245609
 31
0.0
  0
LINE
  5
3DB
  8
0
  6
CONTINUOUS
 62
     7
 10
76.07811207783723
 20
86.25264245245609
 30
0.0
 11
76.08990720236532
 21
86.23490101519307
 31
0.0
  0
LINE
  5
3DC
  8
0
  6
CONTINUOUS
 62
     7
 10
76.08990720236532
 20
86.23490101519307
 30
0.0
 11
76.10236447994538
 21
86.21778881882757
 31
0.0
  0
LINE
  5
3DD
  8
0
  6
CONTINUOUS
 62
     7
 10
76.10236447994538
 20
86.21778881882757
 30
0.0
 11
76.1153656701841
 21
86.2014261851327
 31
0.0
  0
LINE
  5
3DE
  8
0
  6
CONTINUOUS
 62
     7
 10
76.1153656701841
 20
86.2014261851327
 30
0.0
 11
76.12901409555451
 21
86.1856533648181
 31
0.0
  0
LINE
  5
3DF
  8
0
  6
CONTINUOUS
 62
     7
 10
76.12901409555451
 20
86.1856533648181
 30
0.0
 11
76.14313513551758
 21
86.17064563029412
 31
0.0
  0
LINE
  5
3E0
  8
0
  6
CONTINUOUS
 62
     7
 10
76.14313513551758
 20
86.17064563029412
 30
0.0
 11
76.15777811055463
 21
86.15631814332808
 31
0.0
  0
LINE
  5
3E1
  8
0
  6
CONTINUOUS
 62
     7
 10
76.15777811055463
 20
86.15631814332808
 30
0.0
 11
76.17282639086758
 21
86.14275614097907
 31
0.0
  0
LINE
  5
3E2
  8
0
  6
CONTINUOUS
 62
     7
 10
76.17282639086758
 20
86.14275614097907
 30
0.0
 11
76.19320539940624
 21
86.1260552187064
 31
0.0
  0
LINE
  5
3E3
  8
0
  6
CONTINUOUS
 62
     7
 10
76.19320539940624
 20
86.1260552187064
 30
0.0
 11
76.2141733229685
 21
86.11064837925677
 31
0.0
  0
LINE
  5
3E4
  8
0
  6
CONTINUOUS
 62
     7
 10
76.2141733229685
 20
86.11064837925677
 30
0.0
 11
76.23580696932213
 21
86.09643588029431
 31
0.0
  0
LINE
  5
3E5
  8
0
  6
CONTINUOUS
 62
     7
 10
76.23580696932213
 20
86.09643588029431
 30
0.0
 11
76.25791796896037
 21
86.0835053779459
 31
0.0
  0
LINE
  5
3E6
  8
0
  6
CONTINUOUS
 62
     7
 10
76.25791796896037
 20
86.0835053779459
 30
0.0
 11
76.28069528701062
 21
86.07172620910941
 31
0.0
  0
LINE
  5
3E7
  8
0
  6
CONTINUOUS
 62
     7
 10
76.28069528701062
 20
86.07172620910941
 30
0.0
 11
76.30385835596103
 21
86.06122890458708
 31
0.0
  0
LINE
  5
3E8
  8
0
  6
CONTINUOUS
 62
     7
 10
76.30385835596103
 20
86.06122890458708
 30
0.0
 11
76.32750262782746
 21
86.05195080884828
 31
0.0
  0
LINE
  5
3E9
  8
0
  6
CONTINUOUS
 62
     7
 10
76.32750262782746
 20
86.05195080884828
 30
0.0
 11
76.3514489990413
 21
86.0439481874121
 31
0.0
  0
LINE
  5
3EA
  8
0
  6
CONTINUOUS
 62
     7
 10
76.3514489990413
 20
86.0439481874121
 30
0.0
 11
76.38066525137718
 21
86.03598483924691
 31
0.0
  0
LINE
  5
3EB
  8
0
  6
CONTINUOUS
 62
     7
 10
76.38066525137718
 20
86.03598483924691
 30
0.0
 11
76.41023613120021
 21
86.02984843213532
 31
0.0
  0
LINE
  5
3EC
  8
0
  6
CONTINUOUS
 62
     7
 10
76.41023613120021
 20
86.02984843213532
 30
0.0
 11
76.44007108434799
 21
86.0255456583609
 31
0.0
  0
LINE
  5
3ED
  8
0
  6
CONTINUOUS
 62
     7
 10
76.44007108434799
 20
86.0255456583609
 30
0.0
 11
76.47013976710234
 21
86.0230785641315
 31
0.0
  0
LINE
  5
3EE
  8
0
  6
CONTINUOUS
 62
     7
 10
76.47013976710234
 20
86.0230785641315
 30
0.0
 11
76.47333684097077
 21
86.0229252784892
 31
0.0
  0
ARC
  5
3EF
  8
0
  6
CONTINUOUS
 62
     7
 10
77.50000000000001
 20
109.0
 30
0.0
 40
22.99999999999999
 50
181.9212822688937
 51
267.4416079169396
  0
ARC
  5
3F0
  8
0
  6
CONTINUOUS
 62
     7
 10
77.50000000000001
 20
109.0000000000001
 30
0.0
 40
23.00000000000023
 50
267.4416079169397
 51
267.4527303482907
  0
LINE
  5
3F1
  8
0
  6
CONTINUOUS
 62
     7
 10
76.47333684097077
 20
131.9770747215108
 30
0.0
 11
76.47013976710235
 21
131.9769214358685
 31
0.0
  0
LINE
  5
3F2
  8
0
  6
CONTINUOUS
 62
     7
 10
76.47013976710235
 20
131.9769214358685
 30
0.0
 11
76.4402790348328
 21
131.9744778038803
 31
0.0
  0
LINE
  5
3F3
  8
0
  6
CONTINUOUS
 62
     7
 10
76.4402790348328
 20
131.9744778038803
 30
0.0
 11
76.41050823065335
 21
131.9701992889527
 31
0.0
  0
LINE
  5
3F4
  8
0
  6
CONTINUOUS
 62
     7
 10
76.41050823065335
 20
131.9701992889527
 30
0.0
 11
76.38087268851031
 21
131.9640648489734
 31
0.0
  0
LINE
  5
3F5
  8
0
  6
CONTINUOUS
 62
     7
 10
76.38087268851031
 20
131.9640648489734
 30
0.0
 11
76.3514489990413
 21
131.9560518125878
 31
0.0
  0
LINE
  5
3F6
  8
0
  6
CONTINUOUS
 62
     7
 10
76.3514489990413
 20
131.9560518125878
 30
0.0
 11
76.32823727561743
 21
131.948315168587
 31
0.0
  0
LINE
  5
3F7
  8
0
  6
CONTINUOUS
 62
     7
 10
76.32823727561743
 20
131.948315168587
 30
0.0
 11
76.30518594905884
 21
131.9393296611486
 31
0.0
  0
LINE
  5
3F8
  8
0
  6
CONTINUOUS
 62
     7
 10
76.30518594905884
 20
131.9393296611486
 30
0.0
 11
76.28239394431128
 21
131.9290930297811
 31
0.0
  0
LINE
  5
3F9
  8
0
  6
CONTINUOUS
 62
     7
 10
76.28239394431128
 20
131.9290930297811
 30
0.0
 11
76.25975936629725
 21
131.9175032524631
 31
0.0
  0
LINE
  5
3FA
  8
0
  6
CONTINUOUS
 62
     7
 10
76.25975936629725
 20
131.9175032524631
 30
0.0
 11
76.23747669010667
 21
131.9045949687393
 31
0.0
  0
LINE
  5
3FB
  8
0
  6
CONTINUOUS
 62
     7
 10
76.23747669010667
 20
131.9045949687393
 30
0.0
 11
76.21545589507303
 21
131.8902401124166
 31
0.0
  0
LINE
  5
3FC
  8
0
  6
CONTINUOUS
 62
     7
 10
76.21545589507303
 20
131.8902401124166
 30
0.0
 11
76.19390244334892
 21
131.8744847168731
 31
0.0
  0
LINE
  5
3FD
  8
0
  6
CONTINUOUS
 62
     7
 10
76.19390244334892
 20
131.8744847168731
 30
0.0
 11
76.17282639086757
 21
131.8572438590209
 31
0.0
  0
LINE
  5
3FE
  8
0
  6
CONTINUOUS
 62
     7
 10
76.17282639086757
 20
131.8572438590209
 30
0.0
 11
76.15822759933491
 21
131.8441033560372
 31
0.0
  0
LINE
  5
3FF
  8
0
  6
CONTINUOUS
 62
     7
 10
76.15822759933491
 20
131.8441033560372
 30
0.0
 11
76.14393797124816
 21
131.8301710789334
 31
0.0
  0
LINE
  5
400
  8
0
  6
CONTINUOUS
 62
     7
 10
76.14393797124816
 20
131.8301710789334
 30
0.0
 11
76.13002718200005
 21
131.8154656034906
 31
0.0
  0
LINE
  5
401
  8
0
  6
CONTINUOUS
 62
     7
 10
76.13002718200005
 20
131.8154656034906
 30
0.0
 11
76.11644787848488
 21
131.7998742089466
 31
0.0
  0
LINE
  5
402
  8
0
  6
CONTINUOUS
 62
     7
 10
76.11644787848488
 20
131.7998742089466
 30
0.0
 11
76.10332838942556
 21
131.7834737455792
 31
0.0
  0
LINE
  5
403
  8
0
  6
CONTINUOUS
 62
     7
 10
76.10332838942556
 20
131.7834737455792
 30
0.0
 11
76.09063359568258
 21
131.766139785226
 31
0.0
  0
LINE
  5
404
  8
0
  6
CONTINUOUS
 62
     7
 10
76.09063359568258
 20
131.766139785226
 30
0.0
 11
76.07849776706007
 21
131.7479644241656
 31
0.0
  0
LINE
  5
405
  8
0
  6
CONTINUOUS
 62
     7
 10
76.07849776706007
 20
131.7479644241656
 30
0.0
 11
76.066944929738
 21
131.7288890835072
 31
0.0
  0
LINE
  5
406
  8
0
  6
CONTINUOUS
 62
     7
 10
76.066944929738
 20
131.7288890835072
 30
0.0
 11
76.05960786049312
 21
131.7156847902176
 31
0.0
  0
LINE
  5
407
  8
0
  6
CONTINUOUS
 62
     7
 10
76.05960786049312
 20
131.7156847902176
 30
0.0
 11
76.05260113973644
 21
131.7021223489423
 31
0.0
  0
LINE
  5
408
  8
0
  6
CONTINUOUS
 62
     7
 10
76.05260113973644
 20
131.7021223489423
 30
0.0
 11
76.04591240453175
 21
131.6881386783166
 31
0.0
  0
LINE
  5
409
  8
0
  6
CONTINUOUS
 62
     7
 10
76.04591240453175
 20
131.6881386783166
 30
0.0
 11
76.03959547414887
 21
131.6738048358345
 31
0.0
  0
LINE
  5
40A
  8
0
  6
CONTINUOUS
 62
     7
 10
76.03959547414887
 20
131.6738048358345
 30
0.0
 11
76.03363141645251
 21
131.6590273762877
 31
0.0
  0
LINE
  5
40B
  8
0
  6
CONTINUOUS
 62
     7
 10
76.03363141645251
 20
131.6590273762877
 30
0.0
 11
76.02808540009468
 21
131.6439143983793
 31
0.0
  0
LINE
  5
40C
  8
0
  6
CONTINUOUS
 62
     7
 10
76.02808540009468
 20
131.6439143983793
 30
0.0
 11
76.02294809205152
 21
131.628380739686
 31
0.0
  0
LINE
  5
40D
  8
0
  6
CONTINUOUS
 62
     7
 10
76.02294809205152
 20
131.628380739686
 30
0.0
 11
76.01827680178975
 21
131.6125370520696
 31
0.0
  0
LINE
  5
40E
  8
0
  6
CONTINUOUS
 62
     7
 10
76.01827680178975
 20
131.6125370520696
 30
0.0
 11
76.01457874954713
 21
131.5983939249882
 31
0.0
  0
LINE
  5
40F
  8
0
  6
CONTINUOUS
 62
     7
 10
76.01457874954713
 20
131.5983939249882
 30
0.0
 11
76.01126966000469
 21
131.5840416171947
 31
0.0
  0
LINE
  5
410
  8
0
  6
CONTINUOUS
 62
     7
 10
76.01126966000469
 20
131.5840416171947
 30
0.0
 11
76.00834692422997
 21
131.5694084348818
 31
0.0
  0
LINE
  5
411
  8
0
  6
CONTINUOUS
 62
     7
 10
76.00834692422997
 20
131.5694084348818
 30
0.0
 11
76.00584403583782
 21
131.5545994422561
 31
0.0
  0
LINE
  5
412
  8
0
  6
CONTINUOUS
 62
     7
 10
76.00584403583782
 20
131.5545994422561
 30
0.0
 11
76.00402110156858
 21
131.5416165367105
 31
0.0
  0
LINE
  5
413
  8
0
  6
CONTINUOUS
 62
     7
 10
76.00402110156858
 20
131.5416165367105
 30
0.0
 11
76.00253039947967
 21
131.5285315015389
 31
0.0
  0
LINE
  5
414
  8
0
  6
CONTINUOUS
 62
     7
 10
76.00253039947967
 20
131.5285315015389
 30
0.0
 11
76.00137318634108
 21
131.5152904578261
 31
0.0
  0
LINE
  5
415
  8
0
  6
CONTINUOUS
 62
     7
 10
76.00137318634108
 20
131.5152904578261
 30
0.0
 11
76.00056313007849
 21
131.5019788911986
 31
0.0
  0
LINE
  5
416
  8
0
  6
CONTINUOUS
 62
     7
 10
76.00056313007849
 20
131.5019788911986
 30
0.0
 11
76.00013325333576
 21
131.4898941462537
 31
0.0
  0
LINE
  5
417
  8
0
  6
CONTINUOUS
 62
     7
 10
76.00013325333576
 20
131.4898941462537
 30
0.0
 11
75.99999326975279
 21
131.4777656465652
 31
0.0
  0
ARC
  5
418
  8
0
  6
CONTINUOUS
 62
     7
 10
77.50000000000001
 20
109.0
 30
0.0
 40
22.99999999999999
 50
92.55839208306031
 51
178.0787177311063
  0
ARC
  5
419
  8
0
  6
CONTINUOUS
 62
     7
 10
77.50000000000001
 20
109.0000000000001
 30
0.0
 40
23.00000000000023
 50
92.54726965170936
 51
92.55839208306043
  0
ARC
  5
41A
  8
0
  6
CONTINUOUS
 62
     7
 10
77.50000000000001
 20
109.0
 30
0.0
 40
15.99999999999999
 50
275.379378991112
 51
349.1930771251397
  0
LINE
  5
41B
  8
0
  6
CONTINUOUS
 62
     7
 10
93.21623364550172
 20
106.0
 30
0.0
 11
88.60180165558727
 21
106.0
 31
0.0
  0
ARC
  5
41C
  8
0
  6
CONTINUOUS
 62
     7
 10
77.50000000000001
 20
109.0
 30
0.0
 40
11.5
 50
277.4947174539267
 51
344.878334685091
  0
ARC
  5
41D
  8
0
  6
CONTINUOUS
 62
     7
 10
77.50000000000001
 20
109.0
 30
0.0
 40
8.499999999999993
 50
280.1642486217232
 51
339.3326835064874
  0
LINE
  5
41E
  8
0
  6
CONTINUOUS
 62
     7
 10
85.45298686029345
 20
106.0
 30
0.0
 11
79.00000000000001
 21
106.0
 31
0.0
  0
LINE
  5
41F
  8
0
  6
CONTINUOUS
 62
     7
 10
69.54701313970656
 20
106.0
 30
0.0
 11
76.00000000000001
 21
106.0
 31
0.0
  0
ARC
  5
420
  8
0
  6
CONTINUOUS
 62
     7
 10
77.50000000000001
 20
109.0
 30
0.0
 40
8.499999999999993
 50
200.6673164935125
 51
259.8357513782765
  0
ARC
  5
421
  8
0
  6
CONTINUOUS
 62
     7
 10
77.50000000000001
 20
109.0
 30
0.0
 40
11.5
 50
195.121665314909
 51
262.5052825460733
  0
LINE
  5
422
  8
0
  6
CONTINUOUS
 62
     7
 10
61.7837663544983
 20
106.0
 30
0.0
 11
66.39819834441275
 21
106.0
 31
0.0
  0
ARC
  5
423
  8
0
  6
CONTINUOUS
 62
     7
 10
77.50000000000001
 20
109.0
 30
0.0
 40
16.0
 50
190.8069228748603
 51
264.620621008888
  0
ARC
  5
424
  8
0
  6
CONTINUOUS
 62
     7
 10
77.50000000000001
 20
109.0
 30
0.0
 40
11.51745373558152
 50
195.1881540707902
 51
262.4291235914081
  0
LINE
  5
425
  8
0
  6
CONTINUOUS
 62
     7
 10
66.38484307331265
 20
105.9825462644185
 30
0.0
 11
66.39819834441275
 21
106.0
 31
0.0
  0
ARC
  5
426
  8
0
  6
CONTINUOUS
 62
     7
 10
77.50000000000001
 20
109.0
 30
0.0
 40
11.51745373558152
 50
277.5708764085919
 51
344.8118459292098
  0
LINE
  5
427
  8
0
  6
CONTINUOUS
 62
     7
 10
88.60180165558727
 20
106.0
 30
0.0
 11
88.61515692668736
 21
105.9825462644185
 31
0.0
  0
ARC
  5
428
  8
0
  6
CONTINUOUS
 62
     7
 10
77.50000000000001
 20
109.0
 30
0.0
 40
15.99999999999999
 50
95.37937899111208
 51
169.1930771251397
  0
LINE
  5
429
  8
0
  6
CONTINUOUS
 62
     7
 10
61.7837663544983
 20
112.0
 30
0.0
 11
66.39819834441275
 21
112.0
 31
0.0
  0
ARC
  5
42A
  8
0
  6
CONTINUOUS
 62
     7
 10
77.50000000000001
 20
109.0
 30
0.0
 40
11.5
 50
97.49471745392668
 51
164.878334685091
  0
ARC
  5
42B
  8
0
  6
CONTINUOUS
 62
     7
 10
77.50000000000001
 20
109.0
 30
0.0
 40
8.500000000000007
 50
100.1642486217235
 51
159.3326835064873
  0
LINE
  5
42C
  8
0
  6
CONTINUOUS
 62
     7
 10
69.54701313970656
 20
112.0
 30
0.0
 11
76.00000000000001
 21
112.0
 31
0.0
  0
ARC
  5
42D
  8
0
  6
CONTINUOUS
 62
     7
 10
77.50000000000001
 20
109.0
 30
0.0
 40
8.482546264418481
 50
200.8378842438476
 51
259.6948121201782
  0
LINE
  5
42E
  8
0
  6
CONTINUOUS
 62
     7
 10
69.54701313970656
 20
106.0
 30
0.0
 11
69.57229137255757
 21
105.9825462644185
 31
0.0
  0
LINE
  5
42F
  8
0
  6
CONTINUOUS
 62
     7
 10
79.01745373558153
 20
112.0174537355815
 30
0.0
 11
85.42770862744244
 21
112.0174537355815
 31
0.0
  0
LINE
  5
430
  8
0
  6
CONTINUOUS
 62
     7
 10
85.45298686029345
 20
112.0
 30
0.0
 11
85.42770862744244
 21
112.0174537355815
 31
0.0
  0
LINE
  5
431
  8
0
  6
CONTINUOUS
 62
     7
 10
85.45298686029345
 20
112.0
 30
0.0
 11
79.00000000000001
 21
112.0
 31
0.0
  0
ARC
  5
432
  8
0
  6
CONTINUOUS
 62
     7
 10
77.50000000000001
 20
109.0
 30
0.0
 40
8.482546264418481
 50
20.83788424384772
 51
79.6948121201782
  0
ARC
  5
433
  8
0
  6
CONTINUOUS
 62
     7
 10
77.50000000000001
 20
109.0
 30
0.0
 40
8.499999999999993
 50
20.6673164935126
 51
79.83575137827654
  0
ARC
  5
434
  8
0
  6
CONTINUOUS
 62
     7
 10
77.50000000000001
 20
109.0
 30
0.0
 40
8.482546264418495
 50
100.3051878798218
 51
159.1621157561523
  0
LINE
  5
435
  8
0
  6
CONTINUOUS
 62
     7
 10
69.57229137255757
 20
112.0174537355815
 30
0.0
 11
69.54701313970656
 21
112.0
 31
0.0
  0
LINE
  5
436
  8
0
  6
CONTINUOUS
 62
     7
 10
85.42770862744244
 20
105.9825462644185
 30
0.0
 11
85.45298686029345
 21
106.0
 31
0.0
  0
LINE
  5
437
  8
0
  6
CONTINUOUS
 62
     7
 10
79.01745373558153
 20
105.9825462644185
 30
0.0
 11
85.42770862744244
 21
105.9825462644185
 31
0.0
  0
ARC
  5
438
  8
0
  6
CONTINUOUS
 62
     7
 10
77.50000000000001
 20
109.0
 30
0.0
 40
11.50000000000004
 50
15.12166531490903
 51
82.50528254607332
  0
LINE
  5
439
  8
0
  6
CONTINUOUS
 62
     7
 10
93.21623364550172
 20
112.0
 30
0.0
 11
88.60180165558727
 21
112.0
 31
0.0
  0
ARC
  5
43A
  8
0
  6
CONTINUOUS
 62
     7
 10
77.50000000000001
 20
109.0
 30
0.0
 40
15.99999999999999
 50
10.80692287486033
 51
84.62062100888791
  0
LINE
  5
43B
  8
0
  6
CONTINUOUS
 62
     7
 10
88.61515692668736
 20
112.0174537355815
 30
0.0
 11
88.60180165558727
 21
112.0
 31
0.0
  0
LINE
  5
43C
  8
0
  6
CONTINUOUS
 62
     7
 10
88.61515692668736
 20
112.0174537355815
 30
0.0
 11
93.21289193476571
 21
112.0174537355815
 31
0.0
  0
ARC
  5
43D
  8
0
  6
CONTINUOUS
 62
     7
 10
77.50000000000001
 20
109.0
 30
0.0
 40
11.51745373558152
 50
97.57087640859191
 51
164.8118459292098
  0
LINE
  5
43E
  8
0
  6
CONTINUOUS
 62
     7
 10
66.39819834441275
 20
112.0
 30
0.0
 11
66.38484307331265
 21
112.0174537355815
 31
0.0
  0
LINE
  5
43F
  8
0
  6
CONTINUOUS
 62
     7
 10
66.38484307331265
 20
112.0174537355815
 30
0.0
 11
61.78710806523431
 21
112.0174537355815
 31
0.0
  0
ARC
  5
440
  8
0
  6
CONTINUOUS
 62
     7
 10
77.50000000000001
 20
109.0
 30
0.0
 40
8.482546264418495
 50
280.3051878798217
 51
339.1621157561523
  0
LINE
  5
441
  8
0
  6
CONTINUOUS
 62
     7
 10
88.61515692668736
 20
105.9825462644185
 30
0.0
 11
93.21289193476571
 21
105.9825462644185
 31
0.0
  0
LINE
  5
442
  8
0
  6
CONTINUOUS
 62
     7
 10
66.38484307331265
 20
105.9825462644185
 30
0.0
 11
61.78710806523431
 21
105.9825462644185
 31
0.0
  0
LINE
  5
443
  8
0
  6
CONTINUOUS
 62
     7
 10
75.9825462644185
 20
105.9825462644185
 30
0.0
 11
69.57229137255757
 21
105.9825462644185
 31
0.0
  0
ARC
  5
444
  8
0
  6
CONTINUOUS
 62
     7
 10
77.50000000000001
 20
109.0
 30
0.0
 40
11.51745373558152
 50
15.18815407079023
 51
82.42912359140809
  0
LINE
  5
445
  8
0
  6
CONTINUOUS
 62
     7
 10
75.9825462644185
 20
112.0174537355815
 30
0.0
 11
69.57229137255757
 21
112.0174537355815
 31
0.0
  0
LINE
  5
446
  8
0
  6
CONTINUOUS
 62
     7
 10
76.2304441673555
 20
84.24087646488931
 30
0.0
 11
76.21749566646643
 21
85.7246277029644
 31
0.0
  0
LINE
  5
447
  8
0
  6
CONTINUOUS
 62
     7
 10
78.78250433353358
 20
85.7246277029644
 30
0.0
 11
78.76955583264451
 21
84.24087646488931
 31
0.0
  0
LINE
  5
448
  8
0
  6
CONTINUOUS
 62
     7
 10
52.74087646488928
 20
110.2695558326445
 30
0.0
 11
54.22462770296443
 21
110.2825043335336
 31
0.0
  0
LINE
  5
449
  8
0
  6
CONTINUOUS
 62
     7
 10
54.22462770296443
 20
107.7174956664665
 30
0.0
 11
52.74087646488928
 21
107.7304441673555
 31
0.0
  0
LINE
  5
44A
  8
0
  6
CONTINUOUS
 62
     7
 10
100.7753722970356
 20
110.2825043335336
 30
0.0
 11
102.2591235351107
 21
110.2695558326445
 31
0.0
  0
LINE
  5
44B
  8
0
  6
CONTINUOUS
 62
     7
 10
102.2591235351107
 20
107.7304441673555
 30
0.0
 11
100.7753722970356
 21
107.7174956664664
 31
0.0
  0
LINE
  5
44C
  8
0
  6
CONTINUOUS
 62
     7
 10
78.76955583264453
 20
133.7591235351107
 30
0.0
 11
78.78250433353358
 21
132.2753722970356
 31
0.0
  0
LINE
  5
44D
  8
0
  6
CONTINUOUS
 62
     7
 10
76.21749566646645
 20
132.2753722970356
 30
0.0
 11
76.2304441673555
 21
133.7591235351107
 31
0.0
  0
LINE
  5
44E
  8
0
  6
CONTINUOUS
 62
     7
 10
78.7852210853248
 20
86.03593662345801
 30
0.0
 11
78.78250433353358
 21
85.7246277029644
 31
0.0
  0
LINE
  5
44F
  8
0
  6
CONTINUOUS
 62
     7
 10
100.464063376542
 20
110.2852210853248
 30
0.0
 11
100.7753722970356
 21
110.2825043335336
 31
0.0
  0
LINE
  5
450
  8
0
  6
CONTINUOUS
 62
     7
 10
54.53593662345804
 20
107.7147789146752
 30
0.0
 11
54.22462770296443
 21
107.7174956664665
 31
0.0
  0
LINE
  5
451
  8
0
  6
CONTINUOUS
 62
     7
 10
76.21477891467522
 20
131.964063376542
 30
0.0
 11
76.21749566646645
 21
132.2753722970356
 31
0.0
  0
LINE
  5
452
  8
0
  6
CONTINUOUS
 62
     7
 10
76.21749566646643
 20
85.7246277029644
 30
0.0
 11
76.21477891467521
 21
86.03593662345801
 31
0.0
  0
LINE
  5
453
  8
0
  6
CONTINUOUS
 62
     7
 10
54.22462770296443
 20
110.2825043335336
 30
0.0
 11
54.53593662345804
 21
110.2852210853248
 31
0.0
  0
LINE
  5
454
  8
0
  6
CONTINUOUS
 62
     7
 10
100.7753722970356
 20
107.7174956664664
 30
0.0
 11
100.464063376542
 21
107.7147789146752
 31
0.0
  0
LINE
  5
455
  8
0
  6
CONTINUOUS
 62
     7
 10
78.78250433353358
 20
132.2753722970356
 30
0.0
 11
78.78522108532482
 21
131.964063376542
 31
0.0
  0
LINE
  5
456
  8
0
  6
CONTINUOUS
 62
     7
 10
76.73154751552535
 20
82.01093775658171
 30
0.0
 11
76.71096701874698
 21
82.0119551844094
 31
0.0
  0
LINE
  5
457
  8
0
  6
CONTINUOUS
 62
     7
 10
76.71096701874698
 20
82.0119551844094
 30
0.0
 11
76.69042894828857
 21
82.01383111568758
 31
0.0
  0
LINE
  5
458
  8
0
  6
CONTINUOUS
 62
     7
 10
76.69042894828857
 20
82.01383111568758
 30
0.0
 11
76.66998660045621
 21
82.01655926585461
 31
0.0
  0
LINE
  5
459
  8
0
  6
CONTINUOUS
 62
     7
 10
76.66998660045621
 20
82.01655926585461
 30
0.0
 11
76.64969327155585
 21
82.0201333503488
 31
0.0
  0
LINE
  5
45A
  8
0
  6
CONTINUOUS
 62
     7
 10
76.64969327155585
 20
82.0201333503488
 30
0.0
 11
76.62898263701122
 21
82.02469410995089
 31
0.0
  0
LINE
  5
45B
  8
0
  6
CONTINUOUS
 62
     7
 10
76.62898263701122
 20
82.02469410995089
 30
0.0
 11
76.60846744112605
 21
82.0301423923181
 31
0.0
  0
LINE
  5
45C
  8
0
  6
CONTINUOUS
 62
     7
 10
76.60846744112605
 20
82.0301423923181
 30
0.0
 11
76.58820342639991
 21
82.0364613481184
 31
0.0
  0
LINE
  5
45D
  8
0
  6
CONTINUOUS
 62
     7
 10
76.58820342639991
 20
82.0364613481184
 30
0.0
 11
76.56824633533245
 21
82.04363412801979
 31
0.0
  0
LINE
  5
45E
  8
0
  6
CONTINUOUS
 62
     7
 10
76.56824633533245
 20
82.04363412801979
 30
0.0
 11
76.54916798479714
 21
82.05141654883741
 31
0.0
  0
LINE
  5
45F
  8
0
  6
CONTINUOUS
 62
     7
 10
76.54916798479714
 20
82.05141654883741
 30
0.0
 11
76.5304124850634
 21
82.0599904167558
 31
0.0
  0
LINE
  5
460
  8
0
  6
CONTINUOUS
 62
     7
 10
76.5304124850634
 20
82.0599904167558
 30
0.0
 11
76.51202713978482
 21
82.0693318358108
 31
0.0
  0
LINE
  5
461
  8
0
  6
CONTINUOUS
 62
     7
 10
76.51202713978482
 20
82.0693318358108
 30
0.0
 11
76.49405925261499
 21
82.07941691003778
 31
0.0
  0
LINE
  5
462
  8
0
  6
CONTINUOUS
 62
     7
 10
76.49405925261499
 20
82.07941691003778
 30
0.0
 11
76.47602799213797
 21
82.09055996657177
 31
0.0
  0
LINE
  5
463
  8
0
  6
CONTINUOUS
 62
     7
 10
76.47602799213797
 20
82.09055996657177
 30
0.0
 11
76.45846998481487
 21
82.1024688039399
 31
0.0
  0
LINE
  5
464
  8
0
  6
CONTINUOUS
 62
     7
 10
76.45846998481487
 20
82.1024688039399
 30
0.0
 11
76.44143106901375
 21
82.11510935501748
 31
0.0
  0
LINE
  5
465
  8
0
  6
CONTINUOUS
 62
     7
 10
76.44143106901375
 20
82.11510935501748
 30
0.0
 11
76.42495708310264
 21
82.12844755267979
 31
0.0
  0
LINE
  5
466
  8
0
  6
CONTINUOUS
 62
     7
 10
76.42495708310264
 20
82.12844755267979
 30
0.0
 11
76.40941182564877
 21
82.14215226461849
 31
0.0
  0
LINE
  5
467
  8
0
  6
CONTINUOUS
 62
     7
 10
76.40941182564877
 20
82.14215226461849
 30
0.0
 11
76.39443237342059
 21
82.1564987522253
 31
0.0
  0
LINE
  5
468
  8
0
  6
CONTINUOUS
 62
     7
 10
76.39443237342059
 20
82.1564987522253
 30
0.0
 11
76.38005519890062
 21
82.17144888284888
 31
0.0
  0
LINE
  5
469
  8
0
  6
CONTINUOUS
 62
     7
 10
76.38005519890062
 20
82.17144888284888
 30
0.0
 11
76.36631677457142
 21
82.1869645238382
 31
0.0
  0
LINE
  5
46A
  8
0
  6
CONTINUOUS
 62
     7
 10
76.36631677457142
 20
82.1869645238382
 30
0.0
 11
76.3528677543394
 21
82.203497673876
 31
0.0
  0
LINE
  5
46B
  8
0
  6
CONTINUOUS
 62
     7
 10
76.3528677543394
 20
82.203497673876
 30
0.0
 11
76.34011668008277
 21
82.22059856073119
 31
0.0
  0
LINE
  5
46C
  8
0
  6
CONTINUOUS
 62
     7
 10
76.34011668008277
 20
82.22059856073119
 30
0.0
 11
76.32809548212143
 21
82.23822028425629
 31
0.0
  0
LINE
  5
46D
  8
0
  6
CONTINUOUS
 62
     7
 10
76.32809548212143
 20
82.23822028425629
 30
0.0
 11
76.31683609077525
 21
82.2563159443038
 31
0.0
  0
LINE
  5
46E
  8
0
  6
CONTINUOUS
 62
     7
 10
76.31683609077525
 20
82.2563159443038
 30
0.0
 11
76.30651849405807
 21
82.2745566906381
 31
0.0
  0
LINE
  5
46F
  8
0
  6
CONTINUOUS
 62
     7
 10
76.30651849405807
 20
82.2745566906381
 30
0.0
 11
76.29695400760541
 21
82.29322341744968
 31
0.0
  0
LINE
  5
470
  8
0
  6
CONTINUOUS
 62
     7
 10
76.29695400760541
 20
82.29322341744968
 30
0.0
 11
76.28816511949442
 21
82.31226769805887
 31
0.0
  0
LINE
  5
471
  8
0
  6
CONTINUOUS
 62
     7
 10
76.28816511949442
 20
82.31226769805887
 30
0.0
 11
76.28017431780233
 21
82.33164110578639
 31
0.0
  0
LINE
  5
472
  8
0
  6
CONTINUOUS
 62
     7
 10
76.28017431780233
 20
82.33164110578639
 30
0.0
 11
76.27279737954417
 21
82.3518924879317
 31
0.0
  0
LINE
  5
473
  8
0
  6
CONTINUOUS
 62
     7
 10
76.27279737954417
 20
82.3518924879317
 30
0.0
 11
76.26627677608406
 21
82.37245581166239
 31
0.0
  0
LINE
  5
474
  8
0
  6
CONTINUOUS
 62
     7
 10
76.26627677608406
 20
82.37245581166239
 30
0.0
 11
76.2606280807279
 21
82.39327559027251
 31
0.0
  0
LINE
  5
475
  8
0
  6
CONTINUOUS
 62
     7
 10
76.2606280807279
 20
82.39327559027251
 30
0.0
 11
76.25586686678166
 21
82.4142963370561
 31
0.0
  0
LINE
  5
476
  8
0
  6
CONTINUOUS
 62
     7
 10
76.25586686678166
 20
82.4142963370561
 30
0.0
 11
76.25151840006386
 21
82.43855905609931
 31
0.0
  0
LINE
  5
477
  8
0
  6
CONTINUOUS
 62
     7
 10
76.25151840006386
 20
82.43855905609931
 30
0.0
 11
76.24834027688794
 21
82.46303156695068
 31
0.0
  0
LINE
  5
478
  8
0
  6
CONTINUOUS
 62
     7
 10
76.24834027688794
 20
82.46303156695068
 30
0.0
 11
76.24634111582093
 21
82.48762850372732
 31
0.0
  0
LINE
  5
479
  8
0
  6
CONTINUOUS
 62
     7
 10
76.24634111582093
 20
82.48762850372732
 30
0.0
 11
76.24552953542984
 21
82.5122645005462
 31
0.0
  0
LINE
  5
47A
  8
0
  6
CONTINUOUS
 62
     7
 10
76.24552953542984
 20
82.5122645005462
 30
0.0
 11
76.2304441673555
 21
84.24087646488931
 31
0.0
  0
LINE
  5
47B
  8
0
  6
CONTINUOUS
 62
     7
 10
78.75447046457016
 20
82.5122645005462
 30
0.0
 11
78.75384673576825
 21
82.4910934215029
 31
0.0
  0
LINE
  5
47C
  8
0
  6
CONTINUOUS
 62
     7
 10
78.75384673576825
 20
82.4910934215029
 30
0.0
 11
78.75234751233911
 21
82.46995718010949
 31
0.0
  0
LINE
  5
47D
  8
0
  6
CONTINUOUS
 62
     7
 10
78.75234751233911
 20
82.46995718010949
 30
0.0
 11
78.74997648476048
 21
82.4489100537579
 31
0.0
  0
LINE
  5
47E
  8
0
  6
CONTINUOUS
 62
     7
 10
78.74997648476048
 20
82.4489100537579
 30
0.0
 11
78.74667684927697
 21
82.42764772844899
 31
0.0
  0
LINE
  5
47F
  8
0
  6
CONTINUOUS
 62
     7
 10
78.74667684927697
 20
82.42764772844899
 30
0.0
 11
78.74248602785914
 21
82.40654297018718
 31
0.0
  0
LINE
  5
480
  8
0
  6
CONTINUOUS
 62
     7
 10
78.74248602785914
 20
82.40654297018718
 30
0.0
 11
78.73733038898791
 21
82.38533287393881
 31
0.0
  0
LINE
  5
481
  8
0
  6
CONTINUOUS
 62
     7
 10
78.73733038898791
 20
82.38533287393881
 30
0.0
 11
78.73127357713099
 21
82.36436233741901
 31
0.0
  0
LINE
  5
482
  8
0
  6
CONTINUOUS
 62
     7
 10
78.73127357713099
 20
82.36436233741901
 30
0.0
 11
78.72429137900163
 21
82.3435756463923
 31
0.0
  0
LINE
  5
483
  8
0
  6
CONTINUOUS
 62
     7
 10
78.72429137900163
 20
82.3435756463923
 30
0.0
 11
78.71670377748903
 21
82.32380042341711
 31
0.0
  0
LINE
  5
484
  8
0
  6
CONTINUOUS
 62
     7
 10
78.71670377748903
 20
82.32380042341711
 30
0.0
 11
78.70829749366291
 21
82.30434911049669
 31
0.0
  0
LINE
  5
485
  8
0
  6
CONTINUOUS
 62
     7
 10
78.70829749366291
 20
82.30434911049669
 30
0.0
 11
78.69909348703077
 21
82.285272541266
 31
0.0
  0
LINE
  5
486
  8
0
  6
CONTINUOUS
 62
     7
 10
78.69909348703077
 20
82.285272541266
 30
0.0
 11
78.68893455023206
 21
82.26629913121239
 31
0.0
  0
LINE
  5
487
  8
0
  6
CONTINUOUS
 62
     7
 10
78.68893455023206
 20
82.26629913121239
 30
0.0
 11
78.67798087048882
 21
82.2477731903981
 31
0.0
  0
LINE
  5
488
  8
0
  6
CONTINUOUS
 62
     7
 10
78.67798087048882
 20
82.2477731903981
 30
0.0
 11
78.66607263080213
 21
82.22946806563128
 31
0.0
  0
LINE
  5
489
  8
0
  6
CONTINUOUS
 62
     7
 10
78.66607263080213
 20
82.22946806563128
 30
0.0
 11
78.65338644204446
 21
82.2116932646868
 31
0.0
  0
LINE
  5
48A
  8
0
  6
CONTINUOUS
 62
     7
 10
78.65338644204446
 20
82.2116932646868
 30
0.0
 11
78.63987960578959
 21
82.1944038217523
 31
0.0
  0
LINE
  5
48B
  8
0
  6
CONTINUOUS
 62
     7
 10
78.63987960578959
 20
82.1944038217523
 30
0.0
 11
78.62621723641853
 21
82.178373426881
 31
0.0
  0
LINE
  5
48C
  8
0
  6
CONTINUOUS
 62
     7
 10
78.62621723641853
 20
82.178373426881
 30
0.0
 11
78.6118912877959
 21
82.16292064902339
 31
0.0
  0
LINE
  5
48D
  8
0
  6
CONTINUOUS
 62
     7
 10
78.6118912877959
 20
82.16292064902339
 30
0.0
 11
78.59693836326703
 21
82.14808685989999
 31
0.0
  0
LINE
  5
48E
  8
0
  6
CONTINUOUS
 62
     7
 10
78.59693836326703
 20
82.14808685989999
 30
0.0
 11
78.58111801717865
 21
82.13366754784498
 31
0.0
  0
LINE
  5
48F
  8
0
  6
CONTINUOUS
 62
     7
 10
78.58111801717865
 20
82.13366754784498
 30
0.0
 11
78.56469745050555
 21
82.11993568432918
 31
0.0
  0
LINE
  5
490
  8
0
  6
CONTINUOUS
 62
     7
 10
78.56469745050555
 20
82.11993568432918
 30
0.0
 11
78.54744865994417
 21
82.1067301411279
 31
0.0
  0
LINE
  5
491
  8
0
  6
CONTINUOUS
 62
     7
 10
78.54744865994417
 20
82.1067301411279
 30
0.0
 11
78.52964321914662
 21
82.0942853606067
 31
0.0
  0
LINE
  5
492
  8
0
  6
CONTINUOUS
 62
     7
 10
78.52964321914662
 20
82.0942853606067
 30
0.0
 11
78.5112253915866
 21
82.08257306736601
 31
0.0
  0
LINE
  5
493
  8
0
  6
CONTINUOUS
 62
     7
 10
78.5112253915866
 20
82.08257306736601
 30
0.0
 11
78.49309899185342
 21
82.07211060204591
 31
0.0
  0
LINE
  5
494
  8
0
  6
CONTINUOUS
 62
     7
 10
78.49309899185342
 20
82.07211060204591
 30
0.0
 11
78.47453283533524
 21
82.06240991556918
 31
0.0
  0
LINE
  5
495
  8
0
  6
CONTINUOUS
 62
     7
 10
78.47453283533524
 20
82.06240991556918
 30
0.0
 11
78.45557617728115
 21
82.05349659679561
 31
0.0
  0
LINE
  5
496
  8
0
  6
CONTINUOUS
 62
     7
 10
78.45557617728115
 20
82.05349659679561
 30
0.0
 11
78.43627827294016
 21
82.04539623458449
 31
0.0
  0
LINE
  5
497
  8
0
  6
CONTINUOUS
 62
     7
 10
78.43627827294016
 20
82.04539623458449
 30
0.0
 11
78.41626774687762
 21
82.03798430656309
 31
0.0
  0
LINE
  5
498
  8
0
  6
CONTINUOUS
 62
     7
 10
78.41626774687762
 20
82.03798430656309
 30
0.0
 11
78.39594780324323
 21
82.0314360816011
 31
0.0
  0
LINE
  5
499
  8
0
  6
CONTINUOUS
 62
     7
 10
78.39594780324323
 20
82.0314360816011
 30
0.0
 11
78.375374583023
 21
82.02577051171598
 31
0.0
  0
LINE
  5
49A
  8
0
  6
CONTINUOUS
 62
     7
 10
78.375374583023
 20
82.02577051171598
 30
0.0
 11
78.35433922025949
 21
82.02094824575681
 31
0.0
  0
LINE
  5
49B
  8
0
  6
CONTINUOUS
 62
     7
 10
78.35433922025949
 20
82.02094824575681
 30
0.0
 11
78.33308999453791
 21
82.01704466579987
 31
0.0
  0
LINE
  5
49C
  8
0
  6
CONTINUOUS
 62
     7
 10
78.33308999453791
 20
82.01704466579987
 30
0.0
 11
78.31168046422724
 21
82.01407055119638
 31
0.0
  0
LINE
  5
49D
  8
0
  6
CONTINUOUS
 62
     7
 10
78.31168046422724
 20
82.01407055119638
 30
0.0
 11
78.29017180538668
 21
82.0120348167783
 31
0.0
  0
LINE
  5
49E
  8
0
  6
CONTINUOUS
 62
     7
 10
78.29017180538668
 20
82.0120348167783
 30
0.0
 11
78.26845248447465
 21
82.01093775658171
 31
0.0
  0
LINE
  5
49F
  8
0
  6
CONTINUOUS
 62
     7
 10
78.76955583264451
 20
84.24087646488931
 30
0.0
 11
78.75447046457016
 21
82.5122645005462
 31
0.0
  0
ARC
  5
4A0
  8
0
  6
CONTINUOUS
 62
     7
 10
77.50000000000001
 20
109.0
 30
0.0
 40
27.00000000000001
 50
268.3690729442571
 51
271.6309270557429
  0
ARC
  5
4A1
  8
0
  6
CONTINUOUS
 62
     7
 10
77.50000000000001
 20
109.0
 30
0.0
 40
27.0
 50
358.3690729442571
 51
1.630927055742802
  0
LINE
  5
4A2
  8
0
  6
CONTINUOUS
 62
     7
 10
104.4890622434183
 20
108.2315475155254
 30
0.0
 11
104.4880448155906
 21
108.210967018747
 31
0.0
  0
LINE
  5
4A3
  8
0
  6
CONTINUOUS
 62
     7
 10
104.4880448155906
 20
108.210967018747
 30
0.0
 11
104.4861688843124
 21
108.1904289482886
 31
0.0
  0
LINE
  5
4A4
  8
0
  6
CONTINUOUS
 62
     7
 10
104.4861688843124
 20
108.1904289482886
 30
0.0
 11
104.4834407341454
 21
108.1699866004562
 31
0.0
  0
LINE
  5
4A5
  8
0
  6
CONTINUOUS
 62
     7
 10
104.4834407341454
 20
108.1699866004562
 30
0.0
 11
104.4798666496513
 21
108.1496932715559
 31
0.0
  0
LINE
  5
4A6
  8
0
  6
CONTINUOUS
 62
     7
 10
104.4798666496513
 20
108.1496932715559
 30
0.0
 11
104.4753058900491
 21
108.1289826370112
 31
0.0
  0
LINE
  5
4A7
  8
0
  6
CONTINUOUS
 62
     7
 10
104.4753058900491
 20
108.1289826370112
 30
0.0
 11
104.4698576076819
 21
108.1084674411261
 31
0.0
  0
LINE
  5
4A8
  8
0
  6
CONTINUOUS
 62
     7
 10
104.4698576076819
 20
108.1084674411261
 30
0.0
 11
104.4635386518816
 21
108.0882034263999
 31
0.0
  0
LINE
  5
4A9
  8
0
  6
CONTINUOUS
 62
     7
 10
104.4635386518816
 20
108.0882034263999
 30
0.0
 11
104.4563658719802
 21
108.0682463353325
 31
0.0
  0
LINE
  5
4AA
  8
0
  6
CONTINUOUS
 62
     7
 10
104.4563658719802
 20
108.0682463353325
 30
0.0
 11
104.4485834511627
 21
108.0491679847972
 31
0.0
  0
LINE
  5
4AB
  8
0
  6
CONTINUOUS
 62
     7
 10
104.4485834511627
 20
108.0491679847972
 30
0.0
 11
104.4400095832442
 21
108.0304124850634
 31
0.0
  0
LINE
  5
4AC
  8
0
  6
CONTINUOUS
 62
     7
 10
104.4400095832442
 20
108.0304124850634
 30
0.0
 11
104.4306681641892
 21
108.0120271397848
 31
0.0
  0
LINE
  5
4AD
  8
0
  6
CONTINUOUS
 62
     7
 10
104.4306681641892
 20
108.0120271397848
 30
0.0
 11
104.4205830899622
 21
107.994059252615
 31
0.0
  0
LINE
  5
4AE
  8
0
  6
CONTINUOUS
 62
     7
 10
104.4205830899622
 20
107.994059252615
 30
0.0
 11
104.4094400334283
 21
107.976027992138
 31
0.0
  0
LINE
  5
4AF
  8
0
  6
CONTINUOUS
 62
     7
 10
104.4094400334283
 20
107.976027992138
 30
0.0
 11
104.3975311960602
 21
107.9584699848149
 31
0.0
  0
LINE
  5
4B0
  8
0
  6
CONTINUOUS
 62
     7
 10
104.3975311960602
 20
107.9584699848149
 30
0.0
 11
104.3848906449825
 21
107.9414310690138
 31
0.0
  0
LINE
  5
4B1
  8
0
  6
CONTINUOUS
 62
     7
 10
104.3848906449825
 20
107.9414310690138
 30
0.0
 11
104.3715524473202
 21
107.9249570831027
 31
0.0
  0
LINE
  5
4B2
  8
0
  6
CONTINUOUS
 62
     7
 10
104.3715524473202
 20
107.9249570831027
 30
0.0
 11
104.3578477353816
 21
107.9094118256488
 31
0.0
  0
LINE
  5
4B3
  8
0
  6
CONTINUOUS
 62
     7
 10
104.3578477353816
 20
107.9094118256488
 30
0.0
 11
104.3435012477748
 21
107.8944323734206
 31
0.0
  0
LINE
  5
4B4
  8
0
  6
CONTINUOUS
 62
     7
 10
104.3435012477748
 20
107.8944323734206
 30
0.0
 11
104.3285511171511
 21
107.8800551989006
 31
0.0
  0
LINE
  5
4B5
  8
0
  6
CONTINUOUS
 62
     7
 10
104.3285511171511
 20
107.8800551989006
 30
0.0
 11
104.3130354761619
 21
107.8663167745714
 31
0.0
  0
LINE
  5
4B6
  8
0
  6
CONTINUOUS
 62
     7
 10
104.3130354761619
 20
107.8663167745714
 30
0.0
 11
104.296502326124
 21
107.8528677543394
 31
0.0
  0
LINE
  5
4B7
  8
0
  6
CONTINUOUS
 62
     7
 10
104.296502326124
 20
107.8528677543394
 30
0.0
 11
104.2794014392688
 21
107.8401166800828
 31
0.0
  0
LINE
  5
4B8
  8
0
  6
CONTINUOUS
 62
     7
 10
104.2794014392688
 20
107.8401166800828
 30
0.0
 11
104.2617797157437
 21
107.8280954821215
 31
0.0
  0
LINE
  5
4B9
  8
0
  6
CONTINUOUS
 62
     7
 10
104.2617797157437
 20
107.8280954821215
 30
0.0
 11
104.2436840556962
 21
107.8168360907753
 31
0.0
  0
LINE
  5
4BA
  8
0
  6
CONTINUOUS
 62
     7
 10
104.2436840556962
 20
107.8168360907753
 30
0.0
 11
104.2254433093619
 21
107.8065184940581
 31
0.0
  0
LINE
  5
4BB
  8
0
  6
CONTINUOUS
 62
     7
 10
104.2254433093619
 20
107.8065184940581
 30
0.0
 11
104.2067765825503
 21
107.7969540076054
 31
0.0
  0
LINE
  5
4BC
  8
0
  6
CONTINUOUS
 62
     7
 10
104.2067765825503
 20
107.7969540076054
 30
0.0
 11
104.1877323019411
 21
107.7881651194944
 31
0.0
  0
LINE
  5
4BD
  8
0
  6
CONTINUOUS
 62
     7
 10
104.1877323019411
 20
107.7881651194944
 30
0.0
 11
104.1683588942136
 21
107.7801743178024
 31
0.0
  0
LINE
  5
4BE
  8
0
  6
CONTINUOUS
 62
     7
 10
104.1683588942136
 20
107.7801743178024
 30
0.0
 11
104.1481075120684
 21
107.7727973795442
 31
0.0
  0
LINE
  5
4BF
  8
0
  6
CONTINUOUS
 62
     7
 10
104.1481075120684
 20
107.7727973795442
 30
0.0
 11
104.1275441883377
 21
107.7662767760841
 31
0.0
  0
LINE
  5
4C0
  8
0
  6
CONTINUOUS
 62
     7
 10
104.1275441883377
 20
107.7662767760841
 30
0.0
 11
104.1067244097275
 21
107.7606280807279
 31
0.0
  0
LINE
  5
4C1
  8
0
  6
CONTINUOUS
 62
     7
 10
104.1067244097275
 20
107.7606280807279
 30
0.0
 11
104.085703662944
 21
107.7558668667817
 31
0.0
  0
LINE
  5
4C2
  8
0
  6
CONTINUOUS
 62
     7
 10
104.085703662944
 20
107.7558668667817
 30
0.0
 11
104.0614409439007
 21
107.7515184000639
 31
0.0
  0
LINE
  5
4C3
  8
0
  6
CONTINUOUS
 62
     7
 10
104.0614409439007
 20
107.7515184000639
 30
0.0
 11
104.0369684330493
 21
107.748340276888
 31
0.0
  0
LINE
  5
4C4
  8
0
  6
CONTINUOUS
 62
     7
 10
104.0369684330493
 20
107.748340276888
 30
0.0
 11
104.0123714962727
 21
107.7463411158209
 31
0.0
  0
LINE
  5
4C5
  8
0
  6
CONTINUOUS
 62
     7
 10
104.0123714962727
 20
107.7463411158209
 30
0.0
 11
103.9877354994538
 21
107.7455295354299
 31
0.0
  0
LINE
  5
4C6
  8
0
  6
CONTINUOUS
 62
     7
 10
103.9877354994538
 20
107.7455295354299
 30
0.0
 11
102.2591235351107
 21
107.7304441673555
 31
0.0
  0
LINE
  5
4C7
  8
0
  6
CONTINUOUS
 62
     7
 10
51.01226450054619
 20
107.7455295354299
 30
0.0
 11
50.99106911611857
 21
107.7461554105371
 31
0.0
  0
LINE
  5
4C8
  8
0
  6
CONTINUOUS
 62
     7
 10
50.99106911611857
 20
107.7461554105371
 30
0.0
 11
50.96989964967834
 21
107.7476599969943
 31
0.0
  0
LINE
  5
4C9
  8
0
  6
CONTINUOUS
 62
     7
 10
50.96989964967834
 20
107.7476599969943
 30
0.0
 11
50.94881050355222
 21
107.7500385089702
 31
0.0
  0
LINE
  5
4CA
  8
0
  6
CONTINUOUS
 62
     7
 10
50.94881050355222
 20
107.7500385089702
 30
0.0
 11
50.92785608006697
 21
107.7532861606334
 31
0.0
  0
LINE
  5
4CB
  8
0
  6
CONTINUOUS
 62
     7
 10
50.92785608006697
 20
107.7532861606334
 30
0.0
 11
50.90645587509015
 21
107.7575351094721
 31
0.0
  0
LINE
  5
4CC
  8
0
  6
CONTINUOUS
 62
     7
 10
50.90645587509015
 20
107.7575351094721
 30
0.0
 11
50.88523714315542
 21
107.7626983024381
 31
0.0
  0
LINE
  5
4CD
  8
0
  6
CONTINUOUS
 62
     7
 10
50.88523714315542
 20
107.7626983024381
 30
0.0
 11
50.86425777125778
 21
107.768761039593
 31
0.0
  0
LINE
  5
4CE
  8
0
  6
CONTINUOUS
 62
     7
 10
50.86425777125778
 20
107.768761039593
 30
0.0
 11
50.84357564639225
 21
107.7757086209984
 31
0.0
  0
LINE
  5
4CF
  8
0
  6
CONTINUOUS
 62
     7
 10
50.84357564639225
 20
107.7757086209984
 30
0.0
 11
50.82377792997318
 21
107.7833064195124
 31
0.0
  0
LINE
  5
4D0
  8
0
  6
CONTINUOUS
 62
     7
 10
50.82377792997318
 20
107.7833064195124
 30
0.0
 11
50.80429667795458
 21
107.7917289768972
 31
0.0
  0
LINE
  5
4D1
  8
0
  6
CONTINUOUS
 62
     7
 10
50.80429667795458
 20
107.7917289768972
 30
0.0
 11
50.78518252710147
 21
107.8009542005873
 31
0.0
  0
LINE
  5
4D2
  8
0
  6
CONTINUOUS
 62
     7
 10
50.78518252710147
 20
107.8009542005873
 30
0.0
 11
50.76648611417889
 21
107.8109599980172
 31
0.0
  0
LINE
  5
4D3
  8
0
  6
CONTINUOUS
 62
     7
 10
50.76648611417889
 20
107.8109599980172
 30
0.0
 11
50.747696656179
 21
107.8220689071279
 31
0.0
  0
LINE
  5
4D4
  8
0
  6
CONTINUOUS
 62
     7
 10
50.747696656179
 20
107.8220689071279
 30
0.0
 11
50.72938577770665
 21
107.8339874092504
 31
0.0
  0
LINE
  5
4D5
  8
0
  6
CONTINUOUS
 62
     7
 10
50.72938577770665
 20
107.8339874092504
 30
0.0
 11
50.71160449436378
 21
107.8466823048046
 31
0.0
  0
LINE
  5
4D6
  8
0
  6
CONTINUOUS
 62
     7
 10
50.71160449436378
 20
107.8466823048046
 30
0.0
 11
50.6944038217523
 21
107.8601203942104
 31
0.0
  0
LINE
  5
4D7
  8
0
  6
CONTINUOUS
 62
     7
 10
50.6944038217523
 20
107.8601203942104
 30
0.0
 11
50.67835553405501
 21
107.8737999733643
 31
0.0
  0
LINE
  5
4D8
  8
0
  6
CONTINUOUS
 62
     7
 10
50.67835553405501
 20
107.8737999733643
 30
0.0
 11
50.66287985104517
 21
107.8881514007795
 31
0.0
  0
LINE
  5
4D9
  8
0
  6
CONTINUOUS
 62
     7
 10
50.66287985104517
 20
107.8881514007795
 30
0.0
 11
50.64801757281754
 21
107.9031370179962
 31
0.0
  0
LINE
  5
4DA
  8
0
  6
CONTINUOUS
 62
     7
 10
50.64801757281754
 20
107.9031370179962
 30
0.0
 11
50.63380949946686
 21
107.9187191665545
 31
0.0
  0
LINE
  5
4DB
  8
0
  6
CONTINUOUS
 62
     7
 10
50.63380949946686
 20
107.9187191665545
 30
0.0
 11
50.61987977840118
 21
107.9353756084876
 31
0.0
  0
LINE
  5
4DC
  8
0
  6
CONTINUOUS
 62
     7
 10
50.61987977840118
 20
107.9353756084876
 30
0.0
 11
50.60667226724378
 21
107.9526361211013
 31
0.0
  0
LINE
  5
4DD
  8
0
  6
CONTINUOUS
 62
     7
 10
50.60667226724378
 20
107.9526361211013
 30
0.0
 11
50.59422426417269
 21
107.9704520169063
 31
0.0
  0
LINE
  5
4DE
  8
0
  6
CONTINUOUS
 62
     7
 10
50.59422426417269
 20
107.9704520169063
 30
0.0
 11
50.58257306736595
 21
107.9887746084134
 31
0.0
  0
LINE
  5
4DF
  8
0
  6
CONTINUOUS
 62
     7
 10
50.58257306736595
 20
107.9887746084134
 30
0.0
 11
50.57214799174056
 21
108.0068329416332
 31
0.0
  0
LINE
  5
4E0
  8
0
  6
CONTINUOUS
 62
     7
 10
50.57214799174056
 20
108.0068329416332
 30
0.0
 11
50.56247901199153
 21
108.0253278299248
 31
0.0
  0
LINE
  5
4E1
  8
0
  6
CONTINUOUS
 62
     7
 10
50.56247901199153
 20
108.0253278299248
 30
0.0
 11
50.55359144855409
 21
108.0442105730721
 31
0.0
  0
LINE
  5
4E2
  8
0
  6
CONTINUOUS
 62
     7
 10
50.55359144855409
 20
108.0442105730721
 30
0.0
 11
50.54551062186351
 21
108.0634324708593
 31
0.0
  0
LINE
  5
4E3
  8
0
  6
CONTINUOUS
 62
     7
 10
50.54551062186351
 20
108.0634324708593
 30
0.0
 11
50.53804443463268
 21
108.083562134611
 31
0.0
  0
LINE
  5
4E4
  8
0
  6
CONTINUOUS
 62
     7
 10
50.53804443463268
 20
108.083562134611
 30
0.0
 11
50.53144995073038
 21
108.1040151716612
 31
0.0
  0
LINE
  5
4E5
  8
0
  6
CONTINUOUS
 62
     7
 10
50.53144995073038
 20
108.1040151716612
 30
0.0
 11
50.52574520836797
 21
108.1247339355308
 31
0.0
  0
LINE
  5
4E6
  8
0
  6
CONTINUOUS
 62
     7
 10
50.52574520836797
 20
108.1247339355308
 30
0.0
 11
50.52094824575676
 21
108.1456607797406
 31
0.0
  0
LINE
  5
4E7
  8
0
  6
CONTINUOUS
 62
     7
 10
50.52094824575676
 20
108.1456607797406
 30
0.0
 11
50.51704139981961
 21
108.1669375723598
 31
0.0
  0
LINE
  5
4E8
  8
0
  6
CONTINUOUS
 62
     7
 10
50.51704139981961
 20
108.1669375723598
 30
0.0
 11
50.51406567724661
 21
108.1883853785984
 31
0.0
  0
LINE
  5
4E9
  8
0
  6
CONTINUOUS
 62
     7
 10
50.51406567724661
 20
108.1883853785984
 30
0.0
 11
50.51202861663494
 21
108.2099425693542
 31
0.0
  0
LINE
  5
4EA
  8
0
  6
CONTINUOUS
 62
     7
 10
50.51202861663494
 20
108.2099425693542
 30
0.0
 11
50.51093775658176
 21
108.2315475155254
 31
0.0
  0
LINE
  5
4EB
  8
0
  6
CONTINUOUS
 62
     7
 10
52.74087646488928
 20
107.7304441673555
 30
0.0
 11
51.01226450054619
 21
107.7455295354299
 31
0.0
  0
LINE
  5
4EC
  8
0
  6
CONTINUOUS
 62
     7
 10
50.51093775658176
 20
109.7684524844747
 30
0.0
 11
50.5119525518866
 21
109.7890091578946
 31
0.0
  0
LINE
  5
4ED
  8
0
  6
CONTINUOUS
 62
     7
 10
50.5119525518866
 20
109.7890091578946
 30
0.0
 11
50.51382248288833
 21
109.8095147185583
 31
0.0
  0
LINE
  5
4EE
  8
0
  6
CONTINUOUS
 62
     7
 10
50.51382248288833
 20
109.8095147185583
 30
0.0
 11
50.5165424483457
 21
109.8299159172738
 31
0.0
  0
LINE
  5
4EF
  8
0
  6
CONTINUOUS
 62
     7
 10
50.5165424483457
 20
109.8299159172738
 30
0.0
 11
50.52017384549185
 21
109.8505102354079
 31
0.0
  0
LINE
  5
4F0
  8
0
  6
CONTINUOUS
 62
     7
 10
50.52017384549185
 20
109.8505102354079
 30
0.0
 11
50.52467164587772
 21
109.8709328473837
 31
0.0
  0
LINE
  5
4F1
  8
0
  6
CONTINUOUS
 62
     7
 10
50.52467164587772
 20
109.8709328473837
 30
0.0
 11
50.53011235563639
 21
109.8914398967255
 31
0.0
  0
LINE
  5
4F2
  8
0
  6
CONTINUOUS
 62
     7
 10
50.53011235563639
 20
109.8914398967255
 30
0.0
 11
50.53642540720149
 21
109.911695419998
 31
0.0
  0
LINE
  5
4F3
  8
0
  6
CONTINUOUS
 62
     7
 10
50.53642540720149
 20
109.911695419998
 30
0.0
 11
50.54363412801981
 21
109.9317536646676
 31
0.0
  0
LINE
  5
4F4
  8
0
  6
CONTINUOUS
 62
     7
 10
50.54363412801981
 20
109.9317536646676
 30
0.0
 11
50.55144610260219
 21
109.9509003166987
 31
0.0
  0
LINE
  5
4F5
  8
0
  6
CONTINUOUS
 62
     7
 10
50.55144610260219
 20
109.9509003166987
 30
0.0
 11
50.56005522655511
 21
109.9697217214186
 31
0.0
  0
LINE
  5
4F6
  8
0
  6
CONTINUOUS
 62
     7
 10
50.56005522655511
 20
109.9697217214186
 30
0.0
 11
50.56943732986586
 21
109.9881700691689
 31
0.0
  0
LINE
  5
4F7
  8
0
  6
CONTINUOUS
 62
     7
 10
50.56943732986586
 20
109.9881700691689
 30
0.0
 11
50.57956824252166
 21
110.0061975502911
 31
0.0
  0
LINE
  5
4F8
  8
0
  6
CONTINUOUS
 62
     7
 10
50.57956824252166
 20
110.0061975502911
 30
0.0
 11
50.59068156096237
 21
110.0241597249904
 31
0.0
  0
LINE
  5
4F9
  8
0
  6
CONTINUOUS
 62
     7
 10
50.59068156096237
 20
110.0241597249904
 30
0.0
 11
50.60255503401609
 21
110.0416515752143
 31
0.0
  0
LINE
  5
4FA
  8
0
  6
CONTINUOUS
 62
     7
 10
50.60255503401609
 20
110.0416515752143
 30
0.0
 11
50.61515493886214
 21
110.0586277546282
 31
0.0
  0
LINE
  5
4FB
  8
0
  6
CONTINUOUS
 62
     7
 10
50.61515493886214
 20
110.0586277546282
 30
0.0
 11
50.62844755267979
 21
110.0750429168974
 31
0.0
  0
LINE
  5
4FC
  8
0
  6
CONTINUOUS
 62
     7
 10
50.62844755267979
 20
110.0750429168974
 30
0.0
 11
50.6421356833785
 21
110.0905714673077
 31
0.0
  0
LINE
  5
4FD
  8
0
  6
CONTINUOUS
 62
     7
 10
50.6421356833785
 20
110.0905714673077
 30
0.0
 11
50.65645771976573
 21
110.1055295858861
 31
0.0
  0
LINE
  5
4FE
  8
0
  6
CONTINUOUS
 62
     7
 10
50.65645771976573
 20
110.1055295858861
 30
0.0
 11
50.67137636785179
 21
110.1198800975827
 31
0.0
  0
LINE
  5
4FF
  8
0
  6
CONTINUOUS
 62
     7
 10
50.67137636785179
 20
110.1198800975827
 30
0.0
 11
50.68711952684156
 21
110.133814568491
 31
0.0
  0
LINE
  5
500
  8
0
  6
CONTINUOUS
 62
     7
 10
50.68711952684156
 20
110.133814568491
 30
0.0
 11
50.70342938500681
 21
110.1470812862111
 31
0.0
  0
LINE
  5
501
  8
0
  6
CONTINUOUS
 62
     7
 10
50.70342938500681
 20
110.1470812862111
 30
0.0
 11
50.72051966132332
 21
110.1598306625724
 31
0.0
  0
LINE
  5
502
  8
0
  6
CONTINUOUS
 62
     7
 10
50.72051966132332
 20
110.1598306625724
 30
0.0
 11
50.7381317575686
 21
110.1718489386327
 31
0.0
  0
LINE
  5
503
  8
0
  6
CONTINUOUS
 62
     7
 10
50.7381317575686
 20
110.1718489386327
 30
0.0
 11
50.75631594430382
 21
110.1831639092248
 31
0.0
  0
LINE
  5
504
  8
0
  6
CONTINUOUS
 62
     7
 10
50.75631594430382
 20
110.1831639092248
 30
0.0
 11
50.77453530155832
 21
110.1934710089971
 31
0.0
  0
LINE
  5
505
  8
0
  6
CONTINUOUS
 62
     7
 10
50.77453530155832
 20
110.1934710089971
 30
0.0
 11
50.7931715783559
 21
110.2030231746577
 31
0.0
  0
LINE
  5
506
  8
0
  6
CONTINUOUS
 62
     7
 10
50.7931715783559
 20
110.2030231746577
 30
0.0
 11
50.81217692410286
 21
110.2117970073257
 31
0.0
  0
LINE
  5
507
  8
0
  6
CONTINUOUS
 62
     7
 10
50.81217692410286
 20
110.2117970073257
 30
0.0
 11
50.83183308103721
 21
110.2199000169282
 31
0.0
  0
LINE
  5
508
  8
0
  6
CONTINUOUS
 62
     7
 10
50.83183308103721
 20
110.2199000169282
 30
0.0
 11
50.8518100141083
 21
110.2271764121758
 31
0.0
  0
LINE
  5
509
  8
0
  6
CONTINUOUS
 62
     7
 10
50.8518100141083
 20
110.2271764121758
 30
0.0
 11
50.87236254945822
 21
110.2336988992474
 31
0.0
  0
LINE
  5
50A
  8
0
  6
CONTINUOUS
 62
     7
 10
50.87236254945822
 20
110.2336988992474
 30
0.0
 11
50.89317210209308
 21
110.2393480144326
 31
0.0
  0
LINE
  5
50B
  8
0
  6
CONTINUOUS
 62
     7
 10
50.89317210209308
 20
110.2393480144326
 30
0.0
 11
50.91429633705607
 21
110.2441331332184
 31
0.0
  0
LINE
  5
50C
  8
0
  6
CONTINUOUS
 62
     7
 10
50.91429633705607
 20
110.2441331332184
 30
0.0
 11
50.93843129460652
 21
110.2484649015401
 31
0.0
  0
LINE
  5
50D
  8
0
  6
CONTINUOUS
 62
     7
 10
50.93843129460652
 20
110.2484649015401
 30
0.0
 11
50.96288823706752
 21
110.2516496625233
 31
0.0
  0
LINE
  5
50E
  8
0
  6
CONTINUOUS
 62
     7
 10
50.96288823706752
 20
110.2516496625233
 30
0.0
 11
50.98747018514202
 21
110.253652878851
 31
0.0
  0
LINE
  5
50F
  8
0
  6
CONTINUOUS
 62
     7
 10
50.98747018514202
 20
110.253652878851
 30
0.0
 11
51.01226450054619
 21
110.2544704645702
 31
0.0
  0
LINE
  5
510
  8
0
  6
CONTINUOUS
 62
     7
 10
51.01226450054619
 20
110.2544704645702
 30
0.0
 11
52.74087646488928
 21
110.2695558326445
 31
0.0
  0
LINE
  5
511
  8
0
  6
CONTINUOUS
 62
     7
 10
103.9877354994538
 20
110.2544704645702
 30
0.0
 11
104.0089308838814
 21
110.253844589463
 31
0.0
  0
LINE
  5
512
  8
0
  6
CONTINUOUS
 62
     7
 10
104.0089308838814
 20
110.253844589463
 30
0.0
 11
104.0301003503217
 21
110.2523400030058
 31
0.0
  0
LINE
  5
513
  8
0
  6
CONTINUOUS
 62
     7
 10
104.0301003503217
 20
110.2523400030058
 30
0.0
 11
104.0511894964478
 21
110.2499614910299
 31
0.0
  0
LINE
  5
514
  8
0
  6
CONTINUOUS
 62
     7
 10
104.0511894964478
 20
110.2499614910299
 30
0.0
 11
104.0721439199331
 21
110.2467138393667
 31
0.0
  0
LINE
  5
515
  8
0
  6
CONTINUOUS
 62
     7
 10
104.0721439199331
 20
110.2467138393667
 30
0.0
 11
104.0935441249099
 21
110.2424648905279
 31
0.0
  0
LINE
  5
516
  8
0
  6
CONTINUOUS
 62
     7
 10
104.0935441249099
 20
110.2424648905279
 30
0.0
 11
104.1147628568446
 21
110.2373016975619
 31
0.0
  0
LINE
  5
517
  8
0
  6
CONTINUOUS
 62
     7
 10
104.1147628568446
 20
110.2373016975619
 30
0.0
 11
104.1357422287422
 21
110.231238960407
 31
0.0
  0
LINE
  5
518
  8
0
  6
CONTINUOUS
 62
     7
 10
104.1357422287422
 20
110.231238960407
 30
0.0
 11
104.1564243536078
 21
110.2242913790016
 31
0.0
  0
LINE
  5
519
  8
0
  6
CONTINUOUS
 62
     7
 10
104.1564243536078
 20
110.2242913790016
 30
0.0
 11
104.1762220700269
 21
110.2166935804876
 31
0.0
  0
LINE
  5
51A
  8
0
  6
CONTINUOUS
 62
     7
 10
104.1762220700269
 20
110.2166935804876
 30
0.0
 11
104.1957033220454
 21
110.2082710231029
 31
0.0
  0
LINE
  5
51B
  8
0
  6
CONTINUOUS
 62
     7
 10
104.1957033220454
 20
110.2082710231029
 30
0.0
 11
104.2148174728986
 21
110.1990457994127
 31
0.0
  0
LINE
  5
51C
  8
0
  6
CONTINUOUS
 62
     7
 10
104.2148174728986
 20
110.1990457994127
 30
0.0
 11
104.2335138858211
 21
110.1890400019828
 31
0.0
  0
LINE
  5
51D
  8
0
  6
CONTINUOUS
 62
     7
 10
104.2335138858211
 20
110.1890400019828
 30
0.0
 11
104.252303343821
 21
110.1779310928722
 31
0.0
  0
LINE
  5
51E
  8
0
  6
CONTINUOUS
 62
     7
 10
104.252303343821
 20
110.1779310928722
 30
0.0
 11
104.2706142222934
 21
110.1660125907497
 31
0.0
  0
LINE
  5
51F
  8
0
  6
CONTINUOUS
 62
     7
 10
104.2706142222934
 20
110.1660125907497
 30
0.0
 11
104.2883955056362
 21
110.1533176951954
 31
0.0
  0
LINE
  5
520
  8
0
  6
CONTINUOUS
 62
     7
 10
104.2883955056362
 20
110.1533176951954
 30
0.0
 11
104.3055961782477
 21
110.1398796057896
 31
0.0
  0
LINE
  5
521
  8
0
  6
CONTINUOUS
 62
     7
 10
104.3055961782477
 20
110.1398796057896
 30
0.0
 11
104.321644465945
 21
110.1262000266357
 31
0.0
  0
LINE
  5
522
  8
0
  6
CONTINUOUS
 62
     7
 10
104.321644465945
 20
110.1262000266357
 30
0.0
 11
104.3371201489549
 21
110.1118485992205
 31
0.0
  0
LINE
  5
523
  8
0
  6
CONTINUOUS
 62
     7
 10
104.3371201489549
 20
110.1118485992205
 30
0.0
 11
104.3519824271825
 21
110.0968629820038
 31
0.0
  0
LINE
  5
524
  8
0
  6
CONTINUOUS
 62
     7
 10
104.3519824271825
 20
110.0968629820038
 30
0.0
 11
104.3661905005332
 21
110.0812808334455
 31
0.0
  0
LINE
  5
525
  8
0
  6
CONTINUOUS
 62
     7
 10
104.3661905005332
 20
110.0812808334455
 30
0.0
 11
104.3801202215988
 21
110.0646243915124
 31
0.0
  0
LINE
  5
526
  8
0
  6
CONTINUOUS
 62
     7
 10
104.3801202215988
 20
110.0646243915124
 30
0.0
 11
104.3933277327562
 21
110.0473638788988
 31
0.0
  0
LINE
  5
527
  8
0
  6
CONTINUOUS
 62
     7
 10
104.3933277327562
 20
110.0473638788988
 30
0.0
 11
104.4057757358273
 21
110.0295479830937
 31
0.0
  0
LINE
  5
528
  8
0
  6
CONTINUOUS
 62
     7
 10
104.4057757358273
 20
110.0295479830937
 30
0.0
 11
104.4174269326341
 21
110.0112253915866
 31
0.0
  0
LINE
  5
529
  8
0
  6
CONTINUOUS
 62
     7
 10
104.4174269326341
 20
110.0112253915866
 30
0.0
 11
104.4278520082595
 21
109.9931670583668
 31
0.0
  0
LINE
  5
52A
  8
0
  6
CONTINUOUS
 62
     7
 10
104.4278520082595
 20
109.9931670583668
 30
0.0
 11
104.4375209880085
 21
109.9746721700753
 31
0.0
  0
LINE
  5
52B
  8
0
  6
CONTINUOUS
 62
     7
 10
104.4375209880085
 20
109.9746721700753
 30
0.0
 11
104.4464085514459
 21
109.9557894269279
 31
0.0
  0
LINE
  5
52C
  8
0
  6
CONTINUOUS
 62
     7
 10
104.4464085514459
 20
109.9557894269279
 30
0.0
 11
104.4544893781365
 21
109.9365675291408
 31
0.0
  0
LINE
  5
52D
  8
0
  6
CONTINUOUS
 62
     7
 10
104.4544893781365
 20
109.9365675291408
 30
0.0
 11
104.4619555653673
 21
109.916437865389
 31
0.0
  0
LINE
  5
52E
  8
0
  6
CONTINUOUS
 62
     7
 10
104.4619555653673
 20
109.916437865389
 30
0.0
 11
104.4685500492696
 21
109.8959848283388
 31
0.0
  0
LINE
  5
52F
  8
0
  6
CONTINUOUS
 62
     7
 10
104.4685500492696
 20
109.8959848283388
 30
0.0
 11
104.474254791632
 21
109.8752660644693
 31
0.0
  0
LINE
  5
530
  8
0
  6
CONTINUOUS
 62
     7
 10
104.474254791632
 20
109.8752660644693
 30
0.0
 11
104.4790517542433
 21
109.8543392202595
 31
0.0
  0
LINE
  5
531
  8
0
  6
CONTINUOUS
 62
     7
 10
104.4790517542433
 20
109.8543392202595
 30
0.0
 11
104.4829586001804
 21
109.8330624276402
 31
0.0
  0
LINE
  5
532
  8
0
  6
CONTINUOUS
 62
     7
 10
104.4829586001804
 20
109.8330624276402
 30
0.0
 11
104.4859343227534
 21
109.8116146214017
 31
0.0
  0
LINE
  5
533
  8
0
  6
CONTINUOUS
 62
     7
 10
104.4859343227534
 20
109.8116146214017
 30
0.0
 11
104.4879713833651
 21
109.7900574306458
 31
0.0
  0
LINE
  5
534
  8
0
  6
CONTINUOUS
 62
     7
 10
104.4879713833651
 20
109.7900574306458
 30
0.0
 11
104.4890622434183
 21
109.7684524844746
 31
0.0
  0
LINE
  5
535
  8
0
  6
CONTINUOUS
 62
     7
 10
102.2591235351107
 20
110.2695558326445
 30
0.0
 11
103.9877354994538
 21
110.2544704645702
 31
0.0
  0
ARC
  5
536
  8
0
  6
CONTINUOUS
 62
     7
 10
77.50000000000001
 20
109.0
 30
0.0
 40
27.0
 50
178.369072944257
 51
181.6309270557429
  0
LINE
  5
537
  8
0
  6
CONTINUOUS
 62
     7
 10
78.26845248447465
 20
135.9890622434183
 30
0.0
 11
78.28903298125304
 21
135.9880448155906
 31
0.0
  0
LINE
  5
538
  8
0
  6
CONTINUOUS
 62
     7
 10
78.28903298125304
 20
135.9880448155906
 30
0.0
 11
78.30957105171143
 21
135.9861688843124
 31
0.0
  0
LINE
  5
539
  8
0
  6
CONTINUOUS
 62
     7
 10
78.30957105171143
 20
135.9861688843124
 30
0.0
 11
78.33001339954382
 21
135.9834407341454
 31
0.0
  0
LINE
  5
53A
  8
0
  6
CONTINUOUS
 62
     7
 10
78.33001339954382
 20
135.9834407341454
 30
0.0
 11
78.35030672844417
 21
135.9798666496513
 31
0.0
  0
LINE
  5
53B
  8
0
  6
CONTINUOUS
 62
     7
 10
78.35030672844417
 20
135.9798666496513
 30
0.0
 11
78.3710173629888
 21
135.9753058900491
 31
0.0
  0
LINE
  5
53C
  8
0
  6
CONTINUOUS
 62
     7
 10
78.3710173629888
 20
135.9753058900491
 30
0.0
 11
78.39153255887398
 21
135.9698576076819
 31
0.0
  0
LINE
  5
53D
  8
0
  6
CONTINUOUS
 62
     7
 10
78.39153255887398
 20
135.9698576076819
 30
0.0
 11
78.41179657360009
 21
135.9635386518817
 31
0.0
  0
LINE
  5
53E
  8
0
  6
CONTINUOUS
 62
     7
 10
78.41179657360009
 20
135.9635386518817
 30
0.0
 11
78.43175366466757
 21
135.9563658719802
 31
0.0
  0
LINE
  5
53F
  8
0
  6
CONTINUOUS
 62
     7
 10
78.43175366466757
 20
135.9563658719802
 30
0.0
 11
78.45083201520289
 21
135.9485834511627
 31
0.0
  0
LINE
  5
540
  8
0
  6
CONTINUOUS
 62
     7
 10
78.45083201520289
 20
135.9485834511627
 30
0.0
 11
78.46958751493662
 21
135.9400095832442
 31
0.0
  0
LINE
  5
541
  8
0
  6
CONTINUOUS
 62
     7
 10
78.46958751493662
 20
135.9400095832442
 30
0.0
 11
78.48797286021521
 21
135.9306681641893
 31
0.0
  0
LINE
  5
542
  8
0
  6
CONTINUOUS
 62
     7
 10
78.48797286021521
 20
135.9306681641893
 30
0.0
 11
78.50594074738503
 21
135.9205830899622
 31
0.0
  0
LINE
  5
543
  8
0
  6
CONTINUOUS
 62
     7
 10
78.50594074738503
 20
135.9205830899622
 30
0.0
 11
78.52397200786206
 21
135.9094400334283
 31
0.0
  0
LINE
  5
544
  8
0
  6
CONTINUOUS
 62
     7
 10
78.52397200786206
 20
135.9094400334283
 30
0.0
 11
78.54153001518516
 21
135.8975311960601
 31
0.0
  0
LINE
  5
545
  8
0
  6
CONTINUOUS
 62
     7
 10
78.54153001518516
 20
135.8975311960601
 30
0.0
 11
78.55856893098628
 21
135.8848906449825
 31
0.0
  0
LINE
  5
546
  8
0
  6
CONTINUOUS
 62
     7
 10
78.55856893098628
 20
135.8848906449825
 30
0.0
 11
78.57504291689739
 21
135.8715524473203
 31
0.0
  0
LINE
  5
547
  8
0
  6
CONTINUOUS
 62
     7
 10
78.57504291689739
 20
135.8715524473203
 30
0.0
 11
78.59058817435124
 21
135.8578477353815
 31
0.0
  0
LINE
  5
548
  8
0
  6
CONTINUOUS
 62
     7
 10
78.59058817435124
 20
135.8578477353815
 30
0.0
 11
78.60556762657944
 21
135.8435012477748
 31
0.0
  0
LINE
  5
549
  8
0
  6
CONTINUOUS
 62
     7
 10
78.60556762657944
 20
135.8435012477748
 30
0.0
 11
78.61994480109941
 21
135.8285511171511
 31
0.0
  0
LINE
  5
54A
  8
0
  6
CONTINUOUS
 62
     7
 10
78.61994480109941
 20
135.8285511171511
 30
0.0
 11
78.6336832254286
 21
135.8130354761618
 31
0.0
  0
LINE
  5
54B
  8
0
  6
CONTINUOUS
 62
     7
 10
78.6336832254286
 20
135.8130354761618
 30
0.0
 11
78.64713224566063
 21
135.796502326124
 31
0.0
  0
LINE
  5
54C
  8
0
  6
CONTINUOUS
 62
     7
 10
78.64713224566063
 20
135.796502326124
 30
0.0
 11
78.65988331991726
 21
135.7794014392688
 31
0.0
  0
LINE
  5
54D
  8
0
  6
CONTINUOUS
 62
     7
 10
78.65988331991726
 20
135.7794014392688
 30
0.0
 11
78.6719045178786
 21
135.7617797157437
 31
0.0
  0
LINE
  5
54E
  8
0
  6
CONTINUOUS
 62
     7
 10
78.6719045178786
 20
135.7617797157437
 30
0.0
 11
78.68316390922476
 21
135.7436840556962
 31
0.0
  0
LINE
  5
54F
  8
0
  6
CONTINUOUS
 62
     7
 10
78.68316390922476
 20
135.7436840556962
 30
0.0
 11
78.69348150594193
 21
135.7254433093619
 31
0.0
  0
LINE
  5
550
  8
0
  6
CONTINUOUS
 62
     7
 10
78.69348150594193
 20
135.7254433093619
 30
0.0
 11
78.70304599239462
 21
135.7067765825504
 31
0.0
  0
LINE
  5
551
  8
0
  6
CONTINUOUS
 62
     7
 10
78.70304599239462
 20
135.7067765825504
 30
0.0
 11
78.71183488050559
 21
135.6877323019411
 31
0.0
  0
LINE
  5
552
  8
0
  6
CONTINUOUS
 62
     7
 10
78.71183488050559
 20
135.6877323019411
 30
0.0
 11
78.7198256821977
 21
135.6683588942138
 31
0.0
  0
LINE
  5
553
  8
0
  6
CONTINUOUS
 62
     7
 10
78.7198256821977
 20
135.6683588942138
 30
0.0
 11
78.72720262045584
 21
135.6481075120683
 31
0.0
  0
LINE
  5
554
  8
0
  6
CONTINUOUS
 62
     7
 10
78.72720262045584
 20
135.6481075120683
 30
0.0
 11
78.73372322391597
 21
135.6275441883377
 31
0.0
  0
LINE
  5
555
  8
0
  6
CONTINUOUS
 62
     7
 10
78.73372322391597
 20
135.6275441883377
 30
0.0
 11
78.73937191927213
 21
135.6067244097275
 31
0.0
  0
LINE
  5
556
  8
0
  6
CONTINUOUS
 62
     7
 10
78.73937191927213
 20
135.6067244097275
 30
0.0
 11
78.74413313321836
 21
135.585703662944
 31
0.0
  0
LINE
  5
557
  8
0
  6
CONTINUOUS
 62
     7
 10
78.74413313321836
 20
135.585703662944
 30
0.0
 11
78.74848159993617
 21
135.5614409439007
 31
0.0
  0
LINE
  5
558
  8
0
  6
CONTINUOUS
 62
     7
 10
78.74848159993617
 20
135.5614409439007
 30
0.0
 11
78.75165972311208
 21
135.5369684330494
 31
0.0
  0
LINE
  5
559
  8
0
  6
CONTINUOUS
 62
     7
 10
78.75165972311208
 20
135.5369684330494
 30
0.0
 11
78.75365888417909
 21
135.5123714962727
 31
0.0
  0
LINE
  5
55A
  8
0
  6
CONTINUOUS
 62
     7
 10
78.75365888417909
 20
135.5123714962727
 30
0.0
 11
78.75447046457018
 21
135.4877354994537
 31
0.0
  0
LINE
  5
55B
  8
0
  6
CONTINUOUS
 62
     7
 10
78.75447046457018
 20
135.4877354994537
 30
0.0
 11
78.76955583264453
 21
133.7591235351107
 31
0.0
  0
ARC
  5
55C
  8
0
  6
CONTINUOUS
 62
     7
 10
77.50000000000001
 20
109.0
 30
0.0
 40
27.00000000000001
 50
88.36907294425703
 51
91.6309270557428
  0
LINE
  5
55D
  8
0
  6
CONTINUOUS
 62
     7
 10
76.24552953542984
 20
135.4877354994537
 30
0.0
 11
76.24615541053707
 21
135.5089308838814
 31
0.0
  0
LINE
  5
55E
  8
0
  6
CONTINUOUS
 62
     7
 10
76.24615541053707
 20
135.5089308838814
 30
0.0
 11
76.24765999699427
 21
135.5301003503216
 31
0.0
  0
LINE
  5
55F
  8
0
  6
CONTINUOUS
 62
     7
 10
76.24765999699427
 20
135.5301003503216
 30
0.0
 11
76.25003850897015
 21
135.5511894964478
 31
0.0
  0
LINE
  5
560
  8
0
  6
CONTINUOUS
 62
     7
 10
76.25003850897015
 20
135.5511894964478
 30
0.0
 11
76.25328616063338
 21
135.5721439199331
 31
0.0
  0
LINE
  5
561
  8
0
  6
CONTINUOUS
 62
     7
 10
76.25328616063338
 20
135.5721439199331
 30
0.0
 11
76.25753510947209
 21
135.5935441249099
 31
0.0
  0
LINE
  5
562
  8
0
  6
CONTINUOUS
 62
     7
 10
76.25753510947209
 20
135.5935441249099
 30
0.0
 11
76.26269830243811
 21
135.6147628568446
 31
0.0
  0
LINE
  5
563
  8
0
  6
CONTINUOUS
 62
     7
 10
76.26269830243811
 20
135.6147628568446
 30
0.0
 11
76.26876103959303
 21
135.6357422287422
 31
0.0
  0
LINE
  5
564
  8
0
  6
CONTINUOUS
 62
     7
 10
76.26876103959303
 20
135.6357422287422
 30
0.0
 11
76.2757086209984
 21
135.6564243536078
 31
0.0
  0
LINE
  5
565
  8
0
  6
CONTINUOUS
 62
     7
 10
76.2757086209984
 20
135.6564243536078
 30
0.0
 11
76.28330641951239
 21
135.6762220700268
 31
0.0
  0
LINE
  5
566
  8
0
  6
CONTINUOUS
 62
     7
 10
76.28330641951239
 20
135.6762220700268
 30
0.0
 11
76.29172897689716
 21
135.6957033220455
 31
0.0
  0
LINE
  5
567
  8
0
  6
CONTINUOUS
 62
     7
 10
76.29172897689716
 20
135.6957033220455
 30
0.0
 11
76.30095420058727
 21
135.7148174728985
 31
0.0
  0
LINE
  5
568
  8
0
  6
CONTINUOUS
 62
     7
 10
76.30095420058727
 20
135.7148174728985
 30
0.0
 11
76.31095999801724
 21
135.7335138858212
 31
0.0
  0
LINE
  5
569
  8
0
  6
CONTINUOUS
 62
     7
 10
76.31095999801724
 20
135.7335138858212
 30
0.0
 11
76.32206890712787
 21
135.752303343821
 31
0.0
  0
LINE
  5
56A
  8
0
  6
CONTINUOUS
 62
     7
 10
76.32206890712787
 20
135.752303343821
 30
0.0
 11
76.33398740925037
 21
135.7706142222933
 31
0.0
  0
LINE
  5
56B
  8
0
  6
CONTINUOUS
 62
     7
 10
76.33398740925037
 20
135.7706142222933
 30
0.0
 11
76.3466823048046
 21
135.7883955056363
 31
0.0
  0
LINE
  5
56C
  8
0
  6
CONTINUOUS
 62
     7
 10
76.3466823048046
 20
135.7883955056363
 30
0.0
 11
76.36012039421043
 21
135.8055961782478
 31
0.0
  0
LINE
  5
56D
  8
0
  6
CONTINUOUS
 62
     7
 10
76.36012039421043
 20
135.8055961782478
 30
0.0
 11
76.3737999733643
 21
135.821644465945
 31
0.0
  0
LINE
  5
56E
  8
0
  6
CONTINUOUS
 62
     7
 10
76.3737999733643
 20
135.821644465945
 30
0.0
 11
76.3881514007795
 21
135.8371201489549
 31
0.0
  0
LINE
  5
56F
  8
0
  6
CONTINUOUS
 62
     7
 10
76.3881514007795
 20
135.8371201489549
 30
0.0
 11
76.4031370179962
 21
135.8519824271825
 31
0.0
  0
LINE
  5
570
  8
0
  6
CONTINUOUS
 62
     7
 10
76.4031370179962
 20
135.8519824271825
 30
0.0
 11
76.4187191665545
 21
135.8661905005332
 31
0.0
  0
LINE
  5
571
  8
0
  6
CONTINUOUS
 62
     7
 10
76.4187191665545
 20
135.8661905005332
 30
0.0
 11
76.43537560848763
 21
135.8801202215988
 31
0.0
  0
LINE
  5
572
  8
0
  6
CONTINUOUS
 62
     7
 10
76.43537560848763
 20
135.8801202215988
 30
0.0
 11
76.45263612110129
 21
135.8933277327562
 31
0.0
  0
LINE
  5
573
  8
0
  6
CONTINUOUS
 62
     7
 10
76.45263612110129
 20
135.8933277327562
 30
0.0
 11
76.47045201690631
 21
135.9057757358273
 31
0.0
  0
LINE
  5
574
  8
0
  6
CONTINUOUS
 62
     7
 10
76.47045201690631
 20
135.9057757358273
 30
0.0
 11
76.48877460841341
 21
135.9174269326341
 31
0.0
  0
LINE
  5
575
  8
0
  6
CONTINUOUS
 62
     7
 10
76.48877460841341
 20
135.9174269326341
 30
0.0
 11
76.50683294163322
 21
135.9278520082595
 31
0.0
  0
LINE
  5
576
  8
0
  6
CONTINUOUS
 62
     7
 10
76.50683294163322
 20
135.9278520082595
 30
0.0
 11
76.52532782992476
 21
135.9375209880085
 31
0.0
  0
LINE
  5
577
  8
0
  6
CONTINUOUS
 62
     7
 10
76.52532782992476
 20
135.9375209880085
 30
0.0
 11
76.54421057307209
 21
135.9464085514459
 31
0.0
  0
LINE
  5
578
  8
0
  6
CONTINUOUS
 62
     7
 10
76.54421057307209
 20
135.9464085514459
 30
0.0
 11
76.56343247085924
 21
135.9544893781365
 31
0.0
  0
LINE
  5
579
  8
0
  6
CONTINUOUS
 62
     7
 10
76.56343247085924
 20
135.9544893781365
 30
0.0
 11
76.58356213461104
 21
135.9619555653674
 31
0.0
  0
LINE
  5
57A
  8
0
  6
CONTINUOUS
 62
     7
 10
76.58356213461104
 20
135.9619555653674
 30
0.0
 11
76.60401517166122
 21
135.9685500492697
 31
0.0
  0
LINE
  5
57B
  8
0
  6
CONTINUOUS
 62
     7
 10
76.60401517166122
 20
135.9685500492697
 30
0.0
 11
76.62473393553076
 21
135.9742547916321
 31
0.0
  0
LINE
  5
57C
  8
0
  6
CONTINUOUS
 62
     7
 10
76.62473393553076
 20
135.9742547916321
 30
0.0
 11
76.64566077974054
 21
135.9790517542432
 31
0.0
  0
LINE
  5
57D
  8
0
  6
CONTINUOUS
 62
     7
 10
76.64566077974054
 20
135.9790517542432
 30
0.0
 11
76.66693757235983
 21
135.9829586001804
 31
0.0
  0
LINE
  5
57E
  8
0
  6
CONTINUOUS
 62
     7
 10
76.66693757235983
 20
135.9829586001804
 30
0.0
 11
76.68838537859834
 21
135.9859343227534
 31
0.0
  0
LINE
  5
57F
  8
0
  6
CONTINUOUS
 62
     7
 10
76.68838537859834
 20
135.9859343227534
 30
0.0
 11
76.70994256935417
 21
135.9879713833651
 31
0.0
  0
LINE
  5
580
  8
0
  6
CONTINUOUS
 62
     7
 10
76.70994256935417
 20
135.9879713833651
 30
0.0
 11
76.73154751552536
 21
135.9890622434183
 31
0.0
  0
LINE
  5
581
  8
0
  6
CONTINUOUS
 62
     7
 10
76.2304441673555
 20
133.7591235351107
 30
0.0
 11
76.24552953542984
 21
135.4877354994537
 31
0.0
  0
LINE
  5
582
  8
0
  6
CONTINUOUS
 62
     7
 10
55.30102449206492
 20
101.2892616178412
 30
0.0
 11
55.51049928190763
 21
100.7107383821589
 31
0.0
  0
LINE
  5
583
  8
0
  6
CONTINUOUS
 62
     7
 10
99.6989755079351
 20
116.7107383821589
 30
0.0
 11
99.4895007180924
 21
117.2892616178412
 31
0.0
  0
LINE
  5
584
  8
0
  6
CONTINUOUS
 62
     7
 10
55.03580626864166
 20
102.1
 30
0.0
 11
55.55939836741026
 21
102.1
 31
0.0
  0
ARC
  5
585
  8
0
  6
CONTINUOUS
 62
     7
 10
77.50000000000001
 20
109.0
 30
0.0
 40
23.50000000000001
 50
197.0746264321848
 51
199.1544961476084
  0
LINE
  5
586
  8
0
  6
CONTINUOUS
 62
     7
 10
55.83343589767865
 20
99.89999999999999
 30
0.0
 11
56.3767900166665
 21
99.89999999999999
 31
0.0
  0
ARC
  5
587
  8
0
  6
CONTINUOUS
 62
     7
 10
77.50000000000001
 20
109.0
 30
0.0
 40
23.50000000000002
 50
200.6546631110186
 51
202.7825025633875
  0
LINE
  5
588
  8
0
  6
CONTINUOUS
 62
     7
 10
99.96419373135836
 20
115.9
 30
0.0
 11
99.44060163258976
 21
115.9
 31
0.0
  0
ARC
  5
589
  8
0
  6
CONTINUOUS
 62
     7
 10
77.50000000000001
 20
109.0
 30
0.0
 40
23.50000000000002
 50
17.07462643218481
 51
19.15449614760843
  0
LINE
  5
58A
  8
0
  6
CONTINUOUS
 62
     7
 10
99.16656410232137
 20
118.1000000000001
 30
0.0
 11
98.62320998333352
 21
118.1000000000001
 31
0.0
  0
ARC
  5
58B
  8
0
  6
CONTINUOUS
 62
     7
 10
77.50000000000001
 20
109.0
 30
0.0
 40
23.49999999999999
 50
20.65466311101861
 51
22.78250256338762
  0
ARC
  5
58C
  8
0
  6
CONTINUOUS
 62
     7
 10
77.50000000000001
 20
109.0
 30
0.0
 40
27.5
 50
90.0
 51
270.0
  0
ARC
  5
58D
  8
0
  6
CONTINUOUS
 62
     7
 10
77.50000000000001
 20
109.0
 30
0.0
 40
27.5
 50
270.0
 51
90.0
  0
ENDSEC
  0
EOF
