  0
SECTION
  2
HEADER
  9
$ACADVER
  1
AC1006
  9
$DWGCODEPAGE
  3
ansi_932
  9
$INSBASE
 10
0.0
 20
0.0
 30
0.0
  9
$EXTMIN
 10
57.99999999999999
 20
-74.51363636363635
  9
$EXTMAX
 10
108.0
 20
114.5
  9
$LIMMIN
 10
0.0
 20
0.0
  9
$LIMMAX
 10
12.0
 20
9.0
  9
$ORTHOMODE
 70
     0
  9
$REGENMODE
 70
     1
  9
$FILLMODE
 70
     1
  9
$QTEXTMODE
 70
     0
  9
$MIRRTEXT
 70
     1
  9
$DRAGMODE
 70
     2
  9
$LTSCALE
 40
1.0
  9
$OSMODE
 70
    37
  9
$ATTMODE
 70
     1
  9
$TEXTSIZE
 40
0.2
  9
$TRACEWID
 40
0.05
  9
$TEXTSTYLE
  7
STANDARD
  9
$CLAYER
  8
0
  9
$CELTYPE
  6
BYLAYER
  9
$CECOLOR
 62
   256
  9
$DIMSCALE
 40
1.0
  9
$DIMASZ
 40
3.0
  9
$DIMEXO
 40
0.0625
  9
$DIMDLI
 40
0.38
  9
$DIMRND
 40
0.0
  9
$DIMDLE
 40
0.0
  9
$DIMEXE
 40
1.5
  9
$DIMTP
 40
0.0
  9
$DIMTM
 40
0.0
  9
$DIMTXT
 40
3.0
  9
$DIMCEN
 40
0.09
  9
$DIMTSZ
 40
0.0
  9
$DIMTOL
 70
     0
  9
$DIMLIM
 70
     0
  9
$DIMTIH
 70
     1
  9
$DIMTOH
 70
     1
  9
$DIMSE1
 70
     0
  9
$DIMSE2
 70
     0
  9
$DIMTAD
 70
     1
  9
$DIMZIN
 70
     0
  9
$DIMBLK
  1

  9
$DIMASO
 70
     1
  9
$DIMSHO
 70
     1
  9
$DIMPOST
  1

  9
$DIMAPOST
  1

  9
$DIMALT
 70
     0
  9
$DIMALTD
 70
     2
  9
$DIMALTF
 40
25.4
  9
$DIMLFAC
 40
1.0
  9
$DIMTOFL
 70
     0
  9
$DIMTVP
 40
0.0
  9
$DIMTIX
 70
     0
  9
$DIMSOXD
 70
     0
  9
$DIMSAH
 70
     0
  9
$DIMBLK1
  1

  9
$DIMBLK2
  1

  9
$LUNITS
 70
     2
  9
$LUPREC
 70
     4
  9
$SKETCHINC
 40
0.1
  9
$FILLETRAD
 40
0.5
  9
$AUNITS
 70
     0
  9
$AUPREC
 70
     0
  9
$MENU
  1
.
  9
$ELEVATION
 40
0.0
  9
$THICKNESS
 40
0.0
  9
$LIMCHECK
 70
     0
  9
$CHAMFERA
 40
0.0
  9
$CHAMFERB
 40
0.0
  9
$SKPOLY
 70
     0
  9
$TDCREATE
 40
2460413.618975347
  9
$TDUPDATE
 40
2460413.618975613
  9
$TDINDWG
 40
0.0000000116
  9
$TDUSRTIMER
 40
0.0000000116
  9
$USRTIMER
 70
     1
  9
$ANGBASE
 50
0.0
  9
$ANGDIR
 70
     0
  9
$PDMODE
 70
     0
  9
$PDSIZE
 40
0.0
  9
$PLINEWID
 40
0.0
  9
$COORDS
 70
     1
  9
$SPLFRAME
 70
     0
  9
$SPLINETYPE
 70
     6
  9
$SPLINESEGS
 70
     8
  9
$ATTDIA
 70
     0
  9
$ATTREQ
 70
     1
  9
$HANDLING
 70
     1
  9
$HANDSEED
  5
430
  9
$SURFTAB1
 70
     6
  9
$SURFTAB2
 70
     6
  9
$SURFTYPE
 70
     6
  9
$SURFU
 70
     6
  9
$SURFV
 70
     6
  9
$UCSNAME
  2

  9
$UCSORG
 10
0.0
 20
0.0
 30
0.0
  9
$UCSXDIR
 10
1.0
 20
0.0
 30
0.0
  9
$UCSYDIR
 10
0.0
 20
1.0
 30
0.0
  9
$USERI1
 70
     0
  9
$USERI2
 70
     0
  9
$USERI3
 70
     0
  9
$USERI4
 70
     0
  9
$USERI5
 70
     0
  9
$USERR1
 40
0.0
  9
$USERR2
 40
0.0
  9
$USERR3
 40
0.0
  9
$USERR4
 40
0.0
  9
$USERR5
 40
0.0
  9
$WORLDVIEW
 70
     1
  0
ENDSEC
  0
SECTION
  2
TABLES
  0
TABLE
  2
VPORT
 70
     1
  0
VPORT
  2
*ACTIVE
 70
     0
 10
0.0
 20
0.0
 11
1.0
 21
1.0
 12
82.99999999999999
 22
19.99318181818182
 13
0.0
 23
0.0
 14
0.5
 24
0.5
 15
0.5
 25
0.5
 16
0.0
 26
0.0
 36
1.0
 17
0.0
 27
0.0
 37
0.0
 40
189.0136363636364
 41
1.6
 42
50.0
 43
0.0
 44
0.0
 50
0.0
 51
0.0
 71
     0
 72
   100
 73
     1
 74
     3
 75
     0
 76
     0
 77
     0
 78
     0
  0
ENDTAB
  0
TABLE
  2
LTYPE
 70
     2
  0
LTYPE
  2
CONTINUOUS
 70
     0
  3
Solid line
 72
    65
 73
     0
 40
0.0
  0
LTYPE
  2
CENTER
 70
     0
  3

 72
    65
 73
     0
 40
0.0
  0
ENDTAB
  0
TABLE
  2
LAYER
 70
     1
  0
LAYER
  2
0
 70
     0
 62
     7
  6
CONTINUOUS
  0
ENDTAB
  0
TABLE
  2
STYLE
 70
     2
  0
STYLE
  2
STANDARD
 70
     0
 40
0.0
 41
1.0
 50
0.0
 71
     0
 42
0.2
  3
txt
  4

  0
STYLE
  2
ＭＳ_ゴシック
 70
     0
 40
0.0
 41
1.0
 50
0.0
 71
     0
 42
0.2
  3
ＭＳ ゴシック.shx
  4

  0
ENDTAB
  0
TABLE
  2
VIEW
 70
     0
  0
ENDTAB
  0
TABLE
  2
UCS
 70
     0
  0
ENDTAB
  0
ENDSEC
  0
SECTION
  2
BLOCKS
  0
ENDSEC
  0
SECTION
  2
ENTITIES
  0
TEXT
  5
6F
  8
0
  6
CONTINUOUS
 62
     7
 10
70.56854445417031
 20
-74.84090909090908
 30
0.0
 40
3.0
  1
ＭＨＧＢ－４０Ｙ
  0
LINE
  5
70
  8
0
  6
CENTER
 62
     1
 10
83.0
 20
8.199200623542888
 30
0.0
 11
83.0
 21
43.19920062354291
 31
0.0
  0
CIRCLE
  5
72
  8
0
  6
CONTINUOUS
 62
     7
 10
82.99999999999999
 20
-39.49999999999986
 30
0.0
 40
11.99999999999811
  0
CIRCLE
  5
73
  8
0
  6
CONTINUOUS
 62
     7
 10
82.99999999999999
 20
-39.49999999999998
 30
0.0
 40
19.75
  0
LINE
  5
74
  8
0
  6
CONTINUOUS
 62
     7
 10
81.49298234458823
 20
-18.5541436607075
 30
0.0
 11
81.49954779942762
 21
-17.80181705317701
 31
0.0
  0
LINE
  5
75
  8
0
  6
CONTINUOUS
 62
     7
 10
81.49954779942762
 20
-17.80181705317701
 30
0.0
 11
81.99981824239819
 21
-17.7730090336521
 31
0.0
  0
LINE
  5
76
  8
0
  6
CONTINUOUS
 62
     7
 10
103.9458563392924
 20
-37.9929823445882
 30
0.0
 11
104.6981829468229
 21
-37.99954779942759
 31
0.0
  0
LINE
  5
77
  8
0
  6
CONTINUOUS
 62
     7
 10
104.6981829468229
 20
-37.99954779942759
 30
0.0
 11
104.7269909663478
 21
-38.49981824239818
 31
0.0
  0
LINE
  5
78
  8
0
  6
CONTINUOUS
 62
     7
 10
84.50701765541177
 20
-60.44585633929242
 30
0.0
 11
84.50045220057238
 21
-61.19818294682291
 31
0.0
  0
LINE
  5
79
  8
0
  6
CONTINUOUS
 62
     7
 10
84.50045220057238
 20
-61.19818294682291
 30
0.0
 11
84.0001817576018
 21
-61.22699096634781
 31
0.0
  0
LINE
  5
7A
  8
0
  6
CONTINUOUS
 62
     7
 10
62.05414366070755
 20
-41.00701765541174
 30
0.0
 11
61.30181705317705
 21
-41.00045220057235
 31
0.0
  0
LINE
  5
7B
  8
0
  6
CONTINUOUS
 62
     7
 10
61.30181705317705
 20
-41.00045220057235
 30
0.0
 11
61.27300903365214
 21
-40.50018175760178
 31
0.0
  0
LINE
  5
7C
  8
0
  6
CONTINUOUS
 62
     7
 10
84.50045220057237
 20
-17.80181705317701
 30
0.0
 11
84.50701765541176
 21
-18.5541436607075
 31
0.0
  0
LINE
  5
7D
  8
0
  6
CONTINUOUS
 62
     7
 10
84.0001817576018
 20
-17.7730090336521
 30
0.0
 11
84.50045220057237
 21
-17.80181705317701
 31
0.0
  0
LINE
  5
7E
  8
0
  6
CONTINUOUS
 62
     7
 10
104.7269909663478
 20
-40.50018175760178
 30
0.0
 11
104.6981829468229
 21
-41.00045220057235
 31
0.0
  0
LINE
  5
7F
  8
0
  6
CONTINUOUS
 62
     7
 10
104.6981829468229
 20
-41.00045220057235
 30
0.0
 11
103.9458563392924
 21
-41.00701765541174
 31
0.0
  0
LINE
  5
80
  8
0
  6
CONTINUOUS
 62
     7
 10
81.99981824239819
 20
-61.22699096634781
 30
0.0
 11
81.49954779942762
 21
-61.19818294682291
 31
0.0
  0
LINE
  5
81
  8
0
  6
CONTINUOUS
 62
     7
 10
81.49954779942762
 20
-61.19818294682291
 30
0.0
 11
81.49298234458823
 21
-60.44585633929242
 31
0.0
  0
LINE
  5
82
  8
0
  6
CONTINUOUS
 62
     7
 10
61.27300903365214
 20
-38.49981824239818
 30
0.0
 11
61.30181705317705
 21
-37.99954779942759
 31
0.0
  0
LINE
  5
83
  8
0
  6
CONTINUOUS
 62
     7
 10
61.30181705317705
 20
-37.99954779942759
 30
0.0
 11
62.05414366070755
 21
-37.9929823445882
 31
0.0
  0
ARC
  5
84
  8
0
  6
CONTINUOUS
 62
     7
 10
82.99999999999999
 20
-39.49999999999996
 30
0.0
 40
21.74999999999999
 50
87.36430299633969
 51
92.63569700366033
  0
ARC
  5
85
  8
0
  6
CONTINUOUS
 62
     7
 10
83.0
 20
-39.49999999999998
 30
0.0
 40
21.74999999999999
 50
357.3643029963397
 51
2.635697003660368
  0
ARC
  5
86
  8
0
  6
CONTINUOUS
 62
     7
 10
82.99999999999999
 20
-39.49999999999998
 30
0.0
 40
21.75
 50
267.3643029963397
 51
272.6356970036604
  0
ARC
  5
87
  8
0
  6
CONTINUOUS
 62
     7
 10
82.99999999999999
 20
-39.49999999999998
 30
0.0
 40
21.75
 50
177.3643029963397
 51
182.6356970036603
  0
CIRCLE
  5
88
  8
0
  6
CONTINUOUS
 62
     7
 10
82.99999999999999
 20
-39.49999999999998
 30
0.0
 40
22.99999999999999
  0
CIRCLE
  5
89
  8
0
  6
CONTINUOUS
 62
     7
 10
82.99999999999999
 20
-39.49999999999998
 30
0.0
 40
21.0
  0
ARC
  5
8A
  8
0
  6
CONTINUOUS
 62
     7
 10
82.99999999999999
 20
89.5
 30
0.0
 40
3.99999999999999
 50
120.0
 51
131.030220923117
  0
LINE
  5
8B
  8
0
  6
CONTINUOUS
 62
     7
 10
80.99999999999999
 20
97.2459666924149
 30
0.0
 11
80.99999999999999
 21
92.96410161513779
 31
0.0
  0
ARC
  5
8C
  8
0
  6
CONTINUOUS
 62
     7
 10
82.99999999999999
 20
89.5
 30
0.0
 40
7.999999999999993
 50
104.4775121859299
 51
157.840779394616
  0
LINE
  5
8D
  8
0
  6
CONTINUOUS
 62
     7
 10
84.99999999999999
 20
92.96410161513779
 30
0.0
 11
84.99999999999999
 21
97.2459666924149
 31
0.0
  0
ARC
  5
8E
  8
0
  6
CONTINUOUS
 62
     7
 10
82.99999999999999
 20
89.5
 30
0.0
 40
4.000000000000004
 50
48.96977907688303
 51
59.99999999999991
  0
ARC
  5
8F
  8
0
  6
CONTINUOUS
 62
     7
 10
82.99999999999999
 20
89.5
 30
0.0
 40
8.000000000000007
 50
22.15922060538395
 51
75.52248781407009
  0
LINE
  5
90
  8
0
  6
CONTINUOUS
 62
     7
 10
80.99999999999999
 20
86.03589838486228
 30
0.0
 11
80.99999999999999
 21
81.75403330758517
 31
0.0
  0
ARC
  5
91
  8
0
  6
CONTINUOUS
 62
     7
 10
82.99999999999999
 20
89.5
 30
0.0
 40
4.000000000000004
 50
228.969779076883
 51
240.0
  0
ARC
  5
92
  8
0
  6
CONTINUOUS
 62
     7
 10
82.99999999999999
 20
89.5
 30
0.0
 40
8.000000000000007
 50
202.159220605384
 51
255.52248781407
  0
ARC
  5
93
  8
0
  6
CONTINUOUS
 62
     7
 10
82.99999999999999
 20
89.5
 30
0.0
 40
3.99999999999999
 50
300.0
 51
311.0302209231169
  0
LINE
  5
94
  8
0
  6
CONTINUOUS
 62
     7
 10
84.99999999999999
 20
81.75403330758517
 30
0.0
 11
84.99999999999999
 21
86.03589838486228
 31
0.0
  0
ARC
  5
95
  8
0
  6
CONTINUOUS
 62
     7
 10
82.99999999999999
 20
89.5
 30
0.0
 40
7.999999999999993
 50
284.47751218593
 51
337.840779394616
  0
ARC
  5
96
  8
0
  6
CONTINUOUS
 62
     7
 10
82.99999999999999
 20
89.5
 30
0.0
 40
22.99999999999999
 50
267.4527303482907
 51
272.5472696517093
  0
ARC
  5
97
  8
0
  6
CONTINUOUS
 62
     7
 10
82.99999999999999
 20
89.5
 30
0.0
 40
22.99999999999999
 50
87.4527303482907
 51
92.54726965170936
  0
LINE
  5
98
  8
0
  6
CONTINUOUS
 62
     7
 10
84.49999999999999
 20
111.9499443206437
 30
0.0
 11
84.5000067302472
 21
111.9777656465652
 31
0.0
  0
LINE
  5
99
  8
0
  6
CONTINUOUS
 62
     7
 10
84.49999999999999
 20
105.429532322074
 30
0.0
 11
84.49999999999999
 21
111.9499443206437
 31
0.0
  0
LINE
  5
9A
  8
0
  6
CONTINUOUS
 62
     7
 10
84.5174537355815
 20
105.4278791482222
 30
0.0
 11
84.5174537355815
 21
100.9170519273423
 31
0.0
  0
LINE
  5
9B
  8
0
  6
CONTINUOUS
 62
     7
 10
84.49999999999999
 20
100.9017542509914
 30
0.0
 11
84.5174537355815
 21
100.9170519273423
 31
0.0
  0
LINE
  5
9C
  8
0
  6
CONTINUOUS
 62
     7
 10
84.49999999999999
 20
97.86660026534078
 30
0.0
 11
84.49999999999999
 21
100.9017542509914
 31
0.0
  0
LINE
  5
9D
  8
0
  6
CONTINUOUS
 62
     7
 10
84.5174537355815
 20
97.845712988617
 30
0.0
 11
84.49999999999999
 21
97.86660026534078
 31
0.0
  0
LINE
  5
9E
  8
0
  6
CONTINUOUS
 62
     7
 10
84.5174537355815
 20
97.845712988617
 30
0.0
 11
84.5174537355815
 21
92.51745373558151
 31
0.0
  0
LINE
  5
9F
  8
0
  6
CONTINUOUS
 62
     7
 10
84.49999999999999
 20
92.5
 30
0.0
 11
84.5174537355815
 21
92.51745373558151
 31
0.0
  0
LINE
  5
A0
  8
0
  6
CONTINUOUS
 62
     7
 10
84.49999999999999
 20
90.75
 30
0.0
 11
84.49999999999999
 21
92.5
 31
0.0
  0
LINE
  5
A1
  8
0
  6
CONTINUOUS
 62
     7
 10
84.48687162065308
 20
90.73687162065308
 30
0.0
 11
84.49999999999999
 21
90.75
 31
0.0
  0
LINE
  5
A2
  8
0
  6
CONTINUOUS
 62
     7
 10
84.48254626441847
 20
90.23689065912099
 30
0.0
 11
84.48687162065308
 21
90.73687162065308
 31
0.0
  0
LINE
  5
A3
  8
0
  6
CONTINUOUS
 62
     7
 10
84.48254626441847
 20
88.763109340879
 30
0.0
 11
84.48254626441847
 21
90.23689065912099
 31
0.0
  0
LINE
  5
A4
  8
0
  6
CONTINUOUS
 62
     7
 10
84.48687162065308
 20
88.26312837934691
 30
0.0
 11
84.48254626441847
 21
88.763109340879
 31
0.0
  0
LINE
  5
A5
  8
0
  6
CONTINUOUS
 62
     7
 10
84.49999999999999
 20
88.25
 30
0.0
 11
84.48687162065308
 21
88.26312837934691
 31
0.0
  0
LINE
  5
A6
  8
0
  6
CONTINUOUS
 62
     7
 10
84.49999999999999
 20
86.49999999999999
 30
0.0
 11
84.49999999999999
 21
88.25
 31
0.0
  0
LINE
  5
A7
  8
0
  6
CONTINUOUS
 62
     7
 10
84.49999999999999
 20
86.49999999999999
 30
0.0
 11
84.5174537355815
 21
86.48254626441847
 31
0.0
  0
LINE
  5
A8
  8
0
  6
CONTINUOUS
 62
     7
 10
84.5174537355815
 20
81.1542870113831
 30
0.0
 11
84.5174537355815
 21
86.48254626441847
 31
0.0
  0
LINE
  5
A9
  8
0
  6
CONTINUOUS
 62
     7
 10
84.49999999999999
 20
81.13339973465929
 30
0.0
 11
84.5174537355815
 21
81.1542870113831
 31
0.0
  0
LINE
  5
AA
  8
0
  6
CONTINUOUS
 62
     7
 10
84.49999999999999
 20
78.09824574900861
 30
0.0
 11
84.49999999999999
 21
81.13339973465929
 31
0.0
  0
LINE
  5
AB
  8
0
  6
CONTINUOUS
 62
     7
 10
84.5174537355815
 20
78.0829480726577
 30
0.0
 11
84.49999999999999
 21
78.09824574900861
 31
0.0
  0
LINE
  5
AC
  8
0
  6
CONTINUOUS
 62
     7
 10
84.5174537355815
 20
73.57212085177788
 30
0.0
 11
84.5174537355815
 21
78.0829480726577
 31
0.0
  0
LINE
  5
AD
  8
0
  6
CONTINUOUS
 62
     7
 10
84.49999999999999
 20
67.0500556793564
 30
0.0
 11
84.49999999999999
 21
73.57046767792599
 31
0.0
  0
LINE
  5
AE
  8
0
  6
CONTINUOUS
 62
     7
 10
84.50000673024721
 20
67.02223435343488
 30
0.0
 11
84.49999999999999
 21
67.0500556793564
 31
0.0
  0
LINE
  5
AF
  8
0
  6
CONTINUOUS
 62
     7
 10
81.5
 20
67.0500556793564
 30
0.0
 11
81.49999326975278
 21
67.02223435343488
 31
0.0
  0
LINE
  5
B0
  8
0
  6
CONTINUOUS
 62
     7
 10
81.5
 20
73.57046767792599
 30
0.0
 11
81.5
 21
67.0500556793564
 31
0.0
  0
LINE
  5
B1
  8
0
  6
CONTINUOUS
 62
     7
 10
81.48254626441847
 20
73.57212085177788
 30
0.0
 11
81.48254626441847
 21
78.0829480726577
 31
0.0
  0
LINE
  5
B2
  8
0
  6
CONTINUOUS
 62
     7
 10
81.5
 20
78.09824574900861
 30
0.0
 11
81.48254626441847
 21
78.0829480726577
 31
0.0
  0
LINE
  5
B3
  8
0
  6
CONTINUOUS
 62
     7
 10
81.5
 20
81.13339973465929
 30
0.0
 11
81.5
 21
78.09824574900861
 31
0.0
  0
LINE
  5
B4
  8
0
  6
CONTINUOUS
 62
     7
 10
81.48254626441847
 20
81.1542870113831
 30
0.0
 11
81.5
 21
81.13339973465929
 31
0.0
  0
LINE
  5
B5
  8
0
  6
CONTINUOUS
 62
     7
 10
81.48254626441847
 20
81.1542870113831
 30
0.0
 11
81.48254626441847
 21
86.48254626441847
 31
0.0
  0
LINE
  5
B6
  8
0
  6
CONTINUOUS
 62
     7
 10
81.5
 20
86.49999999999999
 30
0.0
 11
81.48254626441847
 21
86.48254626441847
 31
0.0
  0
LINE
  5
B7
  8
0
  6
CONTINUOUS
 62
     7
 10
81.5
 20
88.25
 30
0.0
 11
81.5
 21
86.49999999999999
 31
0.0
  0
LINE
  5
B8
  8
0
  6
CONTINUOUS
 62
     7
 10
81.51312837934692
 20
88.26312837934691
 30
0.0
 11
81.5
 21
88.25
 31
0.0
  0
LINE
  5
B9
  8
0
  6
CONTINUOUS
 62
     7
 10
81.51745373558151
 20
88.763109340879
 30
0.0
 11
81.51312837934692
 21
88.26312837934691
 31
0.0
  0
LINE
  5
BA
  8
0
  6
CONTINUOUS
 62
     7
 10
81.51745373558151
 20
90.23689065912099
 30
0.0
 11
81.51745373558151
 21
88.763109340879
 31
0.0
  0
LINE
  5
BB
  8
0
  6
CONTINUOUS
 62
     7
 10
81.51312837934692
 20
90.73687162065308
 30
0.0
 11
81.51745373558151
 21
90.23689065912099
 31
0.0
  0
LINE
  5
BC
  8
0
  6
CONTINUOUS
 62
     7
 10
81.5
 20
90.75
 30
0.0
 11
81.51312837934692
 21
90.73687162065308
 31
0.0
  0
LINE
  5
BD
  8
0
  6
CONTINUOUS
 62
     7
 10
81.5
 20
92.5
 30
0.0
 11
81.5
 21
90.75
 31
0.0
  0
LINE
  5
BE
  8
0
  6
CONTINUOUS
 62
     7
 10
81.5
 20
92.5
 30
0.0
 11
81.48254626441847
 21
92.51745373558151
 31
0.0
  0
LINE
  5
BF
  8
0
  6
CONTINUOUS
 62
     7
 10
81.48254626441847
 20
97.845712988617
 30
0.0
 11
81.48254626441847
 21
92.51745373558151
 31
0.0
  0
LINE
  5
C0
  8
0
  6
CONTINUOUS
 62
     7
 10
81.5
 20
97.86660026534078
 30
0.0
 11
81.48254626441847
 21
97.845712988617
 31
0.0
  0
LINE
  5
C1
  8
0
  6
CONTINUOUS
 62
     7
 10
81.5
 20
100.9017542509914
 30
0.0
 11
81.5
 21
97.86660026534078
 31
0.0
  0
LINE
  5
C2
  8
0
  6
CONTINUOUS
 62
     7
 10
81.48254626441847
 20
100.9170519273423
 30
0.0
 11
81.5
 21
100.9017542509914
 31
0.0
  0
LINE
  5
C3
  8
0
  6
CONTINUOUS
 62
     7
 10
81.48254626441847
 20
105.4278791482222
 30
0.0
 11
81.48254626441847
 21
100.9170519273423
 31
0.0
  0
LINE
  5
C4
  8
0
  6
CONTINUOUS
 62
     7
 10
81.5
 20
111.9499443206437
 30
0.0
 11
81.5
 21
105.429532322074
 31
0.0
  0
LINE
  5
C5
  8
0
  6
CONTINUOUS
 62
     7
 10
81.49999326975276
 20
111.9777656465652
 30
0.0
 11
81.5
 21
111.9499443206437
 31
0.0
  0
ARC
  5
C6
  8
0
  6
CONTINUOUS
 62
     7
 10
82.99999999999999
 20
89.5
 30
0.0
 40
22.99999999999999
 50
358.1009528732547
 51
1.899047126745586
  0
ARC
  5
C7
  8
0
  6
CONTINUOUS
 62
     7
 10
82.99999999999999
 20
89.5
 30
0.0
 40
22.99999999999999
 50
178.1009528732544
 51
180.0
  0
ARC
  5
C8
  8
0
  6
CONTINUOUS
 62
     7
 10
82.99999999999999
 20
89.5
 30
0.0
 40
22.99999999999999
 50
180.0
 51
181.8990471267456
  0
LINE
  5
C9
  8
0
  6
CONTINUOUS
 62
     7
 10
60.5347490554857
 20
88.25
 30
0.0
 11
81.5
 21
88.25
 31
0.0
  0
LINE
  5
CA
  8
0
  6
CONTINUOUS
 62
     7
 10
60.51250425278733
 20
88.24999569276959
 30
0.0
 11
60.5347490554857
 21
88.25
 31
0.0
  0
LINE
  5
CB
  8
0
  6
CONTINUOUS
 62
     7
 10
105.4652509445143
 20
90.75
 30
0.0
 11
84.49999999999999
 21
90.75
 31
0.0
  0
LINE
  5
CC
  8
0
  6
CONTINUOUS
 62
     7
 10
105.4874957472126
 20
90.7500043072304
 30
0.0
 11
105.4652509445143
 21
90.75
 31
0.0
  0
LINE
  5
CD
  8
0
  6
CONTINUOUS
 62
     7
 10
60.5347490554857
 20
90.75
 30
0.0
 11
60.51250425278733
 21
90.7500043072304
 31
0.0
  0
LINE
  5
CE
  8
0
  6
CONTINUOUS
 62
     7
 10
81.5
 20
90.75
 30
0.0
 11
60.5347490554857
 21
90.75
 31
0.0
  0
LINE
  5
CF
  8
0
  6
CONTINUOUS
 62
     7
 10
105.4652509445143
 20
88.25
 30
0.0
 11
105.4874957472126
 21
88.24999569276959
 31
0.0
  0
LINE
  5
D0
  8
0
  6
CONTINUOUS
 62
     7
 10
84.49999999999999
 20
88.25
 30
0.0
 11
105.4652509445143
 21
88.25
 31
0.0
  0
LINE
  5
D1
  8
0
  6
CONTINUOUS
 62
     7
 10
105.4874957472126
 20
90.7500043072304
 30
0.0
 11
105.5034116224978
 21
90.74975909859178
 31
0.0
  0
LINE
  5
D2
  8
0
  6
CONTINUOUS
 62
     7
 10
105.5034116224978
 20
90.74975909859178
 30
0.0
 11
105.5192739973509
 21
90.74901445135048
 31
0.0
  0
LINE
  5
D3
  8
0
  6
CONTINUOUS
 62
     7
 10
105.5192739973509
 20
90.74901445135048
 30
0.0
 11
105.5351763898045
 21
90.74776357921851
 31
0.0
  0
LINE
  5
D4
  8
0
  6
CONTINUOUS
 62
     7
 10
105.5351763898045
 20
90.74776357921851
 30
0.0
 11
105.5509637962352
 21
90.74601909949601
 31
0.0
  0
LINE
  5
D5
  8
0
  6
CONTINUOUS
 62
     7
 10
105.5509637962352
 20
90.74601909949601
 30
0.0
 11
105.5636485623973
 21
90.74425053318879
 31
0.0
  0
LINE
  5
D6
  8
0
  6
CONTINUOUS
 62
     7
 10
105.5636485623973
 20
90.74425053318879
 30
0.0
 11
105.5762253694218
 21
90.74217079475868
 31
0.0
  0
LINE
  5
D7
  8
0
  6
CONTINUOUS
 62
     7
 10
105.5762253694218
 20
90.74217079475868
 30
0.0
 11
105.5887393141665
 21
90.7397746276174
 31
0.0
  0
LINE
  5
D8
  8
0
  6
CONTINUOUS
 62
     7
 10
105.5887393141665
 20
90.7397746276174
 30
0.0
 11
105.6011187481216
 21
90.737078909495
 31
0.0
  0
LINE
  5
D9
  8
0
  6
CONTINUOUS
 62
     7
 10
105.6011187481216
 20
90.737078909495
 30
0.0
 11
105.6114054109211
 21
90.73458872093781
 31
0.0
  0
LINE
  5
DA
  8
0
  6
CONTINUOUS
 62
     7
 10
105.6114054109211
 20
90.73458872093781
 30
0.0
 11
105.6215905353303
 21
90.73189570171569
 31
0.0
  0
LINE
  5
DB
  8
0
  6
CONTINUOUS
 62
     7
 10
105.6215905353303
 20
90.73189570171569
 30
0.0
 11
105.6370815833034
 21
90.72735698431528
 31
0.0
  0
LINE
  5
DC
  8
0
  6
CONTINUOUS
 62
     7
 10
105.6370815833034
 20
90.72735698431528
 30
0.0
 11
105.6522806339447
 21
90.72237150083087
 31
0.0
  0
LINE
  5
DD
  8
0
  6
CONTINUOUS
 62
     7
 10
105.6522806339447
 20
90.72237150083087
 30
0.0
 11
105.667264857452
 21
90.7169231490115
 31
0.0
  0
LINE
  5
DE
  8
0
  6
CONTINUOUS
 62
     7
 10
105.667264857452
 20
90.7169231490115
 30
0.0
 11
105.6819236781345
 21
90.7110627986471
 31
0.0
  0
LINE
  5
DF
  8
0
  6
CONTINUOUS
 62
     7
 10
105.6819236781345
 20
90.7110627986471
 30
0.0
 11
105.6963688460283
 21
90.70475430454708
 31
0.0
  0
LINE
  5
E0
  8
0
  6
CONTINUOUS
 62
     7
 10
105.6963688460283
 20
90.70475430454708
 30
0.0
 11
105.7104622494628
 21
90.6980675837564
 31
0.0
  0
LINE
  5
E1
  8
0
  6
CONTINUOUS
 62
     7
 10
105.7104622494628
 20
90.6980675837564
 30
0.0
 11
105.7242659593428
 21
90.6909853638492
 31
0.0
  0
LINE
  5
E2
  8
0
  6
CONTINUOUS
 62
     7
 10
105.7242659593428
 20
90.6909853638492
 30
0.0
 11
105.7377014661537
 21
90.68356076674999
 31
0.0
  0
LINE
  5
E3
  8
0
  6
CONTINUOUS
 62
     7
 10
105.7377014661537
 20
90.68356076674999
 30
0.0
 11
105.756021152953
 21
90.6725410906778
 31
0.0
  0
LINE
  5
E4
  8
0
  6
CONTINUOUS
 62
     7
 10
105.756021152953
 20
90.6725410906778
 30
0.0
 11
105.7736846003831
 21
90.66086521406771
 31
0.0
  0
LINE
  5
E5
  8
0
  6
CONTINUOUS
 62
     7
 10
105.7736846003831
 20
90.66086521406771
 30
0.0
 11
105.7906228912479
 21
90.6486136195406
 31
0.0
  0
LINE
  5
E6
  8
0
  6
CONTINUOUS
 62
     7
 10
105.7906228912479
 20
90.6486136195406
 30
0.0
 11
105.8069654898029
 21
90.63571923126118
 31
0.0
  0
LINE
  5
E7
  8
0
  6
CONTINUOUS
 62
     7
 10
105.8069654898029
 20
90.63571923126118
 30
0.0
 11
105.8225639264046
 21
90.62232544447801
 31
0.0
  0
LINE
  5
E8
  8
0
  6
CONTINUOUS
 62
     7
 10
105.8225639264046
 20
90.62232544447801
 30
0.0
 11
105.8375381488115
 21
90.60835572398909
 31
0.0
  0
LINE
  5
E9
  8
0
  6
CONTINUOUS
 62
     7
 10
105.8375381488115
 20
90.60835572398909
 30
0.0
 11
105.8517602866124
 21
90.59395508376281
 31
0.0
  0
LINE
  5
EA
  8
0
  6
CONTINUOUS
 62
     7
 10
105.8517602866124
 20
90.59395508376281
 30
0.0
 11
105.8652734555652
 21
90.57911406667671
 31
0.0
  0
LINE
  5
EB
  8
0
  6
CONTINUOUS
 62
     7
 10
105.8652734555652
 20
90.57911406667671
 30
0.0
 11
105.8819599183505
 21
90.55898013561328
 31
0.0
  0
LINE
  5
EC
  8
0
  6
CONTINUOUS
 62
     7
 10
105.8819599183505
 20
90.55898013561328
 30
0.0
 11
105.897418105042
 21
90.53819843304639
 31
0.0
  0
LINE
  5
ED
  8
0
  6
CONTINUOUS
 62
     7
 10
105.897418105042
 20
90.53819843304639
 30
0.0
 11
105.9116071238066
 21
90.51689359912169
 31
0.0
  0
LINE
  5
EE
  8
0
  6
CONTINUOUS
 62
     7
 10
105.9116071238066
 20
90.51689359912169
 30
0.0
 11
105.9246458025874
 21
90.49493528006391
 31
0.0
  0
LINE
  5
EF
  8
0
  6
CONTINUOUS
 62
     7
 10
105.9246458025874
 20
90.49493528006391
 30
0.0
 11
105.9364230857013
 21
90.47255405905038
 31
0.0
  0
LINE
  5
F0
  8
0
  6
CONTINUOUS
 62
     7
 10
105.9364230857013
 20
90.47255405905038
 30
0.0
 11
105.947034188148
 21
90.44960874478677
 31
0.0
  0
LINE
  5
F1
  8
0
  6
CONTINUOUS
 62
     7
 10
105.947034188148
 20
90.44960874478677
 30
0.0
 11
105.9563893110418
 21
90.42632718548859
 31
0.0
  0
LINE
  5
F2
  8
0
  6
CONTINUOUS
 62
     7
 10
105.9563893110418
 20
90.42632718548859
 30
0.0
 11
105.9645213203577
 21
90.40268105822638
 31
0.0
  0
LINE
  5
F3
  8
0
  6
CONTINUOUS
 62
     7
 10
105.9645213203577
 20
90.40268105822638
 30
0.0
 11
105.973347772857
 21
90.3710991165052
 31
0.0
  0
LINE
  5
F4
  8
0
  6
CONTINUOUS
 62
     7
 10
105.973347772857
 20
90.3710991165052
 30
0.0
 11
105.9800267899084
 21
90.33913621022211
 31
0.0
  0
LINE
  5
F5
  8
0
  6
CONTINUOUS
 62
     7
 10
105.9800267899084
 20
90.33913621022211
 30
0.0
 11
105.9845659322487
 21
90.30683438797688
 31
0.0
  0
LINE
  5
F6
  8
0
  6
CONTINUOUS
 62
     7
 10
105.9845659322487
 20
90.30683438797688
 30
0.0
 11
105.9869524011991
 21
90.2743061902164
 31
0.0
  0
LINE
  5
F7
  8
0
  6
CONTINUOUS
 62
     7
 10
105.9869524011991
 20
90.2743061902164
 30
0.0
 11
105.9870701278755
 21
90.27110760347368
 31
0.0
  0
ARC
  5
F8
  8
0
  6
CONTINUOUS
 62
     7
 10
82.99999999999999
 20
89.5
 30
0.0
 40
23.00000000000007
 50
1.899047126745586
 51
1.921282268893719
  0
LINE
  5
F9
  8
0
  6
CONTINUOUS
 62
     7
 10
60.51250425278733
 20
88.24999569276959
 30
0.0
 11
60.4965883775022
 21
88.2502409014082
 31
0.0
  0
LINE
  5
FA
  8
0
  6
CONTINUOUS
 62
     7
 10
60.4965883775022
 20
88.2502409014082
 30
0.0
 11
60.48072600264906
 21
88.25098554864951
 31
0.0
  0
LINE
  5
FB
  8
0
  6
CONTINUOUS
 62
     7
 10
60.48072600264906
 20
88.25098554864951
 30
0.0
 11
60.4648236101955
 21
88.25223642078159
 31
0.0
  0
LINE
  5
FC
  8
0
  6
CONTINUOUS
 62
     7
 10
60.4648236101955
 20
88.25223642078159
 30
0.0
 11
60.44903620376481
 21
88.25398090050409
 31
0.0
  0
LINE
  5
FD
  8
0
  6
CONTINUOUS
 62
     7
 10
60.44903620376481
 20
88.25398090050409
 30
0.0
 11
60.43635143760267
 21
88.25574946681128
 31
0.0
  0
LINE
  5
FE
  8
0
  6
CONTINUOUS
 62
     7
 10
60.43635143760267
 20
88.25574946681128
 30
0.0
 11
60.42377463057819
 21
88.25782920524131
 31
0.0
  0
LINE
  5
FF
  8
0
  6
CONTINUOUS
 62
     7
 10
60.42377463057819
 20
88.25782920524131
 30
0.0
 11
60.41126068583344
 21
88.2602253723827
 31
0.0
  0
LINE
  5
100
  8
0
  6
CONTINUOUS
 62
     7
 10
60.41126068583344
 20
88.2602253723827
 30
0.0
 11
60.39888125187841
 21
88.26292109050499
 31
0.0
  0
LINE
  5
101
  8
0
  6
CONTINUOUS
 62
     7
 10
60.39888125187841
 20
88.26292109050499
 30
0.0
 11
60.38859458907886
 21
88.26541127906229
 31
0.0
  0
LINE
  5
102
  8
0
  6
CONTINUOUS
 62
     7
 10
60.38859458907886
 20
88.26541127906229
 30
0.0
 11
60.37840946466964
 21
88.2681042982843
 31
0.0
  0
LINE
  5
103
  8
0
  6
CONTINUOUS
 62
     7
 10
60.37840946466964
 20
88.2681042982843
 30
0.0
 11
60.36291841669659
 21
88.27264301568471
 31
0.0
  0
LINE
  5
104
  8
0
  6
CONTINUOUS
 62
     7
 10
60.36291841669659
 20
88.27264301568471
 30
0.0
 11
60.34771936605529
 21
88.2776284991692
 31
0.0
  0
LINE
  5
105
  8
0
  6
CONTINUOUS
 62
     7
 10
60.34771936605529
 20
88.2776284991692
 30
0.0
 11
60.33273514254802
 21
88.28307685098859
 31
0.0
  0
LINE
  5
106
  8
0
  6
CONTINUOUS
 62
     7
 10
60.33273514254802
 20
88.28307685098859
 30
0.0
 11
60.31807632186544
 21
88.288937201353
 31
0.0
  0
LINE
  5
107
  8
0
  6
CONTINUOUS
 62
     7
 10
60.31807632186544
 20
88.288937201353
 30
0.0
 11
60.30363115397164
 21
88.29524569545299
 31
0.0
  0
LINE
  5
108
  8
0
  6
CONTINUOUS
 62
     7
 10
60.30363115397164
 20
88.29524569545299
 30
0.0
 11
60.28953775053716
 21
88.30193241624359
 31
0.0
  0
LINE
  5
109
  8
0
  6
CONTINUOUS
 62
     7
 10
60.28953775053716
 20
88.30193241624359
 30
0.0
 11
60.27573404065723
 21
88.3090146361509
 31
0.0
  0
LINE
  5
10A
  8
0
  6
CONTINUOUS
 62
     7
 10
60.27573404065723
 20
88.3090146361509
 30
0.0
 11
60.26229853384625
 21
88.31643923325
 31
0.0
  0
LINE
  5
10B
  8
0
  6
CONTINUOUS
 62
     7
 10
60.26229853384625
 20
88.31643923325
 30
0.0
 11
60.24397884704699
 21
88.3274589093223
 31
0.0
  0
LINE
  5
10C
  8
0
  6
CONTINUOUS
 62
     7
 10
60.24397884704699
 20
88.3274589093223
 30
0.0
 11
60.22631539961687
 21
88.33913478593227
 31
0.0
  0
LINE
  5
10D
  8
0
  6
CONTINUOUS
 62
     7
 10
60.22631539961687
 20
88.33913478593227
 30
0.0
 11
60.20937710875209
 21
88.3513863804595
 31
0.0
  0
LINE
  5
10E
  8
0
  6
CONTINUOUS
 62
     7
 10
60.20937710875209
 20
88.3513863804595
 30
0.0
 11
60.19303451019709
 21
88.36428076873881
 31
0.0
  0
LINE
  5
10F
  8
0
  6
CONTINUOUS
 62
     7
 10
60.19303451019709
 20
88.36428076873881
 30
0.0
 11
60.17743607359542
 21
88.37767455552209
 31
0.0
  0
LINE
  5
110
  8
0
  6
CONTINUOUS
 62
     7
 10
60.17743607359542
 20
88.37767455552209
 30
0.0
 11
60.16246185118846
 21
88.3916442760109
 31
0.0
  0
LINE
  5
111
  8
0
  6
CONTINUOUS
 62
     7
 10
60.16246185118846
 20
88.3916442760109
 30
0.0
 11
60.14823971338759
 21
88.40604491623729
 31
0.0
  0
LINE
  5
112
  8
0
  6
CONTINUOUS
 62
     7
 10
60.14823971338759
 20
88.40604491623729
 30
0.0
 11
60.13472654443474
 21
88.42088593332328
 31
0.0
  0
LINE
  5
113
  8
0
  6
CONTINUOUS
 62
     7
 10
60.13472654443474
 20
88.42088593332328
 30
0.0
 11
60.11804008164945
 21
88.44101986438679
 31
0.0
  0
LINE
  5
114
  8
0
  6
CONTINUOUS
 62
     7
 10
60.11804008164945
 20
88.44101986438679
 30
0.0
 11
60.10258189495793
 21
88.46180156695371
 31
0.0
  0
LINE
  5
115
  8
0
  6
CONTINUOUS
 62
     7
 10
60.10258189495793
 20
88.46180156695371
 30
0.0
 11
60.08839287619337
 21
88.48310640087838
 31
0.0
  0
LINE
  5
116
  8
0
  6
CONTINUOUS
 62
     7
 10
60.08839287619337
 20
88.48310640087838
 30
0.0
 11
60.07535419741259
 21
88.50506471993607
 31
0.0
  0
LINE
  5
117
  8
0
  6
CONTINUOUS
 62
     7
 10
60.07535419741259
 20
88.50506471993607
 30
0.0
 11
60.06357691429871
 21
88.5274459409496
 31
0.0
  0
LINE
  5
118
  8
0
  6
CONTINUOUS
 62
     7
 10
60.06357691429871
 20
88.5274459409496
 30
0.0
 11
60.05296581185196
 21
88.5503912552133
 31
0.0
  0
LINE
  5
119
  8
0
  6
CONTINUOUS
 62
     7
 10
60.05296581185196
 20
88.5503912552133
 30
0.0
 11
60.04361068895817
 21
88.57367281451151
 31
0.0
  0
LINE
  5
11A
  8
0
  6
CONTINUOUS
 62
     7
 10
60.04361068895817
 20
88.57367281451151
 30
0.0
 11
60.03547867964229
 21
88.5973189417737
 31
0.0
  0
LINE
  5
11B
  8
0
  6
CONTINUOUS
 62
     7
 10
60.03547867964229
 20
88.5973189417737
 30
0.0
 11
60.02665222714297
 21
88.6289008834949
 31
0.0
  0
LINE
  5
11C
  8
0
  6
CONTINUOUS
 62
     7
 10
60.02665222714297
 20
88.6289008834949
 30
0.0
 11
60.01997321009161
 21
88.66086378977789
 31
0.0
  0
LINE
  5
11D
  8
0
  6
CONTINUOUS
 62
     7
 10
60.01997321009161
 20
88.66086378977789
 30
0.0
 11
60.01543406775125
 21
88.69316561202311
 31
0.0
  0
LINE
  5
11E
  8
0
  6
CONTINUOUS
 62
     7
 10
60.01543406775125
 20
88.69316561202311
 30
0.0
 11
60.01304759880091
 21
88.7256938097837
 31
0.0
  0
LINE
  5
11F
  8
0
  6
CONTINUOUS
 62
     7
 10
60.01304759880091
 20
88.7256938097837
 30
0.0
 11
60.01292987212452
 21
88.72889239652629
 31
0.0
  0
ARC
  5
120
  8
0
  6
CONTINUOUS
 62
     7
 10
82.99999999999999
 20
89.5
 30
0.0
 40
23.00000000000007
 50
181.8990471267456
 51
181.9212822688937
  0
ARC
  5
121
  8
0
  6
CONTINUOUS
 62
     7
 10
82.99999999999999
 20
89.5
 30
0.0
 40
23.00000000000007
 50
178.0787177311063
 51
178.1009528732544
  0
LINE
  5
122
  8
0
  6
CONTINUOUS
 62
     7
 10
60.01292987212452
 20
90.27110760347368
 30
0.0
 11
60.01304759880091
 21
90.27430619021628
 31
0.0
  0
LINE
  5
123
  8
0
  6
CONTINUOUS
 62
     7
 10
60.01304759880091
 20
90.27430619021628
 30
0.0
 11
60.01540503487221
 21
90.30656189218291
 31
0.0
  0
LINE
  5
124
  8
0
  6
CONTINUOUS
 62
     7
 10
60.01540503487221
 20
90.30656189218291
 30
0.0
 11
60.01990988020834
 21
90.33877254714389
 31
0.0
  0
LINE
  5
125
  8
0
  6
CONTINUOUS
 62
     7
 10
60.01990988020834
 20
90.33877254714389
 30
0.0
 11
60.02658587219415
 21
90.37082668388548
 31
0.0
  0
LINE
  5
126
  8
0
  6
CONTINUOUS
 62
     7
 10
60.02658587219415
 20
90.37082668388548
 30
0.0
 11
60.03547867964229
 21
90.40268105822638
 31
0.0
  0
LINE
  5
127
  8
0
  6
CONTINUOUS
 62
     7
 10
60.03547867964229
 20
90.40268105822638
 30
0.0
 11
60.04333032730376
 21
90.42557275200139
 31
0.0
  0
LINE
  5
128
  8
0
  6
CONTINUOUS
 62
     7
 10
60.04333032730376
 20
90.42557275200139
 30
0.0
 11
60.0524078071693
 21
90.44831106241519
 31
0.0
  0
LINE
  5
129
  8
0
  6
CONTINUOUS
 62
     7
 10
60.0524078071693
 20
90.44831106241519
 30
0.0
 11
60.06271263833343
 21
90.47079548971209
 31
0.0
  0
LINE
  5
12A
  8
0
  6
CONTINUOUS
 62
     7
 10
60.06271263833343
 20
90.47079548971209
 30
0.0
 11
60.0743613584647
 21
90.49315169878177
 31
0.0
  0
LINE
  5
12B
  8
0
  6
CONTINUOUS
 62
     7
 10
60.0743613584647
 20
90.49315169878177
 30
0.0
 11
60.08730826775448
 21
90.51516210593411
 31
0.0
  0
LINE
  5
12C
  8
0
  6
CONTINUOUS
 62
     7
 10
60.08730826775448
 20
90.51516210593411
 30
0.0
 11
60.10170055040399
 21
90.5369423793542
 31
0.0
  0
LINE
  5
12D
  8
0
  6
CONTINUOUS
 62
     7
 10
60.10170055040399
 20
90.5369423793542
 30
0.0
 11
60.11747675283334
 21
90.5582613803512
 31
0.0
  0
LINE
  5
12E
  8
0
  6
CONTINUOUS
 62
     7
 10
60.11747675283334
 20
90.5582613803512
 30
0.0
 11
60.13472654443474
 21
90.57911406667671
 31
0.0
  0
LINE
  5
12F
  8
0
  6
CONTINUOUS
 62
     7
 10
60.13472654443474
 20
90.57911406667671
 30
0.0
 11
60.15292224121779
 21
90.59882677530561
 31
0.0
  0
LINE
  5
130
  8
0
  6
CONTINUOUS
 62
     7
 10
60.15292224121779
 20
90.59882677530561
 30
0.0
 11
60.17254519821949
 21
90.61788853538371
 31
0.0
  0
LINE
  5
131
  8
0
  6
CONTINUOUS
 62
     7
 10
60.17254519821949
 20
90.61788853538371
 30
0.0
 11
60.19179222301744
 21
90.63469290561949
 31
0.0
  0
LINE
  5
132
  8
0
  6
CONTINUOUS
 62
     7
 10
60.19179222301744
 20
90.63469290561949
 30
0.0
 11
60.21228999862853
 21
90.6507982280301
 31
0.0
  0
LINE
  5
133
  8
0
  6
CONTINUOUS
 62
     7
 10
60.21228999862853
 20
90.6507982280301
 30
0.0
 11
60.22420433362386
 21
90.659396492094
 31
0.0
  0
LINE
  5
134
  8
0
  6
CONTINUOUS
 62
     7
 10
60.22420433362386
 20
90.659396492094
 30
0.0
 11
60.23649358808066
 21
90.6677241856895
 31
0.0
  0
LINE
  5
135
  8
0
  6
CONTINUOUS
 62
     7
 10
60.23649358808066
 20
90.6677241856895
 30
0.0
 11
60.24920795011746
 21
90.6757957878643
 31
0.0
  0
LINE
  5
136
  8
0
  6
CONTINUOUS
 62
     7
 10
60.24920795011746
 20
90.6757957878643
 30
0.0
 11
60.26229853384625
 21
90.68356076674999
 31
0.0
  0
LINE
  5
137
  8
0
  6
CONTINUOUS
 62
     7
 10
60.26229853384625
 20
90.68356076674999
 30
0.0
 11
60.27545070358867
 21
90.69083435094588
 31
0.0
  0
LINE
  5
138
  8
0
  6
CONTINUOUS
 62
     7
 10
60.27545070358867
 20
90.69083435094588
 30
0.0
 11
60.28897172751978
 21
90.6977877156957
 31
0.0
  0
LINE
  5
139
  8
0
  6
CONTINUOUS
 62
     7
 10
60.28897172751978
 20
90.6977877156957
 30
0.0
 11
60.30116935663138
 21
90.70362483581721
 31
0.0
  0
LINE
  5
13A
  8
0
  6
CONTINUOUS
 62
     7
 10
60.30116935663138
 20
90.70362483581721
 30
0.0
 11
60.31363302901126
 21
90.70917972995618
 31
0.0
  0
LINE
  5
13B
  8
0
  6
CONTINUOUS
 62
     7
 10
60.31363302901126
 20
90.70917972995618
 30
0.0
 11
60.3264109951223
 21
90.7144603652249
 31
0.0
  0
LINE
  5
13C
  8
0
  6
CONTINUOUS
 62
     7
 10
60.3264109951223
 20
90.7144603652249
 30
0.0
 11
60.33944442459607
 21
90.71942934152369
 31
0.0
  0
LINE
  5
13D
  8
0
  6
CONTINUOUS
 62
     7
 10
60.33944442459607
 20
90.71942934152369
 30
0.0
 11
60.35865968675828
 21
90.72601404808988
 31
0.0
  0
LINE
  5
13E
  8
0
  6
CONTINUOUS
 62
     7
 10
60.35865968675828
 20
90.72601404808988
 30
0.0
 11
60.37840946466964
 21
90.73189570171569
 31
0.0
  0
LINE
  5
13F
  8
0
  6
CONTINUOUS
 62
     7
 10
60.37840946466964
 20
90.73189570171569
 30
0.0
 11
60.38921383073203
 21
90.73474508546039
 31
0.0
  0
LINE
  5
140
  8
0
  6
CONTINUOUS
 62
     7
 10
60.38921383073203
 20
90.73474508546039
 30
0.0
 11
60.40014065326134
 21
90.73736810187529
 31
0.0
  0
LINE
  5
141
  8
0
  6
CONTINUOUS
 62
     7
 10
60.40014065326134
 20
90.73736810187529
 30
0.0
 11
60.41122132687961
 21
90.7397665938334
 31
0.0
  0
LINE
  5
142
  8
0
  6
CONTINUOUS
 62
     7
 10
60.41122132687961
 20
90.7397665938334
 30
0.0
 11
60.42240970643019
 21
90.74192536111619
 31
0.0
  0
LINE
  5
143
  8
0
  6
CONTINUOUS
 62
     7
 10
60.42240970643019
 20
90.74192536111619
 30
0.0
 11
60.43280058433658
 21
90.7436964619551
 31
0.0
  0
LINE
  5
144
  8
0
  6
CONTINUOUS
 62
     7
 10
60.43280058433658
 20
90.7436964619551
 30
0.0
 11
60.44326804617405
 21
90.74525564619229
 31
0.0
  0
LINE
  5
145
  8
0
  6
CONTINUOUS
 62
     7
 10
60.44326804617405
 20
90.74525564619229
 30
0.0
 11
60.45383956750003
 21
90.74660321809469
 31
0.0
  0
LINE
  5
146
  8
0
  6
CONTINUOUS
 62
     7
 10
60.45383956750003
 20
90.74660321809469
 30
0.0
 11
60.46447212590009
 21
90.7477303820285
 31
0.0
  0
LINE
  5
147
  8
0
  6
CONTINUOUS
 62
     7
 10
60.46447212590009
 20
90.7477303820285
 30
0.0
 11
60.47638712518722
 21
90.7487233418052
 31
0.0
  0
LINE
  5
148
  8
0
  6
CONTINUOUS
 62
     7
 10
60.47638712518722
 20
90.7487233418052
 30
0.0
 11
60.48835476461642
 21
90.7494351573849
 31
0.0
  0
LINE
  5
149
  8
0
  6
CONTINUOUS
 62
     7
 10
60.48835476461642
 20
90.7494351573849
 30
0.0
 11
60.50041622315564
 21
90.7498640493461
 31
0.0
  0
LINE
  5
14A
  8
0
  6
CONTINUOUS
 62
     7
 10
60.50041622315564
 20
90.7498640493461
 30
0.0
 11
60.51250425278733
 21
90.7500043072304
 31
0.0
  0
ARC
  5
14B
  8
0
  6
CONTINUOUS
 62
     7
 10
82.99999999999999
 20
89.5
 30
0.0
 40
23.00000000000007
 50
358.0787177311063
 51
358.1009528732543
  0
LINE
  5
14C
  8
0
  6
CONTINUOUS
 62
     7
 10
105.9870701278755
 20
88.72889239652629
 30
0.0
 11
105.9869524011991
 21
88.7256938097837
 31
0.0
  0
LINE
  5
14D
  8
0
  6
CONTINUOUS
 62
     7
 10
105.9869524011991
 20
88.7256938097837
 30
0.0
 11
105.9845930365946
 21
88.69341996223828
 31
0.0
  0
LINE
  5
14E
  8
0
  6
CONTINUOUS
 62
     7
 10
105.9845930365946
 20
88.69341996223828
 30
0.0
 11
105.9800869745418
 21
88.66120935349919
 31
0.0
  0
LINE
  5
14F
  8
0
  6
CONTINUOUS
 62
     7
 10
105.9800869745418
 20
88.66120935349919
 30
0.0
 11
105.9734097463455
 21
88.6291553063665
 31
0.0
  0
LINE
  5
150
  8
0
  6
CONTINUOUS
 62
     7
 10
105.9734097463455
 20
88.6291553063665
 30
0.0
 11
105.9645213203577
 21
88.5973189417737
 31
0.0
  0
LINE
  5
151
  8
0
  6
CONTINUOUS
 62
     7
 10
105.9645213203577
 20
88.5973189417737
 30
0.0
 11
105.9566581899208
 21
88.5743962743791
 31
0.0
  0
LINE
  5
152
  8
0
  6
CONTINUOUS
 62
     7
 10
105.9566581899208
 20
88.5743962743791
 30
0.0
 11
105.9475921928307
 21
88.5516889375848
 31
0.0
  0
LINE
  5
153
  8
0
  6
CONTINUOUS
 62
     7
 10
105.9475921928307
 20
88.5516889375848
 30
0.0
 11
105.9372459601013
 21
88.52911986552789
 31
0.0
  0
LINE
  5
154
  8
0
  6
CONTINUOUS
 62
     7
 10
105.9372459601013
 20
88.52911986552789
 30
0.0
 11
105.9256386415353
 21
88.50684830121821
 31
0.0
  0
LINE
  5
155
  8
0
  6
CONTINUOUS
 62
     7
 10
105.9256386415353
 20
88.50684830121821
 30
0.0
 11
105.9126387084335
 21
88.4847528749095
 31
0.0
  0
LINE
  5
156
  8
0
  6
CONTINUOUS
 62
     7
 10
105.9126387084335
 20
88.4847528749095
 30
0.0
 11
105.898299449596
 21
88.46305762064591
 31
0.0
  0
LINE
  5
157
  8
0
  6
CONTINUOUS
 62
     7
 10
105.898299449596
 20
88.46305762064591
 30
0.0
 11
105.8824990021542
 21
88.4417076290508
 31
0.0
  0
LINE
  5
158
  8
0
  6
CONTINUOUS
 62
     7
 10
105.8824990021542
 20
88.4417076290508
 30
0.0
 11
105.8652734555652
 21
88.42088593332328
 31
0.0
  0
LINE
  5
159
  8
0
  6
CONTINUOUS
 62
     7
 10
105.8652734555652
 20
88.42088593332328
 30
0.0
 11
105.8521803745674
 21
88.40648850975349
 31
0.0
  0
LINE
  5
15A
  8
0
  6
CONTINUOUS
 62
     7
 10
105.8521803745674
 20
88.40648850975349
 30
0.0
 11
105.8383444162939
 21
88.3924298750758
 31
0.0
  0
LINE
  5
15B
  8
0
  6
CONTINUOUS
 62
     7
 10
105.8383444162939
 20
88.3924298750758
 30
0.0
 11
105.8236775842731
 21
88.37867448205138
 31
0.0
  0
LINE
  5
15C
  8
0
  6
CONTINUOUS
 62
     7
 10
105.8236775842731
 20
88.37867448205138
 30
0.0
 11
105.8082344873284
 21
88.36532923564991
 31
0.0
  0
LINE
  5
15D
  8
0
  6
CONTINUOUS
 62
     7
 10
105.8082344873284
 20
88.36532923564991
 30
0.0
 11
105.7918778640177
 21
88.3523378715598
 31
0.0
  0
LINE
  5
15E
  8
0
  6
CONTINUOUS
 62
     7
 10
105.7918778640177
 20
88.3523378715598
 30
0.0
 11
105.7747097049644
 21
88.3398459479503
 31
0.0
  0
LINE
  5
15F
  8
0
  6
CONTINUOUS
 62
     7
 10
105.7747097049644
 20
88.3398459479503
 30
0.0
 11
105.7566236314916
 21
88.3278396760582
 31
0.0
  0
LINE
  5
160
  8
0
  6
CONTINUOUS
 62
     7
 10
105.7566236314916
 20
88.3278396760582
 30
0.0
 11
105.7377014661537
 21
88.31643923325
 31
0.0
  0
LINE
  5
161
  8
0
  6
CONTINUOUS
 62
     7
 10
105.7377014661537
 20
88.31643923325
 30
0.0
 11
105.7245312369781
 21
88.30915601302088
 31
0.0
  0
LINE
  5
162
  8
0
  6
CONTINUOUS
 62
     7
 10
105.7245312369781
 20
88.30915601302088
 30
0.0
 11
105.7109911363108
 21
88.30219389525517
 31
0.0
  0
LINE
  5
163
  8
0
  6
CONTINUOUS
 62
     7
 10
105.7109911363108
 20
88.30219389525517
 30
0.0
 11
105.6970217186412
 21
88.29554367186759
 31
0.0
  0
LINE
  5
164
  8
0
  6
CONTINUOUS
 62
     7
 10
105.6970217186412
 20
88.29554367186759
 30
0.0
 11
105.6827055917008
 21
88.2892649277486
 31
0.0
  0
LINE
  5
165
  8
0
  6
CONTINUOUS
 62
     7
 10
105.6827055917008
 20
88.2892649277486
 30
0.0
 11
105.6679689720086
 21
88.28334619894409
 31
0.0
  0
LINE
  5
166
  8
0
  6
CONTINUOUS
 62
     7
 10
105.6679689720086
 20
88.28334619894409
 30
0.0
 11
105.6529021421767
 21
88.2778438335423
 31
0.0
  0
LINE
  5
167
  8
0
  6
CONTINUOUS
 62
     7
 10
105.6529021421767
 20
88.2778438335423
 30
0.0
 11
105.6374120347089
 21
88.2727456194371
 31
0.0
  0
LINE
  5
168
  8
0
  6
CONTINUOUS
 62
     7
 10
105.6374120347089
 20
88.2727456194371
 30
0.0
 11
105.6215905353303
 21
88.2681042982843
 31
0.0
  0
LINE
  5
169
  8
0
  6
CONTINUOUS
 62
     7
 10
105.6215905353303
 20
88.2681042982843
 30
0.0
 11
105.606782023911
 21
88.26426371619911
 31
0.0
  0
LINE
  5
16A
  8
0
  6
CONTINUOUS
 62
     7
 10
105.606782023911
 20
88.26426371619911
 30
0.0
 11
105.5917252054567
 21
88.26084571305559
 31
0.0
  0
LINE
  5
16B
  8
0
  6
CONTINUOUS
 62
     7
 10
105.5917252054567
 20
88.26084571305559
 30
0.0
 11
105.577883599025
 21
88.2581279817119
 31
0.0
  0
LINE
  5
16C
  8
0
  6
CONTINUOUS
 62
     7
 10
105.577883599025
 20
88.2581279817119
 30
0.0
 11
105.5638899010011
 21
88.25578623948601
 31
0.0
  0
LINE
  5
16D
  8
0
  6
CONTINUOUS
 62
     7
 10
105.5638899010011
 20
88.25578623948601
 30
0.0
 11
105.5496775834433
 21
88.2538200023777
 31
0.0
  0
LINE
  5
16E
  8
0
  6
CONTINUOUS
 62
     7
 10
105.5496775834433
 20
88.2538200023777
 30
0.0
 11
105.5353492759804
 21
88.2522526306194
 31
0.0
  0
LINE
  5
16F
  8
0
  6
CONTINUOUS
 62
     7
 10
105.5353492759804
 20
88.2522526306194
 30
0.0
 11
105.5234779663239
 21
88.25126704131719
 31
0.0
  0
LINE
  5
170
  8
0
  6
CONTINUOUS
 62
     7
 10
105.5234779663239
 20
88.25126704131719
 30
0.0
 11
105.5115545506219
 21
88.25056053860497
 31
0.0
  0
LINE
  5
171
  8
0
  6
CONTINUOUS
 62
     7
 10
105.5115545506219
 20
88.25056053860497
 30
0.0
 11
105.4995383093056
 21
88.2501348793511
 31
0.0
  0
LINE
  5
172
  8
0
  6
CONTINUOUS
 62
     7
 10
105.4995383093056
 20
88.2501348793511
 30
0.0
 11
105.4874957472126
 21
88.24999569276959
 31
0.0
  0
LINE
  5
173
  8
0
  6
CONTINUOUS
 62
     7
 10
81.97333684097076
 20
112.4770747215109
 30
0.0
 11
81.97013976710524
 21
112.4769214358707
 31
0.0
  0
LINE
  5
174
  8
0
  6
CONTINUOUS
 62
     7
 10
81.97013976710524
 20
112.4769214358707
 30
0.0
 11
81.9428813353226
 21
112.4747638336514
 31
0.0
  0
LINE
  5
175
  8
0
  6
CONTINUOUS
 62
     7
 10
81.9428813353226
 20
112.4747638336514
 30
0.0
 11
81.9156976119792
 21
112.4710793007032
 31
0.0
  0
LINE
  5
176
  8
0
  6
CONTINUOUS
 62
     7
 10
81.9156976119792
 20
112.4710793007032
 30
0.0
 11
81.88848239938712
 21
112.4658221309258
 31
0.0
  0
LINE
  5
177
  8
0
  6
CONTINUOUS
 62
     7
 10
81.88848239938712
 20
112.4658221309258
 30
0.0
 11
81.86143559705538
 21
112.4589917352126
 31
0.0
  0
LINE
  5
178
  8
0
  6
CONTINUOUS
 62
     7
 10
81.86143559705538
 20
112.4589917352126
 30
0.0
 11
81.83438595675364
 21
112.4504898556571
 31
0.0
  0
LINE
  5
179
  8
0
  6
CONTINUOUS
 62
     7
 10
81.83438595675364
 20
112.4504898556571
 30
0.0
 11
81.80761293613527
 21
112.4403390111056
 31
0.0
  0
LINE
  5
17A
  8
0
  6
CONTINUOUS
 62
     7
 10
81.80761293613527
 20
112.4403390111056
 30
0.0
 11
81.78102566679613
 21
112.4284337557762
 31
0.0
  0
LINE
  5
17B
  8
0
  6
CONTINUOUS
 62
     7
 10
81.78102566679613
 20
112.4284337557762
 30
0.0
 11
81.75484447640875
 21
112.4147883238194
 31
0.0
  0
LINE
  5
17C
  8
0
  6
CONTINUOUS
 62
     7
 10
81.75484447640875
 20
112.4147883238194
 30
0.0
 11
81.73593545461657
 21
112.4036437691247
 31
0.0
  0
LINE
  5
17D
  8
0
  6
CONTINUOUS
 62
     7
 10
81.73593545461657
 20
112.4036437691247
 30
0.0
 11
81.71732525108042
 21
112.3915244236454
 31
0.0
  0
LINE
  5
17E
  8
0
  6
CONTINUOUS
 62
     7
 10
81.71732525108042
 20
112.3915244236454
 30
0.0
 11
81.6989584750912
 21
112.3783423807781
 31
0.0
  0
LINE
  5
17F
  8
0
  6
CONTINUOUS
 62
     7
 10
81.6989584750912
 20
112.3783423807781
 30
0.0
 11
81.68096867027784
 21
112.3641346511441
 31
0.0
  0
LINE
  5
180
  8
0
  6
CONTINUOUS
 62
     7
 10
81.68096867027784
 20
112.3641346511441
 30
0.0
 11
81.66326906098166
 21
112.3487600517718
 31
0.0
  0
LINE
  5
181
  8
0
  6
CONTINUOUS
 62
     7
 10
81.66326906098166
 20
112.3487600517718
 30
0.0
 11
81.64604571186472
 21
112.3322974660173
 31
0.0
  0
LINE
  5
182
  8
0
  6
CONTINUOUS
 62
     7
 10
81.64604571186472
 20
112.3322974660173
 30
0.0
 11
81.6292672932494
 21
112.3146269353644
 31
0.0
  0
LINE
  5
183
  8
0
  6
CONTINUOUS
 62
     7
 10
81.6292672932494
 20
112.3146269353644
 30
0.0
 11
81.61308816511237
 21
112.295807492674
 31
0.0
  0
LINE
  5
184
  8
0
  6
CONTINUOUS
 62
     7
 10
81.61308816511237
 20
112.295807492674
 30
0.0
 11
81.60269922655314
 21
112.2826505899739
 31
0.0
  0
LINE
  5
185
  8
0
  6
CONTINUOUS
 62
     7
 10
81.60269922655314
 20
112.2826505899739
 30
0.0
 11
81.59263378510097
 21
112.2689769333613
 31
0.0
  0
LINE
  5
186
  8
0
  6
CONTINUOUS
 62
     7
 10
81.59263378510097
 20
112.2689769333613
 30
0.0
 11
81.58382883803255
 21
112.2561613145986
 31
0.0
  0
LINE
  5
187
  8
0
  6
CONTINUOUS
 62
     7
 10
81.58382883803255
 20
112.2561613145986
 30
0.0
 11
81.57533679864453
 21
112.2429328204138
 31
0.0
  0
LINE
  5
188
  8
0
  6
CONTINUOUS
 62
     7
 10
81.57533679864453
 20
112.2429328204138
 30
0.0
 11
81.56714153253041
 21
112.229230246558
 31
0.0
  0
LINE
  5
189
  8
0
  6
CONTINUOUS
 62
     7
 10
81.56714153253041
 20
112.229230246558
 30
0.0
 11
81.55930266117748
 21
112.2151146894761
 31
0.0
  0
LINE
  5
18A
  8
0
  6
CONTINUOUS
 62
     7
 10
81.55930266117748
 20
112.2151146894761
 30
0.0
 11
81.5531443387268
 21
112.2032108796843
 31
0.0
  0
LINE
  5
18B
  8
0
  6
CONTINUOUS
 62
     7
 10
81.5531443387268
 20
112.2032108796843
 30
0.0
 11
81.54725392489206
 21
112.1910342117354
 31
0.0
  0
LINE
  5
18C
  8
0
  6
CONTINUOUS
 62
     7
 10
81.54725392489206
 20
112.1910342117354
 30
0.0
 11
81.54162322916414
 21
112.1785398241877
 31
0.0
  0
LINE
  5
18D
  8
0
  6
CONTINUOUS
 62
     7
 10
81.54162322916414
 20
112.1785398241877
 30
0.0
 11
81.5362890372037
 21
112.1657800520598
 31
0.0
  0
LINE
  5
18E
  8
0
  6
CONTINUOUS
 62
     7
 10
81.5362890372037
 20
112.1657800520598
 30
0.0
 11
81.53088567785365
 21
112.1517323585919
 31
0.0
  0
LINE
  5
18F
  8
0
  6
CONTINUOUS
 62
     7
 10
81.53088567785365
 20
112.1517323585919
 30
0.0
 11
81.52585393156862
 21
112.1373742068265
 31
0.0
  0
LINE
  5
190
  8
0
  6
CONTINUOUS
 62
     7
 10
81.52585393156862
 20
112.1373742068265
 30
0.0
 11
81.5211897050643
 21
112.1226386772045
 31
0.0
  0
LINE
  5
191
  8
0
  6
CONTINUOUS
 62
     7
 10
81.5211897050643
 20
112.1226386772045
 30
0.0
 11
81.51694507819751
 21
112.1076343986723
 31
0.0
  0
LINE
  5
192
  8
0
  6
CONTINUOUS
 62
     7
 10
81.51694507819751
 20
112.1076343986723
 30
0.0
 11
81.51311483378905
 21
112.0922789028429
 31
0.0
  0
LINE
  5
193
  8
0
  6
CONTINUOUS
 62
     7
 10
81.51311483378905
 20
112.0922789028429
 30
0.0
 11
81.50974443896544
 21
112.0766878418044
 31
0.0
  0
LINE
  5
194
  8
0
  6
CONTINUOUS
 62
     7
 10
81.50974443896544
 20
112.0766878418044
 30
0.0
 11
81.50682983647175
 21
112.06075873658
 31
0.0
  0
LINE
  5
195
  8
0
  6
CONTINUOUS
 62
     7
 10
81.50682983647175
 20
112.06075873658
 30
0.0
 11
81.50441045624386
 21
112.0446071861754
 31
0.0
  0
LINE
  5
196
  8
0
  6
CONTINUOUS
 62
     7
 10
81.50441045624386
 20
112.0446071861754
 30
0.0
 11
81.50249018159272
 21
112.0281305224443
 31
0.0
  0
LINE
  5
197
  8
0
  6
CONTINUOUS
 62
     7
 10
81.50249018159272
 20
112.0281305224443
 30
0.0
 11
81.50110470740583
 21
112.0114736532774
 31
0.0
  0
LINE
  5
198
  8
0
  6
CONTINUOUS
 62
     7
 10
81.50110470740583
 20
112.0114736532774
 30
0.0
 11
81.50026869721299
 21
111.994677015575
 31
0.0
  0
LINE
  5
199
  8
0
  6
CONTINUOUS
 62
     7
 10
81.50026869721299
 20
111.994677015575
 30
0.0
 11
81.49999326975276
 21
111.9777656465652
 31
0.0
  0
ARC
  5
19A
  8
0
  6
CONTINUOUS
 62
     7
 10
83.0
 20
89.5
 30
0.0
 40
23.00000000000015
 50
92.54726965170936
 51
92.55839208306035
  0
ARC
  5
19B
  8
0
  6
CONTINUOUS
 62
     7
 10
82.99999999999999
 20
89.5
 30
0.0
 40
22.99999999999999
 50
92.55839208306035
 51
178.0787177311063
  0
LINE
  5
19C
  8
0
  6
CONTINUOUS
 62
     7
 10
81.49999326975278
 20
67.02223435343488
 30
0.0
 11
81.50024013174561
 21
67.0062164277389
 31
0.0
  0
LINE
  5
19D
  8
0
  6
CONTINUOUS
 62
     7
 10
81.50024013174561
 20
67.0062164277389
 30
0.0
 11
81.5009925171326
 21
66.99025826427417
 31
0.0
  0
LINE
  5
19E
  8
0
  6
CONTINUOUS
 62
     7
 10
81.5009925171326
 20
66.99025826427417
 30
0.0
 11
81.5022568198194
 21
66.97426509680882
 31
0.0
  0
LINE
  5
19F
  8
0
  6
CONTINUOUS
 62
     7
 10
81.5022568198194
 20
66.97426509680882
 30
0.0
 11
81.50401972098939
 21
66.95839372268078
 31
0.0
  0
LINE
  5
1A0
  8
0
  6
CONTINUOUS
 62
     7
 10
81.50401972098939
 20
66.95839372268078
 30
0.0
 11
81.50580651976847
 21
66.9456454660914
 31
0.0
  0
LINE
  5
1A1
  8
0
  6
CONTINUOUS
 62
     7
 10
81.50580651976847
 20
66.9456454660914
 30
0.0
 11
81.5079070689274
 21
66.93300961706858
 31
0.0
  0
LINE
  5
1A2
  8
0
  6
CONTINUOUS
 62
     7
 10
81.5079070689274
 20
66.93300961706858
 30
0.0
 11
81.51032643269589
 21
66.92044077151041
 31
0.0
  0
LINE
  5
1A3
  8
0
  6
CONTINUOUS
 62
     7
 10
81.51032643269589
 20
66.92044077151041
 30
0.0
 11
81.51304736461984
 21
66.90801070928009
 31
0.0
  0
LINE
  5
1A4
  8
0
  6
CONTINUOUS
 62
     7
 10
81.51304736461984
 20
66.90801070928009
 30
0.0
 11
81.51556011308537
 21
66.89768465599471
 31
0.0
  0
LINE
  5
1A5
  8
0
  6
CONTINUOUS
 62
     7
 10
81.51556011308537
 20
66.89768465599471
 30
0.0
 11
81.51827680178972
 21
66.88746294793049
 31
0.0
  0
LINE
  5
1A6
  8
0
  6
CONTINUOUS
 62
     7
 10
81.51827680178972
 20
66.88746294793049
 30
0.0
 11
81.52285304009675
 21
66.87192347291018
 31
0.0
  0
LINE
  5
1A7
  8
0
  6
CONTINUOUS
 62
     7
 10
81.52285304009675
 20
66.87192347291018
 30
0.0
 11
81.52787780853113
 21
66.85668181526499
 31
0.0
  0
LINE
  5
1A8
  8
0
  6
CONTINUOUS
 62
     7
 10
81.52787780853113
 20
66.85668181526499
 30
0.0
 11
81.5333668296105
 21
66.8416609027756
 31
0.0
  0
LINE
  5
1A9
  8
0
  6
CONTINUOUS
 62
     7
 10
81.5333668296105
 20
66.8416609027756
 30
0.0
 11
81.53926900252887
 21
66.8269702776946
 31
0.0
  0
LINE
  5
1AA
  8
0
  6
CONTINUOUS
 62
     7
 10
81.53926900252887
 20
66.8269702776946
 30
0.0
 11
81.54562004422876
 21
66.8124987980866
 31
0.0
  0
LINE
  5
1AB
  8
0
  6
CONTINUOUS
 62
     7
 10
81.54562004422876
 20
66.8124987980866
 30
0.0
 11
81.55235007258128
 21
66.798383049857
 31
0.0
  0
LINE
  5
1AC
  8
0
  6
CONTINUOUS
 62
     7
 10
81.55235007258128
 20
66.798383049857
 30
0.0
 11
81.55947602326187
 21
66.78456130964341
 31
0.0
  0
LINE
  5
1AD
  8
0
  6
CONTINUOUS
 62
     7
 10
81.55947602326187
 20
66.78456130964341
 30
0.0
 11
81.56694492973799
 21
66.77111091649287
 31
0.0
  0
LINE
  5
1AE
  8
0
  6
CONTINUOUS
 62
     7
 10
81.56694492973799
 20
66.77111091649287
 30
0.0
 11
81.57811207783722
 21
66.75264245245619
 31
0.0
  0
LINE
  5
1AF
  8
0
  6
CONTINUOUS
 62
     7
 10
81.57811207783722
 20
66.75264245245619
 30
0.0
 11
81.58994587044101
 21
66.7348454680338
 31
0.0
  0
LINE
  5
1B0
  8
0
  6
CONTINUOUS
 62
     7
 10
81.58994587044101
 20
66.7348454680338
 30
0.0
 11
81.60236447994535
 21
66.71778881882759
 31
0.0
  0
LINE
  5
1B1
  8
0
  6
CONTINUOUS
 62
     7
 10
81.60236447994535
 20
66.71778881882759
 30
0.0
 11
81.61543568591401
 21
66.7013417812739
 31
0.0
  0
LINE
  5
1B2
  8
0
  6
CONTINUOUS
 62
     7
 10
81.61543568591401
 20
66.7013417812739
 30
0.0
 11
81.62901409555448
 21
66.68565336481811
 31
0.0
  0
LINE
  5
1B3
  8
0
  6
CONTINUOUS
 62
     7
 10
81.62901409555448
 20
66.68565336481811
 30
0.0
 11
81.64317721575985
 21
66.67060272934758
 31
0.0
  0
LINE
  5
1B4
  8
0
  6
CONTINUOUS
 62
     7
 10
81.64317721575985
 20
66.67060272934758
 30
0.0
 11
81.6577781105546
 21
66.6563181433281
 31
0.0
  0
LINE
  5
1B5
  8
0
  6
CONTINUOUS
 62
     7
 10
81.6577781105546
 20
66.6563181433281
 30
0.0
 11
81.67282639086756
 21
66.64275614097909
 31
0.0
  0
LINE
  5
1B6
  8
0
  6
CONTINUOUS
 62
     7
 10
81.67282639086756
 20
66.64275614097909
 30
0.0
 11
81.69320539940625
 21
66.62605521870631
 31
0.0
  0
LINE
  5
1B7
  8
0
  6
CONTINUOUS
 62
     7
 10
81.69320539940625
 20
66.62605521870631
 30
0.0
 11
81.71424085404412
 21
66.61060144827289
 31
0.0
  0
LINE
  5
1B8
  8
0
  6
CONTINUOUS
 62
     7
 10
81.71424085404412
 20
66.61060144827289
 30
0.0
 11
81.7358069693222
 21
66.5964358802943
 31
0.0
  0
LINE
  5
1B9
  8
0
  6
CONTINUOUS
 62
     7
 10
81.7358069693222
 20
66.5964358802943
 30
0.0
 11
81.75803620141512
 21
66.58344030973751
 31
0.0
  0
LINE
  5
1BA
  8
0
  6
CONTINUOUS
 62
     7
 10
81.75803620141512
 20
66.58344030973751
 30
0.0
 11
81.78069528701077
 21
66.57172620910929
 31
0.0
  0
LINE
  5
1BB
  8
0
  6
CONTINUOUS
 62
     7
 10
81.78069528701077
 20
66.57172620910929
 30
0.0
 11
81.80392769411525
 21
66.56119961848489
 31
0.0
  0
LINE
  5
1BC
  8
0
  6
CONTINUOUS
 62
     7
 10
81.80392769411525
 20
66.56119961848489
 30
0.0
 11
81.82750262782768
 21
66.5519508088482
 31
0.0
  0
LINE
  5
1BD
  8
0
  6
CONTINUOUS
 62
     7
 10
81.82750262782768
 20
66.5519508088482
 30
0.0
 11
81.85144899904158
 21
66.54394818741203
 31
0.0
  0
LINE
  5
1BE
  8
0
  6
CONTINUOUS
 62
     7
 10
81.85144899904158
 20
66.54394818741203
 30
0.0
 11
81.88067959301306
 21
66.53598140087838
 31
0.0
  0
LINE
  5
1BF
  8
0
  6
CONTINUOUS
 62
     7
 10
81.88067959301306
 20
66.53598140087838
 30
0.0
 11
81.91023613120035
 21
66.5298484321353
 31
0.0
  0
LINE
  5
1C0
  8
0
  6
CONTINUOUS
 62
     7
 10
81.91023613120035
 20
66.5298484321353
 30
0.0
 11
81.940085712062
 21
66.5255440050411
 31
0.0
  0
LINE
  5
1C1
  8
0
  6
CONTINUOUS
 62
     7
 10
81.940085712062
 20
66.5255440050411
 30
0.0
 11
81.97013976710242
 21
66.52307856413151
 31
0.0
  0
LINE
  5
1C2
  8
0
  6
CONTINUOUS
 62
     7
 10
81.97013976710242
 20
66.52307856413151
 30
0.0
 11
81.97333684097076
 21
66.52292527848918
 31
0.0
  0
ARC
  5
1C3
  8
0
  6
CONTINUOUS
 62
     7
 10
83.0
 20
89.5
 30
0.0
 40
23.00000000000015
 50
267.4416079169396
 51
267.4527303482905
  0
ARC
  5
1C4
  8
0
  6
CONTINUOUS
 62
     7
 10
82.99999999999999
 20
89.5
 30
0.0
 40
22.99999999999999
 50
181.9212822688937
 51
267.4416079169396
  0
LINE
  5
1C5
  8
0
  6
CONTINUOUS
 62
     7
 10
84.5000067302472
 20
111.9777656465652
 30
0.0
 11
84.49987651048276
 21
111.9894700901592
 31
0.0
  0
LINE
  5
1C6
  8
0
  6
CONTINUOUS
 62
     7
 10
84.49987651048276
 20
111.9894700901592
 30
0.0
 11
84.49947575964183
 21
112.0011471252998
 31
0.0
  0
LINE
  5
1C7
  8
0
  6
CONTINUOUS
 62
     7
 10
84.49947575964183
 20
112.0011471252998
 30
0.0
 11
84.49880292172763
 21
112.0128340003845
 31
0.0
  0
LINE
  5
1C8
  8
0
  6
CONTINUOUS
 62
     7
 10
84.49880292172763
 20
112.0128340003845
 30
0.0
 11
84.49786209810311
 21
112.0244690176314
 31
0.0
  0
LINE
  5
1C9
  8
0
  6
CONTINUOUS
 62
     7
 10
84.49786209810311
 20
112.0244690176314
 30
0.0
 11
84.49676028876867
 21
112.0351377156519
 31
0.0
  0
LINE
  5
1CA
  8
0
  6
CONTINUOUS
 62
     7
 10
84.49676028876867
 20
112.0351377156519
 30
0.0
 11
84.49543674347962
 21
112.0457439338247
 31
0.0
  0
LINE
  5
1CB
  8
0
  6
CONTINUOUS
 62
     7
 10
84.49543674347962
 20
112.0457439338247
 30
0.0
 11
84.49388923076226
 21
112.0563148773419
 31
0.0
  0
LINE
  5
1CC
  8
0
  6
CONTINUOUS
 62
     7
 10
84.49388923076226
 20
112.0563148773419
 30
0.0
 11
84.49212582797726
 21
112.0668067511095
 31
0.0
  0
LINE
  5
1CD
  8
0
  6
CONTINUOUS
 62
     7
 10
84.49212582797726
 20
112.0668067511095
 30
0.0
 11
84.48991008523426
 21
112.0784026024334
 31
0.0
  0
LINE
  5
1CE
  8
0
  6
CONTINUOUS
 62
     7
 10
84.48991008523426
 20
112.0784026024334
 30
0.0
 11
84.48743729682724
 21
112.0898813573181
 31
0.0
  0
LINE
  5
1CF
  8
0
  6
CONTINUOUS
 62
     7
 10
84.48743729682724
 20
112.0898813573181
 30
0.0
 11
84.48470304882883
 21
112.1012767559445
 31
0.0
  0
LINE
  5
1D0
  8
0
  6
CONTINUOUS
 62
     7
 10
84.48470304882883
 20
112.1012767559445
 30
0.0
 11
84.48172319821025
 21
112.1125370520696
 31
0.0
  0
LINE
  5
1D1
  8
0
  6
CONTINUOUS
 62
     7
 10
84.48172319821025
 20
112.1125370520696
 30
0.0
 11
84.47715801506821
 21
112.1280414838244
 31
0.0
  0
LINE
  5
1D2
  8
0
  6
CONTINUOUS
 62
     7
 10
84.47715801506821
 20
112.1280414838244
 30
0.0
 11
84.47213760970116
 21
112.1432738063441
 31
0.0
  0
LINE
  5
1D3
  8
0
  6
CONTINUOUS
 62
     7
 10
84.47213760970116
 20
112.1432738063441
 30
0.0
 11
84.46735453644585
 21
112.156447148258
 31
0.0
  0
LINE
  5
1D4
  8
0
  6
CONTINUOUS
 62
     7
 10
84.46735453644585
 20
112.156447148258
 30
0.0
 11
84.46225257514067
 21
112.1693682619282
 31
0.0
  0
LINE
  5
1D5
  8
0
  6
CONTINUOUS
 62
     7
 10
84.46225257514067
 20
112.1693682619282
 30
0.0
 11
84.45682100609669
 21
112.1820843563395
 31
0.0
  0
LINE
  5
1D6
  8
0
  6
CONTINUOUS
 62
     7
 10
84.45682100609669
 20
112.1820843563395
 30
0.0
 11
84.45109535487681
 21
112.1945321692519
 31
0.0
  0
LINE
  5
1D7
  8
0
  6
CONTINUOUS
 62
     7
 10
84.45109535487681
 20
112.1945321692519
 30
0.0
 11
84.44235606803943
 21
112.2119843189029
 31
0.0
  0
LINE
  5
1D8
  8
0
  6
CONTINUOUS
 62
     7
 10
84.44235606803943
 20
112.2119843189029
 30
0.0
 11
84.433055070262
 21
112.2288890835072
 31
0.0
  0
LINE
  5
1D9
  8
0
  6
CONTINUOUS
 62
     7
 10
84.433055070262
 20
112.2288890835072
 30
0.0
 11
84.42542970819761
 21
112.2416923571351
 31
0.0
  0
LINE
  5
1DA
  8
0
  6
CONTINUOUS
 62
     7
 10
84.42542970819761
 20
112.2416923571351
 30
0.0
 11
84.4175108357234
 21
112.2541342816815
 31
0.0
  0
LINE
  5
1DB
  8
0
  6
CONTINUOUS
 62
     7
 10
84.4175108357234
 20
112.2541342816815
 30
0.0
 11
84.40928283791511
 21
112.2662591217458
 31
0.0
  0
LINE
  5
1DC
  8
0
  6
CONTINUOUS
 62
     7
 10
84.40928283791511
 20
112.2662591217458
 30
0.0
 11
84.40079107245846
 21
112.2780186826551
 31
0.0
  0
LINE
  5
1DD
  8
0
  6
CONTINUOUS
 62
     7
 10
84.40079107245846
 20
112.2780186826551
 30
0.0
 11
84.38453877388027
 21
112.2986889979998
 31
0.0
  0
LINE
  5
1DE
  8
0
  6
CONTINUOUS
 62
     7
 10
84.38453877388027
 20
112.2986889979998
 30
0.0
 11
84.36748513409351
 21
112.3181846325391
 31
0.0
  0
LINE
  5
1DF
  8
0
  6
CONTINUOUS
 62
     7
 10
84.36748513409351
 20
112.3181846325391
 30
0.0
 11
84.3477304953442
 21
112.3384298764209
 31
0.0
  0
LINE
  5
1E0
  8
0
  6
CONTINUOUS
 62
     7
 10
84.3477304953442
 20
112.3384298764209
 30
0.0
 11
84.32717360913242
 21
112.3572438590209
 31
0.0
  0
LINE
  5
1E1
  8
0
  6
CONTINUOUS
 62
     7
 10
84.32717360913242
 20
112.3572438590209
 30
0.0
 11
84.30679460059376
 21
112.3739447812937
 31
0.0
  0
LINE
  5
1E2
  8
0
  6
CONTINUOUS
 62
     7
 10
84.30679460059376
 20
112.3739447812937
 30
0.0
 11
84.28575914595592
 21
112.3893985517271
 31
0.0
  0
LINE
  5
1E3
  8
0
  6
CONTINUOUS
 62
     7
 10
84.28575914595592
 20
112.3893985517271
 30
0.0
 11
84.26419303067787
 21
112.4035641197057
 31
0.0
  0
LINE
  5
1E4
  8
0
  6
CONTINUOUS
 62
     7
 10
84.26419303067787
 20
112.4035641197057
 30
0.0
 11
84.24196379858498
 21
112.4165596902625
 31
0.0
  0
LINE
  5
1E5
  8
0
  6
CONTINUOUS
 62
     7
 10
84.24196379858498
 20
112.4165596902625
 30
0.0
 11
84.21930471298938
 21
112.4282737908907
 31
0.0
  0
LINE
  5
1E6
  8
0
  6
CONTINUOUS
 62
     7
 10
84.21930471298938
 20
112.4282737908907
 30
0.0
 11
84.19607230588494
 21
112.438800381515
 31
0.0
  0
LINE
  5
1E7
  8
0
  6
CONTINUOUS
 62
     7
 10
84.19607230588494
 20
112.438800381515
 30
0.0
 11
84.17249737217254
 21
112.4480491911517
 31
0.0
  0
LINE
  5
1E8
  8
0
  6
CONTINUOUS
 62
     7
 10
84.17249737217254
 20
112.4480491911517
 30
0.0
 11
84.1485510009587
 21
112.4560518125879
 31
0.0
  0
LINE
  5
1E9
  8
0
  6
CONTINUOUS
 62
     7
 10
84.1485510009587
 20
112.4560518125879
 30
0.0
 11
84.11933474862282
 21
112.4640151607532
 31
0.0
  0
LINE
  5
1EA
  8
0
  6
CONTINUOUS
 62
     7
 10
84.11933474862282
 20
112.4640151607532
 30
0.0
 11
84.08976386879979
 21
112.4701515678647
 31
0.0
  0
LINE
  5
1EB
  8
0
  6
CONTINUOUS
 62
     7
 10
84.08976386879979
 20
112.4701515678647
 30
0.0
 11
84.05992891565201
 21
112.4744543416391
 31
0.0
  0
LINE
  5
1EC
  8
0
  6
CONTINUOUS
 62
     7
 10
84.05992891565201
 20
112.4744543416391
 30
0.0
 11
84.02986023289766
 21
112.4769214358685
 31
0.0
  0
LINE
  5
1ED
  8
0
  6
CONTINUOUS
 62
     7
 10
84.02986023289766
 20
112.4769214358685
 30
0.0
 11
84.02666315902923
 21
112.4770747215109
 31
0.0
  0
ARC
  5
1EE
  8
0
  6
CONTINUOUS
 62
     7
 10
82.99999999999999
 20
89.5
 30
0.0
 40
22.99999999999999
 50
1.921282268893719
 51
87.44160791693963
  0
ARC
  5
1EF
  8
0
  6
CONTINUOUS
 62
     7
 10
83.0
 20
89.5
 30
0.0
 40
23.00000000000001
 50
87.44160791693969
 51
87.4527303482907
  0
LINE
  5
1F0
  8
0
  6
CONTINUOUS
 62
     7
 10
84.02666315902924
 20
66.52292527848918
 30
0.0
 11
84.02986023289765
 21
66.52307856413151
 31
0.0
  0
LINE
  5
1F1
  8
0
  6
CONTINUOUS
 62
     7
 10
84.02986023289765
 20
66.52307856413151
 30
0.0
 11
84.05971381253846
 21
66.52552139071169
 31
0.0
  0
LINE
  5
1F2
  8
0
  6
CONTINUOUS
 62
     7
 10
84.05971381253846
 20
66.52552139071169
 30
0.0
 11
84.08949176934665
 21
66.5298007110473
 31
0.0
  0
LINE
  5
1F3
  8
0
  6
CONTINUOUS
 62
     7
 10
84.08949176934665
 20
66.5298007110473
 30
0.0
 11
84.11912021702997
 21
66.53593345334538
 31
0.0
  0
LINE
  5
1F4
  8
0
  6
CONTINUOUS
 62
     7
 10
84.11912021702997
 20
66.53593345334538
 30
0.0
 11
84.1485510009587
 21
66.5439481874121
 31
0.0
  0
LINE
  5
1F5
  8
0
  6
CONTINUOUS
 62
     7
 10
84.1485510009587
 20
66.5439481874121
 30
0.0
 11
84.17176272438257
 21
66.55168483141303
 31
0.0
  0
LINE
  5
1F6
  8
0
  6
CONTINUOUS
 62
     7
 10
84.17176272438257
 20
66.55168483141303
 30
0.0
 11
84.19475494387143
 21
66.56064557649738
 31
0.0
  0
LINE
  5
1F7
  8
0
  6
CONTINUOUS
 62
     7
 10
84.19475494387143
 20
66.56064557649738
 30
0.0
 11
84.21760605568872
 21
66.570906970219
 31
0.0
  0
LINE
  5
1F8
  8
0
  6
CONTINUOUS
 62
     7
 10
84.21760605568872
 20
66.570906970219
 30
0.0
 11
84.24015434765877
 21
66.58244973342939
 31
0.0
  0
LINE
  5
1F9
  8
0
  6
CONTINUOUS
 62
     7
 10
84.24015434765877
 20
66.58244973342939
 30
0.0
 11
84.26252330989333
 21
66.59540503126068
 31
0.0
  0
LINE
  5
1FA
  8
0
  6
CONTINUOUS
 62
     7
 10
84.26252330989333
 20
66.59540503126068
 30
0.0
 11
84.28448567997523
 21
66.60971955647591
 31
0.0
  0
LINE
  5
1FB
  8
0
  6
CONTINUOUS
 62
     7
 10
84.28448567997523
 20
66.60971955647591
 30
0.0
 11
84.30609755665108
 21
66.62551528312699
 31
0.0
  0
LINE
  5
1FC
  8
0
  6
CONTINUOUS
 62
     7
 10
84.30609755665108
 20
66.62551528312699
 30
0.0
 11
84.32717360913243
 21
66.64275614097909
 31
0.0
  0
LINE
  5
1FD
  8
0
  6
CONTINUOUS
 62
     7
 10
84.32717360913243
 20
66.64275614097909
 30
0.0
 11
84.34177240066509
 21
66.65589664396279
 31
0.0
  0
LINE
  5
1FE
  8
0
  6
CONTINUOUS
 62
     7
 10
84.34177240066509
 20
66.65589664396279
 30
0.0
 11
84.35602680023497
 21
66.66979316984029
 31
0.0
  0
LINE
  5
1FF
  8
0
  6
CONTINUOUS
 62
     7
 10
84.35602680023497
 20
66.66979316984029
 30
0.0
 11
84.36997281799995
 21
66.68453439650948
 31
0.0
  0
LINE
  5
200
  8
0
  6
CONTINUOUS
 62
     7
 10
84.36997281799995
 20
66.68453439650948
 30
0.0
 11
84.38350211161728
 21
66.70006591514918
 31
0.0
  0
LINE
  5
201
  8
0
  6
CONTINUOUS
 62
     7
 10
84.38350211161728
 20
66.70006591514918
 30
0.0
 11
84.39667161057444
 21
66.71652625442081
 31
0.0
  0
LINE
  5
202
  8
0
  6
CONTINUOUS
 62
     7
 10
84.39667161057444
 20
66.71652625442081
 30
0.0
 11
84.40933373148202
 21
66.733813532249
 31
0.0
  0
LINE
  5
203
  8
0
  6
CONTINUOUS
 62
     7
 10
84.40933373148202
 20
66.733813532249
 30
0.0
 11
84.42150223293994
 21
66.7520355758344
 31
0.0
  0
LINE
  5
204
  8
0
  6
CONTINUOUS
 62
     7
 10
84.42150223293994
 20
66.7520355758344
 30
0.0
 11
84.433055070262
 21
66.77111091649279
 31
0.0
  0
LINE
  5
205
  8
0
  6
CONTINUOUS
 62
     7
 10
84.433055070262
 20
66.77111091649279
 30
0.0
 11
84.44038331587358
 21
66.78429865339358
 31
0.0
  0
LINE
  5
206
  8
0
  6
CONTINUOUS
 62
     7
 10
84.44038331587358
 20
66.78429865339358
 30
0.0
 11
84.4473897090394
 21
66.79785925656658
 31
0.0
  0
LINE
  5
207
  8
0
  6
CONTINUOUS
 62
     7
 10
84.4473897090394
 20
66.79785925656658
 30
0.0
 11
84.45408326103636
 21
66.811851888848
 31
0.0
  0
LINE
  5
208
  8
0
  6
CONTINUOUS
 62
     7
 10
84.45408326103636
 20
66.811851888848
 30
0.0
 11
84.46040452585113
 21
66.82619516416551
 31
0.0
  0
LINE
  5
209
  8
0
  6
CONTINUOUS
 62
     7
 10
84.46040452585113
 20
66.82619516416551
 30
0.0
 11
84.46636471036065
 21
66.84096256983449
 31
0.0
  0
LINE
  5
20A
  8
0
  6
CONTINUOUS
 62
     7
 10
84.46636471036065
 20
66.84096256983449
 30
0.0
 11
84.47190742969136
 21
66.8560650514137
 31
0.0
  0
LINE
  5
20B
  8
0
  6
CONTINUOUS
 62
     7
 10
84.47190742969136
 20
66.8560650514137
 30
0.0
 11
84.47704457897582
 21
66.87159541418939
 31
0.0
  0
LINE
  5
20C
  8
0
  6
CONTINUOUS
 62
     7
 10
84.47704457897582
 20
66.87159541418939
 30
0.0
 11
84.48172319821025
 21
66.88746294793049
 31
0.0
  0
LINE
  5
20D
  8
0
  6
CONTINUOUS
 62
     7
 10
84.48172319821025
 20
66.88746294793049
 30
0.0
 11
84.48559765434511
 21
66.9023250014572
 31
0.0
  0
LINE
  5
20E
  8
0
  6
CONTINUOUS
 62
     7
 10
84.48559765434511
 20
66.9023250014572
 30
0.0
 11
84.48904713259176
 21
66.91744133732749
 31
0.0
  0
LINE
  5
20F
  8
0
  6
CONTINUOUS
 62
     7
 10
84.48904713259176
 20
66.91744133732749
 30
0.0
 11
84.4917909130999
 21
66.93134221607649
 31
0.0
  0
LINE
  5
210
  8
0
  6
CONTINUOUS
 62
     7
 10
84.4917909130999
 20
66.93134221607649
 30
0.0
 11
84.49415596416218
 21
66.94540055774398
 31
0.0
  0
LINE
  5
211
  8
0
  6
CONTINUOUS
 62
     7
 10
84.49415596416218
 20
66.94540055774398
 30
0.0
 11
84.49614247524856
 21
66.95968348816008
 31
0.0
  0
LINE
  5
212
  8
0
  6
CONTINUOUS
 62
     7
 10
84.49614247524856
 20
66.95968348816008
 30
0.0
 11
84.49772648912631
 21
66.9740880370284
 31
0.0
  0
LINE
  5
213
  8
0
  6
CONTINUOUS
 62
     7
 10
84.49772648912631
 20
66.9740880370284
 30
0.0
 11
84.49872274920554
 21
66.98602664170808
 31
0.0
  0
LINE
  5
214
  8
0
  6
CONTINUOUS
 62
     7
 10
84.49872274920554
 20
66.98602664170808
 30
0.0
 11
84.49943686992151
 21
66.99802110880151
 31
0.0
  0
LINE
  5
215
  8
0
  6
CONTINUOUS
 62
     7
 10
84.49943686992151
 20
66.99802110880151
 30
0.0
 11
84.49986684903959
 21
67.0101127981437
 31
0.0
  0
LINE
  5
216
  8
0
  6
CONTINUOUS
 62
     7
 10
84.49986684903959
 20
67.0101127981437
 30
0.0
 11
84.50000673024721
 21
67.02223435343488
 31
0.0
  0
ARC
  5
217
  8
0
  6
CONTINUOUS
 62
     7
 10
83.0
 20
89.5
 30
0.0
 40
23.00000000000001
 50
272.5472696517093
 51
272.5583920830604
  0
ARC
  5
218
  8
0
  6
CONTINUOUS
 62
     7
 10
82.99999999999999
 20
89.5
 30
0.0
 40
22.99999999999999
 50
272.5583920830604
 51
358.0787177311063
  0
ARC
  5
219
  8
0
  6
CONTINUOUS
 62
     7
 10
82.99999999999999
 20
89.5
 30
0.0
 40
16.00000000000001
 50
95.37937899111208
 51
169.1930771251397
  0
LINE
  5
21A
  8
0
  6
CONTINUOUS
 62
     7
 10
67.28376635449828
 20
92.5
 30
0.0
 11
71.89819834441275
 21
92.5
 31
0.0
  0
ARC
  5
21B
  8
0
  6
CONTINUOUS
 62
     7
 10
82.99999999999999
 20
89.5
 30
0.0
 40
11.5
 50
97.49471745392668
 51
164.878334685091
  0
ARC
  5
21C
  8
0
  6
CONTINUOUS
 62
     7
 10
82.99999999999999
 20
89.5
 30
0.0
 40
8.499999999999993
 50
100.1642486217235
 51
159.3326835064873
  0
LINE
  5
21D
  8
0
  6
CONTINUOUS
 62
     7
 10
75.04701313970655
 20
92.5
 30
0.0
 11
81.5
 21
92.5
 31
0.0
  0
ARC
  5
21E
  8
0
  6
CONTINUOUS
 62
     7
 10
82.99999999999999
 20
89.5
 30
0.0
 40
8.482546264418481
 50
200.8378842438476
 51
259.6948121201782
  0
ARC
  5
21F
  8
0
  6
CONTINUOUS
 62
     7
 10
82.99999999999999
 20
89.5
 30
0.0
 40
8.499999999999993
 50
200.6673164935125
 51
259.8357513782765
  0
LINE
  5
220
  8
0
  6
CONTINUOUS
 62
     7
 10
75.04701313970655
 20
86.49999999999999
 30
0.0
 11
75.07229137255756
 21
86.48254626441847
 31
0.0
  0
ARC
  5
221
  8
0
  6
CONTINUOUS
 62
     7
 10
82.99999999999999
 20
89.5
 30
0.0
 40
11.51745373558152
 50
277.5708764085919
 51
344.8118459292098
  0
ARC
  5
222
  8
0
  6
CONTINUOUS
 62
     7
 10
82.99999999999999
 20
89.5
 30
0.0
 40
11.5
 50
277.4947174539267
 51
344.878334685091
  0
LINE
  5
223
  8
0
  6
CONTINUOUS
 62
     7
 10
94.10180165558725
 20
86.49999999999999
 30
0.0
 11
94.11515692668735
 21
86.48254626441847
 31
0.0
  0
ARC
  5
224
  8
0
  6
CONTINUOUS
 62
     7
 10
82.99999999999999
 20
89.5
 30
0.0
 40
11.5
 50
15.12166531490903
 51
82.50528254607332
  0
ARC
  5
225
  8
0
  6
CONTINUOUS
 62
     7
 10
82.99999999999999
 20
89.5
 30
0.0
 40
11.51745373558152
 50
15.18815407079023
 51
82.42912359140809
  0
LINE
  5
226
  8
0
  6
CONTINUOUS
 62
     7
 10
94.11515692668735
 20
92.51745373558151
 30
0.0
 11
94.10180165558725
 21
92.5
 31
0.0
  0
ARC
  5
227
  8
0
  6
CONTINUOUS
 62
     7
 10
82.99999999999999
 20
89.5
 30
0.0
 40
8.482546264418481
 50
20.83788424384772
 51
79.69481212017824
  0
ARC
  5
228
  8
0
  6
CONTINUOUS
 62
     7
 10
82.99999999999999
 20
89.5
 30
0.0
 40
8.499999999999993
 50
20.6673164935126
 51
79.83575137827654
  0
LINE
  5
229
  8
0
  6
CONTINUOUS
 62
     7
 10
90.95298686029344
 20
92.5
 30
0.0
 11
90.92770862744243
 21
92.51745373558151
 31
0.0
  0
ARC
  5
22A
  8
0
  6
CONTINUOUS
 62
     7
 10
82.99999999999999
 20
89.5
 30
0.0
 40
8.500000000000007
 50
280.1642486217235
 51
339.3326835064874
  0
ARC
  5
22B
  8
0
  6
CONTINUOUS
 62
     7
 10
82.99999999999999
 20
89.5
 30
0.0
 40
8.482546264418495
 50
280.3051878798218
 51
339.1621157561523
  0
LINE
  5
22C
  8
0
  6
CONTINUOUS
 62
     7
 10
90.92770862744243
 20
86.48254626441847
 30
0.0
 11
90.95298686029344
 21
86.49999999999999
 31
0.0
  0
LINE
  5
22D
  8
0
  6
CONTINUOUS
 62
     7
 10
67.28376635449828
 20
86.49999999999999
 30
0.0
 11
71.89819834441275
 21
86.49999999999999
 31
0.0
  0
LINE
  5
22E
  8
0
  6
CONTINUOUS
 62
     7
 10
71.88484307331264
 20
86.48254626441847
 30
0.0
 11
71.89819834441273
 21
86.49999999999999
 31
0.0
  0
LINE
  5
22F
  8
0
  6
CONTINUOUS
 62
     7
 10
71.88484307331264
 20
86.48254626441847
 30
0.0
 11
67.28710806523429
 21
86.48254626441847
 31
0.0
  0
ARC
  5
230
  8
0
  6
CONTINUOUS
 62
     7
 10
82.99999999999999
 20
89.5
 30
0.0
 40
11.5
 50
195.121665314909
 51
262.5052825460733
  0
ARC
  5
231
  8
0
  6
CONTINUOUS
 62
     7
 10
82.99999999999999
 20
89.5
 30
0.0
 40
11.51745373558152
 50
195.1881540707902
 51
262.4291235914081
  0
ARC
  5
232
  8
0
  6
CONTINUOUS
 62
     7
 10
82.99999999999999
 20
89.5
 30
0.0
 40
11.51745373558151
 50
97.57087640859191
 51
164.8118459292098
  0
LINE
  5
233
  8
0
  6
CONTINUOUS
 62
     7
 10
71.89819834441273
 20
92.5
 30
0.0
 11
71.88484307331264
 21
92.51745373558151
 31
0.0
  0
ARC
  5
234
  8
0
  6
CONTINUOUS
 62
     7
 10
82.99999999999999
 20
89.5
 30
0.0
 40
8.482546264418495
 50
100.3051878798217
 51
159.1621157561523
  0
LINE
  5
235
  8
0
  6
CONTINUOUS
 62
     7
 10
75.07229137255756
 20
92.51745373558151
 30
0.0
 11
75.04701313970655
 21
92.5
 31
0.0
  0
LINE
  5
236
  8
0
  6
CONTINUOUS
 62
     7
 10
90.95298686029344
 20
92.5
 30
0.0
 11
84.49999999999999
 21
92.5
 31
0.0
  0
LINE
  5
237
  8
0
  6
CONTINUOUS
 62
     7
 10
98.71623364550169
 20
92.5
 30
0.0
 11
94.10180165558725
 21
92.5
 31
0.0
  0
ARC
  5
238
  8
0
  6
CONTINUOUS
 62
     7
 10
82.99999999999999
 20
89.5
 30
0.0
 40
15.99999999999999
 50
10.80692287486033
 51
84.62062100888791
  0
LINE
  5
239
  8
0
  6
CONTINUOUS
 62
     7
 10
81.48254626441847
 20
92.51745373558151
 30
0.0
 11
75.07229137255756
 21
92.51745373558151
 31
0.0
  0
ARC
  5
23A
  8
0
  6
CONTINUOUS
 62
     7
 10
82.99999999999999
 20
89.5
 30
0.0
 40
16.00000000000001
 50
275.379378991112
 51
349.1930771251397
  0
LINE
  5
23B
  8
0
  6
CONTINUOUS
 62
     7
 10
98.71623364550169
 20
86.49999999999999
 30
0.0
 11
94.10180165558725
 21
86.49999999999999
 31
0.0
  0
LINE
  5
23C
  8
0
  6
CONTINUOUS
 62
     7
 10
90.95298686029344
 20
86.49999999999999
 30
0.0
 11
84.49999999999999
 21
86.49999999999999
 31
0.0
  0
LINE
  5
23D
  8
0
  6
CONTINUOUS
 62
     7
 10
75.04701313970655
 20
86.49999999999999
 30
0.0
 11
81.5
 21
86.49999999999999
 31
0.0
  0
ARC
  5
23E
  8
0
  6
CONTINUOUS
 62
     7
 10
82.99999999999999
 20
89.5
 30
0.0
 40
16.0
 50
190.8069228748603
 51
264.620621008888
  0
LINE
  5
23F
  8
0
  6
CONTINUOUS
 62
     7
 10
81.48254626441847
 20
86.48254626441847
 30
0.0
 11
75.07229137255756
 21
86.48254626441847
 31
0.0
  0
LINE
  5
240
  8
0
  6
CONTINUOUS
 62
     7
 10
84.5174537355815
 20
86.48254626441847
 30
0.0
 11
90.92770862744243
 21
86.48254626441847
 31
0.0
  0
LINE
  5
241
  8
0
  6
CONTINUOUS
 62
     7
 10
71.88484307331264
 20
92.51745373558151
 30
0.0
 11
67.28710806523429
 21
92.51745373558151
 31
0.0
  0
LINE
  5
242
  8
0
  6
CONTINUOUS
 62
     7
 10
94.11515692668735
 20
92.51745373558151
 30
0.0
 11
98.7128919347657
 21
92.51745373558151
 31
0.0
  0
LINE
  5
243
  8
0
  6
CONTINUOUS
 62
     7
 10
94.11515692668735
 20
86.48254626441847
 30
0.0
 11
98.7128919347657
 21
86.48254626441847
 31
0.0
  0
LINE
  5
244
  8
0
  6
CONTINUOUS
 62
     7
 10
84.5174537355815
 20
92.51745373558151
 30
0.0
 11
90.92770862744243
 21
92.51745373558151
 31
0.0
  0
LINE
  5
245
  8
0
  6
CONTINUOUS
 62
     7
 10
101.0003094981626
 20
13.19920062354291
 30
0.0
 11
82.99999999999999
 21
13.19920062354291
 31
0.0
  0
LINE
  5
246
  8
0
  6
CONTINUOUS
 62
     7
 10
82.99999999999999
 20
13.19920062354291
 30
0.0
 11
64.99969050183738
 21
13.19920062354291
 31
0.0
  0
LINE
  5
247
  8
0
  6
CONTINUOUS
 62
     7
 10
82.08292428320507
 20
38.1992006235429
 30
0.0
 11
83.91707571679494
 21
38.1992006235429
 31
0.0
  0
LINE
  5
248
  8
0
  6
CONTINUOUS
 62
     7
 10
81.50003807766078
 20
28.20356389129211
 30
0.0
 11
81.50091091556504
 21
28.30358120852489
 31
0.0
  0
LINE
  5
249
  8
0
  6
CONTINUOUS
 62
     7
 10
81.50091091556504
 20
28.30358120852489
 30
0.0
 11
81.58294332167299
 21
37.70356389129209
 31
0.0
  0
ARC
  5
24A
  8
0
  6
CONTINUOUS
 62
     7
 10
82.08292428320507
 20
37.6992006235429
 30
0.0
 40
0.5000000000000004
 50
90.0
 51
179.4999999999999
  0
LINE
  5
24B
  8
0
  6
CONTINUOUS
 62
     7
 10
84.417056678327
 20
37.70356389129209
 30
0.0
 11
84.49908919858983
 21
28.30356812767079
 31
0.0
  0
LINE
  5
24C
  8
0
  6
CONTINUOUS
 62
     7
 10
84.49908919858983
 20
28.30356812767079
 30
0.0
 11
84.49996192233921
 21
28.203563891292
 31
0.0
  0
ARC
  5
24D
  8
0
  6
CONTINUOUS
 62
     7
 10
83.91707571679493
 20
37.6992006235429
 30
0.0
 40
0.4999999999999866
 50
0.500000000000079
 51
90.00000000000001
  0
LINE
  5
24E
  8
0
  6
CONTINUOUS
 62
     7
 10
60.51250425278733
 20
28.19870706382629
 30
0.0
 11
60.5347490554857
 21
28.19920062354289
 31
0.0
  0
LINE
  5
24F
  8
0
  6
CONTINUOUS
 62
     7
 10
60.53474905548572
 20
28.19920062354289
 30
0.0
 11
81.5
 21
28.19920062354289
 31
0.0
  0
LINE
  5
250
  8
0
  6
CONTINUOUS
 62
     7
 10
81.49999326975278
 20
28.1984294135994
 30
0.0
 11
81.97333684097076
 21
27.69920062354289
 31
0.0
  0
LINE
  5
251
  8
0
  6
CONTINUOUS
 62
     7
 10
60.51250425278733
 20
28.19870706382629
 30
0.0
 11
60.49558012750673
 21
28.19766998738049
 31
0.0
  0
LINE
  5
252
  8
0
  6
CONTINUOUS
 62
     7
 10
60.49558012750673
 20
28.19766998738049
 30
0.0
 11
60.47868105091176
 21
28.1960637712482
 31
0.0
  0
LINE
  5
253
  8
0
  6
CONTINUOUS
 62
     7
 10
60.47868105091176
 20
28.1960637712482
 30
0.0
 11
60.46380744204077
 21
28.19417629391729
 31
0.0
  0
LINE
  5
254
  8
0
  6
CONTINUOUS
 62
     7
 10
60.46380744204077
 20
28.19417629391729
 30
0.0
 11
60.44903620376481
 21
28.19186024111919
 31
0.0
  0
LINE
  5
255
  8
0
  6
CONTINUOUS
 62
     7
 10
60.44903620376481
 20
28.19186024111919
 30
0.0
 11
60.4342933743259
 21
28.18910529799959
 31
0.0
  0
LINE
  5
256
  8
0
  6
CONTINUOUS
 62
     7
 10
60.4342933743259
 20
28.18910529799959
 30
0.0
 11
60.41969946437645
 21
28.18593722079529
 31
0.0
  0
LINE
  5
257
  8
0
  6
CONTINUOUS
 62
     7
 10
60.41969946437645
 20
28.18593722079529
 30
0.0
 11
60.40924246972165
 21
28.18339357327387
 31
0.0
  0
LINE
  5
258
  8
0
  6
CONTINUOUS
 62
     7
 10
60.40924246972165
 20
28.18339357327387
 30
0.0
 11
60.39888125187841
 21
28.18064497968178
 31
0.0
  0
LINE
  5
259
  8
0
  6
CONTINUOUS
 62
     7
 10
60.39888125187841
 20
28.18064497968178
 30
0.0
 11
60.38859076558601
 21
28.1776870854632
 31
0.0
  0
LINE
  5
25A
  8
0
  6
CONTINUOUS
 62
     7
 10
60.38859076558601
 20
28.1776870854632
 30
0.0
 11
60.37840946466964
 21
28.17453362392977
 31
0.0
  0
LINE
  5
25B
  8
0
  6
CONTINUOUS
 62
     7
 10
60.37840946466964
 20
28.17453362392977
 30
0.0
 11
60.36295367908637
 21
28.16930639837229
 31
0.0
  0
LINE
  5
25C
  8
0
  6
CONTINUOUS
 62
     7
 10
60.36295367908637
 20
28.16930639837229
 30
0.0
 11
60.3477640776014
 21
28.16363923134341
 31
0.0
  0
LINE
  5
25D
  8
0
  6
CONTINUOUS
 62
     7
 10
60.3477640776014
 20
28.16363923134341
 30
0.0
 11
60.33275702745512
 21
28.1575078128731
 31
0.0
  0
LINE
  5
25E
  8
0
  6
CONTINUOUS
 62
     7
 10
60.33275702745512
 20
28.1575078128731
 30
0.0
 11
60.31807632186544
 21
28.15098005529731
 31
0.0
  0
LINE
  5
25F
  8
0
  6
CONTINUOUS
 62
     7
 10
60.31807632186544
 20
28.15098005529731
 30
0.0
 11
60.30365240288481
 21
28.14403626044759
 31
0.0
  0
LINE
  5
260
  8
0
  6
CONTINUOUS
 62
     7
 10
60.30365240288481
 20
28.14403626044759
 30
0.0
 11
60.28957919063052
 21
28.13673384046369
 31
0.0
  0
LINE
  5
261
  8
0
  6
CONTINUOUS
 62
     7
 10
60.28957919063052
 20
28.13673384046369
 30
0.0
 11
60.27576232963535
 21
28.1290343426652
 31
0.0
  0
LINE
  5
262
  8
0
  6
CONTINUOUS
 62
     7
 10
60.27576232963535
 20
28.1290343426652
 30
0.0
 11
60.26229853384625
 21
28.12100164447209
 31
0.0
  0
LINE
  5
263
  8
0
  6
CONTINUOUS
 62
     7
 10
60.26229853384625
 20
28.12100164447209
 30
0.0
 11
60.24397884704699
 21
28.10918113809741
 31
0.0
  0
LINE
  5
264
  8
0
  6
CONTINUOUS
 62
     7
 10
60.24397884704699
 20
28.10918113809741
 30
0.0
 11
60.22637056677141
 21
28.09678110468008
 31
0.0
  0
LINE
  5
265
  8
0
  6
CONTINUOUS
 62
     7
 10
60.22637056677141
 20
28.09678110468008
 30
0.0
 11
60.20937710875209
 21
28.0837634900182
 31
0.0
  0
LINE
  5
266
  8
0
  6
CONTINUOUS
 62
     7
 10
60.20937710875209
 20
28.0837634900182
 30
0.0
 11
60.19311844644093
 21
28.0702499748452
 31
0.0
  0
LINE
  5
267
  8
0
  6
CONTINUOUS
 62
     7
 10
60.19311844644093
 20
28.0702499748452
 30
0.0
 11
60.17743607359542
 21
28.05613174654451
 31
0.0
  0
LINE
  5
268
  8
0
  6
CONTINUOUS
 62
     7
 10
60.17743607359542
 20
28.05613174654451
 30
0.0
 11
60.16250457550116
 21
28.04158827525549
 31
0.0
  0
LINE
  5
269
  8
0
  6
CONTINUOUS
 62
     7
 10
60.16250457550116
 20
28.04158827525549
 30
0.0
 11
60.14823971338759
 21
28.02656713861809
 31
0.0
  0
LINE
  5
26A
  8
0
  6
CONTINUOUS
 62
     7
 10
60.14823971338759
 20
28.02656713861809
 30
0.0
 11
60.13472654443474
 21
28.01118657141138
 31
0.0
  0
LINE
  5
26B
  8
0
  6
CONTINUOUS
 62
     7
 10
60.13472654443474
 20
28.01118657141138
 30
0.0
 11
60.11804008164945
 21
27.99039992072888
 31
0.0
  0
LINE
  5
26C
  8
0
  6
CONTINUOUS
 62
     7
 10
60.11804008164945
 20
27.99039992072888
 30
0.0
 11
60.10262885941945
 21
27.969097344337
 31
0.0
  0
LINE
  5
26D
  8
0
  6
CONTINUOUS
 62
     7
 10
60.10262885941945
 20
27.969097344337
 30
0.0
 11
60.08839287619337
 21
27.9471983002629
 31
0.0
  0
LINE
  5
26E
  8
0
  6
CONTINUOUS
 62
     7
 10
60.08839287619337
 20
27.9471983002629
 30
0.0
 11
60.07541947314976
 21
27.92489103339618
 31
0.0
  0
LINE
  5
26F
  8
0
  6
CONTINUOUS
 62
     7
 10
60.07541947314976
 20
27.92489103339618
 30
0.0
 11
60.06357691429871
 21
27.9019832978564
 31
0.0
  0
LINE
  5
270
  8
0
  6
CONTINUOUS
 62
     7
 10
60.06357691429871
 20
27.9019832978564
 30
0.0
 11
60.05299531799704
 21
27.87875519951599
 31
0.0
  0
LINE
  5
271
  8
0
  6
CONTINUOUS
 62
     7
 10
60.05299531799704
 20
27.87875519951599
 30
0.0
 11
60.04361068895817
 21
27.8551090765318
 31
0.0
  0
LINE
  5
272
  8
0
  6
CONTINUOUS
 62
     7
 10
60.04361068895817
 20
27.8551090765318
 30
0.0
 11
60.03547867964229
 21
27.83122158446091
 31
0.0
  0
LINE
  5
273
  8
0
  6
CONTINUOUS
 62
     7
 10
60.03547867964229
 20
27.83122158446091
 30
0.0
 11
60.0266566745807
 21
27.79941972028499
 31
0.0
  0
LINE
  5
274
  8
0
  6
CONTINUOUS
 62
     7
 10
60.0266566745807
 20
27.79941972028499
 30
0.0
 11
60.01997321009161
 21
27.76728673268089
 31
0.0
  0
LINE
  5
275
  8
0
  6
CONTINUOUS
 62
     7
 10
60.01997321009161
 20
27.76728673268089
 30
0.0
 11
60.01543605773789
 21
27.7349336451434
 31
0.0
  0
LINE
  5
276
  8
0
  6
CONTINUOUS
 62
     7
 10
60.01543605773789
 20
27.7349336451434
 30
0.0
 11
60.01304759880091
 21
27.70239444950909
 31
0.0
  0
LINE
  5
277
  8
0
  6
CONTINUOUS
 62
     7
 10
60.01304759880091
 20
27.70239444950909
 30
0.0
 11
60.01292987212452
 21
27.69920062354289
 31
0.0
  0
LINE
  5
278
  8
0
  6
CONTINUOUS
 62
     7
 10
105.4652509445143
 20
28.19920062354289
 30
0.0
 11
105.4874957472126
 21
28.19870706382629
 31
0.0
  0
LINE
  5
279
  8
0
  6
CONTINUOUS
 62
     7
 10
105.9870701278755
 20
27.69920062354289
 30
0.0
 11
105.9869524011991
 21
27.70239444950909
 31
0.0
  0
LINE
  5
27A
  8
0
  6
CONTINUOUS
 62
     7
 10
105.9869524011991
 20
27.70239444950909
 30
0.0
 11
105.9845930365946
 21
27.7346604165149
 31
0.0
  0
LINE
  5
27B
  8
0
  6
CONTINUOUS
 62
     7
 10
105.9845930365946
 20
27.7346604165149
 30
0.0
 11
105.9800901197916
 21
27.7669218292961
 31
0.0
  0
LINE
  5
27C
  8
0
  6
CONTINUOUS
 62
     7
 10
105.9800901197916
 20
27.7669218292961
 30
0.0
 11
105.9734097463455
 21
27.79914539867037
 31
0.0
  0
LINE
  5
27D
  8
0
  6
CONTINUOUS
 62
     7
 10
105.9734097463455
 20
27.79914539867037
 30
0.0
 11
105.9645213203577
 21
27.83122158446091
 31
0.0
  0
LINE
  5
27E
  8
0
  6
CONTINUOUS
 62
     7
 10
105.9645213203577
 20
27.83122158446091
 30
0.0
 11
105.9566696726962
 21
27.85434605754031
 31
0.0
  0
LINE
  5
27F
  8
0
  6
CONTINUOUS
 62
     7
 10
105.9566696726962
 20
27.85434605754031
 30
0.0
 11
105.9475921928307
 21
27.8773701779797
 31
0.0
  0
LINE
  5
280
  8
0
  6
CONTINUOUS
 62
     7
 10
105.9475921928307
 20
27.8773701779797
 30
0.0
 11
105.9372873616665
 21
27.900195470133
 31
0.0
  0
LINE
  5
281
  8
0
  6
CONTINUOUS
 62
     7
 10
105.9372873616665
 20
27.900195470133
 30
0.0
 11
105.9256386415353
 21
27.92295353986779
 31
0.0
  0
LINE
  5
282
  8
0
  6
CONTINUOUS
 62
     7
 10
105.9256386415353
 20
27.92295353986779
 30
0.0
 11
105.9126917322455
 21
27.94542729190641
 31
0.0
  0
LINE
  5
283
  8
0
  6
CONTINUOUS
 62
     7
 10
105.9126917322455
 20
27.94542729190641
 30
0.0
 11
105.898299449596
 21
27.96773971898989
 31
0.0
  0
LINE
  5
284
  8
0
  6
CONTINUOUS
 62
     7
 10
105.898299449596
 20
27.96773971898989
 30
0.0
 11
105.8825232471666
 21
27.98965941544179
 31
0.0
  0
LINE
  5
285
  8
0
  6
CONTINUOUS
 62
     7
 10
105.8825232471666
 20
27.98965941544179
 30
0.0
 11
105.8652734555652
 21
28.01118657141138
 31
0.0
  0
LINE
  5
286
  8
0
  6
CONTINUOUS
 62
     7
 10
105.8652734555652
 20
28.01118657141138
 30
0.0
 11
105.8521980717173
 21
28.02608721278979
 31
0.0
  0
LINE
  5
287
  8
0
  6
CONTINUOUS
 62
     7
 10
105.8521980717173
 20
28.02608721278979
 30
0.0
 11
105.8383444162939
 21
28.04072643668579
 31
0.0
  0
LINE
  5
288
  8
0
  6
CONTINUOUS
 62
     7
 10
105.8383444162939
 20
28.04072643668579
 30
0.0
 11
105.8237329615607
 21
28.05503344954971
 31
0.0
  0
LINE
  5
289
  8
0
  6
CONTINUOUS
 62
     7
 10
105.8237329615607
 20
28.05503344954971
 30
0.0
 11
105.8082344873284
 21
28.06907552712129
 31
0.0
  0
LINE
  5
28A
  8
0
  6
CONTINUOUS
 62
     7
 10
105.8082344873284
 20
28.06907552712129
 30
0.0
 11
105.791941775909
 21
28.08270723671699
 31
0.0
  0
LINE
  5
28B
  8
0
  6
CONTINUOUS
 62
     7
 10
105.791941775909
 20
28.08270723671699
 30
0.0
 11
105.7747097049644
 21
28.09598526856108
 31
0.0
  0
LINE
  5
28C
  8
0
  6
CONTINUOUS
 62
     7
 10
105.7747097049644
 20
28.09598526856108
 30
0.0
 11
105.756650520618
 21
28.10875597082388
 31
0.0
  0
LINE
  5
28D
  8
0
  6
CONTINUOUS
 62
     7
 10
105.756650520618
 20
28.10875597082388
 30
0.0
 11
105.7377014661537
 21
28.12100164447209
 31
0.0
  0
LINE
  5
28E
  8
0
  6
CONTINUOUS
 62
     7
 10
105.7377014661537
 20
28.12100164447209
 30
0.0
 11
105.7245235519992
 21
28.12886925737148
 31
0.0
  0
LINE
  5
28F
  8
0
  6
CONTINUOUS
 62
     7
 10
105.7245235519992
 20
28.12886925737148
 30
0.0
 11
105.7109911363108
 21
28.13642658280949
 31
0.0
  0
LINE
  5
290
  8
0
  6
CONTINUOUS
 62
     7
 10
105.7109911363108
 20
28.13642658280949
 30
0.0
 11
105.6970409112334
 21
28.14368889604837
 31
0.0
  0
LINE
  5
291
  8
0
  6
CONTINUOUS
 62
     7
 10
105.6970409112334
 20
28.14368889604837
 30
0.0
 11
105.6827449053451
 21
28.15059901647809
 31
0.0
  0
LINE
  5
292
  8
0
  6
CONTINUOUS
 62
     7
 10
105.6827449053451
 20
28.15059901647809
 30
0.0
 11
105.6679890825164
 21
28.15718885101029
 31
0.0
  0
LINE
  5
293
  8
0
  6
CONTINUOUS
 62
     7
 10
105.6679890825164
 20
28.15718885101029
 30
0.0
 11
105.6529021421767
 21
28.1633783897845
 31
0.0
  0
LINE
  5
294
  8
0
  6
CONTINUOUS
 62
     7
 10
105.6529021421767
 20
28.1633783897845
 30
0.0
 11
105.6373986059049
 21
28.16918084296499
 31
0.0
  0
LINE
  5
295
  8
0
  6
CONTINUOUS
 62
     7
 10
105.6373986059049
 20
28.16918084296499
 30
0.0
 11
105.6215905353303
 21
28.17453362392977
 31
0.0
  0
LINE
  5
296
  8
0
  6
CONTINUOUS
 62
     7
 10
105.6215905353303
 20
28.17453362392977
 30
0.0
 11
105.606769997086
 21
28.17904882329547
 31
0.0
  0
LINE
  5
297
  8
0
  6
CONTINUOUS
 62
     7
 10
105.606769997086
 20
28.17904882329547
 30
0.0
 11
105.5917252054567
 21
28.18314656373511
 31
0.0
  0
LINE
  5
298
  8
0
  6
CONTINUOUS
 62
     7
 10
105.5917252054567
 20
28.18314656373511
 30
0.0
 11
105.5763727901475
 21
28.18683326880089
 31
0.0
  0
LINE
  5
299
  8
0
  6
CONTINUOUS
 62
     7
 10
105.5763727901475
 20
28.18683326880089
 30
0.0
 11
105.560835889639
 21
28.1900648225886
 31
0.0
  0
LINE
  5
29A
  8
0
  6
CONTINUOUS
 62
     7
 10
105.560835889639
 20
28.1900648225886
 30
0.0
 11
105.5481378872374
 21
28.19233751626687
 31
0.0
  0
LINE
  5
29B
  8
0
  6
CONTINUOUS
 62
     7
 10
105.5481378872374
 20
28.19233751626687
 30
0.0
 11
105.5353492759804
 21
28.19429533708981
 31
0.0
  0
LINE
  5
29C
  8
0
  6
CONTINUOUS
 62
     7
 10
105.5353492759804
 20
28.19429533708981
 30
0.0
 11
105.522419622426
 21
28.19593925066557
 31
0.0
  0
LINE
  5
29D
  8
0
  6
CONTINUOUS
 62
     7
 10
105.522419622426
 20
28.19593925066557
 30
0.0
 11
105.5094295309851
 21
28.19725336675461
 31
0.0
  0
LINE
  5
29E
  8
0
  6
CONTINUOUS
 62
     7
 10
105.5094295309851
 20
28.19725336675461
 30
0.0
 11
105.4984782609197
 21
28.1980991669496
 31
0.0
  0
LINE
  5
29F
  8
0
  6
CONTINUOUS
 62
     7
 10
105.4984782609197
 20
28.1980991669496
 30
0.0
 11
105.4874957472126
 21
28.19870706382629
 31
0.0
  0
LINE
  5
2A0
  8
0
  6
CONTINUOUS
 62
     7
 10
84.02666315902924
 20
27.69920062354289
 30
0.0
 11
84.50000673024721
 21
28.1984294135994
 31
0.0
  0
LINE
  5
2A1
  8
0
  6
CONTINUOUS
 62
     7
 10
84.49999999999999
 20
28.19920062354289
 30
0.0
 11
105.4652509445143
 21
28.19920062354289
 31
0.0
  0
LINE
  5
2A2
  8
0
  6
CONTINUOUS
 62
     7
 10
60.0
 20
26.19920062354289
 30
0.0
 11
106.0
 21
26.19920062354289
 31
0.0
  0
LINE
  5
2A3
  8
0
  6
CONTINUOUS
 62
     7
 10
84.02859301637334
 20
24.29920062354291
 30
0.0
 11
84.04290014351683
 21
24.2989961036861
 31
0.0
  0
LINE
  5
2A4
  8
0
  6
CONTINUOUS
 62
     7
 10
84.04290014351683
 20
24.2989961036861
 30
0.0
 11
84.05720665354151
 21
24.29838208224708
 31
0.0
  0
LINE
  5
2A5
  8
0
  6
CONTINUOUS
 62
     7
 10
84.05720665354151
 20
24.29838208224708
 30
0.0
 11
84.07152429480811
 21
24.29735609520658
 31
0.0
  0
LINE
  5
2A6
  8
0
  6
CONTINUOUS
 62
     7
 10
84.07152429480811
 20
24.29735609520658
 30
0.0
 11
84.08581782222657
 21
24.29591869394929
 31
0.0
  0
LINE
  5
2A7
  8
0
  6
CONTINUOUS
 62
     7
 10
84.08581782222657
 20
24.29591869394929
 30
0.0
 11
84.10635637676731
 21
24.29312310587908
 31
0.0
  0
LINE
  5
2A8
  8
0
  6
CONTINUOUS
 62
     7
 10
84.10635637676731
 20
24.29312310587908
 30
0.0
 11
84.12679557898261
 21
24.28947280283672
 31
0.0
  0
LINE
  5
2A9
  8
0
  6
CONTINUOUS
 62
     7
 10
84.12679557898261
 20
24.28947280283672
 30
0.0
 11
84.14716994094874
 21
24.2849526539507
 31
0.0
  0
LINE
  5
2AA
  8
0
  6
CONTINUOUS
 62
     7
 10
84.14716994094874
 20
24.2849526539507
 30
0.0
 11
84.1673724719784
 21
24.27957725593258
 31
0.0
  0
LINE
  5
2AB
  8
0
  6
CONTINUOUS
 62
     7
 10
84.1673724719784
 20
24.27957725593258
 30
0.0
 11
84.18772692220719
 21
24.27323104756729
 31
0.0
  0
LINE
  5
2AC
  8
0
  6
CONTINUOUS
 62
     7
 10
84.18772692220719
 20
24.27323104756729
 30
0.0
 11
84.20782855040984
 21
24.26601001935191
 31
0.0
  0
LINE
  5
2AD
  8
0
  6
CONTINUOUS
 62
     7
 10
84.20782855040984
 20
24.26601001935191
 30
0.0
 11
84.22771160405912
 21
24.25789122920649
 31
0.0
  0
LINE
  5
2AE
  8
0
  6
CONTINUOUS
 62
     7
 10
84.22771160405912
 20
24.25789122920649
 30
0.0
 11
84.24726380018457
 21
24.24890957961928
 31
0.0
  0
LINE
  5
2AF
  8
0
  6
CONTINUOUS
 62
     7
 10
84.24726380018457
 20
24.24890957961928
 30
0.0
 11
84.26573790533313
 21
24.23945912384609
 31
0.0
  0
LINE
  5
2B0
  8
0
  6
CONTINUOUS
 62
     7
 10
84.26573790533313
 20
24.23945912384609
 30
0.0
 11
84.28383555381131
 21
24.22923247145761
 31
0.0
  0
LINE
  5
2B1
  8
0
  6
CONTINUOUS
 62
     7
 10
84.28383555381131
 20
24.22923247145761
 30
0.0
 11
84.30158436029114
 21
24.21820355260829
 31
0.0
  0
LINE
  5
2B2
  8
0
  6
CONTINUOUS
 62
     7
 10
84.30158436029114
 20
24.21820355260829
 30
0.0
 11
84.31888773912611
 21
24.20642153159019
 31
0.0
  0
LINE
  5
2B3
  8
0
  6
CONTINUOUS
 62
     7
 10
84.31888773912611
 20
24.20642153159019
 30
0.0
 11
84.33601423227283
 21
24.19366861048597
 31
0.0
  0
LINE
  5
2B4
  8
0
  6
CONTINUOUS
 62
     7
 10
84.33601423227283
 20
24.19366861048597
 30
0.0
 11
84.35261174967837
 21
24.18017042902698
 31
0.0
  0
LINE
  5
2B5
  8
0
  6
CONTINUOUS
 62
     7
 10
84.35261174967837
 20
24.18017042902698
 30
0.0
 11
84.36870506024931
 21
24.16589348424428
 31
0.0
  0
LINE
  5
2B6
  8
0
  6
CONTINUOUS
 62
     7
 10
84.36870506024931
 20
24.16589348424428
 30
0.0
 11
84.38419896505393
 21
24.15090821307439
 31
0.0
  0
LINE
  5
2B7
  8
0
  6
CONTINUOUS
 62
     7
 10
84.38419896505393
 20
24.15090821307439
 30
0.0
 11
84.3984856782369
 21
24.1358707497964
 31
0.0
  0
LINE
  5
2B8
  8
0
  6
CONTINUOUS
 62
     7
 10
84.3984856782369
 20
24.1358707497964
 30
0.0
 11
84.41216083215083
 21
24.12022499091709
 31
0.0
  0
LINE
  5
2B9
  8
0
  6
CONTINUOUS
 62
     7
 10
84.41216083215083
 20
24.12022499091709
 30
0.0
 11
84.42524176543206
 21
24.10393692080251
 31
0.0
  0
LINE
  5
2BA
  8
0
  6
CONTINUOUS
 62
     7
 10
84.42524176543206
 20
24.10393692080251
 30
0.0
 11
84.43765329395256
 21
24.08708510650639
 31
0.0
  0
LINE
  5
2BB
  8
0
  6
CONTINUOUS
 62
     7
 10
84.43765329395256
 20
24.08708510650639
 30
0.0
 11
84.44957716669627
 21
24.06937357812369
 31
0.0
  0
LINE
  5
2BC
  8
0
  6
CONTINUOUS
 62
     7
 10
84.44957716669627
 20
24.06937357812369
 30
0.0
 11
84.46075485347768
 21
24.05113338083709
 31
0.0
  0
LINE
  5
2BD
  8
0
  6
CONTINUOUS
 62
     7
 10
84.46075485347768
 20
24.05113338083709
 30
0.0
 11
84.47119857646103
 21
24.03232441603101
 31
0.0
  0
LINE
  5
2BE
  8
0
  6
CONTINUOUS
 62
     7
 10
84.47119857646103
 20
24.03232441603101
 30
0.0
 11
84.48084145145737
 21
24.0130452566728
 31
0.0
  0
LINE
  5
2BF
  8
0
  6
CONTINUOUS
 62
     7
 10
84.48084145145737
 20
24.0130452566728
 30
0.0
 11
84.48930784802641
 21
23.99416377070149
 31
0.0
  0
LINE
  5
2C0
  8
0
  6
CONTINUOUS
 62
     7
 10
84.48930784802641
 20
23.99416377070149
 30
0.0
 11
84.49699867682004
 21
23.97491281031719
 31
0.0
  0
LINE
  5
2C1
  8
0
  6
CONTINUOUS
 62
     7
 10
84.49699867682004
 20
23.97491281031719
 30
0.0
 11
84.50391902763404
 21
23.95525463789861
 31
0.0
  0
LINE
  5
2C2
  8
0
  6
CONTINUOUS
 62
     7
 10
84.50391902763404
 20
23.95525463789861
 30
0.0
 11
84.51002414811298
 21
23.9352882696518
 31
0.0
  0
LINE
  5
2C3
  8
0
  6
CONTINUOUS
 62
     7
 10
84.51002414811298
 20
23.9352882696518
 30
0.0
 11
84.51538734343322
 21
23.9146748455264
 31
0.0
  0
LINE
  5
2C4
  8
0
  6
CONTINUOUS
 62
     7
 10
84.51538734343322
 20
23.9146748455264
 30
0.0
 11
84.51987485502238
 21
23.89381190695078
 31
0.0
  0
LINE
  5
2C5
  8
0
  6
CONTINUOUS
 62
     7
 10
84.51987485502238
 20
23.89381190695078
 30
0.0
 11
84.52348509171976
 21
23.87265778192072
 31
0.0
  0
LINE
  5
2C6
  8
0
  6
CONTINUOUS
 62
     7
 10
84.52348509171976
 20
23.87265778192072
 30
0.0
 11
84.52618790186928
 21
23.85132747650739
 31
0.0
  0
LINE
  5
2C7
  8
0
  6
CONTINUOUS
 62
     7
 10
84.52618790186928
 20
23.85132747650739
 30
0.0
 11
84.5273784483306
 21
23.83834951176359
 31
0.0
  0
LINE
  5
2C8
  8
0
  6
CONTINUOUS
 62
     7
 10
84.5273784483306
 20
23.83834951176359
 30
0.0
 11
84.52823057388173
 21
23.82533580212209
 31
0.0
  0
LINE
  5
2C9
  8
0
  6
CONTINUOUS
 62
     7
 10
84.52823057388173
 20
23.82533580212209
 30
0.0
 11
84.52874345247547
 21
23.812277224322
 31
0.0
  0
LINE
  5
2CA
  8
0
  6
CONTINUOUS
 62
     7
 10
84.52874345247547
 20
23.812277224322
 30
0.0
 11
84.52891460958526
 21
23.79920062354291
 31
0.0
  0
LINE
  5
2CB
  8
0
  6
CONTINUOUS
 62
     7
 10
84.50045220057237
 20
23.79920062354291
 30
0.0
 11
84.50002554568434
 21
23.81984522122971
 31
0.0
  0
LINE
  5
2CC
  8
0
  6
CONTINUOUS
 62
     7
 10
84.50002554568434
 20
23.81984522122971
 30
0.0
 11
84.49874339097498
 21
23.84048981891648
 31
0.0
  0
LINE
  5
2CD
  8
0
  6
CONTINUOUS
 62
     7
 10
84.49874339097498
 20
23.84048981891648
 30
0.0
 11
84.49659461114655
 21
23.8611704206701
 31
0.0
  0
LINE
  5
2CE
  8
0
  6
CONTINUOUS
 62
     7
 10
84.49659461114655
 20
23.8611704206701
 30
0.0
 11
84.4935814651496
 21
23.88177901429009
 31
0.0
  0
LINE
  5
2CF
  8
0
  6
CONTINUOUS
 62
     7
 10
84.4935814651496
 20
23.88177901429009
 30
0.0
 11
84.48962635480756
 21
23.9026504918716
 31
0.0
  0
LINE
  5
2D0
  8
0
  6
CONTINUOUS
 62
     7
 10
84.48962635480756
 20
23.9026504918716
 30
0.0
 11
84.48477839314465
 21
23.92337166371189
 31
0.0
  0
LINE
  5
2D1
  8
0
  6
CONTINUOUS
 62
     7
 10
84.48477839314465
 20
23.92337166371189
 30
0.0
 11
84.47901892357899
 21
23.94397914297228
 31
0.0
  0
LINE
  5
2D2
  8
0
  6
CONTINUOUS
 62
     7
 10
84.47901892357899
 20
23.94397914297228
 30
0.0
 11
84.47236997300037
 21
23.96435740503738
 31
0.0
  0
LINE
  5
2D3
  8
0
  6
CONTINUOUS
 62
     7
 10
84.47236997300037
 20
23.96435740503738
 30
0.0
 11
84.4651465092289
 21
23.98369556341448
 31
0.0
  0
LINE
  5
2D4
  8
0
  6
CONTINUOUS
 62
     7
 10
84.4651465092289
 20
23.98369556341448
 30
0.0
 11
84.45711678357279
 21
24.0027501583227
 31
0.0
  0
LINE
  5
2D5
  8
0
  6
CONTINUOUS
 62
     7
 10
84.45711678357279
 20
24.0027501583227
 30
0.0
 11
84.44818323648332
 21
24.02170274173879
 31
0.0
  0
LINE
  5
2D6
  8
0
  6
CONTINUOUS
 62
     7
 10
84.44818323648332
 20
24.02170274173879
 30
0.0
 11
84.43846436422648
 21
24.04026324252201
 31
0.0
  0
LINE
  5
2D7
  8
0
  6
CONTINUOUS
 62
     7
 10
84.43846436422648
 20
24.04026324252201
 30
0.0
 11
84.42789932642302
 21
24.05852642727829
 31
0.0
  0
LINE
  5
2D8
  8
0
  6
CONTINUOUS
 62
     7
 10
84.42789932642302
 20
24.05852642727829
 30
0.0
 11
84.41657431982517
 21
24.07632654967731
 31
0.0
  0
LINE
  5
2D9
  8
0
  6
CONTINUOUS
 62
     7
 10
84.41657431982517
 20
24.07632654967731
 30
0.0
 11
84.40434010417341
 21
24.09386358150239
 31
0.0
  0
LINE
  5
2DA
  8
0
  6
CONTINUOUS
 62
     7
 10
84.40434010417341
 20
24.09386358150239
 30
0.0
 11
84.39134380931644
 21
24.11089102098421
 31
0.0
  0
LINE
  5
2DB
  8
0
  6
CONTINUOUS
 62
     7
 10
84.39134380931644
 20
24.11089102098421
 30
0.0
 11
84.37812589238057
 21
24.12677593307858
 31
0.0
  0
LINE
  5
2DC
  8
0
  6
CONTINUOUS
 62
     7
 10
84.37812589238057
 20
24.12677593307858
 30
0.0
 11
84.36423967971352
 21
24.14212599602331
 31
0.0
  0
LINE
  5
2DD
  8
0
  6
CONTINUOUS
 62
     7
 10
84.36423967971352
 20
24.14212599602331
 30
0.0
 11
84.34965430335416
 21
24.15696245236548
 31
0.0
  0
LINE
  5
2DE
  8
0
  6
CONTINUOUS
 62
     7
 10
84.34965430335416
 20
24.15696245236548
 30
0.0
 11
84.3344386221683
 21
24.17120282421859
 31
0.0
  0
LINE
  5
2DF
  8
0
  6
CONTINUOUS
 62
     7
 10
84.3344386221683
 20
24.17120282421859
 30
0.0
 11
84.31832479235761
 21
24.18505938210211
 31
0.0
  0
LINE
  5
2E0
  8
0
  6
CONTINUOUS
 62
     7
 10
84.31832479235761
 20
24.18505938210211
 30
0.0
 11
84.30160714357237
 21
24.1982415508383
 31
0.0
  0
LINE
  5
2E1
  8
0
  6
CONTINUOUS
 62
     7
 10
84.30160714357237
 20
24.1982415508383
 30
0.0
 11
84.28424849697416
 21
24.21076626513111
 31
0.0
  0
LINE
  5
2E2
  8
0
  6
CONTINUOUS
 62
     7
 10
84.28424849697416
 20
24.21076626513111
 30
0.0
 11
84.26633746540124
 21
24.22255747584351
 31
0.0
  0
LINE
  5
2E3
  8
0
  6
CONTINUOUS
 62
     7
 10
84.26633746540124
 20
24.22255747584351
 30
0.0
 11
84.24857503061592
 21
24.23320662475561
 31
0.0
  0
LINE
  5
2E4
  8
0
  6
CONTINUOUS
 62
     7
 10
84.24857503061592
 20
24.23320662475561
 30
0.0
 11
84.23035604069021
 21
24.24312775558898
 31
0.0
  0
LINE
  5
2E5
  8
0
  6
CONTINUOUS
 62
     7
 10
84.23035604069021
 20
24.24312775558898
 30
0.0
 11
84.2116441073335
 21
24.25233063136328
 31
0.0
  0
LINE
  5
2E6
  8
0
  6
CONTINUOUS
 62
     7
 10
84.2116441073335
 20
24.25233063136328
 30
0.0
 11
84.1925317522497
 21
24.26075980746059
 31
0.0
  0
LINE
  5
2E7
  8
0
  6
CONTINUOUS
 62
     7
 10
84.1925317522497
 20
24.26075980746059
 30
0.0
 11
84.17269434158457
 21
24.26852742440799
 31
0.0
  0
LINE
  5
2E8
  8
0
  6
CONTINUOUS
 62
     7
 10
84.17269434158457
 20
24.26852742440799
 30
0.0
 11
84.152507433376
 21
24.2754555087181
 31
0.0
  0
LINE
  5
2E9
  8
0
  6
CONTINUOUS
 62
     7
 10
84.152507433376
 20
24.2754555087181
 30
0.0
 11
84.13193001190173
 21
24.28154757542519
 31
0.0
  0
LINE
  5
2EA
  8
0
  6
CONTINUOUS
 62
     7
 10
84.13193001190173
 20
24.28154757542519
 30
0.0
 11
84.11107146983579
 21
24.28676070594699
 31
0.0
  0
LINE
  5
2EB
  8
0
  6
CONTINUOUS
 62
     7
 10
84.11107146983579
 20
24.28676070594699
 30
0.0
 11
84.09750780718782
 21
24.28964563001709
 31
0.0
  0
LINE
  5
2EC
  8
0
  6
CONTINUOUS
 62
     7
 10
84.09750780718782
 20
24.28964563001709
 30
0.0
 11
84.08386920466869
 21
24.29215377139609
 31
0.0
  0
LINE
  5
2ED
  8
0
  6
CONTINUOUS
 62
     7
 10
84.08386920466869
 20
24.29215377139609
 30
0.0
 11
84.07012376468032
 21
24.29428901778061
 31
0.0
  0
LINE
  5
2EE
  8
0
  6
CONTINUOUS
 62
     7
 10
84.07012376468032
 20
24.29428901778061
 30
0.0
 11
84.05632400683511
 21
24.29604153456749
 31
0.0
  0
LINE
  5
2EF
  8
0
  6
CONTINUOUS
 62
     7
 10
84.05632400683511
 20
24.29604153456749
 30
0.0
 11
84.04234995776928
 21
24.29742085416231
 31
0.0
  0
LINE
  5
2F0
  8
0
  6
CONTINUOUS
 62
     7
 10
84.04234995776928
 20
24.29742085416231
 30
0.0
 11
84.02834236371747
 21
24.29840768141261
 31
0.0
  0
LINE
  5
2F1
  8
0
  6
CONTINUOUS
 62
     7
 10
84.02834236371747
 20
24.29840768141261
 30
0.0
 11
84.01426784074187
 21
24.2990023029836
 31
0.0
  0
LINE
  5
2F2
  8
0
  6
CONTINUOUS
 62
     7
 10
84.01426784074187
 20
24.2990023029836
 30
0.0
 11
84.0001817576018
 21
24.29920062354291
 31
0.0
  0
LINE
  5
2F3
  8
0
  6
CONTINUOUS
 62
     7
 10
84.0001817576018
 20
24.29920062354291
 30
0.0
 11
84.02859301637334
 21
24.29920062354291
 31
0.0
  0
LINE
  5
2F4
  8
0
  6
CONTINUOUS
 62
     7
 10
81.99981824239819
 20
24.29920062354291
 30
0.0
 11
84.0001817576018
 21
24.29920062354291
 31
0.0
  0
LINE
  5
2F5
  8
0
  6
CONTINUOUS
 62
     7
 10
84.50045220057237
 20
23.79920062354291
 30
0.0
 11
84.50045220057237
 21
22.39920062354289
 31
0.0
  0
LINE
  5
2F6
  8
0
  6
CONTINUOUS
 62
     7
 10
84.0001817576018
 20
21.89920062354289
 30
0.0
 11
84.02099554655021
 21
21.89963531913488
 31
0.0
  0
LINE
  5
2F7
  8
0
  6
CONTINUOUS
 62
     7
 10
84.02099554655021
 20
21.89963531913488
 30
0.0
 11
84.04179037586218
 21
21.90093634536441
 31
0.0
  0
LINE
  5
2F8
  8
0
  6
CONTINUOUS
 62
     7
 10
84.04179037586218
 20
21.90093634536441
 30
0.0
 11
84.0625125378215
 21
21.90309911141211
 31
0.0
  0
LINE
  5
2F9
  8
0
  6
CONTINUOUS
 62
     7
 10
84.0625125378215
 20
21.90309911141211
 30
0.0
 11
84.08310832471197
 21
21.90611902645842
 31
0.0
  0
LINE
  5
2FA
  8
0
  6
CONTINUOUS
 62
     7
 10
84.08310832471197
 20
21.90611902645842
 30
0.0
 11
84.10415104375568
 21
21.9101214179935
 31
0.0
  0
LINE
  5
2FB
  8
0
  6
CONTINUOUS
 62
     7
 10
84.10415104375568
 20
21.9101214179935
 30
0.0
 11
84.12502181489367
 21
21.91502492082509
 31
0.0
  0
LINE
  5
2FC
  8
0
  6
CONTINUOUS
 62
     7
 10
84.12502181489367
 20
21.91502492082509
 30
0.0
 11
84.14566383942169
 21
21.92081485967709
 31
0.0
  0
LINE
  5
2FD
  8
0
  6
CONTINUOUS
 62
     7
 10
84.14566383942169
 20
21.92081485967709
 30
0.0
 11
84.16602031863555
 21
21.92747655927307
 31
0.0
  0
LINE
  5
2FE
  8
0
  6
CONTINUOUS
 62
     7
 10
84.16602031863555
 20
21.92747655927307
 30
0.0
 11
84.18551010337627
 21
21.93478217181641
 31
0.0
  0
LINE
  5
2FF
  8
0
  6
CONTINUOUS
 62
     7
 10
84.18551010337627
 20
21.93478217181641
 30
0.0
 11
84.20469583021575
 21
21.94289891987239
 31
0.0
  0
LINE
  5
300
  8
0
  6
CONTINUOUS
 62
     7
 10
84.20469583021575
 20
21.94289891987239
 30
0.0
 11
84.22352836069126
 21
21.95180485366738
 31
0.0
  0
LINE
  5
301
  8
0
  6
CONTINUOUS
 62
     7
 10
84.22352836069126
 20
21.95180485366738
 30
0.0
 11
84.24195855634005
 21
21.9614780234279
 31
0.0
  0
LINE
  5
302
  8
0
  6
CONTINUOUS
 62
     7
 10
84.24195855634005
 20
21.9614780234279
 30
0.0
 11
84.26048569586676
 21
21.97222677434268
 31
0.0
  0
LINE
  5
303
  8
0
  6
CONTINUOUS
 62
     7
 10
84.26048569586676
 20
21.97222677434268
 30
0.0
 11
84.2785528780738
 21
21.9837695128422
 31
0.0
  0
LINE
  5
304
  8
0
  6
CONTINUOUS
 62
     7
 10
84.2785528780738
 20
21.9837695128422
 30
0.0
 11
84.29611124433808
 21
21.99607371218182
 31
0.0
  0
LINE
  5
305
  8
0
  6
CONTINUOUS
 62
     7
 10
84.29611124433808
 20
21.99607371218182
 30
0.0
 11
84.31311193603648
 21
22.00910684561691
 31
0.0
  0
LINE
  5
306
  8
0
  6
CONTINUOUS
 62
     7
 10
84.31311193603648
 20
22.00910684561691
 30
0.0
 11
84.32908045196315
 21
22.02246010207709
 31
0.0
  0
LINE
  5
307
  8
0
  6
CONTINUOUS
 62
     7
 10
84.32908045196315
 20
22.02246010207709
 30
0.0
 11
84.34449373798434
 21
22.03647902390321
 31
0.0
  0
LINE
  5
308
  8
0
  6
CONTINUOUS
 62
     7
 10
84.34449373798434
 20
22.03647902390321
 30
0.0
 11
84.35931249446817
 21
22.05112663251549
 31
0.0
  0
LINE
  5
309
  8
0
  6
CONTINUOUS
 62
     7
 10
84.35931249446817
 20
22.05112663251549
 30
0.0
 11
84.37349742178274
 21
22.06636594933439
 31
0.0
  0
LINE
  5
30A
  8
0
  6
CONTINUOUS
 62
     7
 10
84.37349742178274
 20
22.06636594933439
 30
0.0
 11
84.3874186059401
 21
22.0826552454014
 31
0.0
  0
LINE
  5
30B
  8
0
  6
CONTINUOUS
 62
     7
 10
84.3874186059401
 20
22.0826552454014
 30
0.0
 11
84.40064227159806
 21
22.09954266378408
 31
0.0
  0
LINE
  5
30C
  8
0
  6
CONTINUOUS
 62
     7
 10
84.40064227159806
 20
22.09954266378408
 30
0.0
 11
84.41313283475894
 21
22.1169811489024
 31
0.0
  0
LINE
  5
30D
  8
0
  6
CONTINUOUS
 62
     7
 10
84.41313283475894
 20
22.1169811489024
 30
0.0
 11
84.42485471142507
 21
22.1349236451765
 31
0.0
  0
LINE
  5
30E
  8
0
  6
CONTINUOUS
 62
     7
 10
84.42485471142507
 20
22.1349236451765
 30
0.0
 11
84.43547686013272
 21
22.1527937836283
 31
0.0
  0
LINE
  5
30F
  8
0
  6
CONTINUOUS
 62
     7
 10
84.43547686013272
 20
22.1527937836283
 30
0.0
 11
84.44535613375507
 21
22.17110726332147
 31
0.0
  0
LINE
  5
310
  8
0
  6
CONTINUOUS
 62
     7
 10
84.44535613375507
 20
22.17110726332147
 30
0.0
 11
84.45446767123242
 21
22.18981613509449
 31
0.0
  0
LINE
  5
311
  8
0
  6
CONTINUOUS
 62
     7
 10
84.45446767123242
 20
22.18981613509449
 30
0.0
 11
84.46278661150511
 21
22.20887244978578
 31
0.0
  0
LINE
  5
312
  8
0
  6
CONTINUOUS
 62
     7
 10
84.46278661150511
 20
22.20887244978578
 30
0.0
 11
84.47051026193589
 21
22.2288315382877
 31
0.0
  0
LINE
  5
313
  8
0
  6
CONTINUOUS
 62
     7
 10
84.47051026193589
 20
22.2288315382877
 30
0.0
 11
84.47737910503744
 21
22.2491229019188
 31
0.0
  0
LINE
  5
314
  8
0
  6
CONTINUOUS
 62
     7
 10
84.47737910503744
 20
22.2491229019188
 30
0.0
 11
84.48337521556049
 21
22.26969026849268
 31
0.0
  0
LINE
  5
315
  8
0
  6
CONTINUOUS
 62
     7
 10
84.48337521556049
 20
22.26969026849268
 30
0.0
 11
84.48848066825572
 21
22.29047736582337
 31
0.0
  0
LINE
  5
316
  8
0
  6
CONTINUOUS
 62
     7
 10
84.48848066825572
 20
22.29047736582337
 30
0.0
 11
84.49277170325247
 21
22.31194844980619
 31
0.0
  0
LINE
  5
317
  8
0
  6
CONTINUOUS
 62
     7
 10
84.49277170325247
 20
22.31194844980619
 30
0.0
 11
84.49612139272149
 21
22.3336192924791
 31
0.0
  0
LINE
  5
318
  8
0
  6
CONTINUOUS
 62
     7
 10
84.49612139272149
 20
22.3336192924791
 30
0.0
 11
84.49852271792378
 21
22.35542691893269
 31
0.0
  0
LINE
  5
319
  8
0
  6
CONTINUOUS
 62
     7
 10
84.49852271792378
 20
22.35542691893269
 30
0.0
 11
84.4999686601204
 21
22.37730835425719
 31
0.0
  0
LINE
  5
31A
  8
0
  6
CONTINUOUS
 62
     7
 10
84.4999686601204
 20
22.37730835425719
 30
0.0
 11
84.50045220057237
 21
22.39920062354289
 31
0.0
  0
LINE
  5
31B
  8
0
  6
CONTINUOUS
 62
     7
 10
81.49954779942762
 20
22.39920062354289
 30
0.0
 11
81.49997537350826
 21
22.37853827679681
 31
0.0
  0
LINE
  5
31C
  8
0
  6
CONTINUOUS
 62
     7
 10
81.49997537350826
 20
22.37853827679681
 30
0.0
 11
81.501256609025
 21
22.35791142816928
 31
0.0
  0
LINE
  5
31D
  8
0
  6
CONTINUOUS
 62
     7
 10
81.501256609025
 20
22.35791142816928
 30
0.0
 11
81.50340782711788
 21
22.337212850917
 31
0.0
  0
LINE
  5
31E
  8
0
  6
CONTINUOUS
 62
     7
 10
81.50340782711788
 20
22.337212850917
 30
0.0
 11
81.50641853485037
 21
22.31662223279571
 31
0.0
  0
LINE
  5
31F
  8
0
  6
CONTINUOUS
 62
     7
 10
81.50641853485037
 20
22.31662223279571
 30
0.0
 11
81.51037785108791
 21
22.29573187937639
 31
0.0
  0
LINE
  5
320
  8
0
  6
CONTINUOUS
 62
     7
 10
81.51037785108791
 20
22.29573187937639
 30
0.0
 11
81.51522160685533
 21
22.27502958337391
 31
0.0
  0
LINE
  5
321
  8
0
  6
CONTINUOUS
 62
     7
 10
81.51522160685533
 20
22.27502958337391
 30
0.0
 11
81.52098700144839
 21
22.2544032648399
 31
0.0
  0
LINE
  5
322
  8
0
  6
CONTINUOUS
 62
     7
 10
81.52098700144839
 20
22.2544032648399
 30
0.0
 11
81.52763002699962
 21
22.23404384204841
 31
0.0
  0
LINE
  5
323
  8
0
  6
CONTINUOUS
 62
     7
 10
81.52763002699962
 20
22.23404384204841
 30
0.0
 11
81.53486020081235
 21
22.21468929042791
 31
0.0
  0
LINE
  5
324
  8
0
  6
CONTINUOUS
 62
     7
 10
81.53486020081235
 20
22.21468929042791
 30
0.0
 11
81.54288321642719
 21
22.1956510887632
 31
0.0
  0
LINE
  5
325
  8
0
  6
CONTINUOUS
 62
     7
 10
81.54288321642719
 20
22.1956510887632
 30
0.0
 11
81.55184724335285
 21
22.17664073750039
 31
0.0
  0
LINE
  5
326
  8
0
  6
CONTINUOUS
 62
     7
 10
81.55184724335285
 20
22.17664073750039
 30
0.0
 11
81.56161041393335
 21
22.1580087465881
 31
0.0
  0
LINE
  5
327
  8
0
  6
CONTINUOUS
 62
     7
 10
81.56161041393335
 20
22.1580087465881
 30
0.0
 11
81.57214560169767
 21
22.13980382892469
 31
0.0
  0
LINE
  5
328
  8
0
  6
CONTINUOUS
 62
     7
 10
81.57214560169767
 20
22.13980382892469
 30
0.0
 11
81.5834256801748
 21
22.12207469740859
 31
0.0
  0
LINE
  5
329
  8
0
  6
CONTINUOUS
 62
     7
 10
81.5834256801748
 20
22.12207469740859
 30
0.0
 11
81.59567163537643
 21
22.10452193794982
 31
0.0
  0
LINE
  5
32A
  8
0
  6
CONTINUOUS
 62
     7
 10
81.59567163537643
 20
22.10452193794982
 30
0.0
 11
81.60865619068353
 21
22.08751022610161
 31
0.0
  0
LINE
  5
32B
  8
0
  6
CONTINUOUS
 62
     7
 10
81.60865619068353
 20
22.08751022610161
 30
0.0
 11
81.62188583975208
 21
22.07161207161379
 31
0.0
  0
LINE
  5
32C
  8
0
  6
CONTINUOUS
 62
     7
 10
81.62188583975208
 20
22.07161207161379
 30
0.0
 11
81.63576032028647
 21
22.05627525106249
 31
0.0
  0
LINE
  5
32D
  8
0
  6
CONTINUOUS
 62
     7
 10
81.63576032028647
 20
22.05627525106249
 30
0.0
 11
81.6505144952981
 21
22.04127661112079
 31
0.0
  0
LINE
  5
32E
  8
0
  6
CONTINUOUS
 62
     7
 10
81.6505144952981
 20
22.04127661112079
 30
0.0
 11
81.66589904249474
 21
22.02689980746
 31
0.0
  0
LINE
  5
32F
  8
0
  6
CONTINUOUS
 62
     7
 10
81.66589904249474
 20
22.02689980746
 30
0.0
 11
81.68187236262253
 21
22.01318183689671
 31
0.0
  0
LINE
  5
330
  8
0
  6
CONTINUOUS
 62
     7
 10
81.68187236262253
 20
22.01318183689671
 30
0.0
 11
81.6983928564276
 21
22.00015969624749
 31
0.0
  0
LINE
  5
331
  8
0
  6
CONTINUOUS
 62
     7
 10
81.6983928564276
 20
22.00015969624749
 30
0.0
 11
81.71576777123343
 21
21.98762401935359
 31
0.0
  0
LINE
  5
332
  8
0
  6
CONTINUOUS
 62
     7
 10
81.71576777123343
 20
21.98762401935359
 30
0.0
 11
81.73366253459872
 21
21.97584377124229
 31
0.0
  0
LINE
  5
333
  8
0
  6
CONTINUOUS
 62
     7
 10
81.73366253459872
 20
21.97584377124229
 30
0.0
 11
81.7514404722073
 21
21.96518596964409
 31
0.0
  0
LINE
  5
334
  8
0
  6
CONTINUOUS
 62
     7
 10
81.7514404722073
 20
21.96518596964409
 30
0.0
 11
81.76964395930978
 21
21.95527349149678
 31
0.0
  0
LINE
  5
335
  8
0
  6
CONTINUOUS
 62
     7
 10
81.76964395930978
 20
21.95527349149678
 30
0.0
 11
81.7883723925675
 21
21.94606313096739
 31
0.0
  0
LINE
  5
336
  8
0
  6
CONTINUOUS
 62
     7
 10
81.7883723925675
 20
21.94606313096739
 30
0.0
 11
81.80746824775026
 21
21.93764143962518
 31
0.0
  0
LINE
  5
337
  8
0
  6
CONTINUOUS
 62
     7
 10
81.80746824775026
 20
21.93764143962518
 30
0.0
 11
81.82732386472615
 21
21.92986735540769
 31
0.0
  0
LINE
  5
338
  8
0
  6
CONTINUOUS
 62
     7
 10
81.82732386472615
 20
21.92986735540769
 30
0.0
 11
81.84749256662397
 21
21.9229457383677
 31
0.0
  0
LINE
  5
339
  8
0
  6
CONTINUOUS
 62
     7
 10
81.84749256662397
 20
21.9229457383677
 30
0.0
 11
81.86808909724775
 21
21.9168486760517
 31
0.0
  0
LINE
  5
33A
  8
0
  6
CONTINUOUS
 62
     7
 10
81.86808909724775
 20
21.9168486760517
 30
0.0
 11
81.8889285301642
 21
21.91164054113881
 31
0.0
  0
LINE
  5
33B
  8
0
  6
CONTINUOUS
 62
     7
 10
81.8889285301642
 20
21.91164054113881
 30
0.0
 11
81.90249219281215
 21
21.90875561706867
 31
0.0
  0
LINE
  5
33C
  8
0
  6
CONTINUOUS
 62
     7
 10
81.90249219281215
 20
21.90875561706867
 30
0.0
 11
81.9161307953313
 21
21.9062474756897
 31
0.0
  0
LINE
  5
33D
  8
0
  6
CONTINUOUS
 62
     7
 10
81.9161307953313
 20
21.9062474756897
 30
0.0
 11
81.93455518573258
 21
21.90347477919341
 31
0.0
  0
LINE
  5
33E
  8
0
  6
CONTINUOUS
 62
     7
 10
81.93455518573258
 20
21.90347477919341
 30
0.0
 11
81.95307692960584
 21
21.9013886771948
 31
0.0
  0
LINE
  5
33F
  8
0
  6
CONTINUOUS
 62
     7
 10
81.95307692960584
 20
21.9013886771948
 30
0.0
 11
81.9716576362825
 21
21.89999356567321
 31
0.0
  0
LINE
  5
340
  8
0
  6
CONTINUOUS
 62
     7
 10
81.9716576362825
 20
21.89999356567321
 30
0.0
 11
81.98573215925812
 21
21.89939894410217
 31
0.0
  0
LINE
  5
341
  8
0
  6
CONTINUOUS
 62
     7
 10
81.98573215925812
 20
21.89939894410217
 30
0.0
 11
81.99981824239819
 21
21.89920062354289
 31
0.0
  0
LINE
  5
342
  8
0
  6
CONTINUOUS
 62
     7
 10
81.49954779942762
 20
22.39920062354289
 30
0.0
 11
81.49954779942762
 21
23.79920062354291
 31
0.0
  0
LINE
  5
343
  8
0
  6
CONTINUOUS
 62
     7
 10
81.99981824239819
 20
24.29920062354291
 30
0.0
 11
81.97900445344978
 21
24.29876592795091
 31
0.0
  0
LINE
  5
344
  8
0
  6
CONTINUOUS
 62
     7
 10
81.97900445344978
 20
24.29876592795091
 30
0.0
 11
81.9582096241378
 21
24.29746490172141
 31
0.0
  0
LINE
  5
345
  8
0
  6
CONTINUOUS
 62
     7
 10
81.9582096241378
 20
24.29746490172141
 30
0.0
 11
81.93748746217848
 21
24.29530213567368
 31
0.0
  0
LINE
  5
346
  8
0
  6
CONTINUOUS
 62
     7
 10
81.93748746217848
 20
24.29530213567368
 30
0.0
 11
81.91689167528801
 21
24.29228222062749
 31
0.0
  0
LINE
  5
347
  8
0
  6
CONTINUOUS
 62
     7
 10
81.91689167528801
 20
24.29228222062749
 30
0.0
 11
81.8958489562443
 21
24.28827982909229
 31
0.0
  0
LINE
  5
348
  8
0
  6
CONTINUOUS
 62
     7
 10
81.8958489562443
 20
24.28827982909229
 30
0.0
 11
81.8749781851063
 21
24.28337632626071
 31
0.0
  0
LINE
  5
349
  8
0
  6
CONTINUOUS
 62
     7
 10
81.8749781851063
 20
24.28337632626071
 30
0.0
 11
81.85433616057828
 21
24.27758638740868
 31
0.0
  0
LINE
  5
34A
  8
0
  6
CONTINUOUS
 62
     7
 10
81.85433616057828
 20
24.27758638740868
 30
0.0
 11
81.83397968136444
 21
24.27092468781269
 31
0.0
  0
LINE
  5
34B
  8
0
  6
CONTINUOUS
 62
     7
 10
81.83397968136444
 20
24.27092468781269
 30
0.0
 11
81.81448989662371
 21
24.26361907526939
 31
0.0
  0
LINE
  5
34C
  8
0
  6
CONTINUOUS
 62
     7
 10
81.81448989662371
 20
24.26361907526939
 30
0.0
 11
81.79530416978423
 21
24.25550232721341
 31
0.0
  0
LINE
  5
34D
  8
0
  6
CONTINUOUS
 62
     7
 10
81.79530416978423
 20
24.25550232721341
 30
0.0
 11
81.77647163930872
 21
24.24659639341839
 31
0.0
  0
LINE
  5
34E
  8
0
  6
CONTINUOUS
 62
     7
 10
81.77647163930872
 20
24.24659639341839
 30
0.0
 11
81.75804144365993
 21
24.23692322365789
 31
0.0
  0
LINE
  5
34F
  8
0
  6
CONTINUOUS
 62
     7
 10
81.75804144365993
 20
24.23692322365789
 30
0.0
 11
81.73951430413322
 21
24.22617447274311
 31
0.0
  0
LINE
  5
350
  8
0
  6
CONTINUOUS
 62
     7
 10
81.73951430413322
 20
24.22617447274311
 30
0.0
 11
81.72144712192618
 21
24.21463173424371
 31
0.0
  0
LINE
  5
351
  8
0
  6
CONTINUOUS
 62
     7
 10
81.72144712192618
 20
24.21463173424371
 30
0.0
 11
81.70388875566191
 21
24.20232753490398
 31
0.0
  0
LINE
  5
352
  8
0
  6
CONTINUOUS
 62
     7
 10
81.70388875566191
 20
24.20232753490398
 30
0.0
 11
81.6868880639635
 21
24.18929440146891
 31
0.0
  0
LINE
  5
353
  8
0
  6
CONTINUOUS
 62
     7
 10
81.6868880639635
 20
24.18929440146891
 30
0.0
 11
81.67091954803684
 21
24.17594114500868
 31
0.0
  0
LINE
  5
354
  8
0
  6
CONTINUOUS
 62
     7
 10
81.67091954803684
 20
24.17594114500868
 30
0.0
 11
81.65550626201565
 21
24.16192222318259
 31
0.0
  0
LINE
  5
355
  8
0
  6
CONTINUOUS
 62
     7
 10
81.65550626201565
 20
24.16192222318259
 30
0.0
 11
81.64068750553182
 21
24.14727461457031
 31
0.0
  0
LINE
  5
356
  8
0
  6
CONTINUOUS
 62
     7
 10
81.64068750553182
 20
24.14727461457031
 30
0.0
 11
81.62650257821724
 21
24.1320352977514
 31
0.0
  0
LINE
  5
357
  8
0
  6
CONTINUOUS
 62
     7
 10
81.62650257821724
 20
24.1320352977514
 30
0.0
 11
81.61258139405989
 21
24.1157460016844
 31
0.0
  0
LINE
  5
358
  8
0
  6
CONTINUOUS
 62
     7
 10
81.61258139405989
 20
24.1157460016844
 30
0.0
 11
81.59935772840191
 21
24.09885858330171
 31
0.0
  0
LINE
  5
359
  8
0
  6
CONTINUOUS
 62
     7
 10
81.59935772840191
 20
24.09885858330171
 30
0.0
 11
81.58686716524103
 21
24.0814200981834
 31
0.0
  0
LINE
  5
35A
  8
0
  6
CONTINUOUS
 62
     7
 10
81.58686716524103
 20
24.0814200981834
 30
0.0
 11
81.57514528857492
 21
24.0634776019093
 31
0.0
  0
LINE
  5
35B
  8
0
  6
CONTINUOUS
 62
     7
 10
81.57514528857492
 20
24.0634776019093
 30
0.0
 11
81.56452313986725
 21
24.04560746345749
 31
0.0
  0
LINE
  5
35C
  8
0
  6
CONTINUOUS
 62
     7
 10
81.56452313986725
 20
24.04560746345749
 30
0.0
 11
81.55464386624489
 21
24.0272939837643
 31
0.0
  0
LINE
  5
35D
  8
0
  6
CONTINUOUS
 62
     7
 10
81.55464386624489
 20
24.0272939837643
 30
0.0
 11
81.54553232876756
 21
24.00858511199128
 31
0.0
  0
LINE
  5
35E
  8
0
  6
CONTINUOUS
 62
     7
 10
81.54553232876756
 20
24.00858511199128
 30
0.0
 11
81.53721338849488
 21
23.98952879730001
 31
0.0
  0
LINE
  5
35F
  8
0
  6
CONTINUOUS
 62
     7
 10
81.53721338849488
 20
23.98952879730001
 30
0.0
 11
81.52948973806409
 21
23.9695697087981
 31
0.0
  0
LINE
  5
360
  8
0
  6
CONTINUOUS
 62
     7
 10
81.52948973806409
 20
23.9695697087981
 30
0.0
 11
81.52262089496254
 21
23.94927834516697
 31
0.0
  0
LINE
  5
361
  8
0
  6
CONTINUOUS
 62
     7
 10
81.52262089496254
 20
23.94927834516697
 30
0.0
 11
81.5166247844395
 21
23.92871097859309
 31
0.0
  0
LINE
  5
362
  8
0
  6
CONTINUOUS
 62
     7
 10
81.5166247844395
 20
23.92871097859309
 30
0.0
 11
81.51151933174425
 21
23.90792388126239
 31
0.0
  0
LINE
  5
363
  8
0
  6
CONTINUOUS
 62
     7
 10
81.51151933174425
 20
23.90792388126239
 30
0.0
 11
81.50789271782126
 21
23.89013791637678
 31
0.0
  0
LINE
  5
364
  8
0
  6
CONTINUOUS
 62
     7
 10
81.50789271782126
 20
23.89013791637678
 30
0.0
 11
81.50491306274525
 21
23.8722255427519
 31
0.0
  0
LINE
  5
365
  8
0
  6
CONTINUOUS
 62
     7
 10
81.50491306274525
 20
23.8722255427519
 30
0.0
 11
81.50258635667488
 21
23.85422233562129
 31
0.0
  0
LINE
  5
366
  8
0
  6
CONTINUOUS
 62
     7
 10
81.50258635667488
 20
23.85422233562129
 30
0.0
 11
81.50089966251403
 21
23.8359254031639
 31
0.0
  0
LINE
  5
367
  8
0
  6
CONTINUOUS
 62
     7
 10
81.50089966251403
 20
23.8359254031639
 30
0.0
 11
81.4998861134989
 21
23.81757237308738
 31
0.0
  0
LINE
  5
368
  8
0
  6
CONTINUOUS
 62
     7
 10
81.4998861134989
 20
23.81757237308738
 30
0.0
 11
81.49954779942762
 21
23.79920062354291
 31
0.0
  0
LINE
  5
369
  8
0
  6
CONTINUOUS
 62
     7
 10
84.0001817576018
 20
21.89920062354289
 30
0.0
 11
81.99981824239819
 21
21.89920062354289
 31
0.0
  0
LINE
  5
36A
  8
0
  6
CONTINUOUS
 62
     7
 10
81.47108539041473
 20
23.79920062354291
 30
0.0
 11
81.47151233113857
 21
23.81984641311199
 31
0.0
  0
LINE
  5
36B
  8
0
  6
CONTINUOUS
 62
     7
 10
81.47151233113857
 20
23.81984641311199
 30
0.0
 11
81.47279166091718
 21
23.84045670817769
 31
0.0
  0
LINE
  5
36C
  8
0
  6
CONTINUOUS
 62
     7
 10
81.47279166091718
 20
23.84045670817769
 30
0.0
 11
81.47493967357138
 21
23.86113872064602
 31
0.0
  0
LINE
  5
36D
  8
0
  6
CONTINUOUS
 62
     7
 10
81.47493967357138
 20
23.86113872064602
 30
0.0
 11
81.47794585771642
 21
23.88171279281248
 31
0.0
  0
LINE
  5
36E
  8
0
  6
CONTINUOUS
 62
     7
 10
81.47794585771642
 20
23.88171279281248
 30
0.0
 11
81.48189920838648
 21
23.9025865057341
 31
0.0
  0
LINE
  5
36F
  8
0
  6
CONTINUOUS
 62
     7
 10
81.48189920838648
 20
23.9025865057341
 30
0.0
 11
81.48673557167412
 21
23.9232722202998
 31
0.0
  0
LINE
  5
370
  8
0
  6
CONTINUOUS
 62
     7
 10
81.48673557167412
 20
23.9232722202998
 30
0.0
 11
81.49249204223304
 21
23.94388196591668
 31
0.0
  0
LINE
  5
371
  8
0
  6
CONTINUOUS
 62
     7
 10
81.49249204223304
 20
23.94388196591668
 30
0.0
 11
81.4991246049748
 21
23.964224962082
 31
0.0
  0
LINE
  5
372
  8
0
  6
CONTINUOUS
 62
     7
 10
81.4991246049748
 20
23.964224962082
 30
0.0
 11
81.50634303508316
 21
23.98356350213687
 31
0.0
  0
LINE
  5
373
  8
0
  6
CONTINUOUS
 62
     7
 10
81.50634303508316
 20
23.98356350213687
 30
0.0
 11
81.51435275530987
 21
24.00258597113619
 31
0.0
  0
LINE
  5
374
  8
0
  6
CONTINUOUS
 62
     7
 10
81.51435275530987
 20
24.00258597113619
 30
0.0
 11
81.52320405293446
 21
24.02138778613338
 31
0.0
  0
LINE
  5
375
  8
0
  6
CONTINUOUS
 62
     7
 10
81.52320405293446
 20
24.02138778613338
 30
0.0
 11
81.5328278686579
 21
24.03980385299739
 31
0.0
  0
LINE
  5
376
  8
0
  6
CONTINUOUS
 62
     7
 10
81.5328278686579
 20
24.03980385299739
 30
0.0
 11
81.54344111137154
 21
24.05818728367048
 31
0.0
  0
LINE
  5
377
  8
0
  6
CONTINUOUS
 62
     7
 10
81.54344111137154
 20
24.05818728367048
 30
0.0
 11
81.55482356769593
 21
24.07610200867411
 31
0.0
  0
LINE
  5
378
  8
0
  6
CONTINUOUS
 62
     7
 10
81.55482356769593
 20
24.07610200867411
 30
0.0
 11
81.56704651335541
 21
24.09364089872809
 31
0.0
  0
LINE
  5
379
  8
0
  6
CONTINUOUS
 62
     7
 10
81.56704651335541
 20
24.09364089872809
 30
0.0
 11
81.58000622078062
 21
24.1106398485173
 31
0.0
  0
LINE
  5
37A
  8
0
  6
CONTINUOUS
 62
     7
 10
81.58000622078062
 20
24.1106398485173
 30
0.0
 11
81.59321898317657
 21
24.1265370922456
 31
0.0
  0
LINE
  5
37B
  8
0
  6
CONTINUOUS
 62
     7
 10
81.59321898317657
 20
24.1265370922456
 30
0.0
 11
81.60707576249678
 21
24.14187360378001
 31
0.0
  0
LINE
  5
37C
  8
0
  6
CONTINUOUS
 62
     7
 10
81.60707576249678
 20
24.14187360378001
 30
0.0
 11
81.6216553886955
 21
24.15672277967859
 31
0.0
  0
LINE
  5
37D
  8
0
  6
CONTINUOUS
 62
     7
 10
81.6216553886955
 20
24.15672277967859
 30
0.0
 11
81.63683844991554
 21
24.17095179874359
 31
0.0
  0
LINE
  5
37E
  8
0
  6
CONTINUOUS
 62
     7
 10
81.63683844991554
 20
24.17095179874359
 30
0.0
 11
81.65294577744045
 21
24.18482198338939
 31
0.0
  0
LINE
  5
37F
  8
0
  6
CONTINUOUS
 62
     7
 10
81.65294577744045
 20
24.18482198338939
 30
0.0
 11
81.66962625640586
 21
24.19799486176138
 31
0.0
  0
LINE
  5
380
  8
0
  6
CONTINUOUS
 62
     7
 10
81.66962625640586
 20
24.19799486176138
 30
0.0
 11
81.68697780623513
 21
24.21053443983498
 31
0.0
  0
LINE
  5
381
  8
0
  6
CONTINUOUS
 62
     7
 10
81.68697780623513
 20
24.21053443983498
 30
0.0
 11
81.70484862311969
 21
24.22232007015651
 31
0.0
  0
LINE
  5
382
  8
0
  6
CONTINUOUS
 62
     7
 10
81.70484862311969
 20
24.22232007015651
 30
0.0
 11
81.72262199098142
 21
24.2329954998006
 31
0.0
  0
LINE
  5
383
  8
0
  6
CONTINUOUS
 62
     7
 10
81.72262199098142
 20
24.2329954998006
 30
0.0
 11
81.74082147562886
 21
24.24292558799709
 31
0.0
  0
LINE
  5
384
  8
0
  6
CONTINUOUS
 62
     7
 10
81.74082147562886
 20
24.24292558799709
 30
0.0
 11
81.75954637017445
 21
24.25215363351257
 31
0.0
  0
LINE
  5
385
  8
0
  6
CONTINUOUS
 62
     7
 10
81.75954637017445
 20
24.25215363351257
 30
0.0
 11
81.77863933944145
 21
24.26059304276981
 31
0.0
  0
LINE
  5
386
  8
0
  6
CONTINUOUS
 62
     7
 10
81.77863933944145
 20
24.26059304276981
 30
0.0
 11
81.79849229368321
 21
24.2683851115951
 31
0.0
  0
LINE
  5
387
  8
0
  6
CONTINUOUS
 62
     7
 10
81.79849229368321
 20
24.2683851115951
 30
0.0
 11
81.81865910986686
 21
24.27532479042629
 31
0.0
  0
LINE
  5
388
  8
0
  6
CONTINUOUS
 62
     7
 10
81.81865910986686
 20
24.27532479042629
 30
0.0
 11
81.8392544191766
 21
24.2814400678677
 31
0.0
  0
LINE
  5
389
  8
0
  6
CONTINUOUS
 62
     7
 10
81.8392544191766
 20
24.2814400678677
 30
0.0
 11
81.86009353783341
 21
24.28666647140629
 31
0.0
  0
LINE
  5
38A
  8
0
  6
CONTINUOUS
 62
     7
 10
81.86009353783341
 20
24.28666647140629
 30
0.0
 11
81.87828781213015
 21
24.2904620775968
 31
0.0
  0
LINE
  5
38B
  8
0
  6
CONTINUOUS
 62
     7
 10
81.87828781213015
 20
24.2904620775968
 30
0.0
 11
81.8966173009718
 21
24.2935811355528
 31
0.0
  0
LINE
  5
38C
  8
0
  6
CONTINUOUS
 62
     7
 10
81.8966173009718
 20
24.2935811355528
 30
0.0
 11
81.91504427466265
 21
24.29601714738081
 31
0.0
  0
LINE
  5
38D
  8
0
  6
CONTINUOUS
 62
     7
 10
81.91504427466265
 20
24.29601714738081
 30
0.0
 11
81.93378437211926
 21
24.2977841673602
 31
0.0
  0
LINE
  5
38E
  8
0
  6
CONTINUOUS
 62
     7
 10
81.93378437211926
 20
24.2977841673602
 30
0.0
 11
81.95258518869083
 21
24.2988461150252
 31
0.0
  0
LINE
  5
38F
  8
0
  6
CONTINUOUS
 62
     7
 10
81.95258518869083
 20
24.2988461150252
 30
0.0
 11
81.97140698362665
 21
24.29920062354291
 31
0.0
  0
LINE
  5
390
  8
0
  6
CONTINUOUS
 62
     7
 10
81.97140698362665
 20
24.29920062354291
 30
0.0
 11
81.99981824239819
 21
24.29920062354291
 31
0.0
  0
LINE
  5
391
  8
0
  6
CONTINUOUS
 62
     7
 10
81.98189922161228
 20
21.89920062354289
 30
0.0
 11
81.96756613470059
 21
21.89940594248629
 31
0.0
  0
LINE
  5
392
  8
0
  6
CONTINUOUS
 62
     7
 10
81.96756613470059
 20
21.89940594248629
 30
0.0
 11
81.95324531611578
 21
21.90002152938411
 31
0.0
  0
LINE
  5
393
  8
0
  6
CONTINUOUS
 62
     7
 10
81.95324531611578
 20
21.90002152938411
 30
0.0
 11
81.9389014714128
 21
21.90105105099549
 31
0.0
  0
LINE
  5
394
  8
0
  6
CONTINUOUS
 62
     7
 10
81.9389014714128
 20
21.90105105099549
 30
0.0
 11
81.92459357046036
 21
21.90249209601627
 31
0.0
  0
LINE
  5
395
  8
0
  6
CONTINUOUS
 62
     7
 10
81.92459357046036
 20
21.90249209601627
 30
0.0
 11
81.90404153288918
 21
21.90529360580251
 31
0.0
  0
LINE
  5
396
  8
0
  6
CONTINUOUS
 62
     7
 10
81.90404153288918
 20
21.90529360580251
 30
0.0
 11
81.88362389893257
 21
21.908943712145
 31
0.0
  0
LINE
  5
397
  8
0
  6
CONTINUOUS
 62
     7
 10
81.88362389893257
 20
21.908943712145
 30
0.0
 11
81.86323600435121
 21
21.91347088124579
 31
0.0
  0
LINE
  5
398
  8
0
  6
CONTINUOUS
 62
     7
 10
81.86323600435121
 20
21.91347088124579
 30
0.0
 11
81.84305510292727
 21
21.9188441145203
 31
0.0
  0
LINE
  5
399
  8
0
  6
CONTINUOUS
 62
     7
 10
81.84305510292727
 20
21.9188441145203
 30
0.0
 11
81.82268642725968
 21
21.92519883537261
 31
0.0
  0
LINE
  5
39A
  8
0
  6
CONTINUOUS
 62
     7
 10
81.82268642725968
 20
21.92519883537261
 30
0.0
 11
81.80260715316787
 21
21.93241545747632
 31
0.0
  0
LINE
  5
39B
  8
0
  6
CONTINUOUS
 62
     7
 10
81.80260715316787
 20
21.93241545747632
 30
0.0
 11
81.78271017373818
 21
21.94054402586301
 31
0.0
  0
LINE
  5
39C
  8
0
  6
CONTINUOUS
 62
     7
 10
81.78271017373818
 20
21.94054402586301
 30
0.0
 11
81.76318022510954
 21
21.94951907771539
 31
0.0
  0
LINE
  5
39D
  8
0
  6
CONTINUOUS
 62
     7
 10
81.76318022510954
 20
21.94951907771539
 30
0.0
 11
81.74469749056344
 21
21.95897774756919
 31
0.0
  0
LINE
  5
39E
  8
0
  6
CONTINUOUS
 62
     7
 10
81.74469749056344
 20
21.95897774756919
 30
0.0
 11
81.72662239347285
 21
21.96919487312909
 31
0.0
  0
LINE
  5
39F
  8
0
  6
CONTINUOUS
 62
     7
 10
81.72662239347285
 20
21.96919487312909
 30
0.0
 11
81.70886533861442
 21
21.98023242190147
 31
0.0
  0
LINE
  5
3A0
  8
0
  6
CONTINUOUS
 62
     7
 10
81.70886533861442
 20
21.98023242190147
 30
0.0
 11
81.69158396812246
 21
21.9920023171637
 31
0.0
  0
LINE
  5
3A1
  8
0
  6
CONTINUOUS
 62
     7
 10
81.69158396812246
 20
21.9920023171637
 30
0.0
 11
81.67444918042352
 21
22.00476463938919
 31
0.0
  0
LINE
  5
3A2
  8
0
  6
CONTINUOUS
 62
     7
 10
81.67444918042352
 20
22.00476463938919
 30
0.0
 11
81.65787369381411
 21
22.01824735595348
 31
0.0
  0
LINE
  5
3A3
  8
0
  6
CONTINUOUS
 62
     7
 10
81.65787369381411
 20
22.01824735595348
 30
0.0
 11
81.64177261445961
 21
22.03253394365398
 31
0.0
  0
LINE
  5
3A4
  8
0
  6
CONTINUOUS
 62
     7
 10
81.64177261445961
 20
22.03253394365398
 30
0.0
 11
81.62629967545611
 21
22.04750078072451
 31
0.0
  0
LINE
  5
3A5
  8
0
  6
CONTINUOUS
 62
     7
 10
81.62629967545611
 20
22.04750078072451
 30
0.0
 11
81.61200547808686
 21
22.06254810788721
 31
0.0
  0
LINE
  5
3A6
  8
0
  6
CONTINUOUS
 62
     7
 10
81.61200547808686
 20
22.06254810788721
 30
0.0
 11
81.5983465157547
 21
22.07817652856908
 31
0.0
  0
LINE
  5
3A7
  8
0
  6
CONTINUOUS
 62
     7
 10
81.5983465157547
 20
22.07817652856908
 30
0.0
 11
81.58525874636678
 21
22.0944746015983
 31
0.0
  0
LINE
  5
3A8
  8
0
  6
CONTINUOUS
 62
     7
 10
81.58525874636678
 20
22.0944746015983
 30
0.0
 11
81.57286215555487
 21
22.11130663234589
 31
0.0
  0
LINE
  5
3A9
  8
0
  6
CONTINUOUS
 62
     7
 10
81.57286215555487
 20
22.11130663234589
 30
0.0
 11
81.56093177927757
 21
22.12902861240681
 31
0.0
  0
LINE
  5
3AA
  8
0
  6
CONTINUOUS
 62
     7
 10
81.56093177927757
 20
22.12902861240681
 30
0.0
 11
81.54976801555688
 21
22.14724552740449
 31
0.0
  0
LINE
  5
3AB
  8
0
  6
CONTINUOUS
 62
     7
 10
81.54976801555688
 20
22.14724552740449
 30
0.0
 11
81.53931830377174
 21
22.16606485844349
 31
0.0
  0
LINE
  5
3AC
  8
0
  6
CONTINUOUS
 62
     7
 10
81.53931830377174
 20
22.16606485844349
 30
0.0
 11
81.52968724605101
 21
22.1853181518773
 31
0.0
  0
LINE
  5
3AD
  8
0
  6
CONTINUOUS
 62
     7
 10
81.52968724605101
 20
22.1853181518773
 30
0.0
 11
81.52121278607225
 21
22.20421565283259
 31
0.0
  0
LINE
  5
3AE
  8
0
  6
CONTINUOUS
 62
     7
 10
81.52121278607225
 20
22.20421565283259
 30
0.0
 11
81.51352754243463
 21
22.22344939992457
 31
0.0
  0
LINE
  5
3AF
  8
0
  6
CONTINUOUS
 62
     7
 10
81.51352754243463
 20
22.22344939992457
 30
0.0
 11
81.50660048800648
 21
22.24312402125808
 31
0.0
  0
LINE
  5
3B0
  8
0
  6
CONTINUOUS
 62
     7
 10
81.50660048800648
 20
22.24312402125808
 30
0.0
 11
81.50049968568871
 21
22.26307182522858
 31
0.0
  0
LINE
  5
3B1
  8
0
  6
CONTINUOUS
 62
     7
 10
81.50049968568871
 20
22.26307182522858
 30
0.0
 11
81.49513096987819
 21
22.28370260138806
 31
0.0
  0
LINE
  5
3B2
  8
0
  6
CONTINUOUS
 62
     7
 10
81.49513096987819
 20
22.28370260138806
 30
0.0
 11
81.49064642851785
 21
22.304544648898
 31
0.0
  0
LINE
  5
3B3
  8
0
  6
CONTINUOUS
 62
     7
 10
81.49064642851785
 20
22.304544648898
 30
0.0
 11
81.48703198087678
 21
22.3257164591053
 31
0.0
  0
LINE
  5
3B4
  8
0
  6
CONTINUOUS
 62
     7
 10
81.48703198087678
 20
22.3257164591053
 30
0.0
 11
81.4843302127979
 21
22.34702476879768
 31
0.0
  0
LINE
  5
3B5
  8
0
  6
CONTINUOUS
 62
     7
 10
81.4843302127979
 20
22.34702476879768
 30
0.0
 11
81.48313715783624
 21
22.36001935097248
 31
0.0
  0
LINE
  5
3B6
  8
0
  6
CONTINUOUS
 62
     7
 10
81.48313715783624
 20
22.36001935097248
 30
0.0
 11
81.48228378913231
 21
22.37304081171279
 31
0.0
  0
LINE
  5
3B7
  8
0
  6
CONTINUOUS
 62
     7
 10
81.48228378913231
 20
22.37304081171279
 30
0.0
 11
81.48176987937367
 21
22.386116204382
 31
0.0
  0
LINE
  5
3B8
  8
0
  6
CONTINUOUS
 62
     7
 10
81.48176987937367
 20
22.386116204382
 30
0.0
 11
81.48159849612183
 21
22.39920062354289
 31
0.0
  0
LINE
  5
3B9
  8
0
  6
CONTINUOUS
 62
     7
 10
81.99981824239819
 20
21.89920062354289
 30
0.0
 11
81.98189922161228
 21
21.89920062354289
 31
0.0
  0
LINE
  5
3BA
  8
0
  6
CONTINUOUS
 62
     7
 10
84.51840150387814
 20
22.39920062354289
 30
0.0
 11
84.51797429161483
 21
22.37854775993578
 31
0.0
  0
LINE
  5
3BB
  8
0
  6
CONTINUOUS
 62
     7
 10
84.51797429161483
 20
22.37854775993578
 30
0.0
 11
84.5166941448035
 21
22.3579303923698
 31
0.0
  0
LINE
  5
3BC
  8
0
  6
CONTINUOUS
 62
     7
 10
84.5166941448035
 20
22.3579303923698
 30
0.0
 11
84.51454475792487
 21
22.3372413026206
 31
0.0
  0
LINE
  5
3BD
  8
0
  6
CONTINUOUS
 62
     7
 10
84.51454475792487
 20
22.3372413026206
 30
0.0
 11
84.51153663452025
 21
22.31666016119668
 31
0.0
  0
LINE
  5
3BE
  8
0
  6
CONTINUOUS
 62
     7
 10
84.51153663452025
 20
22.31666016119668
 30
0.0
 11
84.50758072648705
 21
22.29577933868709
 31
0.0
  0
LINE
  5
3BF
  8
0
  6
CONTINUOUS
 62
     7
 10
84.50758072648705
 20
22.29577933868709
 30
0.0
 11
84.50274119433399
 21
22.27508653972779
 31
0.0
  0
LINE
  5
3C0
  8
0
  6
CONTINUOUS
 62
     7
 10
84.50274119433399
 20
22.27508653972779
 30
0.0
 11
84.49698089866348
 21
22.25446971334238
 31
0.0
  0
LINE
  5
3C1
  8
0
  6
CONTINUOUS
 62
     7
 10
84.49698089866348
 20
22.25446971334238
 30
0.0
 11
84.49034385161266
 21
22.23411969885047
 31
0.0
  0
LINE
  5
3C2
  8
0
  6
CONTINUOUS
 62
     7
 10
84.49034385161266
 20
22.23411969885047
 30
0.0
 11
84.48312038880735
 21
22.21477431759619
 31
0.0
  0
LINE
  5
3C3
  8
0
  6
CONTINUOUS
 62
     7
 10
84.48312038880735
 20
22.21477431759619
 30
0.0
 11
84.47510497143811
 21
22.19574512647651
 31
0.0
  0
LINE
  5
3C4
  8
0
  6
CONTINUOUS
 62
     7
 10
84.47510497143811
 20
22.19574512647651
 30
0.0
 11
84.46624723039183
 21
22.1769366638932
 31
0.0
  0
LINE
  5
3C5
  8
0
  6
CONTINUOUS
 62
     7
 10
84.46624723039183
 20
22.1769366638932
 30
0.0
 11
84.45661626327477
 21
22.1585141517408
 31
0.0
  0
LINE
  5
3C6
  8
0
  6
CONTINUOUS
 62
     7
 10
84.45661626327477
 20
22.1585141517408
 30
0.0
 11
84.44599485741588
 21
22.14012420883901
 31
0.0
  0
LINE
  5
3C7
  8
0
  6
CONTINUOUS
 62
     7
 10
84.44599485741588
 20
22.14012420883901
 30
0.0
 11
84.43460346516262
 21
22.1222033006705
 31
0.0
  0
LINE
  5
3C8
  8
0
  6
CONTINUOUS
 62
     7
 10
84.43460346516262
 20
22.1222033006705
 30
0.0
 11
84.42237066544108
 21
22.1046584840113
 31
0.0
  0
LINE
  5
3C9
  8
0
  6
CONTINUOUS
 62
     7
 10
84.42237066544108
 20
22.1046584840113
 30
0.0
 11
84.40940031756828
 21
22.08765408033639
 31
0.0
  0
LINE
  5
3CA
  8
0
  6
CONTINUOUS
 62
     7
 10
84.40940031756828
 20
22.08765408033639
 30
0.0
 11
84.39618031067099
 21
22.07175644265008
 31
0.0
  0
LINE
  5
3CB
  8
0
  6
CONTINUOUS
 62
     7
 10
84.39618031067099
 20
22.07175644265008
 30
0.0
 11
84.38231593751897
 21
22.0564197942249
 31
0.0
  0
LINE
  5
3CC
  8
0
  6
CONTINUOUS
 62
     7
 10
84.38231593751897
 20
22.0564197942249
 30
0.0
 11
84.36772825091036
 21
22.04157072336779
 31
0.0
  0
LINE
  5
3CD
  8
0
  6
CONTINUOUS
 62
     7
 10
84.36772825091036
 20
22.04157072336779
 30
0.0
 11
84.35253679055606
 21
22.02734217333849
 31
0.0
  0
LINE
  5
3CE
  8
0
  6
CONTINUOUS
 62
     7
 10
84.35253679055606
 20
22.02734217333849
 30
0.0
 11
84.33642025910648
 21
22.01347265472339
 31
0.0
  0
LINE
  5
3CF
  8
0
  6
CONTINUOUS
 62
     7
 10
84.33642025910648
 20
22.01347265472339
 30
0.0
 11
84.31973025408023
 21
22.00030095281918
 31
0.0
  0
LINE
  5
3D0
  8
0
  6
CONTINUOUS
 62
     7
 10
84.31973025408023
 20
22.00030095281918
 30
0.0
 11
84.30236868444297
 21
21.9877630362057
 31
0.0
  0
LINE
  5
3D1
  8
0
  6
CONTINUOUS
 62
     7
 10
84.30236868444297
 20
21.9877630362057
 30
0.0
 11
84.28448759837995
 21
21.97597969994619
 31
0.0
  0
LINE
  5
3D2
  8
0
  6
CONTINUOUS
 62
     7
 10
84.28448759837995
 20
21.97597969994619
 30
0.0
 11
84.2667122375296
 21
21.96531180008279
 31
0.0
  0
LINE
  5
3D3
  8
0
  6
CONTINUOUS
 62
     7
 10
84.2667122375296
 20
21.96531180008279
 30
0.0
 11
84.24851100160481
 21
21.95538923417351
 31
0.0
  0
LINE
  5
3D4
  8
0
  6
CONTINUOUS
 62
     7
 10
84.24851100160481
 20
21.95538923417351
 30
0.0
 11
84.22978455303083
 21
21.94616874315439
 31
0.0
  0
LINE
  5
3D5
  8
0
  6
CONTINUOUS
 62
     7
 10
84.22978455303083
 20
21.94616874315439
 30
0.0
 11
84.21069030816497
 21
21.93773690275588
 31
0.0
  0
LINE
  5
3D6
  8
0
  6
CONTINUOUS
 62
     7
 10
84.21069030816497
 20
21.93773690275588
 30
0.0
 11
84.19083617224109
 21
21.9299525169119
 31
0.0
  0
LINE
  5
3D7
  8
0
  6
CONTINUOUS
 62
     7
 10
84.19083617224109
 20
21.9299525169119
 30
0.0
 11
84.17066850607222
 21
21.92302055445111
 31
0.0
  0
LINE
  5
3D8
  8
0
  6
CONTINUOUS
 62
     7
 10
84.17066850607222
 20
21.92302055445111
 30
0.0
 11
84.15007263008118
 21
21.9169130592968
 31
0.0
  0
LINE
  5
3D9
  8
0
  6
CONTINUOUS
 62
     7
 10
84.15007263008118
 20
21.9169130592968
 30
0.0
 11
84.1292333322364
 21
21.91169446141758
 31
0.0
  0
LINE
  5
3DA
  8
0
  6
CONTINUOUS
 62
     7
 10
84.1292333322364
 20
21.91169446141758
 30
0.0
 11
84.11106732389108
 21
21.90791092116318
 31
0.0
  0
LINE
  5
3DB
  8
0
  6
CONTINUOUS
 62
     7
 10
84.11106732389108
 20
21.90791092116318
 30
0.0
 11
84.09276680853355
 21
21.90480183878848
 31
0.0
  0
LINE
  5
3DC
  8
0
  6
CONTINUOUS
 62
     7
 10
84.09276680853355
 20
21.90480183878848
 30
0.0
 11
84.0743693602098
 21
21.90237366585271
 31
0.0
  0
LINE
  5
3DD
  8
0
  6
CONTINUOUS
 62
     7
 10
84.0743693602098
 20
21.90237366585271
 30
0.0
 11
84.05566029125904
 21
21.90061242338759
 31
0.0
  0
LINE
  5
3DE
  8
0
  6
CONTINUOUS
 62
     7
 10
84.05566029125904
 20
21.90061242338759
 30
0.0
 11
84.03689090944043
 21
21.89955396320858
 31
0.0
  0
LINE
  5
3DF
  8
0
  6
CONTINUOUS
 62
     7
 10
84.03689090944043
 20
21.89955396320858
 30
0.0
 11
84.0181007783877
 21
21.89920062354289
 31
0.0
  0
LINE
  5
3E0
  8
0
  6
CONTINUOUS
 62
     7
 10
84.0181007783877
 20
21.89920062354289
 30
0.0
 11
84.0001817576018
 21
21.89920062354289
 31
0.0
  0
LINE
  5
3E1
  8
0
  6
CONTINUOUS
 62
     7
 10
84.52891460958526
 20
23.79920062354291
 30
0.0
 11
84.52891460958526
 21
22.39920062354289
 31
0.0
  0
LINE
  5
3E2
  8
0
  6
CONTINUOUS
 62
     7
 10
81.47108539041473
 20
22.39920062354289
 30
0.0
 11
81.47108539041473
 21
23.79920062354291
 31
0.0
  0
LINE
  5
3E3
  8
0
  6
CONTINUOUS
 62
     7
 10
83.6
 20
24.29920062354291
 30
0.0
 11
83.6
 21
26.19920062354289
 31
0.0
  0
LINE
  5
3E4
  8
0
  6
CONTINUOUS
 62
     7
 10
83.61754370876915
 20
24.29920062354291
 30
0.0
 11
83.61754370876915
 21
26.19920062354289
 31
0.0
  0
LINE
  5
3E5
  8
0
  6
CONTINUOUS
 62
     7
 10
82.39999999999999
 20
26.19920062354289
 30
0.0
 11
82.39999999999999
 21
24.29920062354291
 31
0.0
  0
LINE
  5
3E6
  8
0
  6
CONTINUOUS
 62
     7
 10
82.38245629123084
 20
26.19920062354289
 30
0.0
 11
82.38245629123084
 21
24.29920062354291
 31
0.0
  0
LINE
  5
3E7
  8
0
  6
CONTINUOUS
 62
     7
 10
102.2
 20
20.89920062354289
 30
0.0
 11
63.8
 21
20.89920062354289
 31
0.0
  0
LINE
  5
3E8
  8
0
  6
CONTINUOUS
 62
     7
 10
102.6413965102541
 20
22.39920062354289
 30
0.0
 11
84.51840150387814
 21
22.39920062354289
 31
0.0
  0
LINE
  5
3E9
  8
0
  6
CONTINUOUS
 62
     7
 10
102.6736745628529
 20
21.89920062354289
 30
0.0
 11
102.641396510254
 21
22.39920062354289
 31
0.0
  0
LINE
  5
3EA
  8
0
  6
CONTINUOUS
 62
     7
 10
63.35860348974592
 20
22.39920062354289
 30
0.0
 11
63.32632543714707
 21
21.89920062354289
 31
0.0
  0
LINE
  5
3EB
  8
0
  6
CONTINUOUS
 62
     7
 10
81.48159849612183
 20
22.39920062354289
 30
0.0
 11
63.35860348974592
 21
22.39920062354289
 31
0.0
  0
LINE
  5
3EC
  8
0
  6
CONTINUOUS
 62
     7
 10
97.38749456993816
 20
26.199200623543
 30
0.0
 11
97.53492258578098
 21
22.39920062354289
 31
0.0
  0
LINE
  5
3ED
  8
0
  6
CONTINUOUS
 62
     7
 10
68.46507741421908
 20
22.39920062354289
 30
0.0
 11
68.61250543006183
 21
26.199200623543
 31
0.0
  0
LINE
  5
3EE
  8
0
  6
CONTINUOUS
 62
     7
 10
64.56328608139192
 20
23.79920062354291
 30
0.0
 11
64.56328608139192
 21
22.39920062354289
 31
0.0
  0
LINE
  5
3EF
  8
0
  6
CONTINUOUS
 62
     7
 10
64.52861682475651
 20
24.29920062354291
 30
0.0
 11
64.56328608139192
 21
23.79920062354291
 31
0.0
  0
LINE
  5
3F0
  8
0
  6
CONTINUOUS
 62
     7
 10
64.51030990611903
 20
24.29920062354291
 30
0.0
 11
64.51030990611903
 21
26.19920062354289
 31
0.0
  0
LINE
  5
3F1
  8
0
  6
CONTINUOUS
 62
     7
 10
101.489690093881
 20
26.19920062354289
 30
0.0
 11
101.489690093881
 21
24.29920062354291
 31
0.0
  0
LINE
  5
3F2
  8
0
  6
CONTINUOUS
 62
     7
 10
101.4367139186081
 20
23.79920062354291
 30
0.0
 11
101.4713831752435
 21
24.29920062354291
 31
0.0
  0
LINE
  5
3F3
  8
0
  6
CONTINUOUS
 62
     7
 10
101.4367139186081
 20
22.39920062354289
 30
0.0
 11
101.4367139186081
 21
23.79920062354291
 31
0.0
  0
LINE
  5
3F4
  8
0
  6
CONTINUOUS
 62
     7
 10
61.30181705317705
 20
23.79920062354291
 30
0.0
 11
61.27300903365214
 21
24.29920062354291
 31
0.0
  0
LINE
  5
3F5
  8
0
  6
CONTINUOUS
 62
     7
 10
61.27300903365214
 20
24.29920062354291
 30
0.0
 11
64.52861682475651
 21
24.29920062354291
 31
0.0
  0
LINE
  5
3F6
  8
0
  6
CONTINUOUS
 62
     7
 10
101.4713831752435
 20
24.29920062354291
 30
0.0
 11
104.7269909663478
 21
24.29920062354291
 31
0.0
  0
LINE
  5
3F7
  8
0
  6
CONTINUOUS
 62
     7
 10
104.7269909663478
 20
24.29920062354291
 30
0.0
 11
104.6981829468229
 21
23.79920062354291
 31
0.0
  0
LINE
  5
3F8
  8
0
  6
CONTINUOUS
 62
     7
 10
104.6981829468229
 20
22.39920062354289
 30
0.0
 11
104.7269909663478
 21
21.89920062354289
 31
0.0
  0
LINE
  5
3F9
  8
0
  6
CONTINUOUS
 62
     7
 10
104.7269909663478
 20
21.89920062354289
 30
0.0
 11
102.6736745628529
 21
21.89920062354289
 31
0.0
  0
LINE
  5
3FA
  8
0
  6
CONTINUOUS
 62
     7
 10
63.32632543714707
 20
21.89920062354289
 30
0.0
 11
61.27300903365214
 21
21.89920062354289
 31
0.0
  0
LINE
  5
3FB
  8
0
  6
CONTINUOUS
 62
     7
 10
61.27300903365214
 20
21.89920062354289
 30
0.0
 11
61.30181705317705
 21
22.39920062354289
 31
0.0
  0
LINE
  5
3FC
  8
0
  6
CONTINUOUS
 62
     7
 10
61.30181705317705
 20
23.79920062354291
 30
0.0
 11
61.30181705317705
 21
22.39920062354289
 31
0.0
  0
LINE
  5
3FD
  8
0
  6
CONTINUOUS
 62
     7
 10
104.6981829468229
 20
22.39920062354289
 30
0.0
 11
104.6981829468229
 21
23.79920062354291
 31
0.0
  0
LINE
  5
3FE
  8
0
  6
CONTINUOUS
 62
     7
 10
61.24999999999998
 20
24.29920062354291
 30
0.0
 11
61.27300903365214
 21
24.29920062354291
 31
0.0
  0
LINE
  5
3FF
  8
0
  6
CONTINUOUS
 62
     7
 10
61.27300903365214
 20
21.89920062354289
 30
0.0
 11
61.24999999999998
 21
21.89920062354289
 31
0.0
  0
LINE
  5
400
  8
0
  6
CONTINUOUS
 62
     7
 10
104.75
 20
21.89920062354289
 30
0.0
 11
104.7269909663478
 21
21.89920062354289
 31
0.0
  0
LINE
  5
401
  8
0
  6
CONTINUOUS
 62
     7
 10
104.7269909663478
 20
24.29920062354291
 30
0.0
 11
104.75
 21
24.29920062354291
 31
0.0
  0
LINE
  5
402
  8
0
  6
CONTINUOUS
 62
     7
 10
61.51263180013661
 20
30.19920062354289
 30
0.0
 11
81.51745373558151
 21
30.19920062354289
 31
0.0
  0
LINE
  5
403
  8
0
  6
CONTINUOUS
 62
     7
 10
84.48254626441847
 20
30.19920062354289
 30
0.0
 11
104.4873681998634
 21
30.19920062354289
 31
0.0
  0
LINE
  5
404
  8
0
  6
CONTINUOUS
 62
     7
 10
61.50000000000001
 20
30.19920062354289
 30
0.0
 11
61.51263180013661
 21
30.19920062354289
 31
0.0
  0
LINE
  5
405
  8
0
  6
CONTINUOUS
 62
     7
 10
104.4873681998634
 20
30.19920062354289
 30
0.0
 11
104.5
 21
30.19920062354289
 31
0.0
  0
LINE
  5
406
  8
0
  6
CONTINUOUS
 62
     7
 10
103.5
 20
26.19920062354289
 30
0.0
 11
103.5
 21
24.29920062354291
 31
0.0
  0
LINE
  5
407
  8
0
  6
CONTINUOUS
 62
     7
 10
62.49999999999999
 20
24.29920062354291
 30
0.0
 11
62.49999999999999
 21
26.19920062354289
 31
0.0
  0
ARC
  5
408
  8
0
  6
CONTINUOUS
 62
     7
 10
102.25
 20
18.5492006235429
 30
0.0
 40
1.750000000000002
 50
303.0557311508538
 51
90.0
  0
ARC
  5
409
  8
0
  6
CONTINUOUS
 62
     7
 10
63.74999999999999
 20
18.5492006235429
 30
0.0
 40
1.750000000000002
 50
90.0
 51
236.9442688491461
  0
LINE
  5
40A
  8
0
  6
CONTINUOUS
 62
     7
 10
102.25
 20
20.2992006235429
 30
0.0
 11
63.74999999999999
 21
20.2992006235429
 31
0.0
  0
ARC
  5
40B
  8
0
  6
CONTINUOUS
 62
     7
 10
103.75
 20
16.24431450921968
 30
0.0
 40
1.000000000000001
 50
123.0557311508541
 51
180.0
  0
ARC
  5
40C
  8
0
  6
CONTINUOUS
 62
     7
 10
62.24999999999999
 20
16.24431450921968
 30
0.0
 40
0.999999999999987
 50
0.0
 51
56.94426884914594
  0
ARC
  5
40D
  8
0
  6
CONTINUOUS
 62
     7
 10
102.25
 20
15.46679250278688
 30
0.0
 40
0.5000000000000004
 50
303.6900675259793
 51
0.0000000000002274
  0
ARC
  5
40E
  8
0
  6
CONTINUOUS
 62
     7
 10
63.74999999999999
 20
15.46679250278688
 30
0.0
 40
0.5000000000000004
 50
179.9999999999998
 51
236.3099324740207
  0
LINE
  5
40F
  8
0
  6
CONTINUOUS
 62
     7
 10
102.75
 20
15.46679250278688
 30
0.0
 11
102.75
 21
16.24431450921968
 31
0.0
  0
LINE
  5
410
  8
0
  6
CONTINUOUS
 62
     7
 10
63.24999999999999
 20
16.24431450921968
 30
0.0
 11
63.24999999999999
 21
15.46679250278688
 31
0.0
  0
LINE
  5
411
  8
0
  6
CONTINUOUS
 62
     7
 10
63.47264990188739
 20
15.050767355618
 30
0.0
 11
63.55470019622522
 21
14.99606715939278
 31
0.0
  0
LINE
  5
412
  8
0
  6
CONTINUOUS
 62
     7
 10
102.4452998037748
 20
14.99606715939278
 30
0.0
 11
102.5273500981126
 21
15.050767355618
 31
0.0
  0
ARC
  5
413
  8
0
  6
CONTINUOUS
 62
     7
 10
103.0
 20
14.16401686505489
 30
0.0
 40
1.000000000000015
 50
123.6900675259798
 51
178.9920075697779
  0
ARC
  5
414
  8
0
  6
CONTINUOUS
 62
     7
 10
62.99999999999999
 20
14.16401686505489
 30
0.0
 40
0.999999999999987
 50
1.007992430222146
 51
56.30993247402024
  0
ARC
  5
415
  8
0
  6
CONTINUOUS
 62
     7
 10
64.99969050183738
 20
14.19920062354291
 30
0.0
 40
1.000000000000001
 50
181.0079924302221
 51
270.0
  0
ARC
  5
416
  8
0
  6
CONTINUOUS
 62
     7
 10
101.0003094981626
 20
14.19920062354291
 30
0.0
 40
1.000000000000001
 50
270.0
 51
358.9920075697779
  0
LINE
  5
417
  8
0
  6
CONTINUOUS
 62
     7
 10
60.0
 20
28.69920062354289
 30
0.0
 11
60.0
 21
26.19920062354289
 31
0.0
  0
LINE
  5
418
  8
0
  6
CONTINUOUS
 62
     7
 10
106.0
 20
26.19920062354289
 30
0.0
 11
106.0
 21
28.69920062354289
 31
0.0
  0
ARC
  5
419
  8
0
  6
CONTINUOUS
 62
     7
 10
63.8
 20
21.39920062354289
 30
0.0
 40
0.5000000000000004
 50
180.0
 51
270.0
  0
ARC
  5
41A
  8
0
  6
CONTINUOUS
 62
     7
 10
102.2
 20
21.39920062354289
 30
0.0
 40
0.5000000000000004
 50
270.0
 51
0.0
  0
LINE
  5
41B
  8
0
  6
CONTINUOUS
 62
     7
 10
102.7
 20
21.39920062354289
 30
0.0
 11
102.7
 21
21.89920062354289
 31
0.0
  0
LINE
  5
41C
  8
0
  6
CONTINUOUS
 62
     7
 10
63.3
 20
21.89920062354289
 30
0.0
 11
63.3
 21
21.39920062354289
 31
0.0
  0
LINE
  5
41D
  8
0
  6
CONTINUOUS
 62
     7
 10
65.49999999999999
 20
20.89920062354289
 30
0.0
 11
65.49999999999999
 21
20.2992006235429
 31
0.0
  0
LINE
  5
41E
  8
0
  6
CONTINUOUS
 62
     7
 10
100.5
 20
20.2992006235429
 30
0.0
 11
100.5
 21
20.89920062354289
 31
0.0
  0
LINE
  5
41F
  8
0
  6
CONTINUOUS
 62
     7
 10
68.65261757587376
 20
26.19920062354289
 30
0.0
 11
68.65261757587376
 21
22.39920062354289
 31
0.0
  0
LINE
  5
420
  8
0
  6
CONTINUOUS
 62
     7
 10
97.34738242412621
 20
22.39920062354289
 30
0.0
 11
97.34738242412621
 21
26.19920062354289
 31
0.0
  0
LINE
  5
421
  8
0
  6
CONTINUOUS
 62
     7
 10
61.24999999999998
 20
24.29920062354291
 30
0.0
 11
61.24999999999998
 21
21.89920062354289
 31
0.0
  0
LINE
  5
422
  8
0
  6
CONTINUOUS
 62
     7
 10
104.75
 20
21.89920062354289
 30
0.0
 11
104.75
 21
24.29920062354291
 31
0.0
  0
ARC
  5
423
  8
0
  6
CONTINUOUS
 62
     7
 10
61.50000000000001
 20
28.69920062354289
 30
0.0
 40
1.499999999999994
 50
90.0
 51
180.0
  0
ARC
  5
424
  8
0
  6
CONTINUOUS
 62
     7
 10
104.5
 20
28.69920062354289
 30
0.0
 40
1.500000000000001
 50
0.0
 51
90.0
  0
LINE
  5
425
  8
0
  6
CENTER
 62
     1
 10
57.99999999999999
 20
89.5
 30
0.0
 11
108.0
 21
89.5
 31
0.0
  0
LINE
  5
426
  8
0
  6
CENTER
 62
     1
 10
57.99999999999999
 20
-39.49999999999998
 30
0.0
 11
108.0
 21
-39.49999999999998
 31
0.0
  0
LINE
  5
427
  8
0
  6
CENTER
 62
     1
 10
82.99999999999999
 20
-64.49999999999997
 30
0.0
 11
82.99999999999999
 21
-14.49999999999998
 31
0.0
  0
LINE
  5
428
  8
0
  6
CENTER
 62
     1
 10
82.99999999999999
 20
64.5
 30
0.0
 11
82.99999999999999
 21
114.5
 31
0.0
  0
ENDSEC
  0
EOF
