  0
SECTION
  2
HEADER
  9
$ACADVER
  1
AC1006
  9
$DWGCODEPAGE
  3
ansi_932
  9
$INSBASE
 10
0.0
 20
0.0
 30
0.0
  9
$EXTMIN
 10
-101.0
 20
3.355692759784924
  9
$EXTMAX
 10
171.0000000000001
 20
644.3007959634992
  9
$LIMMIN
 10
0.0
 20
0.0
  9
$LIMMAX
 10
12.0
 20
9.0
  9
$ORTHOMODE
 70
     0
  9
$REGENMODE
 70
     1
  9
$FILLMODE
 70
     1
  9
$QTEXTMODE
 70
     0
  9
$MIRRTEXT
 70
     1
  9
$DRAGMODE
 70
     2
  9
$LTSCALE
 40
1.0
  9
$OSMODE
 70
    37
  9
$ATTMODE
 70
     1
  9
$TEXTSIZE
 40
0.2
  9
$TRACEWID
 40
0.05
  9
$TEXTSTYLE
  7
STANDARD
  9
$CLAYER
  8
0
  9
$CELTYPE
  6
BYLAYER
  9
$CECOLOR
 62
   256
  9
$DIMSCALE
 40
1.0
  9
$DIMASZ
 40
3.0
  9
$DIMEXO
 40
0.0625
  9
$DIMDLI
 40
0.38
  9
$DIMRND
 40
0.0
  9
$DIMDLE
 40
0.0
  9
$DIMEXE
 40
1.5
  9
$DIMTP
 40
0.0
  9
$DIMTM
 40
0.0
  9
$DIMTXT
 40
3.0
  9
$DIMCEN
 40
0.09
  9
$DIMTSZ
 40
0.0
  9
$DIMTOL
 70
     0
  9
$DIMLIM
 70
     0
  9
$DIMTIH
 70
     1
  9
$DIMTOH
 70
     1
  9
$DIMSE1
 70
     0
  9
$DIMSE2
 70
     0
  9
$DIMTAD
 70
     1
  9
$DIMZIN
 70
     0
  9
$DIMBLK
  1

  9
$DIMASO
 70
     1
  9
$DIMSHO
 70
     1
  9
$DIMPOST
  1

  9
$DIMAPOST
  1

  9
$DIMALT
 70
     0
  9
$DIMALTD
 70
     2
  9
$DIMALTF
 40
25.4
  9
$DIMLFAC
 40
1.0
  9
$DIMTOFL
 70
     0
  9
$DIMTVP
 40
0.0
  9
$DIMTIX
 70
     0
  9
$DIMSOXD
 70
     0
  9
$DIMSAH
 70
     0
  9
$DIMBLK1
  1

  9
$DIMBLK2
  1

  9
$LUNITS
 70
     2
  9
$LUPREC
 70
     4
  9
$SKETCHINC
 40
0.1
  9
$FILLETRAD
 40
0.5
  9
$AUNITS
 70
     0
  9
$AUPREC
 70
     0
  9
$MENU
  1
.
  9
$ELEVATION
 40
0.0
  9
$THICKNESS
 40
0.0
  9
$LIMCHECK
 70
     0
  9
$CHAMFERA
 40
0.0
  9
$CHAMFERB
 40
0.0
  9
$SKPOLY
 70
     0
  9
$TDCREATE
 40
2460388.437840127
  9
$TDUPDATE
 40
2460388.437840475
  9
$TDINDWG
 40
0.0000000116
  9
$TDUSRTIMER
 40
0.0000000116
  9
$USRTIMER
 70
     1
  9
$ANGBASE
 50
0.0
  9
$ANGDIR
 70
     0
  9
$PDMODE
 70
     0
  9
$PDSIZE
 40
0.0
  9
$PLINEWID
 40
0.0
  9
$COORDS
 70
     1
  9
$SPLFRAME
 70
     0
  9
$SPLINETYPE
 70
     6
  9
$SPLINESEGS
 70
     8
  9
$ATTDIA
 70
     0
  9
$ATTREQ
 70
     1
  9
$HANDLING
 70
     1
  9
$HANDSEED
  5
848
  9
$SURFTAB1
 70
     6
  9
$SURFTAB2
 70
     6
  9
$SURFTYPE
 70
     6
  9
$SURFU
 70
     6
  9
$SURFV
 70
     6
  9
$UCSNAME
  2

  9
$UCSORG
 10
0.0
 20
0.0
 30
0.0
  9
$UCSXDIR
 10
1.0
 20
0.0
 30
0.0
  9
$UCSYDIR
 10
0.0
 20
1.0
 30
0.0
  9
$USERI1
 70
     0
  9
$USERI2
 70
     0
  9
$USERI3
 70
     0
  9
$USERI4
 70
     0
  9
$USERI5
 70
     0
  9
$USERR1
 40
0.0
  9
$USERR2
 40
0.0
  9
$USERR3
 40
0.0
  9
$USERR4
 40
0.0
  9
$USERR5
 40
0.0
  9
$WORLDVIEW
 70
     1
  0
ENDSEC
  0
SECTION
  2
TABLES
  0
TABLE
  2
VPORT
 70
     1
  0
VPORT
  2
*ACTIVE
 70
     0
 10
0.0
 20
0.0
 11
1.0
 21
1.0
 12
35.00000000000003
 22
323.8282443616421
 13
0.0
 23
0.0
 14
0.5
 24
0.5
 15
0.5
 25
0.5
 16
0.0
 26
0.0
 36
1.0
 17
0.0
 27
0.0
 37
0.0
 40
640.9451032037143
 41
1.6
 42
50.0
 43
0.0
 44
0.0
 50
0.0
 51
0.0
 71
     0
 72
   100
 73
     1
 74
     3
 75
     0
 76
     0
 77
     0
 78
     0
  0
ENDTAB
  0
TABLE
  2
LTYPE
 70
     2
  0
LTYPE
  2
CONTINUOUS
 70
     0
  3
Solid line
 72
    65
 73
     0
 40
0.0
  0
LTYPE
  2
CENTER
 70
     0
  3

 72
    65
 73
     0
 40
0.0
  0
ENDTAB
  0
TABLE
  2
LAYER
 70
     1
  0
LAYER
  2
0
 70
     0
 62
     7
  6
CONTINUOUS
  0
ENDTAB
  0
TABLE
  2
STYLE
 70
     2
  0
STYLE
  2
STANDARD
 70
     0
 40
0.0
 41
1.0
 50
0.0
 71
     0
 42
0.2
  3
txt
  4

  0
STYLE
  2
ＭＳ_ゴシック
 70
     0
 40
0.0
 41
1.0
 50
0.0
 71
     0
 42
0.2
  3
ＭＳ ゴシック.shx
  4

  0
ENDTAB
  0
TABLE
  2
VIEW
 70
     0
  0
ENDTAB
  0
TABLE
  2
UCS
 70
     0
  0
ENDTAB
  0
ENDSEC
  0
SECTION
  2
BLOCKS
  0
ENDSEC
  0
SECTION
  2
ENTITIES
  0
LINE
  5
6F
  8
0
  6
CONTINUOUS
 62
     7
 10
35.00000000000003
 20
528.6534499249162
 30
0.0
 11
75.35265396141705
 21
528.6534499249162
 31
0.0
  0
LINE
  5
70
  8
0
  6
CENTER
 62
     1
 10
35.00000000000003
 20
372.3007959634992
 30
0.0
 11
35.00000000000003
 21
644.3007959634992
 31
0.0
  0
LINE
  5
72
  8
0
  6
CENTER
 62
     1
 10
-101.0
 20
508.3007959634992
 30
0.0
 11
171.0000000000001
 21
508.3007959634992
 31
0.0
  0
LINE
  5
73
  8
0
  6
CONTINUOUS
 62
     7
 10
35.00000000000003
 20
487.9481420020821
 30
0.0
 11
75.35265396141705
 21
487.9481420020821
 31
0.0
  0
LINE
  5
74
  8
0
  6
CONTINUOUS
 62
     7
 10
9.019631633984087
 20
321.9583293809263
 30
0.0
 11
11.35265396141703
 21
321.9661360243338
 31
0.0
  0
LINE
  5
75
  8
0
  6
CONTINUOUS
 62
     7
 10
58.64734603858302
 20
321.9661360243337
 30
0.0
 11
60.98036836601603
 21
321.9583293809262
 31
0.0
  0
LINE
  5
76
  8
0
  6
CONTINUOUS
 62
     7
 10
58.74994074658451
 20
594.5508552169148
 30
0.0
 11
58.68125916759251
 21
575.9820551310918
 31
0.0
  0
LINE
  5
77
  8
0
  6
CONTINUOUS
 62
     7
 10
58.68125916759254
 20
575.9820551310917
 30
0.0
 11
77.29190918814602
 21
576.0088867753532
 31
0.0
  0
LINE
  5
78
  8
0
  6
CONTINUOUS
 62
     7
 10
77.291909188146
 20
576.0088867753532
 30
0.0
 11
77.21543686648751
 21
594.5162328299865
 31
0.0
  0
LINE
  5
79
  8
0
  6
CONTINUOUS
 62
     7
 10
77.21543686648752
 20
594.5162328299865
 30
0.0
 11
58.74994074658453
 21
594.5508552169148
 31
0.0
  0
LINE
  5
7A
  8
0
  6
CONTINUOUS
 62
     7
 10
83.23758310902923
 20
489.6605344952835
 30
0.0
 11
82.97967896968997
 21
489.5278052694262
 31
0.0
  0
LINE
  5
7B
  8
0
  6
CONTINUOUS
 62
     7
 10
82.97967896968994
 20
489.5278052694262
 30
0.0
 11
82.68039257890074
 21
489.4105408777472
 31
0.0
  0
ARC
  5
7C
  8
0
  6
CONTINUOUS
 62
     7
 10
81.73690970845482
 20
492.2588117014977
 30
0.0
 40
3.000467732246603
 50
267.3034165572428
 51
288.3273281898016
  0
ARC
  5
7D
  8
0
  6
CONTINUOUS
 62
     7
 10
81.73683903419848
 20
492.2568731193027
 30
0.0
 40
2.99852797174549
 50
245.5895402111612
 51
267.3030227752583
  0
ARC
  5
7E
  8
0
  6
CONTINUOUS
 62
     7
 10
81.73665554444953
 20
492.2563717753912
 30
0.0
 40
2.997995613189197
 50
222.7314868839935
 51
245.5887737793953
  0
LINE
  5
7F
  8
0
  6
CONTINUOUS
 62
     7
 10
79.53450244529081
 20
490.2220415601685
 30
0.0
 11
79.31711982389479
 21
490.486088668452
 31
0.0
  0
LINE
  5
80
  8
0
  6
CONTINUOUS
 62
     7
 10
79.31711982389477
 20
490.486088668452
 30
0.0
 11
79.2628177287308
 21
490.5627928386347
 31
0.0
  0
LINE
  5
81
  8
0
  6
CONTINUOUS
 62
     7
 10
94.76103038682376
 20
496.3146732807395
 30
0.0
 11
83.23758310902922
 21
489.6605344952835
 31
0.0
  0
LINE
  5
82
  8
0
  6
CONTINUOUS
 62
     7
 10
96.26063762822923
 20
498.9124486519182
 30
0.0
 11
96.2468032756333
 21
498.6260474197338
 31
0.0
  0
LINE
  5
83
  8
0
  6
CONTINUOUS
 62
     7
 10
96.24680327563328
 20
498.6260474197337
 30
0.0
 11
96.2056883917835
 21
498.3416078114249
 31
0.0
  0
LINE
  5
84
  8
0
  6
CONTINUOUS
 62
     7
 10
96.20568839178351
 20
498.341607811425
 30
0.0
 11
96.13785361875351
 21
498.0630122169842
 31
0.0
  0
ARC
  5
85
  8
0
  6
CONTINUOUS
 62
     7
 10
93.26043478207751
 20
498.9126232906175
 30
0.0
 40
3.000229680890865
 50
321.8413766652277
 51
343.5497907796592
  0
ARC
  5
86
  8
0
  6
CONTINUOUS
 62
     7
 10
93.2602792665595
 20
498.9129684092039
 30
0.0
 40
3.000565196688287
 50
300.0103309784593
 51
321.8380296169309
  0
LINE
  5
87
  8
0
  6
CONTINUOUS
 62
     7
 10
96.26063762822923
 20
498.9124486519182
 30
0.0
 11
96.26063762822923
 21
517.6891432750799
 31
0.0
  0
LINE
  5
88
  8
0
  6
CONTINUOUS
 62
     7
 10
96.26063762822923
 20
517.6891432750799
 30
0.0
 11
96.2468032756333
 21
517.9755445072647
 31
0.0
  0
LINE
  5
89
  8
0
  6
CONTINUOUS
 62
     7
 10
96.24680327563328
 20
517.9755445072647
 30
0.0
 11
96.2056883917835
 21
518.2599841155735
 31
0.0
  0
LINE
  5
8A
  8
0
  6
CONTINUOUS
 62
     7
 10
96.20568839178351
 20
518.2599841155735
 30
0.0
 11
96.13785361875351
 21
518.5385797100142
 31
0.0
  0
ARC
  5
8B
  8
0
  6
CONTINUOUS
 62
     7
 10
93.26043478207579
 20
517.6889686363799
 30
0.0
 40
3.000229680892641
 50
16.45020922034827
 51
38.1586233347663
  0
ARC
  5
8C
  8
0
  6
CONTINUOUS
 62
     7
 10
93.26027926655745
 20
517.6886235177922
 30
0.0
 40
3.000565196691229
 50
38.16197038307944
 51
59.98966902152986
  0
LINE
  5
8D
  8
0
  6
CONTINUOUS
 62
     7
 10
94.76103038682376
 20
520.286918646259
 30
0.0
 11
83.23758310902922
 21
526.941057431715
 31
0.0
  0
LINE
  5
8E
  8
0
  6
CONTINUOUS
 62
     7
 10
83.23758310902923
 20
526.941057431715
 30
0.0
 11
82.97967896968997
 21
527.0737866575719
 31
0.0
  0
LINE
  5
8F
  8
0
  6
CONTINUOUS
 62
     7
 10
82.97967896968994
 20
527.0737866575719
 30
0.0
 11
82.68039257890074
 21
527.1910510492512
 31
0.0
  0
ARC
  5
90
  8
0
  6
CONTINUOUS
 62
     7
 10
81.73690970845482
 20
524.3427802255007
 30
0.0
 40
3.000467732246603
 50
71.67267181019831
 51
92.69658344275715
  0
ARC
  5
91
  8
0
  6
CONTINUOUS
 62
     7
 10
81.73683903419848
 20
524.3447188076955
 30
0.0
 40
2.99852797174549
 50
92.69697722474164
 51
114.4104597888388
  0
ARC
  5
92
  8
0
  6
CONTINUOUS
 62
     7
 10
81.73665554444953
 20
524.3452201516072
 30
0.0
 40
2.997995613189197
 50
114.4112262206048
 51
137.2685131160065
  0
LINE
  5
93
  8
0
  6
CONTINUOUS
 62
     7
 10
79.53450244529081
 20
526.37955036683
 30
0.0
 11
79.31711982389479
 21
526.1155032585461
 31
0.0
  0
LINE
  5
94
  8
0
  6
CONTINUOUS
 62
     7
 10
79.31711982389477
 20
526.1155032585461
 30
0.0
 11
79.2628177287308
 21
526.0387990883637
 31
0.0
  0
LINE
  5
95
  8
0
  6
CONTINUOUS
 62
     7
 10
76.40817326900628
 20
531.9481420020822
 30
0.0
 11
77.35261420817751
 21
531.9481817553218
 31
0.0
  0
LINE
  5
96
  8
0
  6
CONTINUOUS
 62
     7
 10
77.35261420817751
 20
531.9481817553218
 30
0.0
 11
77.34390766205276
 21
550.644703625552
 31
0.0
  0
LINE
  5
97
  8
0
  6
CONTINUOUS
 62
     7
 10
77.34390766205273
 20
550.644703625552
 30
0.0
 11
58.64738579182252
 21
550.6534101716767
 31
0.0
  0
LINE
  5
98
  8
0
  6
CONTINUOUS
 62
     7
 10
58.64738579182255
 20
550.6534101716767
 30
0.0
 11
58.64734603858327
 21
549.7089692325054
 31
0.0
  0
LINE
  5
99
  8
0
  6
CONTINUOUS
 62
     7
 10
48.78961884093924
 20
553.9481420020821
 30
0.0
 11
53.02267997605997
 21
553.9482558593131
 31
0.0
  0
LINE
  5
9A
  8
0
  6
CONTINUOUS
 62
     7
 10
53.02267997605997
 20
553.9482558593131
 30
0.0
 11
36.65941799180027
 21
570.2946065420496
 31
0.0
  0
LINE
  5
9B
  8
0
  6
CONTINUOUS
 62
     7
 10
36.65941799180028
 20
570.2946065420496
 30
0.0
 11
36.64734603858325
 21
555.957065636793
 31
0.0
  0
CIRCLE
  5
9C
  8
0
  6
CONTINUOUS
 62
     7
 10
34.99998860005527
 20
614.3007962648543
 30
0.0
 40
4.9999996991138
  0
CIRCLE
  5
9D
  8
0
  6
CONTINUOUS
 62
     7
 10
34.99998860005527
 20
402.3007956621443
 30
0.0
 40
4.999999699113911
  0
CIRCLE
  5
9E
  8
0
  6
CONTINUOUS
 62
     7
 10
-70.99999969881027
 20
508.3008073769037
 30
0.0
 40
4.999999699279889
  0
LINE
  5
9F
  8
0
  6
CONTINUOUS
 62
     7
 10
124.8670071282407
 20
569.6401950799802
 30
0.0
 11
124.813362360069
 21
554.1141583235682
 31
0.0
  0
LINE
  5
A0
  8
0
  6
CONTINUOUS
 62
     7
 10
124.813362360069
 20
554.1141583235683
 30
0.0
 11
135.9283284907718
 21
554.1828853034
 31
0.0
  0
ARC
  5
A1
  8
0
  6
CONTINUOUS
 62
     7
 10
35.00000000000026
 20
508.3007959634992
 30
0.0
 40
110.8679106600992
 50
24.44657831100009
 51
28.35540745687734
  0
LINE
  5
A2
  8
0
  6
CONTINUOUS
 62
     7
 10
132.5658100436195
 20
560.9563400654082
 30
0.0
 11
124.8670071282407
 21
569.6401950799802
 31
0.0
  0
LINE
  5
A3
  8
0
  6
CONTINUOUS
 62
     7
 10
102.87317202128
 20
594.4276239422193
 30
0.0
 11
102.783795417856
 21
576.0845913813553
 31
0.0
  0
LINE
  5
A4
  8
0
  6
CONTINUOUS
 62
     7
 10
102.783795417856
 20
576.0845913813552
 30
0.0
 11
122.6568055600105
 21
576.1828853033999
 31
0.0
  0
ARC
  5
A5
  8
0
  6
CONTINUOUS
 62
     7
 10
35.00000000000026
 20
508.3007959634992
 30
0.0
 40
110.8679106600992
 50
37.75446985194874
 51
50.964998895404
  0
LINE
  5
A6
  8
0
  6
CONTINUOUS
 62
     7
 10
104.8240580149488
 20
594.4187066235985
 30
0.0
 11
102.87317202128
 21
594.4276239422193
 31
0.0
  0
LINE
  5
A7
  8
0
  6
CONTINUOUS
 62
     7
 10
36.73492387983273
 20
594.5658720836665
 30
0.0
 11
36.67087325586171
 21
575.9716692193609
 31
0.0
  0
LINE
  5
A8
  8
0
  6
CONTINUOUS
 62
     7
 10
36.67087325586171
 20
575.9716692193609
 30
0.0
 11
55.3216171709905
 21
575.9791787925087
 31
0.0
  0
LINE
  5
A9
  8
0
  6
CONTINUOUS
 62
     7
 10
55.32161717099054
 20
575.9791787925087
 30
0.0
 11
55.25423987681327
 21
594.5550358403125
 31
0.0
  0
LINE
  5
AA
  8
0
  6
CONTINUOUS
 62
     7
 10
55.25423987681327
 20
594.5550358403125
 30
0.0
 11
36.73492387983278
 21
594.5658720836664
 31
0.0
  0
LINE
  5
AB
  8
0
  6
CONTINUOUS
 62
     7
 10
58.67292288658749
 20
572.627873076912
 30
0.0
 11
58.64932919312199
 21
556.2826288703519
 31
0.0
  0
LINE
  5
AC
  8
0
  6
CONTINUOUS
 62
     7
 10
58.64932919312199
 20
556.2826288703519
 30
0.0
 11
74.91169271572451
 21
572.6073636392035
 31
0.0
  0
LINE
  5
AD
  8
0
  6
CONTINUOUS
 62
     7
 10
74.91169271572451
 20
572.6073636392035
 30
0.0
 11
58.67292288658749
 21
572.6278730769119
 31
0.0
  0
LINE
  5
AE
  8
0
  6
CONTINUOUS
 62
     7
 10
55.32965519697153
 20
572.6304511604707
 30
0.0
 11
39.01698420647226
 21
572.63690662534
 31
0.0
  0
LINE
  5
AF
  8
0
  6
CONTINUOUS
 62
     7
 10
39.01698420647226
 20
572.63690662534
 30
0.0
 11
55.35149898058303
 21
556.2806294821617
 31
0.0
  0
LINE
  5
B0
  8
0
  6
CONTINUOUS
 62
     7
 10
55.351498980583
 20
556.2806294821617
 30
0.0
 11
55.3296551969715
 21
572.6304511604707
 31
0.0
  0
LINE
  5
B1
  8
0
  6
CONTINUOUS
 62
     7
 10
105.0481423361507
 20
509.9775914215494
 30
0.0
 11
121.2650761201675
 21
510.0357198433319
 31
0.0
  0
LINE
  5
B2
  8
0
  6
CONTINUOUS
 62
     7
 10
121.2650761201675
 20
510.0357198433319
 30
0.0
 11
121.256763389898
 21
526.0922504969654
 31
0.0
  0
LINE
  5
B3
  8
0
  6
CONTINUOUS
 62
     7
 10
121.256763389898
 20
526.0922504969654
 30
0.0
 11
105.0481423361508
 21
509.9775914215494
 31
0.0
  0
LINE
  5
B4
  8
0
  6
CONTINUOUS
 62
     7
 10
102.6783828290095
 20
528.6224131344898
 30
0.0
 11
102.6711084925722
 21
512.335208750464
 31
0.0
  0
LINE
  5
B5
  8
0
  6
CONTINUOUS
 62
     7
 10
102.6711084925722
 20
512.335208750464
 30
0.0
 11
118.8121273178065
 21
528.566122301043
 31
0.0
  0
LINE
  5
B6
  8
0
  6
CONTINUOUS
 62
     7
 10
118.8121273178065
 20
528.566122301043
 30
0.0
 11
102.6783828290095
 21
528.6224131344898
 31
0.0
  0
ARC
  5
B7
  8
0
  6
CONTINUOUS
 62
     7
 10
141.0627592216493
 20
508.2977909284779
 30
0.0
 40
9.103339898142993
 50
60.20412075776607
 51
168.6328236862529
  0
ARC
  5
B8
  8
0
  6
CONTINUOUS
 62
     7
 10
35.00000000000026
 20
508.3007959634992
 30
0.0
 40
110.8679106600992
 50
4.084514566314651
 51
10.45471742400909
  0
LINE
  5
B9
  8
0
  6
CONTINUOUS
 62
     7
 10
144.0273510858997
 20
528.4187066235985
 30
0.0
 11
124.7628799872399
 21
528.5379159762592
 31
0.0
  0
LINE
  5
BA
  8
0
  6
CONTINUOUS
 62
     7
 10
124.7628799872399
 20
528.5379159762592
 30
0.0
 11
124.7514610189534
 21
510.0522569824524
 31
0.0
  0
LINE
  5
BB
  8
0
  6
CONTINUOUS
 62
     7
 10
124.7514610189534
 20
510.0522569824525
 30
0.0
 11
132.1379881815943
 21
510.0920203407104
 31
0.0
  0
LINE
  5
BC
  8
0
  6
CONTINUOUS
 62
     7
 10
124.803511960139
 20
550.4972840033602
 30
0.0
 11
124.767325149722
 21
532.0681211132211
 31
0.0
  0
LINE
  5
BD
  8
0
  6
CONTINUOUS
 62
     7
 10
124.767325149722
 20
532.0681211132212
 30
0.0
 11
143.2651348444953
 21
532.1828853034
 31
0.0
  0
ARC
  5
BE
  8
0
  6
CONTINUOUS
 62
     7
 10
35.00000000000026
 20
508.3007959634992
 30
0.0
 40
110.8679106600992
 50
12.43959951548568
 51
22.32703681985689
  0
LINE
  5
BF
  8
0
  6
CONTINUOUS
 62
     7
 10
137.55620515485
 20
550.4187066235985
 30
0.0
 11
124.803511960139
 21
550.4972840033602
 31
0.0
  0
LINE
  5
C0
  8
0
  6
CONTINUOUS
 62
     7
 10
58.88208933990074
 20
616.5659308079945
 30
0.0
 11
58.78071125986126
 21
600.5998132377268
 31
0.0
  0
LINE
  5
C1
  8
0
  6
CONTINUOUS
 62
     7
 10
58.78071125986128
 20
600.5998132377267
 30
0.0
 11
71.14781366827553
 21
613.1102859018602
 31
0.0
  0
ARC
  5
C2
  8
0
  6
CONTINUOUS
 62
     7
 10
35.00000000000003
 20
508.3007959634992
 30
0.0
 40
110.8679106600992
 50
70.9711644477299
 51
77.56040048451432
  0
LINE
  5
C3
  8
0
  6
CONTINUOUS
 62
     7
 10
43.49945428493201
 20
611.1110084813918
 30
0.0
 11
55.22447046583877
 21
600.4875032279527
 31
0.0
  0
LINE
  5
C4
  8
0
  6
CONTINUOUS
 62
     7
 10
55.22447046583878
 20
600.4875032279527
 30
0.0
 11
55.11791066009928
 21
617.3281470493987
 31
0.0
  0
ARC
  5
C5
  8
0
  6
CONTINUOUS
 62
     7
 10
35.00000000000003
 20
508.3007959634992
 30
0.0
 40
110.8679106600992
 50
79.54528257599094
 51
85.91548543368556
  0
ARC
  5
C6
  8
0
  6
CONTINUOUS
 62
     7
 10
34.99500342608624
 20
614.3633958938883
 30
0.0
 40
9.105147351443133
 50
339.0714684317262
 51
29.79052174543995
  0
LINE
  5
C7
  8
0
  6
CONTINUOUS
 62
     7
 10
61.27544703473725
 20
598.0717441104953
 30
0.0
 11
77.19648803986101
 21
598.104307923638
 31
0.0
  0
LINE
  5
C8
  8
0
  6
CONTINUOUS
 62
     7
 10
77.19648803986101
 20
598.104307923638
 30
0.0
 11
77.11791066009928
 21
610.857001118349
 31
0.0
  0
ARC
  5
C9
  8
0
  6
CONTINUOUS
 62
     7
 10
35.00000000000003
 20
508.3007959634992
 30
0.0
 40
110.8679106600992
 50
67.67296318014309
 51
68.82639947066394
  0
LINE
  5
CA
  8
0
  6
CONTINUOUS
 62
     7
 10
75.0449301521563
 20
611.68404984557
 30
0.0
 11
61.27544703473726
 21
598.0717441104952
 31
0.0
  0
LINE
  5
CB
  8
0
  6
CONTINUOUS
 62
     7
 10
80.8820893399007
 20
609.2291244542706
 30
0.0
 11
80.81336236006895
 21
598.1141583235682
 31
0.0
  0
LINE
  5
CC
  8
0
  6
CONTINUOUS
 62
     7
 10
80.81336236006898
 20
598.1141583235682
 30
0.0
 11
96.49114972848997
 21
598.1684228966683
 31
0.0
  0
LINE
  5
CD
  8
0
  6
CONTINUOUS
 62
     7
 10
96.49114972848999
 20
598.1684228966683
 30
0.0
 11
90.17465651052703
 21
604.4644631828867
 31
0.0
  0
ARC
  5
CE
  8
0
  6
CONTINUOUS
 62
     7
 10
35.00000000000003
 20
508.3007959634992
 30
0.0
 40
110.8679106600993
 50
60.15461407324992
 51
65.55342168899989
  0
LINE
  5
CF
  8
0
  6
CONTINUOUS
 62
     7
 10
121.2154368664875
 20
550.5162328299864
 30
0.0
 11
102.708090811854
 21
550.5927051516452
 31
0.0
  0
LINE
  5
D0
  8
0
  6
CONTINUOUS
 62
     7
 10
102.708090811854
 20
550.5927051516453
 30
0.0
 11
102.6812591675926
 21
531.9820551310918
 31
0.0
  0
LINE
  5
D1
  8
0
  6
CONTINUOUS
 62
     7
 10
102.6812591675926
 20
531.9820551310918
 30
0.0
 11
121.2500592534155
 21
532.0507367100837
 31
0.0
  0
LINE
  5
D2
  8
0
  6
CONTINUOUS
 62
     7
 10
121.2500592534155
 20
532.0507367100837
 30
0.0
 11
121.2154368664875
 21
550.5162328299865
 31
0.0
  0
LINE
  5
D3
  8
0
  6
CONTINUOUS
 62
     7
 10
102.7700566423625
 20
572.5307393211367
 30
0.0
 11
102.7210610585698
 21
556.4558049127702
 31
0.0
  0
LINE
  5
D4
  8
0
  6
CONTINUOUS
 62
     7
 10
102.7210610585698
 20
556.4558049127701
 30
0.0
 11
118.5510646182573
 21
572.4579865902597
 31
0.0
  0
LINE
  5
D5
  8
0
  6
CONTINUOUS
 62
     7
 10
118.5510646182573
 20
572.4579865902597
 30
0.0
 11
102.7700566423625
 21
572.5307393211367
 31
0.0
  0
LINE
  5
D6
  8
0
  6
CONTINUOUS
 62
     7
 10
99.24310051894453
 20
572.5438964824438
 30
0.0
 11
83.12808965900719
 21
572.5908852400462
 31
0.0
  0
LINE
  5
D7
  8
0
  6
CONTINUOUS
 62
     7
 10
83.1280896590072
 20
572.5908852400462
 30
0.0
 11
99.29008927654701
 21
556.4288856225063
 31
0.0
  0
LINE
  5
D8
  8
0
  6
CONTINUOUS
 62
     7
 10
99.29008927654704
 20
556.4288856225064
 30
0.0
 11
99.24310051894457
 21
572.5438964824439
 31
0.0
  0
LINE
  5
D9
  8
0
  6
CONTINUOUS
 62
     7
 10
80.69766202708023
 20
570.2022772733962
 30
0.0
 11
80.66412174210176
 21
553.9649177056011
 31
0.0
  0
LINE
  5
DA
  8
0
  6
CONTINUOUS
 62
     7
 10
80.6641217421018
 20
553.964917705601
 30
0.0
 11
96.90148130989705
 21
553.9984579905795
 31
0.0
  0
LINE
  5
DB
  8
0
  6
CONTINUOUS
 62
     7
 10
96.90148130989701
 20
553.9984579905795
 30
0.0
 11
80.69766202708023
 21
570.2022772733961
 31
0.0
  0
LINE
  5
DC
  8
0
  6
CONTINUOUS
 62
     7
 10
60.98036836601606
 20
553.9495185239438
 30
0.0
 11
77.34015090724728
 21
553.960645056252
 31
0.0
  0
LINE
  5
DD
  8
0
  6
CONTINUOUS
 62
     7
 10
77.34015090724722
 20
553.960645056252
 30
0.0
 11
77.30882277364326
 21
570.217932967252
 31
0.0
  0
LINE
  5
DE
  8
0
  6
CONTINUOUS
 62
     7
 10
77.30882277364326
 20
570.217932967252
 30
0.0
 11
60.980368366016
 21
553.9495185239438
 31
0.0
  0
LINE
  5
DF
  8
0
  6
CONTINUOUS
 62
     7
 10
99.30224431067752
 20
550.6030402741767
 30
0.0
 11
80.65984909275271
 21
550.6409468707465
 31
0.0
  0
LINE
  5
E0
  8
0
  6
CONTINUOUS
 62
     7
 10
80.6598490927527
 20
550.6409468707465
 30
0.0
 11
80.64816171468674
 21
531.9489576781857
 31
0.0
  0
LINE
  5
E1
  8
0
  6
CONTINUOUS
 62
     7
 10
80.64816171468675
 20
531.9489576781857
 30
0.0
 11
99.3270771134127
 21
531.9737188500865
 31
0.0
  0
LINE
  5
E2
  8
0
  6
CONTINUOUS
 62
     7
 10
99.32707711341271
 20
531.9737188500865
 30
0.0
 11
99.30224431067754
 21
550.6030402741767
 31
0.0
  0
LINE
  5
E3
  8
0
  6
CONTINUOUS
 62
     7
 10
105.1615919809567
 20
554.0245838030745
 30
0.0
 11
121.2060872736073
 21
554.0947086898921
 31
0.0
  0
LINE
  5
E4
  8
0
  6
CONTINUOUS
 62
     7
 10
121.2060872736073
 20
554.094708689892
 30
0.0
 11
121.1535464297017
 21
569.8430627117924
 31
0.0
  0
LINE
  5
E5
  8
0
  6
CONTINUOUS
 62
     7
 10
121.1535464297017
 20
569.8430627117924
 30
0.0
 11
105.1615919809567
 21
554.0245838030744
 31
0.0
  0
LINE
  5
E6
  8
0
  6
CONTINUOUS
 62
     7
 10
36.79122437721127
 20
605.4387841450936
 30
0.0
 11
36.75146101895326
 21
598.0522569824525
 31
0.0
  0
LINE
  5
E7
  8
0
  6
CONTINUOUS
 62
     7
 10
36.75146101895326
 20
598.0522569824525
 30
0.0
 11
52.63551840588476
 21
598.0608793631558
 31
0.0
  0
LINE
  5
E8
  8
0
  6
CONTINUOUS
 62
     7
 10
52.63551840588476
 20
598.0608793631558
 30
0.0
 11
41.51349348829874
 21
608.0065662436972
 31
0.0
  0
ARC
  5
E9
  8
0
  6
CONTINUOUS
 62
     7
 10
34.99905247497603
 20
614.3607963593938
 30
0.0
 40
9.100229781675074
 50
281.3578996836524
 51
315.7132775377505
  0
CIRCLE
  5
EA
  8
0
  6
CONTINUOUS
 62
     7
 10
140.9999996988105
 20
508.3008073769037
 30
0.0
 40
4.999999699279889
  0
LINE
  5
EB
  8
0
  6
CONTINUOUS
 62
     7
 10
99.22994335763747
 20
576.0708526058618
 30
0.0
 11
99.14297627503522
 21
594.4437722385345
 31
0.0
  0
LINE
  5
EC
  8
0
  6
CONTINUOUS
 62
     7
 10
99.14297627503527
 20
594.4437722385345
 30
0.0
 11
80.7939127263928
 21
594.5068832371065
 31
0.0
  0
LINE
  5
ED
  8
0
  6
CONTINUOUS
 62
     7
 10
80.7939127263928
 20
594.5068832371065
 30
0.0
 11
80.71536968911902
 21
576.0161656526183
 31
0.0
  0
LINE
  5
EE
  8
0
  6
CONTINUOUS
 62
     7
 10
80.71536968911902
 20
576.0161656526183
 30
0.0
 11
99.2299433576375
 21
576.0708526058618
 31
0.0
  0
LINE
  5
EF
  8
0
  6
CONTINUOUS
 62
     7
 10
79.26281772873078
 20
526.0387990883637
 30
0.0
 11
78.97528953351475
 21
525.5128247508497
 31
0.0
  0
LINE
  5
F0
  8
0
  6
CONTINUOUS
 62
     7
 10
78.97528953351474
 20
525.5128247508497
 30
0.0
 11
78.7980503407727
 21
524.9401193918446
 31
0.0
  0
LINE
  5
F1
  8
0
  6
CONTINUOUS
 62
     7
 10
78.79805034077275
 20
524.9401193918445
 30
0.0
 11
78.73817402607601
 21
524.3435405203774
 31
0.0
  0
LINE
  5
F2
  8
0
  6
CONTINUOUS
 62
     7
 10
78.73817402607597
 20
492.258051406621
 30
0.0
 11
78.7980503407727
 21
491.661472535154
 31
0.0
  0
LINE
  5
F3
  8
0
  6
CONTINUOUS
 62
     7
 10
78.79805034077275
 20
491.661472535154
 30
0.0
 11
78.97528953351478
 21
491.0887671761485
 31
0.0
  0
LINE
  5
F4
  8
0
  6
CONTINUOUS
 62
     7
 10
78.97528953351474
 20
491.0887671761485
 30
0.0
 11
79.26281772873077
 21
490.5627928386347
 31
0.0
  0
LINE
  5
F5
  8
0
  6
CONTINUOUS
 62
     7
 10
36.64734603858327
 20
555.957065636793
 30
0.0
 11
36.64734603858303
 21
553.9481420020821
 31
0.0
  0
LINE
  5
F6
  8
0
  6
CONTINUOUS
 62
     7
 10
36.647346038583
 20
553.9481420020821
 30
0.0
 11
48.78961884093924
 21
553.9481420020821
 31
0.0
  0
LINE
  5
F7
  8
0
  6
CONTINUOUS
 62
     7
 10
58.64734603858324
 20
549.7089692325054
 30
0.0
 11
58.647346038583
 21
531.9481420020821
 31
0.0
  0
LINE
  5
F8
  8
0
  6
CONTINUOUS
 62
     7
 10
58.64734603858302
 20
531.9481420020822
 30
0.0
 11
76.40817326900627
 21
531.9481420020822
 31
0.0
  0
LINE
  5
F9
  8
0
  6
CONTINUOUS
 62
     7
 10
55.35265396141703
 20
531.9481420020822
 30
0.0
 11
55.35265396141703
 21
550.6534499249162
 31
0.0
  0
LINE
  5
FA
  8
0
  6
CONTINUOUS
 62
     7
 10
78.7381740260763
 20
524.3435405203775
 30
0.0
 11
78.7381740260763
 21
492.258051406621
 31
0.0
  0
LINE
  5
FB
  8
0
  6
CONTINUOUS
 62
     7
 10
55.35265396141703
 20
550.6534499249161
 30
0.0
 11
37.83397640605604
 21
550.6534499249161
 31
0.0
  0
ARC
  5
FC
  8
0
  6
CONTINUOUS
 62
     7
 10
35.00000000000003
 20
550.0507959634991
 30
0.0
 40
2.897346038583049
 50
304.6506156992341
 51
12.00529384008928
  0
LINE
  5
FD
  8
0
  6
CONTINUOUS
 62
     7
 10
36.647346038583
 20
547.6673394196414
 30
0.0
 11
36.647346038583
 21
544.0342525073567
 31
0.0
  0
ARC
  5
FE
  8
0
  6
CONTINUOUS
 62
     7
 10
35.00000000000003
 20
541.6507959634993
 30
0.0
 40
2.897346038583049
 50
304.6506156992341
 51
55.34938430076591
  0
LINE
  5
FF
  8
0
  6
CONTINUOUS
 62
     7
 10
36.647346038583
 20
539.2673394196414
 30
0.0
 11
36.647346038583
 21
531.9481420020821
 31
0.0
  0
LINE
  5
100
  8
0
  6
CONTINUOUS
 62
     7
 10
36.647346038583
 20
531.9481420020822
 30
0.0
 11
55.352653961417
 21
531.9481420020822
 31
0.0
  0
CIRCLE
  5
101
  8
0
  6
CONTINUOUS
 62
     7
 10
35.00000000000003
 20
466.5507959634992
 30
0.0
 40
1.749999999999974
  0
CIRCLE
  5
102
  8
0
  6
CONTINUOUS
 62
     7
 10
35.00000000000003
 20
474.9507959634992
 30
0.0
 40
1.749999999999974
  0
LINE
  5
103
  8
0
  6
CONTINUOUS
 62
     7
 10
75.35265396141705
 20
487.9481420020821
 30
0.0
 11
75.35265396141705
 21
528.6534499249162
 31
0.0
  0
CIRCLE
  5
104
  8
0
  6
CONTINUOUS
 62
     7
 10
35.00000000000003
 20
541.6507959634993
 30
0.0
 40
1.749999999999974
  0
CIRCLE
  5
105
  8
0
  6
CONTINUOUS
 62
     7
 10
35.00000000000003
 20
550.0507959634991
 30
0.0
 40
1.749999999999974
  0
LINE
  5
106
  8
0
  6
CONTINUOUS
 62
     7
 10
118.5510646182573
 20
572.4579865902597
 30
0.0
 11
118.1715728752539
 21
572.3007959634992
 31
0.0
  0
ARC
  5
107
  8
0
  6
CONTINUOUS
 62
     7
 10
35.00000000000003
 20
614.3007959634991
 30
0.0
 40
2.749999999999975
 50
79.52431830360986
 51
100.4756816963897
  0
ARC
  5
108
  8
0
  6
CONTINUOUS
 62
     7
 10
35.00000000000003
 20
614.3007959634991
 30
0.0
 40
2.749999999999864
 50
259.5243183036102
 51
280.4756816963902
  0
ARC
  5
109
  8
0
  6
CONTINUOUS
 62
     7
 10
141.0
 20
508.3007959634992
 30
0.0
 40
2.75000000000003
 50
0.000000000000007
 51
10.47568169639169
  0
ARC
  5
10A
  8
0
  6
CONTINUOUS
 62
     7
 10
141.0
 20
508.3007959634992
 30
0.0
 40
2.749999999999975
 50
169.5243183036083
 51
190.4756816963881
  0
ARC
  5
10B
  8
0
  6
CONTINUOUS
 62
     7
 10
141.0
 20
508.3007959634992
 30
0.0
 40
2.75000000000003
 50
349.5243183036118
 51
359.9999999999998
  0
ARC
  5
10C
  8
0
  6
CONTINUOUS
 62
     7
 10
-70.99999999999996
 20
508.3007959634992
 30
0.0
 40
2.75000000000003
 50
169.524318303608
 51
180.0
  0
ARC
  5
10D
  8
0
  6
CONTINUOUS
 62
     7
 10
-70.99999999999996
 20
508.3007959634992
 30
0.0
 40
2.749999999999975
 50
349.5243183036121
 51
10.47568169639192
  0
ARC
  5
10E
  8
0
  6
CONTINUOUS
 62
     7
 10
-70.99999999999996
 20
508.3007959634992
 30
0.0
 40
2.75000000000003
 50
179.9999999999999
 51
190.4756816963877
  0
ARC
  5
10F
  8
0
  6
CONTINUOUS
 62
     7
 10
35.00000000000003
 20
402.3007959634992
 30
0.0
 40
2.75000000000003
 50
259.5243183036097
 51
280.4756816963896
  0
ARC
  5
110
  8
0
  6
CONTINUOUS
 62
     7
 10
35.00000000000003
 20
402.3007959634992
 30
0.0
 40
2.749999999999919
 50
79.52431830361033
 51
100.4756816963902
  0
LINE
  5
111
  8
0
  6
CONTINUOUS
 62
     7
 10
34.49999999999997
 20
403.6007959634992
 30
0.0
 11
34.49999999999997
 21
405.4672051376645
 31
0.0
  0
LINE
  5
112
  8
0
  6
CONTINUOUS
 62
     7
 10
32.62565965165726
 20
402.8007959634992
 30
0.0
 11
33.70000000000003
 21
402.8007959634992
 31
0.0
  0
ARC
  5
113
  8
0
  6
CONTINUOUS
 62
     7
 10
35.00000000000003
 20
402.3007959634992
 30
0.0
 40
2.426415481686539
 50
168.1081330215422
 51
191.8918669784578
  0
LINE
  5
114
  8
0
  6
CONTINUOUS
 62
     7
 10
33.70000000000001
 20
401.8007959634992
 30
0.0
 11
32.62565965165747
 21
401.8007959634992
 31
0.0
  0
LINE
  5
115
  8
0
  6
CONTINUOUS
 62
     7
 10
34.49999999999997
 20
401.0007959634992
 30
0.0
 11
34.49931892561125
 21
401.033736303577
 31
0.0
  0
LINE
  5
116
  8
0
  6
CONTINUOUS
 62
     7
 10
34.49931892561126
 20
401.033736303577
 30
0.0
 11
34.49727903613152
 21
401.0666647081403
 31
0.0
  0
LINE
  5
117
  8
0
  6
CONTINUOUS
 62
     7
 10
34.49727903613153
 20
401.0666647081402
 30
0.0
 11
34.49388533208975
 21
401.0994969984525
 31
0.0
  0
LINE
  5
118
  8
0
  6
CONTINUOUS
 62
     7
 10
34.49388533208975
 20
401.0994969984525
 30
0.0
 11
34.489142814015
 21
401.1321489957767
 31
0.0
  0
LINE
  5
119
  8
0
  6
CONTINUOUS
 62
     7
 10
34.489142814015
 20
401.1321489957767
 30
0.0
 11
34.48285402351501
 21
401.1655223443267
 31
0.0
  0
LINE
  5
11A
  8
0
  6
CONTINUOUS
 62
     7
 10
34.48285402351503
 20
401.1655223443267
 30
0.0
 11
34.47514359677177
 21
401.1986440758835
 31
0.0
  0
LINE
  5
11B
  8
0
  6
CONTINUOUS
 62
     7
 10
34.47514359677179
 20
401.1986440758835
 30
0.0
 11
34.46603269525001
 21
401.231423621312
 31
0.0
  0
LINE
  5
11C
  8
0
  6
CONTINUOUS
 62
     7
 10
34.46603269525
 20
401.2314236213119
 30
0.0
 11
34.4555424804145
 21
401.2637704114767
 31
0.0
  0
LINE
  5
11D
  8
0
  6
CONTINUOUS
 62
     7
 10
34.45554248041449
 20
401.2637704114767
 30
0.0
 11
34.44401734383926
 21
401.2947922505689
 31
0.0
  0
LINE
  5
11E
  8
0
  6
CONTINUOUS
 62
     7
 10
34.44401734383928
 20
401.2947922505689
 30
0.0
 11
34.43120310388927
 21
401.3253483347922
 31
0.0
  0
LINE
  5
11F
  8
0
  6
CONTINUOUS
 62
     7
 10
34.43120310388925
 20
401.3253483347922
 30
0.0
 11
34.41713364253579
 21
401.3553590272828
 31
0.0
  0
LINE
  5
120
  8
0
  6
CONTINUOUS
 62
     7
 10
34.41713364253579
 20
401.3553590272828
 30
0.0
 11
34.40184284174951
 21
401.3847446911768
 31
0.0
  0
LINE
  5
121
  8
0
  6
CONTINUOUS
 62
     7
 10
34.40184284174952
 20
401.3847446911767
 30
0.0
 11
34.38483559987502
 21
401.4143116542579
 31
0.0
  0
LINE
  5
122
  8
0
  6
CONTINUOUS
 62
     7
 10
34.38483559987504
 20
401.4143116542579
 30
0.0
 11
34.36656204738529
 21
401.4431602825575
 31
0.0
  0
LINE
  5
123
  8
0
  6
CONTINUOUS
 62
     7
 10
34.36656204738525
 20
401.4431602825575
 30
0.0
 11
34.34707406046002
 21
401.4712108733989
 31
0.0
  0
LINE
  5
124
  8
0
  6
CONTINUOUS
 62
     7
 10
34.34707406046
 20
401.4712108733989
 30
0.0
 11
34.32642351527972
 21
401.4983837241049
 31
0.0
  0
LINE
  5
125
  8
0
  6
CONTINUOUS
 62
     7
 10
34.32642351527976
 20
401.4983837241049
 30
0.0
 11
34.30540156329552
 21
401.5237535201682
 31
0.0
  0
LINE
  5
126
  8
0
  6
CONTINUOUS
 62
     7
 10
34.30540156329553
 20
401.5237535201682
 30
0.0
 11
34.28333204532831
 21
401.5482592082593
 31
0.0
  0
LINE
  5
127
  8
0
  6
CONTINUOUS
 62
     7
 10
34.28333204532829
 20
401.5482592082593
 30
0.0
 11
34.26027358465203
 21
401.5718381418957
 31
0.0
  0
LINE
  5
128
  8
0
  6
CONTINUOUS
 62
     7
 10
34.260273584652
 20
401.5718381418957
 30
0.0
 11
34.23628480454098
 21
401.594427674595
 31
0.0
  0
LINE
  5
129
  8
0
  6
CONTINUOUS
 62
     7
 10
34.23628480454099
 20
401.594427674595
 30
0.0
 11
34.21064299297603
 21
401.6166197005772
 31
0.0
  0
LINE
  5
12A
  8
0
  6
CONTINUOUS
 62
     7
 10
34.21064299297605
 20
401.6166197005772
 30
0.0
 11
34.18406178181804
 21
401.6377226068109
 31
0.0
  0
LINE
  5
12B
  8
0
  6
CONTINUOUS
 62
     7
 10
34.18406178181804
 20
401.6377226068109
 30
0.0
 11
34.15661588294579
 21
401.6576803335783
 31
0.0
  0
LINE
  5
12C
  8
0
  6
CONTINUOUS
 62
     7
 10
34.15661588294577
 20
401.6576803335783
 30
0.0
 11
34.12838000823801
 21
401.6764368211612
 31
0.0
  0
LINE
  5
12D
  8
0
  6
CONTINUOUS
 62
     7
 10
34.12838000823803
 20
401.6764368211612
 30
0.0
 11
34.10028730690503
 21
401.6934472684932
 31
0.0
  0
LINE
  5
12E
  8
0
  6
CONTINUOUS
 62
     7
 10
34.10028730690501
 20
401.6934472684932
 30
0.0
 11
34.07150241630353
 21
401.7093003099167
 31
0.0
  0
LINE
  5
12F
  8
0
  6
CONTINUOUS
 62
     7
 10
34.07150241630352
 20
401.7093003099167
 30
0.0
 11
34.04210069045576
 21
401.7239576838427
 31
0.0
  0
LINE
  5
130
  8
0
  6
CONTINUOUS
 62
     7
 10
34.04210069045577
 20
401.7239576838427
 30
0.0
 11
34.0121574833835
 21
401.7373811286823
 31
0.0
  0
LINE
  5
131
  8
0
  6
CONTINUOUS
 62
     7
 10
34.01215748338349
 20
401.7373811286823
 30
0.0
 11
33.98081345522726
 21
401.7498881663964
 31
0.0
  0
LINE
  5
132
  8
0
  6
CONTINUOUS
 62
     7
 10
33.9808134552273
 20
401.7498881663964
 30
0.0
 11
33.94895311523403
 21
401.7610683019152
 31
0.0
  0
LINE
  5
133
  8
0
  6
CONTINUOUS
 62
     7
 10
33.94895311523399
 20
401.7610683019152
 30
0.0
 11
33.91666361061474
 21
401.7708947891872
 31
0.0
  0
LINE
  5
134
  8
0
  6
CONTINUOUS
 62
     7
 10
33.91666361061474
 20
401.7708947891873
 30
0.0
 11
33.88403208858075
 21
401.7793408821603
 31
0.0
  0
LINE
  5
135
  8
0
  6
CONTINUOUS
 62
     7
 10
33.88403208858076
 20
401.7793408821602
 30
0.0
 11
33.84770423697626
 21
401.787034791518
 31
0.0
  0
LINE
  5
136
  8
0
  6
CONTINUOUS
 62
     7
 10
33.84770423697625
 20
401.787034791518
 30
0.0
 11
33.81101730852651
 21
401.7930384743025
 31
0.0
  0
LINE
  5
137
  8
0
  6
CONTINUOUS
 62
     7
 10
33.81101730852654
 20
401.7930384743024
 30
0.0
 11
33.77409109702079
 21
401.797340710542
 31
0.0
  0
LINE
  5
138
  8
0
  6
CONTINUOUS
 62
     7
 10
33.77409109702079
 20
401.797340710542
 30
0.0
 11
33.73704539624877
 21
401.7999302802646
 31
0.0
  0
LINE
  5
139
  8
0
  6
CONTINUOUS
 62
     7
 10
33.73704539624877
 20
401.7999302802647
 30
0.0
 11
33.70000000000005
 21
401.8007959634992
 31
0.0
  0
LINE
  5
13A
  8
0
  6
CONTINUOUS
 62
     7
 10
34.49999999999997
 20
399.134386789334
 30
0.0
 11
34.49999999999997
 21
401.0007959634992
 31
0.0
  0
LINE
  5
13B
  8
0
  6
CONTINUOUS
 62
     7
 10
33.70000000000001
 20
402.8007959634992
 30
0.0
 11
33.73294034007774
 21
402.8014770378879
 31
0.0
  0
LINE
  5
13C
  8
0
  6
CONTINUOUS
 62
     7
 10
33.73294034007779
 20
402.8014770378879
 30
0.0
 11
33.76586874464103
 21
402.8035169273677
 31
0.0
  0
LINE
  5
13D
  8
0
  6
CONTINUOUS
 62
     7
 10
33.76586874464099
 20
402.8035169273677
 30
0.0
 11
33.79870103495323
 21
402.8069106314097
 31
0.0
  0
LINE
  5
13E
  8
0
  6
CONTINUOUS
 62
     7
 10
33.79870103495325
 20
402.8069106314097
 30
0.0
 11
33.83135303227752
 21
402.8116531494842
 31
0.0
  0
LINE
  5
13F
  8
0
  6
CONTINUOUS
 62
     7
 10
33.83135303227752
 20
402.8116531494842
 30
0.0
 11
33.86472638082729
 21
402.8179419399842
 31
0.0
  0
LINE
  5
140
  8
0
  6
CONTINUOUS
 62
     7
 10
33.86472638082727
 20
402.8179419399842
 30
0.0
 11
33.89784811238423
 21
402.8256523667275
 31
0.0
  0
LINE
  5
141
  8
0
  6
CONTINUOUS
 62
     7
 10
33.89784811238427
 20
402.8256523667275
 30
0.0
 11
33.93062765781278
 21
402.8347632682492
 31
0.0
  0
LINE
  5
142
  8
0
  6
CONTINUOUS
 62
     7
 10
33.93062765781274
 20
402.8347632682492
 30
0.0
 11
33.9629744479775
 21
402.8452534830847
 31
0.0
  0
LINE
  5
143
  8
0
  6
CONTINUOUS
 62
     7
 10
33.96297444797752
 20
402.8452534830847
 30
0.0
 11
33.99399628706975
 21
402.85677861966
 31
0.0
  0
LINE
  5
144
  8
0
  6
CONTINUOUS
 62
     7
 10
33.99399628706973
 20
402.85677861966
 30
0.0
 11
34.02455237129298
 21
402.86959285961
 31
0.0
  0
LINE
  5
145
  8
0
  6
CONTINUOUS
 62
     7
 10
34.02455237129298
 20
402.86959285961
 30
0.0
 11
34.05456306378352
 21
402.8836623209634
 31
0.0
  0
LINE
  5
146
  8
0
  6
CONTINUOUS
 62
     7
 10
34.05456306378352
 20
402.8836623209635
 30
0.0
 11
34.08394872767753
 21
402.8989531217499
 31
0.0
  0
LINE
  5
147
  8
0
  6
CONTINUOUS
 62
     7
 10
34.08394872767756
 20
402.8989531217499
 30
0.0
 11
34.1135156907588
 21
402.9159603636245
 31
0.0
  0
LINE
  5
148
  8
0
  6
CONTINUOUS
 62
     7
 10
34.11351569075877
 20
402.9159603636245
 30
0.0
 11
34.14236431905825
 21
402.934233916114
 31
0.0
  0
LINE
  5
149
  8
0
  6
CONTINUOUS
 62
     7
 10
34.14236431905826
 20
402.934233916114
 30
0.0
 11
34.17041490989975
 21
402.9537219030393
 31
0.0
  0
LINE
  5
14A
  8
0
  6
CONTINUOUS
 62
     7
 10
34.17041490989975
 20
402.9537219030393
 30
0.0
 11
34.19758776060576
 21
402.9743724482195
 31
0.0
  0
LINE
  5
14B
  8
0
  6
CONTINUOUS
 62
     7
 10
34.19758776060577
 20
402.9743724482194
 30
0.0
 11
34.22295755666905
 21
402.9953944002036
 31
0.0
  0
LINE
  5
14C
  8
0
  6
CONTINUOUS
 62
     7
 10
34.22295755666904
 20
402.9953944002037
 30
0.0
 11
34.24746324476002
 21
403.017463918171
 31
0.0
  0
LINE
  5
14D
  8
0
  6
CONTINUOUS
 62
     7
 10
34.24746324476002
 20
403.017463918171
 30
0.0
 11
34.27104217839651
 21
403.0405223788473
 31
0.0
  0
LINE
  5
14E
  8
0
  6
CONTINUOUS
 62
     7
 10
34.27104217839649
 20
403.0405223788472
 30
0.0
 11
34.29363171109576
 21
403.0645111589582
 31
0.0
  0
LINE
  5
14F
  8
0
  6
CONTINUOUS
 62
     7
 10
34.29363171109578
 20
403.0645111589582
 30
0.0
 11
34.31582373707803
 21
403.0901529705232
 31
0.0
  0
LINE
  5
150
  8
0
  6
CONTINUOUS
 62
     7
 10
34.31582373707803
 20
403.0901529705233
 30
0.0
 11
34.33692664331179
 21
403.1167341816812
 31
0.0
  0
LINE
  5
151
  8
0
  6
CONTINUOUS
 62
     7
 10
34.33692664331178
 20
403.1167341816812
 30
0.0
 11
34.35688437007904
 21
403.1441800805534
 31
0.0
  0
LINE
  5
152
  8
0
  6
CONTINUOUS
 62
     7
 10
34.356884370079
 20
403.1441800805534
 30
0.0
 11
34.37564085766174
 21
403.1724159552613
 31
0.0
  0
LINE
  5
153
  8
0
  6
CONTINUOUS
 62
     7
 10
34.37564085766176
 20
403.1724159552613
 30
0.0
 11
34.392651304994
 21
403.2005086565945
 31
0.0
  0
LINE
  5
154
  8
0
  6
CONTINUOUS
 62
     7
 10
34.39265130499403
 20
403.2005086565945
 30
0.0
 11
34.40850434641751
 21
403.2292935471957
 31
0.0
  0
LINE
  5
155
  8
0
  6
CONTINUOUS
 62
     7
 10
34.40850434641751
 20
403.2292935471957
 30
0.0
 11
34.42316172034352
 21
403.2586952730435
 31
0.0
  0
LINE
  5
156
  8
0
  6
CONTINUOUS
 62
     7
 10
34.42316172034349
 20
403.2586952730435
 30
0.0
 11
34.43658516518302
 21
403.2886384801157
 31
0.0
  0
LINE
  5
157
  8
0
  6
CONTINUOUS
 62
     7
 10
34.43658516518305
 20
403.2886384801157
 30
0.0
 11
34.44909220289702
 21
403.3199825082719
 31
0.0
  0
LINE
  5
158
  8
0
  6
CONTINUOUS
 62
     7
 10
34.44909220289699
 20
403.3199825082719
 30
0.0
 11
34.460272338416
 21
403.3518428482652
 31
0.0
  0
LINE
  5
159
  8
0
  6
CONTINUOUS
 62
     7
 10
34.46027233841603
 20
403.3518428482652
 30
0.0
 11
34.47009882568803
 21
403.3841323528844
 31
0.0
  0
LINE
  5
15A
  8
0
  6
CONTINUOUS
 62
     7
 10
34.47009882568802
 20
403.3841323528844
 30
0.0
 11
34.47854491866078
 21
403.4167638749187
 31
0.0
  0
LINE
  5
15B
  8
0
  6
CONTINUOUS
 62
     7
 10
34.47854491866076
 20
403.4167638749187
 30
0.0
 11
34.48623882801875
 21
403.453091726523
 31
0.0
  0
LINE
  5
15C
  8
0
  6
CONTINUOUS
 62
     7
 10
34.48623882801876
 20
403.453091726523
 30
0.0
 11
34.49224251080326
 21
403.489778654973
 31
0.0
  0
LINE
  5
15D
  8
0
  6
CONTINUOUS
 62
     7
 10
34.49224251080324
 20
403.489778654973
 30
0.0
 11
34.49654474704251
 21
403.5267048664787
 31
0.0
  0
LINE
  5
15E
  8
0
  6
CONTINUOUS
 62
     7
 10
34.49654474704256
 20
403.5267048664787
 30
0.0
 11
34.49913431676551
 21
403.5637505672507
 31
0.0
  0
LINE
  5
15F
  8
0
  6
CONTINUOUS
 62
     7
 10
34.49913431676549
 20
403.5637505672507
 30
0.0
 11
34.49999999999999
 21
403.6007959634992
 31
0.0
  0
LINE
  5
160
  8
0
  6
CONTINUOUS
 62
     7
 10
37.37434034834275
 20
401.8007959634992
 30
0.0
 11
36.29999999999997
 21
401.8007959634992
 31
0.0
  0
ARC
  5
161
  8
0
  6
CONTINUOUS
 62
     7
 10
35.00000000000003
 20
402.3007959634992
 30
0.0
 40
2.426415481686484
 50
348.1081330215422
 51
11.8918669784577
  0
LINE
  5
162
  8
0
  6
CONTINUOUS
 62
     7
 10
36.3
 20
402.8007959634992
 30
0.0
 11
37.37434034834278
 21
402.8007959634992
 31
0.0
  0
LINE
  5
163
  8
0
  6
CONTINUOUS
 62
     7
 10
35.50000000000003
 20
405.4672051376645
 30
0.0
 11
35.50000000000003
 21
403.6007959634993
 31
0.0
  0
LINE
  5
164
  8
0
  6
CONTINUOUS
 62
     7
 10
35.50000000000003
 20
401.0007959634992
 30
0.0
 11
35.50000000000003
 21
399.134386789334
 31
0.0
  0
LINE
  5
165
  8
0
  6
CONTINUOUS
 62
     7
 10
36.3
 20
401.8007959634992
 30
0.0
 11
36.26705965992227
 21
401.8001148891107
 31
0.0
  0
LINE
  5
166
  8
0
  6
CONTINUOUS
 62
     7
 10
36.26705965992227
 20
401.8001148891107
 30
0.0
 11
36.23413125535902
 21
401.7980749996307
 31
0.0
  0
LINE
  5
167
  8
0
  6
CONTINUOUS
 62
     7
 10
36.23413125535902
 20
401.7980749996308
 30
0.0
 11
36.20129896504702
 21
401.794681295589
 31
0.0
  0
LINE
  5
168
  8
0
  6
CONTINUOUS
 62
     7
 10
36.20129896504704
 20
401.7946812955889
 30
0.0
 11
36.16864696772255
 21
401.7899387775142
 31
0.0
  0
LINE
  5
169
  8
0
  6
CONTINUOUS
 62
     7
 10
36.16864696772254
 20
401.7899387775142
 30
0.0
 11
36.13527361917278
 21
401.7836499870142
 31
0.0
  0
LINE
  5
16A
  8
0
  6
CONTINUOUS
 62
     7
 10
36.13527361917279
 20
401.7836499870142
 30
0.0
 11
36.10215188761579
 21
401.775939560271
 31
0.0
  0
LINE
  5
16B
  8
0
  6
CONTINUOUS
 62
     7
 10
36.10215188761578
 20
401.775939560271
 30
0.0
 11
36.06937234218728
 21
401.7668286587494
 31
0.0
  0
LINE
  5
16C
  8
0
  6
CONTINUOUS
 62
     7
 10
36.06937234218726
 20
401.7668286587494
 30
0.0
 11
36.03702555202251
 21
401.7563384439137
 31
0.0
  0
LINE
  5
16D
  8
0
  6
CONTINUOUS
 62
     7
 10
36.03702555202248
 20
401.7563384439137
 30
0.0
 11
36.00600371293026
 21
401.7448133073385
 31
0.0
  0
LINE
  5
16E
  8
0
  6
CONTINUOUS
 62
     7
 10
36.00600371293028
 20
401.7448133073385
 30
0.0
 11
35.97544762870727
 21
401.7319990673887
 31
0.0
  0
LINE
  5
16F
  8
0
  6
CONTINUOUS
 62
     7
 10
35.9754476287073
 20
401.7319990673887
 30
0.0
 11
35.94543693621677
 21
401.7179296060349
 31
0.0
  0
LINE
  5
170
  8
0
  6
CONTINUOUS
 62
     7
 10
35.94543693621677
 20
401.7179296060349
 30
0.0
 11
35.91605127232254
 21
401.7026388052487
 31
0.0
  0
LINE
  5
171
  8
0
  6
CONTINUOUS
 62
     7
 10
35.9160512723225
 20
401.7026388052487
 30
0.0
 11
35.88648430924123
 21
401.6856315633742
 31
0.0
  0
LINE
  5
172
  8
0
  6
CONTINUOUS
 62
     7
 10
35.88648430924124
 20
401.6856315633743
 30
0.0
 11
35.85763568094176
 21
401.6673580108845
 31
0.0
  0
LINE
  5
173
  8
0
  6
CONTINUOUS
 62
     7
 10
35.85763568094175
 20
401.6673580108845
 30
0.0
 11
35.8295850901005
 21
401.6478700239595
 31
0.0
  0
LINE
  5
174
  8
0
  6
CONTINUOUS
 62
     7
 10
35.82958509010054
 20
401.6478700239595
 30
0.0
 11
35.80241223939451
 21
401.627219478779
 31
0.0
  0
LINE
  5
175
  8
0
  6
CONTINUOUS
 62
     7
 10
35.80241223939451
 20
401.627219478779
 30
0.0
 11
35.77704244333103
 21
401.606197526795
 31
0.0
  0
LINE
  5
176
  8
0
  6
CONTINUOUS
 62
     7
 10
35.77704244333102
 20
401.6061975267949
 30
0.0
 11
35.75253675524
 21
401.5841280088274
 31
0.0
  0
LINE
  5
177
  8
0
  6
CONTINUOUS
 62
     7
 10
35.75253675523998
 20
401.5841280088275
 30
0.0
 11
35.72895782160378
 21
401.5610695481512
 31
0.0
  0
LINE
  5
178
  8
0
  6
CONTINUOUS
 62
     7
 10
35.72895782160379
 20
401.5610695481512
 30
0.0
 11
35.70636828890425
 21
401.5370807680401
 31
0.0
  0
LINE
  5
179
  8
0
  6
CONTINUOUS
 62
     7
 10
35.70636828890428
 20
401.5370807680401
 30
0.0
 11
35.68417626292204
 21
401.5114389564753
 31
0.0
  0
LINE
  5
17A
  8
0
  6
CONTINUOUS
 62
     7
 10
35.68417626292203
 20
401.5114389564753
 30
0.0
 11
35.66307335668827
 21
401.4848577453173
 31
0.0
  0
LINE
  5
17B
  8
0
  6
CONTINUOUS
 62
     7
 10
35.66307335668828
 20
401.4848577453173
 30
0.0
 11
35.6431156299213
 21
401.457411846445
 31
0.0
  0
LINE
  5
17C
  8
0
  6
CONTINUOUS
 62
     7
 10
35.64311562992128
 20
401.457411846445
 30
0.0
 11
35.62435914233826
 21
401.4291759717373
 31
0.0
  0
LINE
  5
17D
  8
0
  6
CONTINUOUS
 62
     7
 10
35.62435914233824
 20
401.4291759717373
 30
0.0
 11
35.60734869500625
 21
401.4010832704042
 31
0.0
  0
LINE
  5
17E
  8
0
  6
CONTINUOUS
 62
     7
 10
35.60734869500626
 20
401.4010832704042
 30
0.0
 11
35.59149565358277
 21
401.3722983798028
 31
0.0
  0
LINE
  5
17F
  8
0
  6
CONTINUOUS
 62
     7
 10
35.59149565358277
 20
401.3722983798028
 30
0.0
 11
35.57683827965676
 21
401.342896653955
 31
0.0
  0
LINE
  5
180
  8
0
  6
CONTINUOUS
 62
     7
 10
35.57683827965674
 20
401.342896653955
 30
0.0
 11
35.563414834817
 21
401.312953446883
 31
0.0
  0
LINE
  5
181
  8
0
  6
CONTINUOUS
 62
     7
 10
35.56341483481701
 20
401.3129534468829
 30
0.0
 11
35.55090779710301
 21
401.2816094187267
 31
0.0
  0
LINE
  5
182
  8
0
  6
CONTINUOUS
 62
     7
 10
35.55090779710302
 20
401.2816094187267
 30
0.0
 11
35.53972766158401
 21
401.2497490787331
 31
0.0
  0
LINE
  5
183
  8
0
  6
CONTINUOUS
 62
     7
 10
35.53972766158403
 20
401.2497490787331
 30
0.0
 11
35.52990117431202
 21
401.2174595741142
 31
0.0
  0
LINE
  5
184
  8
0
  6
CONTINUOUS
 62
     7
 10
35.52990117431198
 20
401.2174595741142
 30
0.0
 11
35.52145508133926
 21
401.18482805208
 31
0.0
  0
LINE
  5
185
  8
0
  6
CONTINUOUS
 62
     7
 10
35.5214550813393
 20
401.18482805208
 30
0.0
 11
35.51376117198128
 21
401.1485002004754
 31
0.0
  0
LINE
  5
186
  8
0
  6
CONTINUOUS
 62
     7
 10
35.51376117198124
 20
401.1485002004755
 30
0.0
 11
35.50775748919675
 21
401.1118132720257
 31
0.0
  0
LINE
  5
187
  8
0
  6
CONTINUOUS
 62
     7
 10
35.50775748919677
 20
401.1118132720257
 30
0.0
 11
35.50345525295752
 21
401.07488706052
 31
0.0
  0
LINE
  5
188
  8
0
  6
CONTINUOUS
 62
     7
 10
35.50345525295751
 20
401.07488706052
 30
0.0
 11
35.50086568323451
 21
401.037841359748
 31
0.0
  0
LINE
  5
189
  8
0
  6
CONTINUOUS
 62
     7
 10
35.50086568323452
 20
401.037841359748
 30
0.0
 11
35.50000000000001
 21
401.0007959634992
 31
0.0
  0
LINE
  5
18A
  8
0
  6
CONTINUOUS
 62
     7
 10
35.50000000000003
 20
403.6007959634992
 30
0.0
 11
35.50068107438876
 21
403.5678556234215
 31
0.0
  0
LINE
  5
18B
  8
0
  6
CONTINUOUS
 62
     7
 10
35.50068107438875
 20
403.5678556234215
 30
0.0
 11
35.50272096386851
 21
403.5349272188582
 31
0.0
  0
LINE
  5
18C
  8
0
  6
CONTINUOUS
 62
     7
 10
35.50272096386853
 20
403.5349272188582
 30
0.0
 11
35.50611466791052
 21
403.5020949285462
 31
0.0
  0
LINE
  5
18D
  8
0
  6
CONTINUOUS
 62
     7
 10
35.50611466791048
 20
403.5020949285462
 30
0.0
 11
35.51085718598498
 21
403.4694429312217
 31
0.0
  0
LINE
  5
18E
  8
0
  6
CONTINUOUS
 62
     7
 10
35.51085718598501
 20
403.4694429312217
 30
0.0
 11
35.517145976485
 21
403.436069582672
 31
0.0
  0
LINE
  5
18F
  8
0
  6
CONTINUOUS
 62
     7
 10
35.51714597648498
 20
403.436069582672
 30
0.0
 11
35.52485640322823
 21
403.402947851115
 31
0.0
  0
LINE
  5
190
  8
0
  6
CONTINUOUS
 62
     7
 10
35.52485640322822
 20
403.402947851115
 30
0.0
 11
35.53396730474999
 21
403.3701683056864
 31
0.0
  0
LINE
  5
191
  8
0
  6
CONTINUOUS
 62
     7
 10
35.53396730475
 20
403.3701683056864
 30
0.0
 11
35.54445751958551
 21
403.3378215155217
 31
0.0
  0
LINE
  5
192
  8
0
  6
CONTINUOUS
 62
     7
 10
35.54445751958551
 20
403.3378215155217
 30
0.0
 11
35.55598265616079
 21
403.3067996764296
 31
0.0
  0
LINE
  5
193
  8
0
  6
CONTINUOUS
 62
     7
 10
35.55598265616078
 20
403.3067996764296
 30
0.0
 11
35.56879689611075
 21
403.2762435922065
 31
0.0
  0
LINE
  5
194
  8
0
  6
CONTINUOUS
 62
     7
 10
35.56879689611075
 20
403.2762435922065
 30
0.0
 11
35.58286635746425
 21
403.2462328997159
 31
0.0
  0
LINE
  5
195
  8
0
  6
CONTINUOUS
 62
     7
 10
35.58286635746427
 20
403.2462328997159
 30
0.0
 11
35.59815715825076
 21
403.2168472358217
 31
0.0
  0
LINE
  5
196
  8
0
  6
CONTINUOUS
 62
     7
 10
35.59815715825076
 20
403.2168472358217
 30
0.0
 11
35.61516440012502
 21
403.1872802727404
 31
0.0
  0
LINE
  5
197
  8
0
  6
CONTINUOUS
 62
     7
 10
35.61516440012502
 20
403.1872802727404
 30
0.0
 11
35.63343795261478
 21
403.158431644441
 31
0.0
  0
LINE
  5
198
  8
0
  6
CONTINUOUS
 62
     7
 10
35.63343795261476
 20
403.158431644441
 30
0.0
 11
35.65292593953999
 21
403.1303810535996
 31
0.0
  0
LINE
  5
199
  8
0
  6
CONTINUOUS
 62
     7
 10
35.65292593954
 20
403.1303810535996
 30
0.0
 11
35.67357648472029
 21
403.1032082028935
 31
0.0
  0
LINE
  5
19A
  8
0
  6
CONTINUOUS
 62
     7
 10
35.67357648472025
 20
403.1032082028935
 30
0.0
 11
35.69459843670449
 21
403.0778384068302
 31
0.0
  0
LINE
  5
19B
  8
0
  6
CONTINUOUS
 62
     7
 10
35.69459843670452
 20
403.0778384068302
 30
0.0
 11
35.71666795467175
 21
403.0533327187392
 31
0.0
  0
LINE
  5
19C
  8
0
  6
CONTINUOUS
 62
     7
 10
35.71666795467176
 20
403.0533327187392
 30
0.0
 11
35.73972641534807
 21
403.029753785103
 31
0.0
  0
LINE
  5
19D
  8
0
  6
CONTINUOUS
 62
     7
 10
35.73972641534806
 20
403.029753785103
 30
0.0
 11
35.76371519545904
 21
403.0071642524035
 31
0.0
  0
LINE
  5
19E
  8
0
  6
CONTINUOUS
 62
     7
 10
35.76371519545901
 20
403.0071642524035
 30
0.0
 11
35.78935700702397
 21
402.9849722264212
 31
0.0
  0
LINE
  5
19F
  8
0
  6
CONTINUOUS
 62
     7
 10
35.78935700702402
 20
402.9849722264212
 30
0.0
 11
35.81593821818202
 21
402.9638693201874
 31
0.0
  0
LINE
  5
1A0
  8
0
  6
CONTINUOUS
 62
     7
 10
35.81593821818196
 20
402.9638693201874
 30
0.0
 11
35.84338411705421
 21
402.9439115934205
 31
0.0
  0
LINE
  5
1A1
  8
0
  6
CONTINUOUS
 62
     7
 10
35.84338411705424
 20
402.9439115934205
 30
0.0
 11
35.87161999176199
 21
402.9251551058374
 31
0.0
  0
LINE
  5
1A2
  8
0
  6
CONTINUOUS
 62
     7
 10
35.87161999176202
 20
402.9251551058374
 30
0.0
 11
35.89971269309507
 21
402.9081446585055
 31
0.0
  0
LINE
  5
1A3
  8
0
  6
CONTINUOUS
 62
     7
 10
35.89971269309505
 20
402.9081446585054
 30
0.0
 11
35.92849758369653
 21
402.8922916170819
 31
0.0
  0
LINE
  5
1A4
  8
0
  6
CONTINUOUS
 62
     7
 10
35.92849758369654
 20
402.8922916170819
 30
0.0
 11
35.95789930954427
 21
402.8776342431559
 31
0.0
  0
LINE
  5
1A5
  8
0
  6
CONTINUOUS
 62
     7
 10
35.95789930954424
 20
402.8776342431559
 30
0.0
 11
35.98784251661651
 21
402.8642107983163
 31
0.0
  0
LINE
  5
1A6
  8
0
  6
CONTINUOUS
 62
     7
 10
35.98784251661652
 20
402.8642107983163
 30
0.0
 11
36.01918654477275
 21
402.8517037606022
 31
0.0
  0
LINE
  5
1A7
  8
0
  6
CONTINUOUS
 62
     7
 10
36.01918654477277
 20
402.8517037606022
 30
0.0
 11
36.05104688476602
 21
402.8405236250832
 31
0.0
  0
LINE
  5
1A8
  8
0
  6
CONTINUOUS
 62
     7
 10
36.05104688476602
 20
402.8405236250832
 30
0.0
 11
36.08333638938527
 21
402.8306971378115
 31
0.0
  0
LINE
  5
1A9
  8
0
  6
CONTINUOUS
 62
     7
 10
36.08333638938527
 20
402.8306971378115
 30
0.0
 11
36.11596791141925
 21
402.8222510448385
 31
0.0
  0
LINE
  5
1AA
  8
0
  6
CONTINUOUS
 62
     7
 10
36.11596791141925
 20
402.8222510448385
 30
0.0
 11
36.15229576302375
 21
402.8145571354805
 31
0.0
  0
LINE
  5
1AB
  8
0
  6
CONTINUOUS
 62
     7
 10
36.15229576302376
 20
402.8145571354805
 30
0.0
 11
36.18898269147353
 21
402.8085534526962
 31
0.0
  0
LINE
  5
1AC
  8
0
  6
CONTINUOUS
 62
     7
 10
36.18898269147353
 20
402.8085534526962
 30
0.0
 11
36.22590890297924
 21
402.8042512164567
 31
0.0
  0
LINE
  5
1AD
  8
0
  6
CONTINUOUS
 62
     7
 10
36.22590890297928
 20
402.8042512164567
 30
0.0
 11
36.26295460375128
 21
402.801661646734
 31
0.0
  0
LINE
  5
1AE
  8
0
  6
CONTINUOUS
 62
     7
 10
36.26295460375128
 20
402.801661646734
 30
0.0
 11
36.30000000000001
 21
402.8007959634992
 31
0.0
  0
LINE
  5
1AF
  8
0
  6
CONTINUOUS
 62
     7
 10
35.50000000000003
 20
397.9573447535652
 30
0.0
 11
35.50000000000003
 21
399.134386789334
 31
0.0
  0
LINE
  5
1B0
  8
0
  6
CONTINUOUS
 62
     7
 10
35.50000000000003
 20
405.4672051376645
 30
0.0
 11
35.50000000000003
 21
406.6442471734332
 31
0.0
  0
LINE
  5
1B1
  8
0
  6
CONTINUOUS
 62
     7
 10
34.49999999999997
 20
406.6442471734332
 30
0.0
 11
34.49999999999997
 21
405.4672051376645
 31
0.0
  0
LINE
  5
1B2
  8
0
  6
CONTINUOUS
 62
     7
 10
34.49999999999997
 20
399.134386789334
 30
0.0
 11
34.49999999999997
 21
397.9573447535618
 31
0.0
  0
ARC
  5
1B3
  8
0
  6
CONTINUOUS
 62
     7
 10
35.00000000000003
 20
402.3007959634992
 30
0.0
 40
4.412511336474023
 50
83.49360228561203
 51
96.50639771438794
  0
ARC
  5
1B4
  8
0
  6
CONTINUOUS
 62
     7
 10
35.00000000000003
 20
402.3007959634992
 30
0.0
 40
4.412511336474023
 50
263.493602285612
 51
276.5063977143879
  0
ARC
  5
1B5
  8
0
  6
CONTINUOUS
 62
     7
 10
35.00000000000003
 20
402.3007959634992
 30
0.0
 40
1.403262301477082
 50
249.1260896468198
 51
290.8739103531802
  0
ARC
  5
1B6
  8
0
  6
CONTINUOUS
 62
     7
 10
35.00000000000003
 20
402.3007959634992
 30
0.0
 40
1.403262301477082
 50
69.12608964681978
 51
110.8739103531802
  0
LINE
  5
1B7
  8
0
  6
CONTINUOUS
 62
     7
 10
-69.69999999999996
 20
508.8007959634992
 30
0.0
 11
-67.83359082583469
 21
508.8007959634992
 31
0.0
  0
LINE
  5
1B8
  8
0
  6
CONTINUOUS
 62
     7
 10
-70.49999999999993
 20
510.675136311842
 30
0.0
 11
-70.49999999999993
 21
509.6007959634993
 31
0.0
  0
ARC
  5
1B9
  8
0
  6
CONTINUOUS
 62
     7
 10
-70.99999999999996
 20
508.3007959634992
 30
0.0
 40
2.426415481686567
 50
78.10813302154226
 51
101.8918669784577
  0
LINE
  5
1BA
  8
0
  6
CONTINUOUS
 62
     7
 10
-71.49999999999996
 20
509.6007959634993
 30
0.0
 11
-71.49999999999996
 21
510.675136311842
 31
0.0
  0
LINE
  5
1BB
  8
0
  6
CONTINUOUS
 62
     7
 10
-72.29999999999991
 20
508.8007959634992
 30
0.0
 11
-72.26705965992223
 21
508.801477037888
 31
0.0
  0
LINE
  5
1BC
  8
0
  6
CONTINUOUS
 62
     7
 10
-72.26705965992223
 20
508.801477037888
 30
0.0
 11
-72.23413125535897
 21
508.8035169273677
 31
0.0
  0
LINE
  5
1BD
  8
0
  6
CONTINUOUS
 62
     7
 10
-72.23413125535899
 20
508.8035169273677
 30
0.0
 11
-72.20129896504682
 21
508.8069106314097
 31
0.0
  0
LINE
  5
1BE
  8
0
  6
CONTINUOUS
 62
     7
 10
-72.20129896504679
 20
508.8069106314097
 30
0.0
 11
-72.16864696772238
 21
508.8116531494842
 31
0.0
  0
LINE
  5
1BF
  8
0
  6
CONTINUOUS
 62
     7
 10
-72.16864696772241
 20
508.8116531494842
 30
0.0
 11
-72.13527361917261
 21
508.8179419399842
 31
0.0
  0
LINE
  5
1C0
  8
0
  6
CONTINUOUS
 62
     7
 10
-72.1352736191726
 20
508.8179419399842
 30
0.0
 11
-72.10215188761568
 21
508.8256523667275
 31
0.0
  0
LINE
  5
1C1
  8
0
  6
CONTINUOUS
 62
     7
 10
-72.10215188761565
 20
508.8256523667275
 30
0.0
 11
-72.06937234218715
 21
508.8347632682493
 31
0.0
  0
LINE
  5
1C2
  8
0
  6
CONTINUOUS
 62
     7
 10
-72.06937234218717
 20
508.8347632682493
 30
0.0
 11
-72.03702555202243
 21
508.8452534830848
 31
0.0
  0
LINE
  5
1C3
  8
0
  6
CONTINUOUS
 62
     7
 10
-72.03702555202243
 20
508.8452534830847
 30
0.0
 11
-72.00600371293031
 21
508.8567786196599
 31
0.0
  0
LINE
  5
1C4
  8
0
  6
CONTINUOUS
 62
     7
 10
-72.00600371293031
 20
508.85677861966
 30
0.0
 11
-71.9754476287071
 21
508.86959285961
 31
0.0
  0
LINE
  5
1C5
  8
0
  6
CONTINUOUS
 62
     7
 10
-71.97544762870712
 20
508.86959285961
 30
0.0
 11
-71.94543693621658
 21
508.8836623209635
 31
0.0
  0
LINE
  5
1C6
  8
0
  6
CONTINUOUS
 62
     7
 10
-71.94543693621658
 20
508.8836623209635
 30
0.0
 11
-71.91605127232249
 21
508.89895312175
 31
0.0
  0
LINE
  5
1C7
  8
0
  6
CONTINUOUS
 62
     7
 10
-71.91605127232248
 20
508.89895312175
 30
0.0
 11
-71.88648430924134
 21
508.9159603636245
 31
0.0
  0
LINE
  5
1C8
  8
0
  6
CONTINUOUS
 62
     7
 10
-71.88648430924133
 20
508.9159603636244
 30
0.0
 11
-71.85763568094161
 21
508.9342339161141
 31
0.0
  0
LINE
  5
1C9
  8
0
  6
CONTINUOUS
 62
     7
 10
-71.85763568094161
 20
508.9342339161142
 30
0.0
 11
-71.8295850901003
 21
508.9537219030392
 31
0.0
  0
LINE
  5
1CA
  8
0
  6
CONTINUOUS
 62
     7
 10
-71.8295850901003
 20
508.9537219030392
 30
0.0
 11
-71.8024122393943
 21
508.9743724482195
 31
0.0
  0
LINE
  5
1CB
  8
0
  6
CONTINUOUS
 62
     7
 10
-71.80241223939431
 20
508.9743724482195
 30
0.0
 11
-71.77704244333101
 21
508.9953944002038
 31
0.0
  0
LINE
  5
1CC
  8
0
  6
CONTINUOUS
 62
     7
 10
-71.777042443331
 20
508.9953944002037
 30
0.0
 11
-71.75253675523994
 21
509.0174639181709
 31
0.0
  0
LINE
  5
1CD
  8
0
  6
CONTINUOUS
 62
     7
 10
-71.75253675523996
 20
509.0174639181709
 30
0.0
 11
-71.72895782160361
 21
509.0405223788472
 31
0.0
  0
LINE
  5
1CE
  8
0
  6
CONTINUOUS
 62
     7
 10
-71.7289578216036
 20
509.0405223788472
 30
0.0
 11
-71.70636828890427
 21
509.0645111589582
 31
0.0
  0
LINE
  5
1CF
  8
0
  6
CONTINUOUS
 62
     7
 10
-71.70636828890429
 20
509.0645111589582
 30
0.0
 11
-71.68417626292194
 21
509.0901529705231
 31
0.0
  0
LINE
  5
1D0
  8
0
  6
CONTINUOUS
 62
     7
 10
-71.68417626292195
 20
509.0901529705231
 30
0.0
 11
-71.66307335668826
 21
509.1167341816812
 31
0.0
  0
LINE
  5
1D1
  8
0
  6
CONTINUOUS
 62
     7
 10
-71.66307335668826
 20
509.1167341816812
 30
0.0
 11
-71.64311562992103
 21
509.1441800805535
 31
0.0
  0
LINE
  5
1D2
  8
0
  6
CONTINUOUS
 62
     7
 10
-71.64311562992104
 20
509.1441800805534
 30
0.0
 11
-71.62435914233815
 21
509.1724159552612
 31
0.0
  0
LINE
  5
1D3
  8
0
  6
CONTINUOUS
 62
     7
 10
-71.62435914233814
 20
509.1724159552612
 30
0.0
 11
-71.60734869500604
 21
509.2005086565943
 31
0.0
  0
LINE
  5
1D4
  8
0
  6
CONTINUOUS
 62
     7
 10
-71.60734869500604
 20
509.2005086565943
 30
0.0
 11
-71.59149565358256
 21
509.2292935471958
 31
0.0
  0
LINE
  5
1D5
  8
0
  6
CONTINUOUS
 62
     7
 10
-71.59149565358256
 20
509.2292935471958
 30
0.0
 11
-71.57683827965656
 21
509.2586952730438
 31
0.0
  0
LINE
  5
1D6
  8
0
  6
CONTINUOUS
 62
     7
 10
-71.57683827965656
 20
509.2586952730438
 30
0.0
 11
-71.56341483481695
 21
509.2886384801156
 31
0.0
  0
LINE
  5
1D7
  8
0
  6
CONTINUOUS
 62
     7
 10
-71.56341483481692
 20
509.2886384801156
 30
0.0
 11
-71.55090779710285
 21
509.3199825082719
 31
0.0
  0
LINE
  5
1D8
  8
0
  6
CONTINUOUS
 62
     7
 10
-71.55090779710288
 20
509.3199825082719
 30
0.0
 11
-71.53972766158394
 21
509.3518428482652
 31
0.0
  0
LINE
  5
1D9
  8
0
  6
CONTINUOUS
 62
     7
 10
-71.53972766158395
 20
509.3518428482653
 30
0.0
 11
-71.52990117431202
 21
509.3841323528845
 31
0.0
  0
LINE
  5
1DA
  8
0
  6
CONTINUOUS
 62
     7
 10
-71.52990117431202
 20
509.3841323528845
 30
0.0
 11
-71.52145508133908
 21
509.4167638749187
 31
0.0
  0
LINE
  5
1DB
  8
0
  6
CONTINUOUS
 62
     7
 10
-71.52145508133906
 20
509.4167638749187
 30
0.0
 11
-71.51376117198117
 21
509.453091726523
 31
0.0
  0
LINE
  5
1DC
  8
0
  6
CONTINUOUS
 62
     7
 10
-71.51376117198119
 20
509.453091726523
 30
0.0
 11
-71.50775748919673
 21
509.4897786549728
 31
0.0
  0
LINE
  5
1DD
  8
0
  6
CONTINUOUS
 62
     7
 10
-71.50775748919675
 20
509.4897786549728
 30
0.0
 11
-71.50345525295732
 21
509.5267048664786
 31
0.0
  0
LINE
  5
1DE
  8
0
  6
CONTINUOUS
 62
     7
 10
-71.50345525295731
 20
509.5267048664786
 30
0.0
 11
-71.50086568323452
 21
509.5637505672507
 31
0.0
  0
LINE
  5
1DF
  8
0
  6
CONTINUOUS
 62
     7
 10
-71.50086568323452
 20
509.5637505672507
 30
0.0
 11
-71.49999999999994
 21
509.6007959634993
 31
0.0
  0
LINE
  5
1E0
  8
0
  6
CONTINUOUS
 62
     7
 10
-74.16640917416522
 20
508.8007959634992
 30
0.0
 11
-72.29999999999993
 21
508.8007959634992
 31
0.0
  0
LINE
  5
1E1
  8
0
  6
CONTINUOUS
 62
     7
 10
-70.49999999999993
 20
509.6007959634993
 30
0.0
 11
-70.4993189256113
 21
509.5678556234215
 31
0.0
  0
LINE
  5
1E2
  8
0
  6
CONTINUOUS
 62
     7
 10
-70.49931892561129
 20
509.5678556234215
 30
0.0
 11
-70.49727903613139
 21
509.5349272188582
 31
0.0
  0
LINE
  5
1E3
  8
0
  6
CONTINUOUS
 62
     7
 10
-70.4972790361314
 20
509.5349272188582
 30
0.0
 11
-70.49388533208956
 21
509.5020949285462
 31
0.0
  0
LINE
  5
1E4
  8
0
  6
CONTINUOUS
 62
     7
 10
-70.49388533208956
 20
509.5020949285462
 30
0.0
 11
-70.48914281401494
 21
509.4694429312216
 31
0.0
  0
LINE
  5
1E5
  8
0
  6
CONTINUOUS
 62
     7
 10
-70.48914281401494
 20
509.4694429312216
 30
0.0
 11
-70.48285402351495
 21
509.4360695826721
 31
0.0
  0
LINE
  5
1E6
  8
0
  6
CONTINUOUS
 62
     7
 10
-70.48285402351495
 20
509.4360695826721
 30
0.0
 11
-70.47514359677172
 21
509.402947851115
 31
0.0
  0
LINE
  5
1E7
  8
0
  6
CONTINUOUS
 62
     7
 10
-70.47514359677173
 20
509.402947851115
 30
0.0
 11
-70.46603269525004
 21
509.3701683056865
 31
0.0
  0
LINE
  5
1E8
  8
0
  6
CONTINUOUS
 62
     7
 10
-70.46603269525004
 20
509.3701683056865
 30
0.0
 11
-70.45554248041446
 21
509.3378215155216
 31
0.0
  0
LINE
  5
1E9
  8
0
  6
CONTINUOUS
 62
     7
 10
-70.45554248041446
 20
509.3378215155217
 30
0.0
 11
-70.4440173438392
 21
509.3067996764298
 31
0.0
  0
LINE
  5
1EA
  8
0
  6
CONTINUOUS
 62
     7
 10
-70.4440173438392
 20
509.3067996764298
 30
0.0
 11
-70.4312031038893
 21
509.2762435922066
 31
0.0
  0
LINE
  5
1EB
  8
0
  6
CONTINUOUS
 62
     7
 10
-70.43120310388929
 20
509.2762435922065
 30
0.0
 11
-70.41713364253569
 21
509.2462328997159
 31
0.0
  0
LINE
  5
1EC
  8
0
  6
CONTINUOUS
 62
     7
 10
-70.41713364253569
 20
509.2462328997159
 30
0.0
 11
-70.4018428417493
 21
509.2168472358217
 31
0.0
  0
LINE
  5
1ED
  8
0
  6
CONTINUOUS
 62
     7
 10
-70.4018428417493
 20
509.2168472358217
 30
0.0
 11
-70.38483559987488
 21
509.1872802727407
 31
0.0
  0
LINE
  5
1EE
  8
0
  6
CONTINUOUS
 62
     7
 10
-70.38483559987488
 20
509.1872802727407
 30
0.0
 11
-70.36656204738512
 21
509.158431644441
 31
0.0
  0
LINE
  5
1EF
  8
0
  6
CONTINUOUS
 62
     7
 10
-70.36656204738512
 20
509.158431644441
 30
0.0
 11
-70.34707406046002
 21
509.1303810535998
 31
0.0
  0
LINE
  5
1F0
  8
0
  6
CONTINUOUS
 62
     7
 10
-70.34707406046003
 20
509.1303810535998
 30
0.0
 11
-70.32642351527971
 21
509.1032082028938
 31
0.0
  0
LINE
  5
1F1
  8
0
  6
CONTINUOUS
 62
     7
 10
-70.3264235152797
 20
509.1032082028937
 30
0.0
 11
-70.30540156329553
 21
509.0778384068302
 31
0.0
  0
LINE
  5
1F2
  8
0
  6
CONTINUOUS
 62
     7
 10
-70.30540156329553
 20
509.0778384068302
 30
0.0
 11
-70.28333204532822
 21
509.0533327187392
 31
0.0
  0
LINE
  5
1F3
  8
0
  6
CONTINUOUS
 62
     7
 10
-70.28333204532822
 20
509.0533327187392
 30
0.0
 11
-70.26027358465196
 21
509.029753785103
 31
0.0
  0
LINE
  5
1F4
  8
0
  6
CONTINUOUS
 62
     7
 10
-70.26027358465196
 20
509.029753785103
 30
0.0
 11
-70.23628480454097
 21
509.0071642524038
 31
0.0
  0
LINE
  5
1F5
  8
0
  6
CONTINUOUS
 62
     7
 10
-70.23628480454097
 20
509.0071642524038
 30
0.0
 11
-70.21064299297605
 21
508.9849722264212
 31
0.0
  0
LINE
  5
1F6
  8
0
  6
CONTINUOUS
 62
     7
 10
-70.21064299297602
 20
508.9849722264212
 30
0.0
 11
-70.18406178181797
 21
508.9638693201874
 31
0.0
  0
LINE
  5
1F7
  8
0
  6
CONTINUOUS
 62
     7
 10
-70.18406178181799
 20
508.9638693201874
 30
0.0
 11
-70.1566158829457
 21
508.9439115934205
 31
0.0
  0
LINE
  5
1F8
  8
0
  6
CONTINUOUS
 62
     7
 10
-70.15661588294569
 20
508.9439115934205
 30
0.0
 11
-70.128380008238
 21
508.9251551058375
 31
0.0
  0
LINE
  5
1F9
  8
0
  6
CONTINUOUS
 62
     7
 10
-70.12838000823801
 20
508.9251551058375
 30
0.0
 11
-70.10028730690487
 21
508.9081446585055
 31
0.0
  0
LINE
  5
1FA
  8
0
  6
CONTINUOUS
 62
     7
 10
-70.10028730690487
 20
508.9081446585055
 30
0.0
 11
-70.07150241630343
 21
508.8922916170819
 31
0.0
  0
LINE
  5
1FB
  8
0
  6
CONTINUOUS
 62
     7
 10
-70.07150241630345
 20
508.8922916170819
 30
0.0
 11
-70.04210069045564
 21
508.8776342431559
 31
0.0
  0
LINE
  5
1FC
  8
0
  6
CONTINUOUS
 62
     7
 10
-70.04210069045563
 20
508.877634243156
 30
0.0
 11
-70.01215748338353
 21
508.8642107983163
 31
0.0
  0
LINE
  5
1FD
  8
0
  6
CONTINUOUS
 62
     7
 10
-70.01215748338352
 20
508.8642107983163
 30
0.0
 11
-69.98081345522722
 21
508.8517037606022
 31
0.0
  0
LINE
  5
1FE
  8
0
  6
CONTINUOUS
 62
     7
 10
-69.98081345522722
 20
508.8517037606022
 30
0.0
 11
-69.94895311523395
 21
508.8405236250832
 31
0.0
  0
LINE
  5
1FF
  8
0
  6
CONTINUOUS
 62
     7
 10
-69.94895311523396
 20
508.8405236250832
 30
0.0
 11
-69.91666361061478
 21
508.8306971378113
 31
0.0
  0
LINE
  5
200
  8
0
  6
CONTINUOUS
 62
     7
 10
-69.91666361061478
 20
508.8306971378113
 30
0.0
 11
-69.8840320885806
 21
508.8222510448385
 31
0.0
  0
LINE
  5
201
  8
0
  6
CONTINUOUS
 62
     7
 10
-69.88403208858062
 20
508.8222510448385
 30
0.0
 11
-69.84770423697626
 21
508.8145571354804
 31
0.0
  0
LINE
  5
202
  8
0
  6
CONTINUOUS
 62
     7
 10
-69.84770423697626
 20
508.8145571354805
 30
0.0
 11
-69.81101730852637
 21
508.8085534526961
 31
0.0
  0
LINE
  5
203
  8
0
  6
CONTINUOUS
 62
     7
 10
-69.81101730852637
 20
508.8085534526961
 30
0.0
 11
-69.77409109702062
 21
508.8042512164567
 31
0.0
  0
LINE
  5
204
  8
0
  6
CONTINUOUS
 62
     7
 10
-69.77409109702062
 20
508.8042512164567
 30
0.0
 11
-69.73704539624862
 21
508.801661646734
 31
0.0
  0
LINE
  5
205
  8
0
  6
CONTINUOUS
 62
     7
 10
-69.73704539624862
 20
508.801661646734
 30
0.0
 11
-69.69999999999996
 21
508.8007959634992
 31
0.0
  0
LINE
  5
206
  8
0
  6
CONTINUOUS
 62
     7
 10
-71.49999999999996
 20
507.0007959634992
 30
0.0
 11
-71.50068107438864
 21
507.0337363035769
 31
0.0
  0
LINE
  5
207
  8
0
  6
CONTINUOUS
 62
     7
 10
-71.50068107438864
 20
507.0337363035769
 30
0.0
 11
-71.50272096386847
 21
507.0666647081402
 31
0.0
  0
LINE
  5
208
  8
0
  6
CONTINUOUS
 62
     7
 10
-71.50272096386847
 20
507.0666647081402
 30
0.0
 11
-71.50611466791035
 21
507.0994969984525
 31
0.0
  0
LINE
  5
209
  8
0
  6
CONTINUOUS
 62
     7
 10
-71.50611466791035
 20
507.0994969984525
 30
0.0
 11
-71.51085718598496
 21
507.1321489957767
 31
0.0
  0
LINE
  5
20A
  8
0
  6
CONTINUOUS
 62
     7
 10
-71.51085718598496
 20
507.1321489957767
 30
0.0
 11
-71.51714597648495
 21
507.1655223443267
 31
0.0
  0
LINE
  5
20B
  8
0
  6
CONTINUOUS
 62
     7
 10
-71.51714597648495
 20
507.1655223443267
 30
0.0
 11
-71.52485640322814
 21
507.1986440758835
 31
0.0
  0
LINE
  5
20C
  8
0
  6
CONTINUOUS
 62
     7
 10
-71.52485640322814
 20
507.1986440758834
 30
0.0
 11
-71.53396730474984
 21
507.2314236213119
 31
0.0
  0
LINE
  5
20D
  8
0
  6
CONTINUOUS
 62
     7
 10
-71.53396730474984
 20
507.231423621312
 30
0.0
 11
-71.54445751958545
 21
507.2637704114769
 31
0.0
  0
LINE
  5
20E
  8
0
  6
CONTINUOUS
 62
     7
 10
-71.54445751958544
 20
507.2637704114767
 30
0.0
 11
-71.5559826561607
 21
507.2947922505689
 31
0.0
  0
LINE
  5
20F
  8
0
  6
CONTINUOUS
 62
     7
 10
-71.55598265616072
 20
507.2947922505689
 30
0.0
 11
-71.5687968961106
 21
507.3253483347922
 31
0.0
  0
LINE
  5
210
  8
0
  6
CONTINUOUS
 62
     7
 10
-71.5687968961106
 20
507.3253483347922
 30
0.0
 11
-71.58286635746418
 21
507.3553590272826
 31
0.0
  0
LINE
  5
211
  8
0
  6
CONTINUOUS
 62
     7
 10
-71.58286635746418
 20
507.3553590272826
 30
0.0
 11
-71.59815715825057
 21
507.3847446911766
 31
0.0
  0
LINE
  5
212
  8
0
  6
CONTINUOUS
 62
     7
 10
-71.59815715825057
 20
507.3847446911768
 30
0.0
 11
-71.615164400125
 21
507.4143116542581
 31
0.0
  0
LINE
  5
213
  8
0
  6
CONTINUOUS
 62
     7
 10
-71.615164400125
 20
507.414311654258
 30
0.0
 11
-71.63343795261476
 21
507.4431602825576
 31
0.0
  0
LINE
  5
214
  8
0
  6
CONTINUOUS
 62
     7
 10
-71.63343795261476
 20
507.4431602825578
 30
0.0
 11
-71.65292593953986
 21
507.4712108733991
 31
0.0
  0
LINE
  5
215
  8
0
  6
CONTINUOUS
 62
     7
 10
-71.65292593953987
 20
507.4712108733989
 30
0.0
 11
-71.67357648472019
 21
507.4983837241049
 31
0.0
  0
LINE
  5
216
  8
0
  6
CONTINUOUS
 62
     7
 10
-71.67357648472017
 20
507.4983837241049
 30
0.0
 11
-71.69459843670434
 21
507.5237535201682
 31
0.0
  0
LINE
  5
217
  8
0
  6
CONTINUOUS
 62
     7
 10
-71.69459843670434
 20
507.5237535201683
 30
0.0
 11
-71.71666795467169
 21
507.5482592082592
 31
0.0
  0
LINE
  5
218
  8
0
  6
CONTINUOUS
 62
     7
 10
-71.71666795467169
 20
507.5482592082592
 30
0.0
 11
-71.73972641534796
 21
507.5718381418955
 31
0.0
  0
LINE
  5
219
  8
0
  6
CONTINUOUS
 62
     7
 10
-71.73972641534797
 20
507.5718381418955
 30
0.0
 11
-71.76371519545893
 21
507.5944276745951
 31
0.0
  0
LINE
  5
21A
  8
0
  6
CONTINUOUS
 62
     7
 10
-71.76371519545893
 20
507.594427674595
 30
0.0
 11
-71.7893570070239
 21
507.6166197005771
 31
0.0
  0
LINE
  5
21B
  8
0
  6
CONTINUOUS
 62
     7
 10
-71.78935700702388
 20
507.6166197005772
 30
0.0
 11
-71.81593821818188
 21
507.6377226068111
 31
0.0
  0
LINE
  5
21C
  8
0
  6
CONTINUOUS
 62
     7
 10
-71.81593821818188
 20
507.6377226068109
 30
0.0
 11
-71.84338411705421
 21
507.6576803335781
 31
0.0
  0
LINE
  5
21D
  8
0
  6
CONTINUOUS
 62
     7
 10
-71.84338411705421
 20
507.6576803335781
 30
0.0
 11
-71.87161999176189
 21
507.6764368211609
 31
0.0
  0
LINE
  5
21E
  8
0
  6
CONTINUOUS
 62
     7
 10
-71.87161999176189
 20
507.676436821161
 30
0.0
 11
-71.89971269309504
 21
507.6934472684933
 31
0.0
  0
LINE
  5
21F
  8
0
  6
CONTINUOUS
 62
     7
 10
-71.89971269309503
 20
507.6934472684933
 30
0.0
 11
-71.92849758369647
 21
507.7093003099168
 31
0.0
  0
LINE
  5
220
  8
0
  6
CONTINUOUS
 62
     7
 10
-71.92849758369648
 20
507.7093003099167
 30
0.0
 11
-71.95789930954425
 21
507.7239576838427
 31
0.0
  0
LINE
  5
221
  8
0
  6
CONTINUOUS
 62
     7
 10
-71.95789930954425
 20
507.7239576838428
 30
0.0
 11
-71.98784251661638
 21
507.7373811286823
 31
0.0
  0
LINE
  5
222
  8
0
  6
CONTINUOUS
 62
     7
 10
-71.98784251661638
 20
507.7373811286822
 30
0.0
 11
-72.01918654477265
 21
507.7498881663964
 31
0.0
  0
LINE
  5
223
  8
0
  6
CONTINUOUS
 62
     7
 10
-72.01918654477262
 20
507.7498881663964
 30
0.0
 11
-72.0510468847659
 21
507.7610683019151
 31
0.0
  0
LINE
  5
224
  8
0
  6
CONTINUOUS
 62
     7
 10
-72.05104688476591
 20
507.7610683019153
 30
0.0
 11
-72.0833363893851
 21
507.7708947891873
 31
0.0
  0
LINE
  5
225
  8
0
  6
CONTINUOUS
 62
     7
 10
-72.08333638938508
 20
507.7708947891873
 30
0.0
 11
-72.11596791141928
 21
507.7793408821602
 31
0.0
  0
LINE
  5
226
  8
0
  6
CONTINUOUS
 62
     7
 10
-72.11596791141928
 20
507.7793408821602
 30
0.0
 11
-72.15229576302367
 21
507.7870347915181
 31
0.0
  0
LINE
  5
227
  8
0
  6
CONTINUOUS
 62
     7
 10
-72.15229576302367
 20
507.7870347915182
 30
0.0
 11
-72.18898269147353
 21
507.7930384743025
 31
0.0
  0
LINE
  5
228
  8
0
  6
CONTINUOUS
 62
     7
 10
-72.18898269147353
 20
507.7930384743025
 30
0.0
 11
-72.22590890297926
 21
507.797340710542
 31
0.0
  0
LINE
  5
229
  8
0
  6
CONTINUOUS
 62
     7
 10
-72.22590890297926
 20
507.797340710542
 30
0.0
 11
-72.26295460375125
 21
507.7999302802647
 31
0.0
  0
LINE
  5
22A
  8
0
  6
CONTINUOUS
 62
     7
 10
-72.26295460375125
 20
507.7999302802647
 30
0.0
 11
-72.29999999999991
 21
507.8007959634992
 31
0.0
  0
LINE
  5
22B
  8
0
  6
CONTINUOUS
 62
     7
 10
-71.49999999999996
 20
505.9264556151564
 30
0.0
 11
-71.49999999999996
 21
507.0007959634992
 31
0.0
  0
ARC
  5
22C
  8
0
  6
CONTINUOUS
 62
     7
 10
-70.99999999999996
 20
508.3007959634992
 30
0.0
 40
2.426415481686567
 50
258.1081330215422
 51
281.8918669784578
  0
LINE
  5
22D
  8
0
  6
CONTINUOUS
 62
     7
 10
-70.49999999999993
 20
507.0007959634992
 30
0.0
 11
-70.49999999999993
 21
505.9264556151564
 31
0.0
  0
LINE
  5
22E
  8
0
  6
CONTINUOUS
 62
     7
 10
-67.83359082583468
 20
507.8007959634992
 30
0.0
 11
-69.69999999999995
 21
507.8007959634992
 31
0.0
  0
LINE
  5
22F
  8
0
  6
CONTINUOUS
 62
     7
 10
-72.29999999999991
 20
507.8007959634992
 30
0.0
 11
-74.16640917416521
 21
507.8007959634992
 31
0.0
  0
LINE
  5
230
  8
0
  6
CONTINUOUS
 62
     7
 10
-69.69999999999996
 20
507.8007959634992
 30
0.0
 11
-69.73294034007765
 21
507.8001148891108
 31
0.0
  0
LINE
  5
231
  8
0
  6
CONTINUOUS
 62
     7
 10
-69.73294034007765
 20
507.8001148891108
 30
0.0
 11
-69.7658687446409
 21
507.7980749996308
 31
0.0
  0
LINE
  5
232
  8
0
  6
CONTINUOUS
 62
     7
 10
-69.76586874464091
 20
507.7980749996307
 30
0.0
 11
-69.79870103495308
 21
507.7946812955888
 31
0.0
  0
LINE
  5
233
  8
0
  6
CONTINUOUS
 62
     7
 10
-69.79870103495306
 20
507.7946812955888
 30
0.0
 11
-69.83135303227748
 21
507.7899387775142
 31
0.0
  0
LINE
  5
234
  8
0
  6
CONTINUOUS
 62
     7
 10
-69.83135303227749
 20
507.7899387775142
 30
0.0
 11
-69.86472638082734
 21
507.7836499870143
 31
0.0
  0
LINE
  5
235
  8
0
  6
CONTINUOUS
 62
     7
 10
-69.8647263808273
 20
507.7836499870143
 30
0.0
 11
-69.8978481123842
 21
507.775939560271
 31
0.0
  0
LINE
  5
236
  8
0
  6
CONTINUOUS
 62
     7
 10
-69.8978481123842
 20
507.7759395602709
 30
0.0
 11
-69.9306276578127
 21
507.7668286587494
 31
0.0
  0
LINE
  5
237
  8
0
  6
CONTINUOUS
 62
     7
 10
-69.93062765781272
 20
507.7668286587495
 30
0.0
 11
-69.96297444797744
 21
507.7563384439138
 31
0.0
  0
LINE
  5
238
  8
0
  6
CONTINUOUS
 62
     7
 10
-69.96297444797744
 20
507.7563384439136
 30
0.0
 11
-69.99399628706956
 21
507.7448133073385
 31
0.0
  0
LINE
  5
239
  8
0
  6
CONTINUOUS
 62
     7
 10
-69.99399628706956
 20
507.7448133073385
 30
0.0
 11
-70.02455237129277
 21
507.7319990673886
 31
0.0
  0
LINE
  5
23A
  8
0
  6
CONTINUOUS
 62
     7
 10
-70.02455237129278
 20
507.7319990673888
 30
0.0
 11
-70.05456306378336
 21
507.717929606035
 31
0.0
  0
LINE
  5
23B
  8
0
  6
CONTINUOUS
 62
     7
 10
-70.05456306378335
 20
507.717929606035
 30
0.0
 11
-70.0839487276774
 21
507.7026388052488
 31
0.0
  0
LINE
  5
23C
  8
0
  6
CONTINUOUS
 62
     7
 10
-70.0839487276774
 20
507.7026388052487
 30
0.0
 11
-70.1135156907586
 21
507.6856315633742
 31
0.0
  0
LINE
  5
23D
  8
0
  6
CONTINUOUS
 62
     7
 10
-70.1135156907586
 20
507.6856315633742
 30
0.0
 11
-70.14236431905829
 21
507.6673580108844
 31
0.0
  0
LINE
  5
23E
  8
0
  6
CONTINUOUS
 62
     7
 10
-70.14236431905829
 20
507.6673580108845
 30
0.0
 11
-70.17041490989958
 21
507.6478700239595
 31
0.0
  0
LINE
  5
23F
  8
0
  6
CONTINUOUS
 62
     7
 10
-70.17041490989956
 20
507.6478700239594
 30
0.0
 11
-70.19758776060559
 21
507.627219478779
 31
0.0
  0
LINE
  5
240
  8
0
  6
CONTINUOUS
 62
     7
 10
-70.19758776060559
 20
507.627219478779
 30
0.0
 11
-70.22295755666889
 21
507.606197526795
 31
0.0
  0
LINE
  5
241
  8
0
  6
CONTINUOUS
 62
     7
 10
-70.2229575566689
 20
507.606197526795
 30
0.0
 11
-70.24746324475993
 21
507.5841280088276
 31
0.0
  0
LINE
  5
242
  8
0
  6
CONTINUOUS
 62
     7
 10
-70.24746324475991
 20
507.5841280088276
 30
0.0
 11
-70.2710421783963
 21
507.5610695481513
 31
0.0
  0
LINE
  5
243
  8
0
  6
CONTINUOUS
 62
     7
 10
-70.2710421783963
 20
507.5610695481512
 30
0.0
 11
-70.29363171109563
 21
507.5370807680401
 31
0.0
  0
LINE
  5
244
  8
0
  6
CONTINUOUS
 62
     7
 10
-70.29363171109561
 20
507.5370807680403
 30
0.0
 11
-70.31582373707792
 21
507.5114389564756
 31
0.0
  0
LINE
  5
245
  8
0
  6
CONTINUOUS
 62
     7
 10
-70.31582373707795
 20
507.5114389564754
 30
0.0
 11
-70.33692664331167
 21
507.4848577453171
 31
0.0
  0
LINE
  5
246
  8
0
  6
CONTINUOUS
 62
     7
 10
-70.33692664331164
 20
507.4848577453171
 30
0.0
 11
-70.35688437007883
 21
507.457411846445
 31
0.0
  0
LINE
  5
247
  8
0
  6
CONTINUOUS
 62
     7
 10
-70.35688437007886
 20
507.457411846445
 30
0.0
 11
-70.37564085766175
 21
507.4291759717372
 31
0.0
  0
LINE
  5
248
  8
0
  6
CONTINUOUS
 62
     7
 10
-70.37564085766174
 20
507.4291759717372
 30
0.0
 11
-70.39265130499383
 21
507.4010832704042
 31
0.0
  0
LINE
  5
249
  8
0
  6
CONTINUOUS
 62
     7
 10
-70.39265130499383
 20
507.4010832704042
 30
0.0
 11
-70.40850434641732
 21
507.3722983798027
 31
0.0
  0
LINE
  5
24A
  8
0
  6
CONTINUOUS
 62
     7
 10
-70.40850434641732
 20
507.3722983798027
 30
0.0
 11
-70.42316172034333
 21
507.3428966539549
 31
0.0
  0
LINE
  5
24B
  8
0
  6
CONTINUOUS
 62
     7
 10
-70.42316172034333
 20
507.3428966539549
 30
0.0
 11
-70.43658516518292
 21
507.3129534468829
 31
0.0
  0
LINE
  5
24C
  8
0
  6
CONTINUOUS
 62
     7
 10
-70.43658516518292
 20
507.312953446883
 30
0.0
 11
-70.44909220289702
 21
507.2816094187266
 31
0.0
  0
LINE
  5
24D
  8
0
  6
CONTINUOUS
 62
     7
 10
-70.44909220289702
 20
507.2816094187265
 30
0.0
 11
-70.46027233841596
 21
507.2497490787332
 31
0.0
  0
LINE
  5
24E
  8
0
  6
CONTINUOUS
 62
     7
 10
-70.46027233841598
 20
507.2497490787332
 30
0.0
 11
-70.47009882568788
 21
507.2174595741142
 31
0.0
  0
LINE
  5
24F
  8
0
  6
CONTINUOUS
 62
     7
 10
-70.47009882568788
 20
507.2174595741142
 30
0.0
 11
-70.47854491866082
 21
507.1848280520799
 31
0.0
  0
LINE
  5
250
  8
0
  6
CONTINUOUS
 62
     7
 10
-70.47854491866079
 20
507.1848280520799
 30
0.0
 11
-70.48623882801874
 21
507.1485002004754
 31
0.0
  0
LINE
  5
251
  8
0
  6
CONTINUOUS
 62
     7
 10
-70.48623882801874
 20
507.1485002004754
 30
0.0
 11
-70.49224251080314
 21
507.1118132720257
 31
0.0
  0
LINE
  5
252
  8
0
  6
CONTINUOUS
 62
     7
 10
-70.49224251080315
 20
507.1118132720257
 30
0.0
 11
-70.49654474704258
 21
507.0748870605199
 31
0.0
  0
LINE
  5
253
  8
0
  6
CONTINUOUS
 62
     7
 10
-70.49654474704256
 20
507.0748870605199
 30
0.0
 11
-70.4991343167653
 21
507.0378413597479
 31
0.0
  0
LINE
  5
254
  8
0
  6
CONTINUOUS
 62
     7
 10
-70.49913431676529
 20
507.0378413597479
 30
0.0
 11
-70.49999999999991
 21
507.0007959634992
 31
0.0
  0
LINE
  5
255
  8
0
  6
CONTINUOUS
 62
     7
 10
-75.34345120993399
 20
507.8007959634992
 30
0.0
 11
-74.16640917416522
 21
507.8007959634992
 31
0.0
  0
LINE
  5
256
  8
0
  6
CONTINUOUS
 62
     7
 10
-67.83359082583468
 20
507.8007959634992
 30
0.0
 11
-66.65654879006591
 21
507.8007959634992
 31
0.0
  0
LINE
  5
257
  8
0
  6
CONTINUOUS
 62
     7
 10
-66.65654879006591
 20
508.8007959634992
 30
0.0
 11
-67.83359082583468
 21
508.8007959634992
 31
0.0
  0
LINE
  5
258
  8
0
  6
CONTINUOUS
 62
     7
 10
-74.16640917416522
 20
508.8007959634992
 30
0.0
 11
-75.34345120993736
 21
508.8007959634992
 31
0.0
  0
ARC
  5
259
  8
0
  6
CONTINUOUS
 62
     7
 10
-70.99999999999996
 20
508.3007959634992
 30
0.0
 40
4.412511336474078
 50
353.4936022856121
 51
6.506397714387958
  0
ARC
  5
25A
  8
0
  6
CONTINUOUS
 62
     7
 10
-70.99999999999996
 20
508.3007959634992
 30
0.0
 40
4.412511336474107
 50
173.4936022856121
 51
186.506397714388
  0
ARC
  5
25B
  8
0
  6
CONTINUOUS
 62
     7
 10
-70.99999999999996
 20
508.3007959634992
 30
0.0
 40
1.40326230147711
 50
339.1260896468198
 51
20.87391035318018
  0
ARC
  5
25C
  8
0
  6
CONTINUOUS
 62
     7
 10
-70.99999999999996
 20
508.3007959634992
 30
0.0
 40
1.403262301477137
 50
159.1260896468198
 51
200.8739103531802
  0
LINE
  5
25D
  8
0
  6
CONTINUOUS
 62
     7
 10
35.50000000000003
 20
613.0007959634992
 30
0.0
 11
35.50000000000003
 21
611.134386789334
 31
0.0
  0
LINE
  5
25E
  8
0
  6
CONTINUOUS
 62
     7
 10
37.37434034834275
 20
613.8007959634992
 30
0.0
 11
36.29999999999997
 21
613.8007959634992
 31
0.0
  0
ARC
  5
25F
  8
0
  6
CONTINUOUS
 62
     7
 10
35.00000000000003
 20
614.3007959634991
 30
0.0
 40
2.426415481686484
 50
348.1081330215422
 51
11.89186697845776
  0
LINE
  5
260
  8
0
  6
CONTINUOUS
 62
     7
 10
36.3
 20
614.8007959634994
 30
0.0
 11
37.37434034834278
 21
614.8007959634994
 31
0.0
  0
LINE
  5
261
  8
0
  6
CONTINUOUS
 62
     7
 10
35.50000000000003
 20
615.6007959634992
 30
0.0
 11
35.50068107438876
 21
615.5678556234215
 31
0.0
  0
LINE
  5
262
  8
0
  6
CONTINUOUS
 62
     7
 10
35.50068107438875
 20
615.5678556234215
 30
0.0
 11
35.50272096386851
 21
615.5349272188583
 31
0.0
  0
LINE
  5
263
  8
0
  6
CONTINUOUS
 62
     7
 10
35.50272096386853
 20
615.5349272188583
 30
0.0
 11
35.50611466791052
 21
615.502094928546
 31
0.0
  0
LINE
  5
264
  8
0
  6
CONTINUOUS
 62
     7
 10
35.50611466791048
 20
615.5020949285461
 30
0.0
 11
35.51085718598498
 21
615.4694429312217
 31
0.0
  0
LINE
  5
265
  8
0
  6
CONTINUOUS
 62
     7
 10
35.51085718598501
 20
615.4694429312217
 30
0.0
 11
35.517145976485
 21
615.436069582672
 31
0.0
  0
LINE
  5
266
  8
0
  6
CONTINUOUS
 62
     7
 10
35.51714597648498
 20
615.436069582672
 30
0.0
 11
35.52485640322823
 21
615.4029478511151
 31
0.0
  0
LINE
  5
267
  8
0
  6
CONTINUOUS
 62
     7
 10
35.52485640322822
 20
615.402947851115
 30
0.0
 11
35.53396730474999
 21
615.3701683056864
 31
0.0
  0
LINE
  5
268
  8
0
  6
CONTINUOUS
 62
     7
 10
35.53396730475
 20
615.3701683056865
 30
0.0
 11
35.54445751958551
 21
615.3378215155218
 31
0.0
  0
LINE
  5
269
  8
0
  6
CONTINUOUS
 62
     7
 10
35.54445751958551
 20
615.3378215155218
 30
0.0
 11
35.55598265616079
 21
615.3067996764297
 31
0.0
  0
LINE
  5
26A
  8
0
  6
CONTINUOUS
 62
     7
 10
35.55598265616078
 20
615.3067996764296
 30
0.0
 11
35.56879689611075
 21
615.2762435922064
 31
0.0
  0
LINE
  5
26B
  8
0
  6
CONTINUOUS
 62
     7
 10
35.56879689611075
 20
615.2762435922065
 30
0.0
 11
35.58286635746425
 21
615.2462328997159
 31
0.0
  0
LINE
  5
26C
  8
0
  6
CONTINUOUS
 62
     7
 10
35.58286635746427
 20
615.2462328997159
 30
0.0
 11
35.59815715825076
 21
615.216847235822
 31
0.0
  0
LINE
  5
26D
  8
0
  6
CONTINUOUS
 62
     7
 10
35.59815715825076
 20
615.216847235822
 30
0.0
 11
35.61516440012502
 21
615.1872802727407
 31
0.0
  0
LINE
  5
26E
  8
0
  6
CONTINUOUS
 62
     7
 10
35.61516440012502
 20
615.1872802727407
 30
0.0
 11
35.63343795261502
 21
615.1584316444411
 31
0.0
  0
LINE
  5
26F
  8
0
  6
CONTINUOUS
 62
     7
 10
35.63343795261498
 20
615.158431644441
 30
0.0
 11
35.65292593953997
 21
615.1303810535995
 31
0.0
  0
LINE
  5
270
  8
0
  6
CONTINUOUS
 62
     7
 10
35.65292593954
 20
615.1303810535995
 30
0.0
 11
35.67357648472029
 21
615.1032082028934
 31
0.0
  0
LINE
  5
271
  8
0
  6
CONTINUOUS
 62
     7
 10
35.67357648472025
 20
615.1032082028934
 30
0.0
 11
35.69459843670449
 21
615.0778384068304
 31
0.0
  0
LINE
  5
272
  8
0
  6
CONTINUOUS
 62
     7
 10
35.69459843670452
 20
615.0778384068304
 30
0.0
 11
35.71666795467175
 21
615.0533327187394
 31
0.0
  0
LINE
  5
273
  8
0
  6
CONTINUOUS
 62
     7
 10
35.71666795467176
 20
615.0533327187393
 30
0.0
 11
35.73972641534807
 21
615.029753785103
 31
0.0
  0
LINE
  5
274
  8
0
  6
CONTINUOUS
 62
     7
 10
35.73972641534806
 20
615.029753785103
 30
0.0
 11
35.76371519545904
 21
615.0071642524034
 31
0.0
  0
LINE
  5
275
  8
0
  6
CONTINUOUS
 62
     7
 10
35.76371519545901
 20
615.0071642524034
 30
0.0
 11
35.78935700702397
 21
614.9849722264213
 31
0.0
  0
LINE
  5
276
  8
0
  6
CONTINUOUS
 62
     7
 10
35.78935700702402
 20
614.9849722264212
 30
0.0
 11
35.81593821818202
 21
614.9638693201873
 31
0.0
  0
LINE
  5
277
  8
0
  6
CONTINUOUS
 62
     7
 10
35.81593821818196
 20
614.9638693201874
 30
0.0
 11
35.84338411705421
 21
614.9439115934202
 31
0.0
  0
LINE
  5
278
  8
0
  6
CONTINUOUS
 62
     7
 10
35.84338411705424
 20
614.9439115934202
 30
0.0
 11
35.87161999176199
 21
614.9251551058376
 31
0.0
  0
LINE
  5
279
  8
0
  6
CONTINUOUS
 62
     7
 10
35.87161999176202
 20
614.9251551058376
 30
0.0
 11
35.89971269309507
 21
614.9081446585056
 31
0.0
  0
LINE
  5
27A
  8
0
  6
CONTINUOUS
 62
     7
 10
35.89971269309505
 20
614.9081446585056
 30
0.0
 11
35.92849758369653
 21
614.892291617082
 31
0.0
  0
LINE
  5
27B
  8
0
  6
CONTINUOUS
 62
     7
 10
35.92849758369654
 20
614.8922916170819
 30
0.0
 11
35.95789930954427
 21
614.8776342431557
 31
0.0
  0
LINE
  5
27C
  8
0
  6
CONTINUOUS
 62
     7
 10
35.95789930954424
 20
614.8776342431559
 30
0.0
 11
35.98784251661651
 21
614.8642107983163
 31
0.0
  0
LINE
  5
27D
  8
0
  6
CONTINUOUS
 62
     7
 10
35.98784251661652
 20
614.8642107983162
 30
0.0
 11
36.01918654477275
 21
614.8517037606023
 31
0.0
  0
LINE
  5
27E
  8
0
  6
CONTINUOUS
 62
     7
 10
36.01918654477277
 20
614.8517037606023
 30
0.0
 11
36.05104688476602
 21
614.8405236250833
 31
0.0
  0
LINE
  5
27F
  8
0
  6
CONTINUOUS
 62
     7
 10
36.05104688476602
 20
614.8405236250833
 30
0.0
 11
36.08333638938527
 21
614.8306971378114
 31
0.0
  0
LINE
  5
280
  8
0
  6
CONTINUOUS
 62
     7
 10
36.08333638938527
 20
614.8306971378114
 30
0.0
 11
36.11596791141925
 21
614.8222510448386
 31
0.0
  0
LINE
  5
281
  8
0
  6
CONTINUOUS
 62
     7
 10
36.11596791141925
 20
614.8222510448386
 30
0.0
 11
36.15229576302375
 21
614.8145571354805
 31
0.0
  0
LINE
  5
282
  8
0
  6
CONTINUOUS
 62
     7
 10
36.15229576302376
 20
614.8145571354804
 30
0.0
 11
36.18898269147353
 21
614.808553452696
 31
0.0
  0
LINE
  5
283
  8
0
  6
CONTINUOUS
 62
     7
 10
36.18898269147353
 20
614.808553452696
 30
0.0
 11
36.22590890297924
 21
614.8042512164567
 31
0.0
  0
LINE
  5
284
  8
0
  6
CONTINUOUS
 62
     7
 10
36.22590890297928
 20
614.8042512164567
 30
0.0
 11
36.26295460375128
 21
614.8016616467337
 31
0.0
  0
LINE
  5
285
  8
0
  6
CONTINUOUS
 62
     7
 10
36.26295460375128
 20
614.8016616467338
 30
0.0
 11
36.30000000000001
 21
614.8007959634994
 31
0.0
  0
LINE
  5
286
  8
0
  6
CONTINUOUS
 62
     7
 10
35.50000000000003
 20
617.4672051376645
 30
0.0
 11
35.50000000000003
 21
615.6007959634993
 31
0.0
  0
LINE
  5
287
  8
0
  6
CONTINUOUS
 62
     7
 10
36.3
 20
613.8007959634992
 30
0.0
 11
36.26705965992227
 21
613.8001148891105
 31
0.0
  0
LINE
  5
288
  8
0
  6
CONTINUOUS
 62
     7
 10
36.26705965992227
 20
613.8001148891104
 30
0.0
 11
36.23413125535902
 21
613.7980749996306
 31
0.0
  0
LINE
  5
289
  8
0
  6
CONTINUOUS
 62
     7
 10
36.23413125535902
 20
613.7980749996307
 30
0.0
 11
36.20129896504702
 21
613.7946812955889
 31
0.0
  0
LINE
  5
28A
  8
0
  6
CONTINUOUS
 62
     7
 10
36.20129896504704
 20
613.7946812955888
 30
0.0
 11
36.16864696772255
 21
613.7899387775141
 31
0.0
  0
LINE
  5
28B
  8
0
  6
CONTINUOUS
 62
     7
 10
36.16864696772254
 20
613.7899387775142
 30
0.0
 11
36.13527361917278
 21
613.7836499870142
 31
0.0
  0
LINE
  5
28C
  8
0
  6
CONTINUOUS
 62
     7
 10
36.13527361917279
 20
613.7836499870142
 30
0.0
 11
36.10215188761579
 21
613.7759395602711
 31
0.0
  0
LINE
  5
28D
  8
0
  6
CONTINUOUS
 62
     7
 10
36.10215188761578
 20
613.7759395602711
 30
0.0
 11
36.06937234218728
 21
613.7668286587494
 31
0.0
  0
LINE
  5
28E
  8
0
  6
CONTINUOUS
 62
     7
 10
36.06937234218726
 20
613.7668286587494
 30
0.0
 11
36.03702555202251
 21
613.7563384439137
 31
0.0
  0
LINE
  5
28F
  8
0
  6
CONTINUOUS
 62
     7
 10
36.03702555202248
 20
613.7563384439137
 30
0.0
 11
36.00600371293026
 21
613.7448133073385
 31
0.0
  0
LINE
  5
290
  8
0
  6
CONTINUOUS
 62
     7
 10
36.00600371293028
 20
613.7448133073385
 30
0.0
 11
35.97544762870727
 21
613.7319990673888
 31
0.0
  0
LINE
  5
291
  8
0
  6
CONTINUOUS
 62
     7
 10
35.9754476287073
 20
613.7319990673886
 30
0.0
 11
35.94543693621677
 21
613.717929606035
 31
0.0
  0
LINE
  5
292
  8
0
  6
CONTINUOUS
 62
     7
 10
35.94543693621677
 20
613.7179296060351
 30
0.0
 11
35.91605127232254
 21
613.7026388052489
 31
0.0
  0
LINE
  5
293
  8
0
  6
CONTINUOUS
 62
     7
 10
35.9160512723225
 20
613.7026388052489
 30
0.0
 11
35.88648430924123
 21
613.6856315633742
 31
0.0
  0
LINE
  5
294
  8
0
  6
CONTINUOUS
 62
     7
 10
35.88648430924124
 20
613.6856315633742
 30
0.0
 11
35.85763568094176
 21
613.6673580108843
 31
0.0
  0
LINE
  5
295
  8
0
  6
CONTINUOUS
 62
     7
 10
35.85763568094175
 20
613.6673580108843
 30
0.0
 11
35.8295850901005
 21
613.6478700239592
 31
0.0
  0
LINE
  5
296
  8
0
  6
CONTINUOUS
 62
     7
 10
35.82958509010054
 20
613.6478700239592
 30
0.0
 11
35.80241223939451
 21
613.6272194787788
 31
0.0
  0
LINE
  5
297
  8
0
  6
CONTINUOUS
 62
     7
 10
35.80241223939451
 20
613.6272194787789
 30
0.0
 11
35.77704244333103
 21
613.6061975267947
 31
0.0
  0
LINE
  5
298
  8
0
  6
CONTINUOUS
 62
     7
 10
35.77704244333102
 20
613.6061975267947
 30
0.0
 11
35.75253675524
 21
613.5841280088274
 31
0.0
  0
LINE
  5
299
  8
0
  6
CONTINUOUS
 62
     7
 10
35.75253675523998
 20
613.5841280088274
 30
0.0
 11
35.72895782160378
 21
613.5610695481512
 31
0.0
  0
LINE
  5
29A
  8
0
  6
CONTINUOUS
 62
     7
 10
35.72895782160379
 20
613.5610695481513
 30
0.0
 11
35.70636828890425
 21
613.5370807680401
 31
0.0
  0
LINE
  5
29B
  8
0
  6
CONTINUOUS
 62
     7
 10
35.70636828890428
 20
613.5370807680401
 30
0.0
 11
35.68417626292204
 21
613.5114389564754
 31
0.0
  0
LINE
  5
29C
  8
0
  6
CONTINUOUS
 62
     7
 10
35.68417626292203
 20
613.5114389564754
 30
0.0
 11
35.66307335668827
 21
613.4848577453172
 31
0.0
  0
LINE
  5
29D
  8
0
  6
CONTINUOUS
 62
     7
 10
35.66307335668828
 20
613.4848577453172
 30
0.0
 11
35.6431156299213
 21
613.4574118464451
 31
0.0
  0
LINE
  5
29E
  8
0
  6
CONTINUOUS
 62
     7
 10
35.64311562992128
 20
613.4574118464451
 30
0.0
 11
35.62435914233826
 21
613.4291759717374
 31
0.0
  0
LINE
  5
29F
  8
0
  6
CONTINUOUS
 62
     7
 10
35.62435914233824
 20
613.4291759717374
 30
0.0
 11
35.60734869500625
 21
613.4010832704041
 31
0.0
  0
LINE
  5
2A0
  8
0
  6
CONTINUOUS
 62
     7
 10
35.60734869500626
 20
613.4010832704041
 30
0.0
 11
35.59149565358277
 21
613.3722983798027
 31
0.0
  0
LINE
  5
2A1
  8
0
  6
CONTINUOUS
 62
     7
 10
35.59149565358277
 20
613.3722983798027
 30
0.0
 11
35.57683827965676
 21
613.3428966539549
 31
0.0
  0
LINE
  5
2A2
  8
0
  6
CONTINUOUS
 62
     7
 10
35.57683827965674
 20
613.3428966539549
 30
0.0
 11
35.563414834817
 21
613.3129534468831
 31
0.0
  0
LINE
  5
2A3
  8
0
  6
CONTINUOUS
 62
     7
 10
35.56341483481701
 20
613.312953446883
 30
0.0
 11
35.55090779710301
 21
613.2816094187265
 31
0.0
  0
LINE
  5
2A4
  8
0
  6
CONTINUOUS
 62
     7
 10
35.55090779710302
 20
613.2816094187265
 30
0.0
 11
35.53972766158401
 21
613.2497490787332
 31
0.0
  0
LINE
  5
2A5
  8
0
  6
CONTINUOUS
 62
     7
 10
35.53972766158403
 20
613.2497490787332
 30
0.0
 11
35.52990117431202
 21
613.2174595741142
 31
0.0
  0
LINE
  5
2A6
  8
0
  6
CONTINUOUS
 62
     7
 10
35.52990117431198
 20
613.2174595741142
 30
0.0
 11
35.52145508133926
 21
613.1848280520799
 31
0.0
  0
LINE
  5
2A7
  8
0
  6
CONTINUOUS
 62
     7
 10
35.5214550813393
 20
613.18482805208
 30
0.0
 11
35.51376117198128
 21
613.1485002004755
 31
0.0
  0
LINE
  5
2A8
  8
0
  6
CONTINUOUS
 62
     7
 10
35.51376117198124
 20
613.1485002004755
 30
0.0
 11
35.50775748919675
 21
613.1118132720256
 31
0.0
  0
LINE
  5
2A9
  8
0
  6
CONTINUOUS
 62
     7
 10
35.50775748919677
 20
613.1118132720256
 30
0.0
 11
35.50345525295752
 21
613.07488706052
 31
0.0
  0
LINE
  5
2AA
  8
0
  6
CONTINUOUS
 62
     7
 10
35.50345525295751
 20
613.07488706052
 30
0.0
 11
35.50086568323451
 21
613.037841359748
 31
0.0
  0
LINE
  5
2AB
  8
0
  6
CONTINUOUS
 62
     7
 10
35.50086568323452
 20
613.037841359748
 30
0.0
 11
35.50000000000001
 21
613.0007959634992
 31
0.0
  0
LINE
  5
2AC
  8
0
  6
CONTINUOUS
 62
     7
 10
32.62565965165748
 20
614.8007959634994
 30
0.0
 11
33.70000000000002
 21
614.8007959634994
 31
0.0
  0
ARC
  5
2AD
  8
0
  6
CONTINUOUS
 62
     7
 10
35.00000000000003
 20
614.3007959634991
 30
0.0
 40
2.426415481686428
 50
168.1081330215422
 51
191.8918669784578
  0
LINE
  5
2AE
  8
0
  6
CONTINUOUS
 62
     7
 10
33.70000000000001
 20
613.8007959634992
 30
0.0
 11
32.62565965165747
 21
613.8007959634992
 31
0.0
  0
LINE
  5
2AF
  8
0
  6
CONTINUOUS
 62
     7
 10
34.49999999999997
 20
613.0007959634992
 30
0.0
 11
34.49931892561125
 21
613.033736303577
 31
0.0
  0
LINE
  5
2B0
  8
0
  6
CONTINUOUS
 62
     7
 10
34.49931892561126
 20
613.033736303577
 30
0.0
 11
34.49727903613152
 21
613.0666647081401
 31
0.0
  0
LINE
  5
2B1
  8
0
  6
CONTINUOUS
 62
     7
 10
34.49727903613153
 20
613.0666647081401
 30
0.0
 11
34.49388533208975
 21
613.0994969984524
 31
0.0
  0
LINE
  5
2B2
  8
0
  6
CONTINUOUS
 62
     7
 10
34.49388533208975
 20
613.0994969984525
 30
0.0
 11
34.489142814015
 21
613.1321489957768
 31
0.0
  0
LINE
  5
2B3
  8
0
  6
CONTINUOUS
 62
     7
 10
34.489142814015
 20
613.1321489957768
 30
0.0
 11
34.48285402351501
 21
613.1655223443266
 31
0.0
  0
LINE
  5
2B4
  8
0
  6
CONTINUOUS
 62
     7
 10
34.48285402351503
 20
613.1655223443266
 30
0.0
 11
34.47514359677177
 21
613.1986440758834
 31
0.0
  0
LINE
  5
2B5
  8
0
  6
CONTINUOUS
 62
     7
 10
34.47514359677179
 20
613.1986440758834
 30
0.0
 11
34.46603269525001
 21
613.2314236213123
 31
0.0
  0
LINE
  5
2B6
  8
0
  6
CONTINUOUS
 62
     7
 10
34.46603269525
 20
613.2314236213122
 30
0.0
 11
34.4555424804145
 21
613.2637704114767
 31
0.0
  0
LINE
  5
2B7
  8
0
  6
CONTINUOUS
 62
     7
 10
34.45554248041449
 20
613.2637704114767
 30
0.0
 11
34.44401734383926
 21
613.2947922505691
 31
0.0
  0
LINE
  5
2B8
  8
0
  6
CONTINUOUS
 62
     7
 10
34.44401734383928
 20
613.2947922505691
 30
0.0
 11
34.43120310388927
 21
613.325348334792
 31
0.0
  0
LINE
  5
2B9
  8
0
  6
CONTINUOUS
 62
     7
 10
34.43120310388925
 20
613.325348334792
 30
0.0
 11
34.41713364253579
 21
613.3553590272826
 31
0.0
  0
LINE
  5
2BA
  8
0
  6
CONTINUOUS
 62
     7
 10
34.41713364253579
 20
613.3553590272825
 30
0.0
 11
34.40184284174951
 21
613.3847446911767
 31
0.0
  0
LINE
  5
2BB
  8
0
  6
CONTINUOUS
 62
     7
 10
34.40184284174952
 20
613.3847446911767
 30
0.0
 11
34.38483559987502
 21
613.4143116542579
 31
0.0
  0
LINE
  5
2BC
  8
0
  6
CONTINUOUS
 62
     7
 10
34.38483559987504
 20
613.4143116542579
 30
0.0
 11
34.36656204738529
 21
613.4431602825575
 31
0.0
  0
LINE
  5
2BD
  8
0
  6
CONTINUOUS
 62
     7
 10
34.36656204738525
 20
613.4431602825575
 30
0.0
 11
34.34707406046002
 21
613.471210873399
 31
0.0
  0
LINE
  5
2BE
  8
0
  6
CONTINUOUS
 62
     7
 10
34.34707406046
 20
613.4712108733991
 30
0.0
 11
34.32642351527972
 21
613.498383724105
 31
0.0
  0
LINE
  5
2BF
  8
0
  6
CONTINUOUS
 62
     7
 10
34.32642351527976
 20
613.4983837241049
 30
0.0
 11
34.30540156329552
 21
613.5237535201683
 31
0.0
  0
LINE
  5
2C0
  8
0
  6
CONTINUOUS
 62
     7
 10
34.30540156329553
 20
613.5237535201683
 30
0.0
 11
34.28333204532831
 21
613.5482592082592
 31
0.0
  0
LINE
  5
2C1
  8
0
  6
CONTINUOUS
 62
     7
 10
34.28333204532829
 20
613.5482592082592
 30
0.0
 11
34.26027358465203
 21
613.5718381418955
 31
0.0
  0
LINE
  5
2C2
  8
0
  6
CONTINUOUS
 62
     7
 10
34.260273584652
 20
613.5718381418955
 30
0.0
 11
34.23628480454098
 21
613.594427674595
 31
0.0
  0
LINE
  5
2C3
  8
0
  6
CONTINUOUS
 62
     7
 10
34.23628480454099
 20
613.5944276745951
 30
0.0
 11
34.21064299297603
 21
613.6166197005773
 31
0.0
  0
LINE
  5
2C4
  8
0
  6
CONTINUOUS
 62
     7
 10
34.21064299297605
 20
613.6166197005772
 30
0.0
 11
34.18406178181804
 21
613.6377226068109
 31
0.0
  0
LINE
  5
2C5
  8
0
  6
CONTINUOUS
 62
     7
 10
34.18406178181804
 20
613.637722606811
 30
0.0
 11
34.15661588294579
 21
613.6576803335784
 31
0.0
  0
LINE
  5
2C6
  8
0
  6
CONTINUOUS
 62
     7
 10
34.15661588294577
 20
613.6576803335782
 30
0.0
 11
34.12838000823801
 21
613.6764368211612
 31
0.0
  0
LINE
  5
2C7
  8
0
  6
CONTINUOUS
 62
     7
 10
34.12838000823803
 20
613.6764368211612
 30
0.0
 11
34.10028730690503
 21
613.6934472684932
 31
0.0
  0
LINE
  5
2C8
  8
0
  6
CONTINUOUS
 62
     7
 10
34.10028730690501
 20
613.6934472684932
 30
0.0
 11
34.07150241630353
 21
613.7093003099167
 31
0.0
  0
LINE
  5
2C9
  8
0
  6
CONTINUOUS
 62
     7
 10
34.07150241630352
 20
613.7093003099168
 30
0.0
 11
34.04210069045576
 21
613.7239576838426
 31
0.0
  0
LINE
  5
2CA
  8
0
  6
CONTINUOUS
 62
     7
 10
34.04210069045577
 20
613.7239576838426
 30
0.0
 11
34.0121574833835
 21
613.7373811286823
 31
0.0
  0
LINE
  5
2CB
  8
0
  6
CONTINUOUS
 62
     7
 10
34.01215748338349
 20
613.7373811286823
 30
0.0
 11
33.98081345522726
 21
613.7498881663962
 31
0.0
  0
LINE
  5
2CC
  8
0
  6
CONTINUOUS
 62
     7
 10
33.9808134552273
 20
613.7498881663962
 30
0.0
 11
33.94895311523403
 21
613.7610683019152
 31
0.0
  0
LINE
  5
2CD
  8
0
  6
CONTINUOUS
 62
     7
 10
33.94895311523399
 20
613.7610683019152
 30
0.0
 11
33.91666361061474
 21
613.7708947891871
 31
0.0
  0
LINE
  5
2CE
  8
0
  6
CONTINUOUS
 62
     7
 10
33.91666361061474
 20
613.7708947891872
 30
0.0
 11
33.88403208858075
 21
613.7793408821602
 31
0.0
  0
LINE
  5
2CF
  8
0
  6
CONTINUOUS
 62
     7
 10
33.88403208858076
 20
613.7793408821602
 30
0.0
 11
33.84770423697626
 21
613.7870347915182
 31
0.0
  0
LINE
  5
2D0
  8
0
  6
CONTINUOUS
 62
     7
 10
33.84770423697625
 20
613.7870347915182
 30
0.0
 11
33.81101730852651
 21
613.7930384743024
 31
0.0
  0
LINE
  5
2D1
  8
0
  6
CONTINUOUS
 62
     7
 10
33.81101730852654
 20
613.7930384743024
 30
0.0
 11
33.77409109702079
 21
613.7973407105419
 31
0.0
  0
LINE
  5
2D2
  8
0
  6
CONTINUOUS
 62
     7
 10
33.77409109702079
 20
613.7973407105419
 30
0.0
 11
33.73704539624877
 21
613.7999302802646
 31
0.0
  0
LINE
  5
2D3
  8
0
  6
CONTINUOUS
 62
     7
 10
33.73704539624877
 20
613.7999302802646
 30
0.0
 11
33.70000000000005
 21
613.8007959634991
 31
0.0
  0
LINE
  5
2D4
  8
0
  6
CONTINUOUS
 62
     7
 10
34.49999999999997
 20
611.1343867893339
 30
0.0
 11
34.49999999999997
 21
613.0007959634991
 31
0.0
  0
LINE
  5
2D5
  8
0
  6
CONTINUOUS
 62
     7
 10
34.49999999999997
 20
615.6007959634992
 30
0.0
 11
34.49999999999997
 21
617.4672051376643
 31
0.0
  0
LINE
  5
2D6
  8
0
  6
CONTINUOUS
 62
     7
 10
33.70000000000001
 20
614.8007959634994
 30
0.0
 11
33.73294034007774
 21
614.8014770378879
 31
0.0
  0
LINE
  5
2D7
  8
0
  6
CONTINUOUS
 62
     7
 10
33.73294034007779
 20
614.8014770378879
 30
0.0
 11
33.76586874464103
 21
614.8035169273678
 31
0.0
  0
LINE
  5
2D8
  8
0
  6
CONTINUOUS
 62
     7
 10
33.76586874464099
 20
614.8035169273678
 30
0.0
 11
33.79870103495323
 21
614.8069106314098
 31
0.0
  0
LINE
  5
2D9
  8
0
  6
CONTINUOUS
 62
     7
 10
33.79870103495325
 20
614.8069106314097
 30
0.0
 11
33.83135303227752
 21
614.8116531494842
 31
0.0
  0
LINE
  5
2DA
  8
0
  6
CONTINUOUS
 62
     7
 10
33.83135303227752
 20
614.8116531494842
 30
0.0
 11
33.86472638082729
 21
614.8179419399843
 31
0.0
  0
LINE
  5
2DB
  8
0
  6
CONTINUOUS
 62
     7
 10
33.86472638082727
 20
614.8179419399844
 30
0.0
 11
33.89784811238423
 21
614.8256523667275
 31
0.0
  0
LINE
  5
2DC
  8
0
  6
CONTINUOUS
 62
     7
 10
33.89784811238427
 20
614.8256523667274
 30
0.0
 11
33.93062765781278
 21
614.8347632682492
 31
0.0
  0
LINE
  5
2DD
  8
0
  6
CONTINUOUS
 62
     7
 10
33.93062765781274
 20
614.8347632682493
 30
0.0
 11
33.9629744479775
 21
614.8452534830848
 31
0.0
  0
LINE
  5
2DE
  8
0
  6
CONTINUOUS
 62
     7
 10
33.96297444797752
 20
614.8452534830848
 30
0.0
 11
33.99399628706975
 21
614.8567786196601
 31
0.0
  0
LINE
  5
2DF
  8
0
  6
CONTINUOUS
 62
     7
 10
33.99399628706973
 20
614.8567786196601
 30
0.0
 11
34.02455237129298
 21
614.86959285961
 31
0.0
  0
LINE
  5
2E0
  8
0
  6
CONTINUOUS
 62
     7
 10
34.02455237129298
 20
614.86959285961
 30
0.0
 11
34.05456306378352
 21
614.8836623209635
 31
0.0
  0
LINE
  5
2E1
  8
0
  6
CONTINUOUS
 62
     7
 10
34.05456306378352
 20
614.8836623209635
 30
0.0
 11
34.08394872767753
 21
614.89895312175
 31
0.0
  0
LINE
  5
2E2
  8
0
  6
CONTINUOUS
 62
     7
 10
34.08394872767756
 20
614.8989531217499
 30
0.0
 11
34.1135156907588
 21
614.9159603636243
 31
0.0
  0
LINE
  5
2E3
  8
0
  6
CONTINUOUS
 62
     7
 10
34.11351569075877
 20
614.9159603636244
 30
0.0
 11
34.14236431905825
 21
614.9342339161142
 31
0.0
  0
LINE
  5
2E4
  8
0
  6
CONTINUOUS
 62
     7
 10
34.14236431905826
 20
614.9342339161141
 30
0.0
 11
34.17041490989975
 21
614.9537219030393
 31
0.0
  0
LINE
  5
2E5
  8
0
  6
CONTINUOUS
 62
     7
 10
34.17041490989975
 20
614.9537219030393
 30
0.0
 11
34.19758776060576
 21
614.9743724482194
 31
0.0
  0
LINE
  5
2E6
  8
0
  6
CONTINUOUS
 62
     7
 10
34.19758776060577
 20
614.9743724482194
 30
0.0
 11
34.22295755666905
 21
614.9953944002036
 31
0.0
  0
LINE
  5
2E7
  8
0
  6
CONTINUOUS
 62
     7
 10
34.22295755666904
 20
614.9953944002037
 30
0.0
 11
34.24746324476002
 21
615.0174639181711
 31
0.0
  0
LINE
  5
2E8
  8
0
  6
CONTINUOUS
 62
     7
 10
34.24746324476002
 20
615.017463918171
 30
0.0
 11
34.27104217839651
 21
615.0405223788473
 31
0.0
  0
LINE
  5
2E9
  8
0
  6
CONTINUOUS
 62
     7
 10
34.27104217839649
 20
615.0405223788473
 30
0.0
 11
34.29363171109576
 21
615.0645111589583
 31
0.0
  0
LINE
  5
2EA
  8
0
  6
CONTINUOUS
 62
     7
 10
34.29363171109578
 20
615.0645111589582
 30
0.0
 11
34.31582373707803
 21
615.090152970523
 31
0.0
  0
LINE
  5
2EB
  8
0
  6
CONTINUOUS
 62
     7
 10
34.31582373707803
 20
615.0901529705231
 30
0.0
 11
34.33692664331179
 21
615.1167341816812
 31
0.0
  0
LINE
  5
2EC
  8
0
  6
CONTINUOUS
 62
     7
 10
34.33692664331178
 20
615.1167341816811
 30
0.0
 11
34.35688437007904
 21
615.1441800805535
 31
0.0
  0
LINE
  5
2ED
  8
0
  6
CONTINUOUS
 62
     7
 10
34.356884370079
 20
615.1441800805535
 30
0.0
 11
34.37564085766174
 21
615.1724159552612
 31
0.0
  0
LINE
  5
2EE
  8
0
  6
CONTINUOUS
 62
     7
 10
34.37564085766176
 20
615.1724159552612
 30
0.0
 11
34.392651304994
 21
615.2005086565941
 31
0.0
  0
LINE
  5
2EF
  8
0
  6
CONTINUOUS
 62
     7
 10
34.39265130499403
 20
615.2005086565941
 30
0.0
 11
34.40850434641751
 21
615.2292935471957
 31
0.0
  0
LINE
  5
2F0
  8
0
  6
CONTINUOUS
 62
     7
 10
34.40850434641751
 20
615.2292935471957
 30
0.0
 11
34.42316172034352
 21
615.2586952730435
 31
0.0
  0
LINE
  5
2F1
  8
0
  6
CONTINUOUS
 62
     7
 10
34.42316172034349
 20
615.2586952730434
 30
0.0
 11
34.43658516518302
 21
615.2886384801157
 31
0.0
  0
LINE
  5
2F2
  8
0
  6
CONTINUOUS
 62
     7
 10
34.43658516518305
 20
615.2886384801158
 30
0.0
 11
34.44909220289702
 21
615.319982508272
 31
0.0
  0
LINE
  5
2F3
  8
0
  6
CONTINUOUS
 62
     7
 10
34.44909220289699
 20
615.319982508272
 30
0.0
 11
34.460272338416
 21
615.3518428482652
 31
0.0
  0
LINE
  5
2F4
  8
0
  6
CONTINUOUS
 62
     7
 10
34.46027233841603
 20
615.3518428482652
 30
0.0
 11
34.47009882568803
 21
615.3841323528842
 31
0.0
  0
LINE
  5
2F5
  8
0
  6
CONTINUOUS
 62
     7
 10
34.47009882568802
 20
615.3841323528842
 30
0.0
 11
34.47854491866078
 21
615.4167638749186
 31
0.0
  0
LINE
  5
2F6
  8
0
  6
CONTINUOUS
 62
     7
 10
34.47854491866076
 20
615.4167638749186
 30
0.0
 11
34.48623882801875
 21
615.4530917265231
 31
0.0
  0
LINE
  5
2F7
  8
0
  6
CONTINUOUS
 62
     7
 10
34.48623882801876
 20
615.4530917265231
 30
0.0
 11
34.49224251080326
 21
615.4897786549726
 31
0.0
  0
LINE
  5
2F8
  8
0
  6
CONTINUOUS
 62
     7
 10
34.49224251080324
 20
615.4897786549726
 30
0.0
 11
34.49654474704275
 21
615.5267048664786
 31
0.0
  0
LINE
  5
2F9
  8
0
  6
CONTINUOUS
 62
     7
 10
34.49654474704278
 20
615.5267048664786
 30
0.0
 11
34.4991343167655
 21
615.5637505672508
 31
0.0
  0
LINE
  5
2FA
  8
0
  6
CONTINUOUS
 62
     7
 10
34.49913431676549
 20
615.5637505672507
 30
0.0
 11
34.49999999999999
 21
615.6007959634992
 31
0.0
  0
LINE
  5
2FB
  8
0
  6
CONTINUOUS
 62
     7
 10
34.49999999999997
 20
618.6442471734331
 30
0.0
 11
34.49999999999997
 21
617.4672051376645
 31
0.0
  0
LINE
  5
2FC
  8
0
  6
CONTINUOUS
 62
     7
 10
34.49999999999997
 20
611.1343867893339
 30
0.0
 11
34.49999999999997
 21
609.9573447535652
 31
0.0
  0
LINE
  5
2FD
  8
0
  6
CONTINUOUS
 62
     7
 10
35.50000000000003
 20
609.9573447535653
 30
0.0
 11
35.50000000000003
 21
611.134386789334
 31
0.0
  0
LINE
  5
2FE
  8
0
  6
CONTINUOUS
 62
     7
 10
35.50000000000003
 20
617.4672051376645
 30
0.0
 11
35.50000000000003
 21
618.6442471734367
 31
0.0
  0
ARC
  5
2FF
  8
0
  6
CONTINUOUS
 62
     7
 10
35.00000000000003
 20
614.3007959634991
 30
0.0
 40
4.412511336474023
 50
263.493602285612
 51
276.5063977143879
  0
ARC
  5
300
  8
0
  6
CONTINUOUS
 62
     7
 10
35.00000000000003
 20
614.3007959634991
 30
0.0
 40
4.412511336474023
 50
83.49360228561206
 51
96.50639771438794
  0
ARC
  5
301
  8
0
  6
CONTINUOUS
 62
     7
 10
35.00000000000003
 20
614.3007959634991
 30
0.0
 40
1.403262301477082
 50
249.1260896468198
 51
290.8739103531802
  0
ARC
  5
302
  8
0
  6
CONTINUOUS
 62
     7
 10
35.00000000000003
 20
614.3007959634991
 30
0.0
 40
1.403262301477082
 50
69.12608964681979
 51
110.8739103531802
  0
LINE
  5
303
  8
0
  6
CONTINUOUS
 62
     7
 10
139.7
 20
507.8007959634992
 30
0.0
 11
137.8335908258348
 21
507.8007959634992
 31
0.0
  0
LINE
  5
304
  8
0
  6
CONTINUOUS
 62
     7
 10
140.5
 20
507.0007959634992
 30
0.0
 11
140.4993189256114
 21
507.0337363035769
 31
0.0
  0
LINE
  5
305
  8
0
  6
CONTINUOUS
 62
     7
 10
140.4993189256114
 20
507.0337363035769
 30
0.0
 11
140.4972790361316
 21
507.0666647081402
 31
0.0
  0
LINE
  5
306
  8
0
  6
CONTINUOUS
 62
     7
 10
140.4972790361316
 20
507.0666647081402
 30
0.0
 11
140.4938853320897
 21
507.0994969984525
 31
0.0
  0
LINE
  5
307
  8
0
  6
CONTINUOUS
 62
     7
 10
140.4938853320897
 20
507.0994969984525
 30
0.0
 11
140.489142814015
 21
507.1321489957767
 31
0.0
  0
LINE
  5
308
  8
0
  6
CONTINUOUS
 62
     7
 10
140.489142814015
 20
507.1321489957767
 30
0.0
 11
140.482854023515
 21
507.1655223443267
 31
0.0
  0
LINE
  5
309
  8
0
  6
CONTINUOUS
 62
     7
 10
140.482854023515
 20
507.1655223443267
 30
0.0
 11
140.4751435967718
 21
507.1986440758835
 31
0.0
  0
LINE
  5
30A
  8
0
  6
CONTINUOUS
 62
     7
 10
140.4751435967718
 20
507.1986440758834
 30
0.0
 11
140.4660326952501
 21
507.2314236213119
 31
0.0
  0
LINE
  5
30B
  8
0
  6
CONTINUOUS
 62
     7
 10
140.46603269525
 20
507.231423621312
 30
0.0
 11
140.4555424804145
 21
507.2637704114769
 31
0.0
  0
LINE
  5
30C
  8
0
  6
CONTINUOUS
 62
     7
 10
140.4555424804145
 20
507.2637704114767
 30
0.0
 11
140.4440173438393
 21
507.2947922505689
 31
0.0
  0
LINE
  5
30D
  8
0
  6
CONTINUOUS
 62
     7
 10
140.4440173438393
 20
507.2947922505689
 30
0.0
 11
140.4312031038892
 21
507.3253483347922
 31
0.0
  0
LINE
  5
30E
  8
0
  6
CONTINUOUS
 62
     7
 10
140.4312031038892
 20
507.3253483347922
 30
0.0
 11
140.4171336425358
 21
507.3553590272826
 31
0.0
  0
LINE
  5
30F
  8
0
  6
CONTINUOUS
 62
     7
 10
140.4171336425358
 20
507.3553590272826
 30
0.0
 11
140.4018428417493
 21
507.3847446911766
 31
0.0
  0
LINE
  5
310
  8
0
  6
CONTINUOUS
 62
     7
 10
140.4018428417493
 20
507.3847446911768
 30
0.0
 11
140.384835599875
 21
507.4143116542581
 31
0.0
  0
LINE
  5
311
  8
0
  6
CONTINUOUS
 62
     7
 10
140.384835599875
 20
507.414311654258
 30
0.0
 11
140.3665620473853
 21
507.4431602825576
 31
0.0
  0
LINE
  5
312
  8
0
  6
CONTINUOUS
 62
     7
 10
140.3665620473853
 20
507.4431602825578
 30
0.0
 11
140.34707406046
 21
507.4712108733991
 31
0.0
  0
LINE
  5
313
  8
0
  6
CONTINUOUS
 62
     7
 10
140.34707406046
 20
507.4712108733989
 30
0.0
 11
140.3264235152798
 21
507.4983837241049
 31
0.0
  0
LINE
  5
314
  8
0
  6
CONTINUOUS
 62
     7
 10
140.3264235152798
 20
507.4983837241049
 30
0.0
 11
140.3054015632958
 21
507.5237535201682
 31
0.0
  0
LINE
  5
315
  8
0
  6
CONTINUOUS
 62
     7
 10
140.3054015632957
 20
507.5237535201683
 30
0.0
 11
140.2833320453282
 21
507.5482592082592
 31
0.0
  0
LINE
  5
316
  8
0
  6
CONTINUOUS
 62
     7
 10
140.2833320453283
 20
507.5482592082592
 30
0.0
 11
140.260273584652
 21
507.5718381418957
 31
0.0
  0
LINE
  5
317
  8
0
  6
CONTINUOUS
 62
     7
 10
140.260273584652
 20
507.5718381418957
 30
0.0
 11
140.236284804541
 21
507.5944276745951
 31
0.0
  0
LINE
  5
318
  8
0
  6
CONTINUOUS
 62
     7
 10
140.236284804541
 20
507.594427674595
 30
0.0
 11
140.210642992976
 21
507.6166197005771
 31
0.0
  0
LINE
  5
319
  8
0
  6
CONTINUOUS
 62
     7
 10
140.210642992976
 20
507.6166197005772
 30
0.0
 11
140.184061781818
 21
507.6377226068111
 31
0.0
  0
LINE
  5
31A
  8
0
  6
CONTINUOUS
 62
     7
 10
140.184061781818
 20
507.6377226068109
 30
0.0
 11
140.1566158829458
 21
507.6576803335781
 31
0.0
  0
LINE
  5
31B
  8
0
  6
CONTINUOUS
 62
     7
 10
140.1566158829458
 20
507.6576803335781
 30
0.0
 11
140.128380008238
 21
507.676436821161
 31
0.0
  0
LINE
  5
31C
  8
0
  6
CONTINUOUS
 62
     7
 10
140.128380008238
 20
507.676436821161
 30
0.0
 11
140.100287306905
 21
507.6934472684933
 31
0.0
  0
LINE
  5
31D
  8
0
  6
CONTINUOUS
 62
     7
 10
140.100287306905
 20
507.6934472684933
 30
0.0
 11
140.0715024163035
 21
507.7093003099168
 31
0.0
  0
LINE
  5
31E
  8
0
  6
CONTINUOUS
 62
     7
 10
140.0715024163035
 20
507.7093003099167
 30
0.0
 11
140.0421006904558
 21
507.7239576838427
 31
0.0
  0
LINE
  5
31F
  8
0
  6
CONTINUOUS
 62
     7
 10
140.0421006904558
 20
507.7239576838428
 30
0.0
 11
140.0121574833836
 21
507.7373811286823
 31
0.0
  0
LINE
  5
320
  8
0
  6
CONTINUOUS
 62
     7
 10
140.0121574833836
 20
507.7373811286822
 30
0.0
 11
139.9808134552273
 21
507.7498881663964
 31
0.0
  0
LINE
  5
321
  8
0
  6
CONTINUOUS
 62
     7
 10
139.9808134552273
 20
507.7498881663964
 30
0.0
 11
139.948953115234
 21
507.7610683019151
 31
0.0
  0
LINE
  5
322
  8
0
  6
CONTINUOUS
 62
     7
 10
139.948953115234
 20
507.7610683019153
 30
0.0
 11
139.9166636106148
 21
507.7708947891873
 31
0.0
  0
LINE
  5
323
  8
0
  6
CONTINUOUS
 62
     7
 10
139.9166636106148
 20
507.7708947891873
 30
0.0
 11
139.8840320885808
 21
507.7793408821602
 31
0.0
  0
LINE
  5
324
  8
0
  6
CONTINUOUS
 62
     7
 10
139.8840320885807
 20
507.7793408821602
 30
0.0
 11
139.8477042369763
 21
507.7870347915181
 31
0.0
  0
LINE
  5
325
  8
0
  6
CONTINUOUS
 62
     7
 10
139.8477042369763
 20
507.7870347915182
 30
0.0
 11
139.8110173085265
 21
507.7930384743025
 31
0.0
  0
LINE
  5
326
  8
0
  6
CONTINUOUS
 62
     7
 10
139.8110173085265
 20
507.7930384743025
 30
0.0
 11
139.7740910970207
 21
507.797340710542
 31
0.0
  0
LINE
  5
327
  8
0
  6
CONTINUOUS
 62
     7
 10
139.7740910970207
 20
507.797340710542
 30
0.0
 11
139.7370453962488
 21
507.7999302802647
 31
0.0
  0
LINE
  5
328
  8
0
  6
CONTINUOUS
 62
     7
 10
139.7370453962488
 20
507.7999302802647
 30
0.0
 11
139.7
 21
507.8007959634992
 31
0.0
  0
LINE
  5
329
  8
0
  6
CONTINUOUS
 62
     7
 10
140.5
 20
505.9264556151567
 30
0.0
 11
140.5
 21
507.0007959634992
 31
0.0
  0
ARC
  5
32A
  8
0
  6
CONTINUOUS
 62
     7
 10
141.0
 20
508.3007959634992
 30
0.0
 40
2.426415481686428
 50
258.1081330215422
 51
281.8918669784578
  0
LINE
  5
32B
  8
0
  6
CONTINUOUS
 62
     7
 10
141.4999999999999
 20
507.0007959634992
 30
0.0
 11
141.4999999999999
 21
505.9264556151567
 31
0.0
  0
LINE
  5
32C
  8
0
  6
CONTINUOUS
 62
     7
 10
142.3
 20
507.8007959634992
 30
0.0
 11
142.2670596599222
 21
507.8001148891108
 31
0.0
  0
LINE
  5
32D
  8
0
  6
CONTINUOUS
 62
     7
 10
142.2670596599223
 20
507.8001148891108
 30
0.0
 11
142.234131255359
 21
507.7980749996308
 31
0.0
  0
LINE
  5
32E
  8
0
  6
CONTINUOUS
 62
     7
 10
142.234131255359
 20
507.7980749996307
 30
0.0
 11
142.2012989650467
 21
507.7946812955889
 31
0.0
  0
LINE
  5
32F
  8
0
  6
CONTINUOUS
 62
     7
 10
142.2012989650467
 20
507.794681295589
 30
0.0
 11
142.1686469677225
 21
507.7899387775142
 31
0.0
  0
LINE
  5
330
  8
0
  6
CONTINUOUS
 62
     7
 10
142.1686469677225
 20
507.7899387775142
 30
0.0
 11
142.1352736191727
 21
507.7836499870143
 31
0.0
  0
LINE
  5
331
  8
0
  6
CONTINUOUS
 62
     7
 10
142.1352736191727
 20
507.7836499870143
 30
0.0
 11
142.1021518876158
 21
507.775939560271
 31
0.0
  0
LINE
  5
332
  8
0
  6
CONTINUOUS
 62
     7
 10
142.1021518876158
 20
507.7759395602709
 30
0.0
 11
142.0693723421873
 21
507.7668286587494
 31
0.0
  0
LINE
  5
333
  8
0
  6
CONTINUOUS
 62
     7
 10
142.0693723421873
 20
507.7668286587495
 30
0.0
 11
142.0370255520225
 21
507.7563384439138
 31
0.0
  0
LINE
  5
334
  8
0
  6
CONTINUOUS
 62
     7
 10
142.0370255520225
 20
507.7563384439136
 30
0.0
 11
142.0060037129303
 21
507.7448133073385
 31
0.0
  0
LINE
  5
335
  8
0
  6
CONTINUOUS
 62
     7
 10
142.0060037129303
 20
507.7448133073385
 30
0.0
 11
141.9754476287073
 21
507.7319990673886
 31
0.0
  0
LINE
  5
336
  8
0
  6
CONTINUOUS
 62
     7
 10
141.9754476287073
 20
507.7319990673888
 30
0.0
 11
141.9454369362165
 21
507.717929606035
 31
0.0
  0
LINE
  5
337
  8
0
  6
CONTINUOUS
 62
     7
 10
141.9454369362165
 20
507.717929606035
 30
0.0
 11
141.9160512723225
 21
507.7026388052488
 31
0.0
  0
LINE
  5
338
  8
0
  6
CONTINUOUS
 62
     7
 10
141.9160512723225
 20
507.7026388052487
 30
0.0
 11
141.8864843092415
 21
507.6856315633742
 31
0.0
  0
LINE
  5
339
  8
0
  6
CONTINUOUS
 62
     7
 10
141.8864843092415
 20
507.6856315633742
 30
0.0
 11
141.8576356809417
 21
507.6673580108845
 31
0.0
  0
LINE
  5
33A
  8
0
  6
CONTINUOUS
 62
     7
 10
141.8576356809417
 20
507.6673580108845
 30
0.0
 11
141.8295850901003
 21
507.6478700239594
 31
0.0
  0
LINE
  5
33B
  8
0
  6
CONTINUOUS
 62
     7
 10
141.8295850901004
 20
507.6478700239594
 30
0.0
 11
141.8024122393945
 21
507.627219478779
 31
0.0
  0
LINE
  5
33C
  8
0
  6
CONTINUOUS
 62
     7
 10
141.8024122393945
 20
507.627219478779
 30
0.0
 11
141.777042443331
 21
507.606197526795
 31
0.0
  0
LINE
  5
33D
  8
0
  6
CONTINUOUS
 62
     7
 10
141.777042443331
 20
507.606197526795
 30
0.0
 11
141.75253675524
 21
507.5841280088276
 31
0.0
  0
LINE
  5
33E
  8
0
  6
CONTINUOUS
 62
     7
 10
141.75253675524
 20
507.5841280088276
 30
0.0
 11
141.7289578216038
 21
507.5610695481513
 31
0.0
  0
LINE
  5
33F
  8
0
  6
CONTINUOUS
 62
     7
 10
141.7289578216038
 20
507.5610695481512
 30
0.0
 11
141.7063682889042
 21
507.5370807680403
 31
0.0
  0
LINE
  5
340
  8
0
  6
CONTINUOUS
 62
     7
 10
141.7063682889043
 20
507.5370807680403
 30
0.0
 11
141.684176262922
 21
507.5114389564756
 31
0.0
  0
LINE
  5
341
  8
0
  6
CONTINUOUS
 62
     7
 10
141.684176262922
 20
507.5114389564754
 30
0.0
 11
141.6630733566883
 21
507.4848577453171
 31
0.0
  0
LINE
  5
342
  8
0
  6
CONTINUOUS
 62
     7
 10
141.6630733566883
 20
507.4848577453171
 30
0.0
 11
141.643115629921
 21
507.457411846445
 31
0.0
  0
LINE
  5
343
  8
0
  6
CONTINUOUS
 62
     7
 10
141.643115629921
 20
507.457411846445
 30
0.0
 11
141.6243591423383
 21
507.4291759717375
 31
0.0
  0
LINE
  5
344
  8
0
  6
CONTINUOUS
 62
     7
 10
141.6243591423383
 20
507.4291759717374
 30
0.0
 11
141.607348695006
 21
507.4010832704041
 31
0.0
  0
LINE
  5
345
  8
0
  6
CONTINUOUS
 62
     7
 10
141.6073486950061
 20
507.4010832704042
 30
0.0
 11
141.5914956535828
 21
507.3722983798027
 31
0.0
  0
LINE
  5
346
  8
0
  6
CONTINUOUS
 62
     7
 10
141.5914956535827
 20
507.3722983798027
 30
0.0
 11
141.5768382796568
 21
507.3428966539549
 31
0.0
  0
LINE
  5
347
  8
0
  6
CONTINUOUS
 62
     7
 10
141.5768382796568
 20
507.3428966539549
 30
0.0
 11
141.563414834817
 21
507.3129534468829
 31
0.0
  0
LINE
  5
348
  8
0
  6
CONTINUOUS
 62
     7
 10
141.5634148348169
 20
507.312953446883
 30
0.0
 11
141.550907797103
 21
507.2816094187266
 31
0.0
  0
LINE
  5
349
  8
0
  6
CONTINUOUS
 62
     7
 10
141.550907797103
 20
507.2816094187265
 30
0.0
 11
141.539727661584
 21
507.2497490787332
 31
0.0
  0
LINE
  5
34A
  8
0
  6
CONTINUOUS
 62
     7
 10
141.539727661584
 20
507.2497490787332
 30
0.0
 11
141.529901174312
 21
507.2174595741142
 31
0.0
  0
LINE
  5
34B
  8
0
  6
CONTINUOUS
 62
     7
 10
141.529901174312
 20
507.2174595741142
 30
0.0
 11
141.5214550813393
 21
507.1848280520799
 31
0.0
  0
LINE
  5
34C
  8
0
  6
CONTINUOUS
 62
     7
 10
141.5214550813393
 20
507.1848280520799
 30
0.0
 11
141.5137611719813
 21
507.1485002004754
 31
0.0
  0
LINE
  5
34D
  8
0
  6
CONTINUOUS
 62
     7
 10
141.5137611719813
 20
507.1485002004754
 30
0.0
 11
141.5077574891968
 21
507.1118132720257
 31
0.0
  0
LINE
  5
34E
  8
0
  6
CONTINUOUS
 62
     7
 10
141.5077574891968
 20
507.1118132720257
 30
0.0
 11
141.5034552529575
 21
507.0748870605199
 31
0.0
  0
LINE
  5
34F
  8
0
  6
CONTINUOUS
 62
     7
 10
141.5034552529575
 20
507.0748870605199
 30
0.0
 11
141.5008656832347
 21
507.0378413597479
 31
0.0
  0
LINE
  5
350
  8
0
  6
CONTINUOUS
 62
     7
 10
141.5008656832347
 20
507.0378413597479
 30
0.0
 11
141.4999999999999
 21
507.0007959634992
 31
0.0
  0
LINE
  5
351
  8
0
  6
CONTINUOUS
 62
     7
 10
144.1664091741653
 20
507.8007959634992
 30
0.0
 11
142.3
 21
507.8007959634992
 31
0.0
  0
LINE
  5
352
  8
0
  6
CONTINUOUS
 62
     7
 10
141.4999999999999
 20
510.675136311842
 30
0.0
 11
141.4999999999999
 21
509.6007959634993
 31
0.0
  0
ARC
  5
353
  8
0
  6
CONTINUOUS
 62
     7
 10
141.0
 20
508.3007959634992
 30
0.0
 40
2.426415481686539
 50
78.10813302154226
 51
101.8918669784577
  0
LINE
  5
354
  8
0
  6
CONTINUOUS
 62
     7
 10
140.5
 20
509.6007959634993
 30
0.0
 11
140.5
 21
510.675136311842
 31
0.0
  0
LINE
  5
355
  8
0
  6
CONTINUOUS
 62
     7
 10
139.7
 20
508.8007959634992
 30
0.0
 11
139.7329403400777
 21
508.801477037888
 31
0.0
  0
LINE
  5
356
  8
0
  6
CONTINUOUS
 62
     7
 10
139.7329403400778
 20
508.801477037888
 30
0.0
 11
139.765868744641
 21
508.8035169273677
 31
0.0
  0
LINE
  5
357
  8
0
  6
CONTINUOUS
 62
     7
 10
139.765868744641
 20
508.8035169273677
 30
0.0
 11
139.7987010349532
 21
508.8069106314097
 31
0.0
  0
LINE
  5
358
  8
0
  6
CONTINUOUS
 62
     7
 10
139.7987010349532
 20
508.8069106314097
 30
0.0
 11
139.8313530322775
 21
508.8116531494842
 31
0.0
  0
LINE
  5
359
  8
0
  6
CONTINUOUS
 62
     7
 10
139.8313530322775
 20
508.8116531494842
 30
0.0
 11
139.8647263808275
 21
508.8179419399842
 31
0.0
  0
LINE
  5
35A
  8
0
  6
CONTINUOUS
 62
     7
 10
139.8647263808275
 20
508.8179419399842
 30
0.0
 11
139.8978481123842
 21
508.8256523667275
 31
0.0
  0
LINE
  5
35B
  8
0
  6
CONTINUOUS
 62
     7
 10
139.8978481123843
 20
508.8256523667275
 30
0.0
 11
139.9306276578128
 21
508.8347632682493
 31
0.0
  0
LINE
  5
35C
  8
0
  6
CONTINUOUS
 62
     7
 10
139.9306276578127
 20
508.8347632682493
 30
0.0
 11
139.9629744479774
 21
508.8452534830848
 31
0.0
  0
LINE
  5
35D
  8
0
  6
CONTINUOUS
 62
     7
 10
139.9629744479774
 20
508.8452534830847
 30
0.0
 11
139.9939962870696
 21
508.8567786196599
 31
0.0
  0
LINE
  5
35E
  8
0
  6
CONTINUOUS
 62
     7
 10
139.9939962870696
 20
508.85677861966
 30
0.0
 11
140.0245523712928
 21
508.86959285961
 31
0.0
  0
LINE
  5
35F
  8
0
  6
CONTINUOUS
 62
     7
 10
140.0245523712928
 20
508.86959285961
 30
0.0
 11
140.0545630637835
 21
508.8836623209635
 31
0.0
  0
LINE
  5
360
  8
0
  6
CONTINUOUS
 62
     7
 10
140.0545630637835
 20
508.8836623209635
 30
0.0
 11
140.0839487276776
 21
508.89895312175
 31
0.0
  0
LINE
  5
361
  8
0
  6
CONTINUOUS
 62
     7
 10
140.0839487276776
 20
508.89895312175
 30
0.0
 11
140.1135156907588
 21
508.9159603636245
 31
0.0
  0
LINE
  5
362
  8
0
  6
CONTINUOUS
 62
     7
 10
140.1135156907588
 20
508.9159603636244
 30
0.0
 11
140.1423643190582
 21
508.9342339161142
 31
0.0
  0
LINE
  5
363
  8
0
  6
CONTINUOUS
 62
     7
 10
140.1423643190582
 20
508.9342339161142
 30
0.0
 11
140.1704149098997
 21
508.9537219030392
 31
0.0
  0
LINE
  5
364
  8
0
  6
CONTINUOUS
 62
     7
 10
140.1704149098997
 20
508.9537219030392
 30
0.0
 11
140.1975877606058
 21
508.9743724482195
 31
0.0
  0
LINE
  5
365
  8
0
  6
CONTINUOUS
 62
     7
 10
140.1975877606058
 20
508.9743724482195
 30
0.0
 11
140.222957556669
 21
508.9953944002038
 31
0.0
  0
LINE
  5
366
  8
0
  6
CONTINUOUS
 62
     7
 10
140.222957556669
 20
508.9953944002037
 30
0.0
 11
140.24746324476
 21
509.0174639181709
 31
0.0
  0
LINE
  5
367
  8
0
  6
CONTINUOUS
 62
     7
 10
140.24746324476
 20
509.0174639181709
 30
0.0
 11
140.2710421783965
 21
509.0405223788472
 31
0.0
  0
LINE
  5
368
  8
0
  6
CONTINUOUS
 62
     7
 10
140.2710421783965
 20
509.0405223788472
 30
0.0
 11
140.2936317110957
 21
509.0645111589582
 31
0.0
  0
LINE
  5
369
  8
0
  6
CONTINUOUS
 62
     7
 10
140.2936317110958
 20
509.0645111589582
 30
0.0
 11
140.315823737078
 21
509.0901529705231
 31
0.0
  0
LINE
  5
36A
  8
0
  6
CONTINUOUS
 62
     7
 10
140.315823737078
 20
509.0901529705231
 30
0.0
 11
140.3369266433118
 21
509.1167341816811
 31
0.0
  0
LINE
  5
36B
  8
0
  6
CONTINUOUS
 62
     7
 10
140.3369266433118
 20
509.1167341816812
 30
0.0
 11
140.356884370079
 21
509.1441800805534
 31
0.0
  0
LINE
  5
36C
  8
0
  6
CONTINUOUS
 62
     7
 10
140.356884370079
 20
509.1441800805534
 30
0.0
 11
140.3756408576618
 21
509.1724159552612
 31
0.0
  0
LINE
  5
36D
  8
0
  6
CONTINUOUS
 62
     7
 10
140.3756408576619
 20
509.1724159552612
 30
0.0
 11
140.3926513049941
 21
509.2005086565943
 31
0.0
  0
LINE
  5
36E
  8
0
  6
CONTINUOUS
 62
     7
 10
140.3926513049941
 20
509.2005086565943
 30
0.0
 11
140.4085043464175
 21
509.2292935471958
 31
0.0
  0
LINE
  5
36F
  8
0
  6
CONTINUOUS
 62
     7
 10
140.4085043464175
 20
509.2292935471958
 30
0.0
 11
140.4231617203435
 21
509.2586952730438
 31
0.0
  0
LINE
  5
370
  8
0
  6
CONTINUOUS
 62
     7
 10
140.4231617203435
 20
509.2586952730438
 30
0.0
 11
140.436585165183
 21
509.2886384801156
 31
0.0
  0
LINE
  5
371
  8
0
  6
CONTINUOUS
 62
     7
 10
140.436585165183
 20
509.2886384801156
 30
0.0
 11
140.449092202897
 21
509.3199825082719
 31
0.0
  0
LINE
  5
372
  8
0
  6
CONTINUOUS
 62
     7
 10
140.449092202897
 20
509.3199825082719
 30
0.0
 11
140.460272338416
 21
509.3518428482652
 31
0.0
  0
LINE
  5
373
  8
0
  6
CONTINUOUS
 62
     7
 10
140.460272338416
 20
509.3518428482653
 30
0.0
 11
140.470098825688
 21
509.3841323528845
 31
0.0
  0
LINE
  5
374
  8
0
  6
CONTINUOUS
 62
     7
 10
140.4700988256881
 20
509.3841323528845
 30
0.0
 11
140.478544918661
 21
509.4167638749187
 31
0.0
  0
LINE
  5
375
  8
0
  6
CONTINUOUS
 62
     7
 10
140.478544918661
 20
509.4167638749187
 30
0.0
 11
140.4862388280188
 21
509.453091726523
 31
0.0
  0
LINE
  5
376
  8
0
  6
CONTINUOUS
 62
     7
 10
140.4862388280188
 20
509.453091726523
 30
0.0
 11
140.4922425108033
 21
509.489778654973
 31
0.0
  0
LINE
  5
377
  8
0
  6
CONTINUOUS
 62
     7
 10
140.4922425108032
 20
509.489778654973
 30
0.0
 11
140.4965447470425
 21
509.5267048664786
 31
0.0
  0
LINE
  5
378
  8
0
  6
CONTINUOUS
 62
     7
 10
140.4965447470425
 20
509.5267048664786
 30
0.0
 11
140.4991343167653
 21
509.5637505672507
 31
0.0
  0
LINE
  5
379
  8
0
  6
CONTINUOUS
 62
     7
 10
140.4991343167652
 20
509.5637505672507
 30
0.0
 11
140.5
 21
509.6007959634993
 31
0.0
  0
LINE
  5
37A
  8
0
  6
CONTINUOUS
 62
     7
 10
137.8335908258348
 20
508.8007959634992
 30
0.0
 11
139.7
 21
508.8007959634992
 31
0.0
  0
LINE
  5
37B
  8
0
  6
CONTINUOUS
 62
     7
 10
142.3
 20
508.8007959634992
 30
0.0
 11
144.1664091741652
 21
508.8007959634992
 31
0.0
  0
LINE
  5
37C
  8
0
  6
CONTINUOUS
 62
     7
 10
141.4999999999999
 20
509.6007959634993
 30
0.0
 11
141.5006810743888
 21
509.5678556234215
 31
0.0
  0
LINE
  5
37D
  8
0
  6
CONTINUOUS
 62
     7
 10
141.5006810743888
 20
509.5678556234215
 30
0.0
 11
141.5027209638685
 21
509.5349272188582
 31
0.0
  0
LINE
  5
37E
  8
0
  6
CONTINUOUS
 62
     7
 10
141.5027209638685
 20
509.5349272188582
 30
0.0
 11
141.5061146679105
 21
509.5020949285462
 31
0.0
  0
LINE
  5
37F
  8
0
  6
CONTINUOUS
 62
     7
 10
141.5061146679105
 20
509.5020949285462
 30
0.0
 11
141.510857185985
 21
509.4694429312216
 31
0.0
  0
LINE
  5
380
  8
0
  6
CONTINUOUS
 62
     7
 10
141.510857185985
 20
509.4694429312216
 30
0.0
 11
141.517145976485
 21
509.4360695826721
 31
0.0
  0
LINE
  5
381
  8
0
  6
CONTINUOUS
 62
     7
 10
141.517145976485
 20
509.4360695826721
 30
0.0
 11
141.5248564032282
 21
509.402947851115
 31
0.0
  0
LINE
  5
382
  8
0
  6
CONTINUOUS
 62
     7
 10
141.5248564032282
 20
509.402947851115
 30
0.0
 11
141.53396730475
 21
509.3701683056865
 31
0.0
  0
LINE
  5
383
  8
0
  6
CONTINUOUS
 62
     7
 10
141.5339673047501
 20
509.3701683056865
 30
0.0
 11
141.5444575195855
 21
509.3378215155216
 31
0.0
  0
LINE
  5
384
  8
0
  6
CONTINUOUS
 62
     7
 10
141.5444575195854
 20
509.3378215155217
 30
0.0
 11
141.5559826561607
 21
509.3067996764298
 31
0.0
  0
LINE
  5
385
  8
0
  6
CONTINUOUS
 62
     7
 10
141.5559826561608
 20
509.3067996764298
 30
0.0
 11
141.5687968961107
 21
509.2762435922066
 31
0.0
  0
LINE
  5
386
  8
0
  6
CONTINUOUS
 62
     7
 10
141.5687968961107
 20
509.2762435922065
 30
0.0
 11
141.5828663574642
 21
509.2462328997159
 31
0.0
  0
LINE
  5
387
  8
0
  6
CONTINUOUS
 62
     7
 10
141.5828663574643
 20
509.2462328997159
 30
0.0
 11
141.5981571582505
 21
509.2168472358217
 31
0.0
  0
LINE
  5
388
  8
0
  6
CONTINUOUS
 62
     7
 10
141.5981571582505
 20
509.2168472358217
 30
0.0
 11
141.615164400125
 21
509.1872802727407
 31
0.0
  0
LINE
  5
389
  8
0
  6
CONTINUOUS
 62
     7
 10
141.615164400125
 20
509.1872802727407
 30
0.0
 11
141.6334379526148
 21
509.1584316444408
 31
0.0
  0
LINE
  5
38A
  8
0
  6
CONTINUOUS
 62
     7
 10
141.6334379526148
 20
509.158431644441
 30
0.0
 11
141.65292593954
 21
509.1303810535998
 31
0.0
  0
LINE
  5
38B
  8
0
  6
CONTINUOUS
 62
     7
 10
141.65292593954
 20
509.1303810535998
 30
0.0
 11
141.6735764847203
 21
509.1032082028938
 31
0.0
  0
LINE
  5
38C
  8
0
  6
CONTINUOUS
 62
     7
 10
141.6735764847202
 20
509.1032082028937
 30
0.0
 11
141.6945984367045
 21
509.0778384068304
 31
0.0
  0
LINE
  5
38D
  8
0
  6
CONTINUOUS
 62
     7
 10
141.6945984367046
 20
509.0778384068305
 30
0.0
 11
141.7166679546718
 21
509.0533327187392
 31
0.0
  0
LINE
  5
38E
  8
0
  6
CONTINUOUS
 62
     7
 10
141.7166679546718
 20
509.0533327187392
 30
0.0
 11
141.7397264153481
 21
509.029753785103
 31
0.0
  0
LINE
  5
38F
  8
0
  6
CONTINUOUS
 62
     7
 10
141.739726415348
 20
509.029753785103
 30
0.0
 11
141.763715195459
 21
509.0071642524038
 31
0.0
  0
LINE
  5
390
  8
0
  6
CONTINUOUS
 62
     7
 10
141.763715195459
 20
509.0071642524038
 30
0.0
 11
141.7893570070239
 21
508.9849722264212
 31
0.0
  0
LINE
  5
391
  8
0
  6
CONTINUOUS
 62
     7
 10
141.789357007024
 20
508.9849722264212
 30
0.0
 11
141.815938218182
 21
508.9638693201878
 31
0.0
  0
LINE
  5
392
  8
0
  6
CONTINUOUS
 62
     7
 10
141.8159382181819
 20
508.9638693201878
 30
0.0
 11
141.8433841170542
 21
508.9439115934205
 31
0.0
  0
LINE
  5
393
  8
0
  6
CONTINUOUS
 62
     7
 10
141.8433841170543
 20
508.9439115934205
 30
0.0
 11
141.871619991762
 21
508.9251551058375
 31
0.0
  0
LINE
  5
394
  8
0
  6
CONTINUOUS
 62
     7
 10
141.871619991762
 20
508.9251551058375
 30
0.0
 11
141.899712693095
 21
508.9081446585055
 31
0.0
  0
LINE
  5
395
  8
0
  6
CONTINUOUS
 62
     7
 10
141.899712693095
 20
508.9081446585055
 30
0.0
 11
141.9284975836965
 21
508.8922916170819
 31
0.0
  0
LINE
  5
396
  8
0
  6
CONTINUOUS
 62
     7
 10
141.9284975836965
 20
508.8922916170819
 30
0.0
 11
141.9578993095442
 21
508.8776342431559
 31
0.0
  0
LINE
  5
397
  8
0
  6
CONTINUOUS
 62
     7
 10
141.9578993095443
 20
508.877634243156
 30
0.0
 11
141.9878425166165
 21
508.8642107983163
 31
0.0
  0
LINE
  5
398
  8
0
  6
CONTINUOUS
 62
     7
 10
141.9878425166165
 20
508.8642107983163
 30
0.0
 11
142.0191865447728
 21
508.8517037606022
 31
0.0
  0
LINE
  5
399
  8
0
  6
CONTINUOUS
 62
     7
 10
142.0191865447728
 20
508.8517037606022
 30
0.0
 11
142.051046884766
 21
508.8405236250832
 31
0.0
  0
LINE
  5
39A
  8
0
  6
CONTINUOUS
 62
     7
 10
142.051046884766
 20
508.8405236250832
 30
0.0
 11
142.0833363893852
 21
508.8306971378113
 31
0.0
  0
LINE
  5
39B
  8
0
  6
CONTINUOUS
 62
     7
 10
142.0833363893852
 20
508.8306971378113
 30
0.0
 11
142.1159679114192
 21
508.8222510448385
 31
0.0
  0
LINE
  5
39C
  8
0
  6
CONTINUOUS
 62
     7
 10
142.1159679114192
 20
508.8222510448385
 30
0.0
 11
142.1522957630238
 21
508.8145571354804
 31
0.0
  0
LINE
  5
39D
  8
0
  6
CONTINUOUS
 62
     7
 10
142.1522957630238
 20
508.8145571354805
 30
0.0
 11
142.1889826914735
 21
508.8085534526961
 31
0.0
  0
LINE
  5
39E
  8
0
  6
CONTINUOUS
 62
     7
 10
142.1889826914735
 20
508.8085534526961
 30
0.0
 11
142.2259089029793
 21
508.8042512164567
 31
0.0
  0
LINE
  5
39F
  8
0
  6
CONTINUOUS
 62
     7
 10
142.2259089029793
 20
508.8042512164567
 30
0.0
 11
142.2629546037513
 21
508.801661646734
 31
0.0
  0
LINE
  5
3A0
  8
0
  6
CONTINUOUS
 62
     7
 10
142.2629546037513
 20
508.801661646734
 30
0.0
 11
142.3
 21
508.8007959634992
 31
0.0
  0
LINE
  5
3A1
  8
0
  6
CONTINUOUS
 62
     7
 10
145.343451209934
 20
508.8007959634992
 30
0.0
 11
144.1664091741653
 21
508.8007959634992
 31
0.0
  0
LINE
  5
3A2
  8
0
  6
CONTINUOUS
 62
     7
 10
137.8335908258348
 20
508.8007959634992
 30
0.0
 11
136.656548790066
 21
508.8007959634992
 31
0.0
  0
LINE
  5
3A3
  8
0
  6
CONTINUOUS
 62
     7
 10
136.656548790066
 20
507.8007959634992
 30
0.0
 11
137.8335908258348
 21
507.8007959634992
 31
0.0
  0
LINE
  5
3A4
  8
0
  6
CONTINUOUS
 62
     7
 10
144.1664091741653
 20
507.8007959634992
 30
0.0
 11
145.3434512099375
 21
507.8007959634992
 31
0.0
  0
ARC
  5
3A5
  8
0
  6
CONTINUOUS
 62
     7
 10
141.0
 20
508.3007959634992
 30
0.0
 40
4.412511336474023
 50
173.4936022856121
 51
186.506397714388
  0
ARC
  5
3A6
  8
0
  6
CONTINUOUS
 62
     7
 10
141.0
 20
508.3007959634992
 30
0.0
 40
4.412511336474134
 50
353.4936022856121
 51
6.506397714387958
  0
ARC
  5
3A7
  8
0
  6
CONTINUOUS
 62
     7
 10
141.0
 20
508.3007959634992
 30
0.0
 40
1.403262301477137
 50
159.1260896468198
 51
200.8739103531802
  0
ARC
  5
3A8
  8
0
  6
CONTINUOUS
 62
     7
 10
141.0
 20
508.3007959634992
 30
0.0
 40
1.403262301477193
 50
339.1260896468198
 51
20.87391035318018
  0
LINE
  5
3A9
  8
0
  6
CONTINUOUS
 62
     7
 10
-79.19999999999999
 20
624.3007959634991
 30
0.0
 11
-77.3335908258347
 21
624.3007959634991
 31
0.0
  0
LINE
  5
3AA
  8
0
  6
CONTINUOUS
 62
     7
 10
-79.99999999999999
 20
625.1007959634992
 30
0.0
 11
-79.99932531198885
 21
625.0679540886883
 31
0.0
  0
LINE
  5
3AB
  8
0
  6
CONTINUOUS
 62
     7
 10
-79.99932531198885
 20
625.0679540886883
 30
0.0
 11
-79.99730222282346
 21
625.0351517293218
 31
0.0
  0
LINE
  5
3AC
  8
0
  6
CONTINUOUS
 62
     7
 10
-79.99730222282348
 20
625.0351517293218
 30
0.0
 11
-79.99390329526243
 21
625.0022206985941
 31
0.0
  0
LINE
  5
3AD
  8
0
  6
CONTINUOUS
 62
     7
 10
-79.99390329526243
 20
625.0022206985941
 30
0.0
 11
-79.98914281401493
 21
624.9694429312215
 31
0.0
  0
LINE
  5
3AE
  8
0
  6
CONTINUOUS
 62
     7
 10
-79.98914281401493
 20
624.9694429312215
 30
0.0
 11
-79.98287903982713
 21
624.9361755334489
 31
0.0
  0
LINE
  5
3AF
  8
0
  6
CONTINUOUS
 62
     7
 10
-79.98287903982715
 20
624.936175533449
 30
0.0
 11
-79.97521029453975
 21
624.9031877672131
 31
0.0
  0
LINE
  5
3B0
  8
0
  6
CONTINUOUS
 62
     7
 10
-79.97521029453975
 20
624.903187767213
 30
0.0
 11
-79.96607562626069
 21
624.8703017322075
 31
0.0
  0
LINE
  5
3B1
  8
0
  6
CONTINUOUS
 62
     7
 10
-79.96607562626068
 20
624.8703017322076
 30
0.0
 11
-79.95554248041448
 21
624.8378215155217
 31
0.0
  0
LINE
  5
3B2
  8
0
  6
CONTINUOUS
 62
     7
 10
-79.95554248041448
 20
624.8378215155216
 30
0.0
 11
-79.94405681760169
 21
624.8068929621325
 31
0.0
  0
LINE
  5
3B3
  8
0
  6
CONTINUOUS
 62
     7
 10
-79.94405681760169
 20
624.8068929621325
 30
0.0
 11
-79.93130148419733
 21
624.7764533372371
 31
0.0
  0
LINE
  5
3B4
  8
0
  6
CONTINUOUS
 62
     7
 10
-79.93130148419736
 20
624.776453337237
 30
0.0
 11
-79.9171935826967
 21
624.7463486901412
 31
0.0
  0
LINE
  5
3B5
  8
0
  6
CONTINUOUS
 62
     7
 10
-79.91719358269667
 20
624.7463486901412
 30
0.0
 11
-79.90184284174936
 21
624.7168472358218
 31
0.0
  0
LINE
  5
3B6
  8
0
  6
CONTINUOUS
 62
     7
 10
-79.90184284174936
 20
624.7168472358218
 30
0.0
 11
-79.88489549803032
 21
624.6873741294403
 31
0.0
  0
LINE
  5
3B7
  8
0
  6
CONTINUOUS
 62
     7
 10
-79.88489549803032
 20
624.6873741294403
 30
0.0
 11
-79.86670738561855
 21
624.658640717051
 31
0.0
  0
LINE
  5
3B8
  8
0
  6
CONTINUOUS
 62
     7
 10
-79.86670738561857
 20
624.6586407170511
 30
0.0
 11
-79.847160520059
 21
624.6304953167712
 31
0.0
  0
LINE
  5
3B9
  8
0
  6
CONTINUOUS
 62
     7
 10
-79.84716052005902
 20
624.6304953167712
 30
0.0
 11
-79.82642351527979
 21
624.6032082028936
 31
0.0
  0
LINE
  5
3BA
  8
0
  6
CONTINUOUS
 62
     7
 10
-79.82642351527977
 20
624.6032082028935
 30
0.0
 11
-79.80546902381658
 21
624.5779128167648
 31
0.0
  0
LINE
  5
3BB
  8
0
  6
CONTINUOUS
 62
     7
 10
-79.80546902381657
 20
624.5779128167648
 30
0.0
 11
-79.78349266368586
 21
624.5534968575028
 31
0.0
  0
LINE
  5
3BC
  8
0
  6
CONTINUOUS
 62
     7
 10
-79.78349266368589
 20
624.5534968575028
 30
0.0
 11
-79.76036747856227
 21
624.5298425511214
 31
0.0
  0
LINE
  5
3BD
  8
0
  6
CONTINUOUS
 62
     7
 10
-79.76036747856224
 20
624.5298425511214
 30
0.0
 11
-79.736284804541
 21
624.5071642524038
 31
0.0
  0
LINE
  5
3BE
  8
0
  6
CONTINUOUS
 62
     7
 10
-79.73628480454103
 20
624.5071642524038
 30
0.0
 11
-79.7107288808526
 21
624.4850399430472
 31
0.0
  0
LINE
  5
3BF
  8
0
  6
CONTINUOUS
 62
     7
 10
-79.71072888085259
 20
624.4850399430472
 30
0.0
 11
-79.68426405837432
 21
624.464016314196
 31
0.0
  0
LINE
  5
3C0
  8
0
  6
CONTINUOUS
 62
     7
 10
-79.68426405837431
 20
624.4640163141959
 30
0.0
 11
-79.65673289503779
 21
624.4439896641783
 31
0.0
  0
LINE
  5
3C1
  8
0
  6
CONTINUOUS
 62
     7
 10
-79.6567328950378
 20
624.4439896641784
 30
0.0
 11
-79.62838000823804
 21
624.4251551058375
 31
0.0
  0
LINE
  5
3C2
  8
0
  6
CONTINUOUS
 62
     7
 10
-79.62838000823804
 20
624.4251551058375
 30
0.0
 11
-79.6003741216907
 21
624.408192111628
 31
0.0
  0
LINE
  5
3C3
  8
0
  6
CONTINUOUS
 62
     7
 10
-79.6003741216907
 20
624.4081921116278
 30
0.0
 11
-79.57170483964582
 21
624.3923924681777
 31
0.0
  0
LINE
  5
3C4
  8
0
  6
CONTINUOUS
 62
     7
 10
-79.57170483964582
 20
624.3923924681777
 30
0.0
 11
-79.54190772281376
 21
624.3775431352819
 31
0.0
  0
LINE
  5
3C5
  8
0
  6
CONTINUOUS
 62
     7
 10
-79.54190772281378
 20
624.3775431352818
 30
0.0
 11
-79.51150135689471
 21
624.3639384618951
 31
0.0
  0
LINE
  5
3C6
  8
0
  6
CONTINUOUS
 62
     7
 10
-79.5115013568947
 20
624.3639384618953
 30
0.0
 11
-79.48056715172463
 21
624.3516113300957
 31
0.0
  0
LINE
  5
3C7
  8
0
  6
CONTINUOUS
 62
     7
 10
-79.48056715172463
 20
624.3516113300957
 30
0.0
 11
-79.44918651713961
 21
624.3405946219616
 31
0.0
  0
LINE
  5
3C8
  8
0
  6
CONTINUOUS
 62
     7
 10
-79.44918651713961
 20
624.3405946219616
 30
0.0
 11
-79.41679636783554
 21
624.330731804154
 31
0.0
  0
LINE
  5
3C9
  8
0
  6
CONTINUOUS
 62
     7
 10
-79.41679636783554
 20
624.330731804154
 30
0.0
 11
-79.38403208858065
 21
624.3222510448385
 31
0.0
  0
LINE
  5
3CA
  8
0
  6
CONTINUOUS
 62
     7
 10
-79.38403208858064
 20
624.3222510448385
 30
0.0
 11
-79.35395989519861
 21
624.3157514226193
 31
0.0
  0
LINE
  5
3CB
  8
0
  6
CONTINUOUS
 62
     7
 10
-79.35395989519861
 20
624.3157514226193
 30
0.0
 11
-79.3236615968358
 21
624.310412265937
 31
0.0
  0
LINE
  5
3CC
  8
0
  6
CONTINUOUS
 62
     7
 10
-79.32366159683579
 20
624.310412265937
 30
0.0
 11
-79.2932051053939
 21
624.3062440090443
 31
0.0
  0
LINE
  5
3CD
  8
0
  6
CONTINUOUS
 62
     7
 10
-79.2932051053939
 20
624.3062440090442
 30
0.0
 11
-79.26220503583507
 21
624.3032189714887
 31
0.0
  0
LINE
  5
3CE
  8
0
  6
CONTINUOUS
 62
     7
 10
-79.26220503583508
 20
624.3032189714887
 30
0.0
 11
-79.23111304428495
 21
624.3014021290999
 31
0.0
  0
LINE
  5
3CF
  8
0
  6
CONTINUOUS
 62
     7
 10
-79.23111304428495
 20
624.3014021290999
 30
0.0
 11
-79.19999999999999
 21
624.300795963499
 31
0.0
  0
LINE
  5
3D0
  8
0
  6
CONTINUOUS
 62
     7
 10
-79.99999999999999
 20
626.1751363118419
 30
0.0
 11
-79.99999999999999
 21
625.1007959634992
 31
0.0
  0
ARC
  5
3D1
  8
0
  6
CONTINUOUS
 62
     7
 10
-80.50000000000001
 20
623.8007959634992
 30
0.0
 40
2.426415481686428
 50
78.10813302154226
 51
101.8918669784577
  0
LINE
  5
3D2
  8
0
  6
CONTINUOUS
 62
     7
 10
-80.99999999999999
 20
625.1007959634992
 30
0.0
 11
-80.99999999999999
 21
626.1751363118419
 31
0.0
  0
LINE
  5
3D3
  8
0
  6
CONTINUOUS
 62
     7
 10
-83.66640917416524
 20
624.3007959634991
 30
0.0
 11
-81.79999999999997
 21
624.3007959634991
 31
0.0
  0
LINE
  5
3D4
  8
0
  6
CONTINUOUS
 62
     7
 10
-81.79999999999998
 20
624.3007959634991
 30
0.0
 11
-81.76705965992225
 21
624.301477037888
 31
0.0
  0
LINE
  5
3D5
  8
0
  6
CONTINUOUS
 62
     7
 10
-81.76705965992225
 20
624.3014770378879
 30
0.0
 11
-81.73413125535902
 21
624.3035169273676
 31
0.0
  0
LINE
  5
3D6
  8
0
  6
CONTINUOUS
 62
     7
 10
-81.734131255359
 20
624.3035169273676
 30
0.0
 11
-81.70129896504685
 21
624.3069106314098
 31
0.0
  0
LINE
  5
3D7
  8
0
  6
CONTINUOUS
 62
     7
 10
-81.70129896504685
 20
624.3069106314098
 30
0.0
 11
-81.66864696772244
 21
624.3116531494842
 31
0.0
  0
LINE
  5
3D8
  8
0
  6
CONTINUOUS
 62
     7
 10
-81.66864696772247
 20
624.3116531494842
 30
0.0
 11
-81.63527361917264
 21
624.3179419399842
 31
0.0
  0
LINE
  5
3D9
  8
0
  6
CONTINUOUS
 62
     7
 10
-81.63527361917261
 20
624.3179419399842
 30
0.0
 11
-81.60215188761572
 21
624.3256523667275
 31
0.0
  0
LINE
  5
3DA
  8
0
  6
CONTINUOUS
 62
     7
 10
-81.60215188761572
 20
624.3256523667275
 30
0.0
 11
-81.56937234218714
 21
624.334763268249
 31
0.0
  0
LINE
  5
3DB
  8
0
  6
CONTINUOUS
 62
     7
 10
-81.56937234218714
 20
624.3347632682492
 30
0.0
 11
-81.53702555202246
 21
624.3452534830848
 31
0.0
  0
LINE
  5
3DC
  8
0
  6
CONTINUOUS
 62
     7
 10
-81.53702555202247
 20
624.3452534830847
 30
0.0
 11
-81.50600371293032
 21
624.35677861966
 31
0.0
  0
LINE
  5
3DD
  8
0
  6
CONTINUOUS
 62
     7
 10
-81.50600371293032
 20
624.3567786196601
 30
0.0
 11
-81.4754476287071
 21
624.3695928596101
 31
0.0
  0
LINE
  5
3DE
  8
0
  6
CONTINUOUS
 62
     7
 10
-81.47544762870709
 20
624.3695928596101
 30
0.0
 11
-81.44543693621655
 21
624.3836623209635
 31
0.0
  0
LINE
  5
3DF
  8
0
  6
CONTINUOUS
 62
     7
 10
-81.44543693621655
 20
624.3836623209635
 30
0.0
 11
-81.41605127232248
 21
624.3989531217501
 31
0.0
  0
LINE
  5
3E0
  8
0
  6
CONTINUOUS
 62
     7
 10
-81.41605127232249
 20
624.39895312175
 30
0.0
 11
-81.38648430924135
 21
624.4159603636241
 31
0.0
  0
LINE
  5
3E1
  8
0
  6
CONTINUOUS
 62
     7
 10
-81.38648430924134
 20
624.4159603636241
 30
0.0
 11
-81.35763568094164
 21
624.434233916114
 31
0.0
  0
LINE
  5
3E2
  8
0
  6
CONTINUOUS
 62
     7
 10
-81.35763568094164
 20
624.434233916114
 30
0.0
 11
-81.32958509010037
 21
624.4537219030393
 31
0.0
  0
LINE
  5
3E3
  8
0
  6
CONTINUOUS
 62
     7
 10
-81.32958509010035
 20
624.4537219030393
 30
0.0
 11
-81.3024122393943
 21
624.4743724482196
 31
0.0
  0
LINE
  5
3E4
  8
0
  6
CONTINUOUS
 62
     7
 10
-81.30241223939433
 20
624.4743724482195
 30
0.0
 11
-81.27704244333097
 21
624.4953944002037
 31
0.0
  0
LINE
  5
3E5
  8
0
  6
CONTINUOUS
 62
     7
 10
-81.27704244333097
 20
624.4953944002038
 30
0.0
 11
-81.25253675523997
 21
624.517463918171
 31
0.0
  0
LINE
  5
3E6
  8
0
  6
CONTINUOUS
 62
     7
 10
-81.25253675523997
 20
624.517463918171
 30
0.0
 11
-81.22895782160361
 21
624.5405223788474
 31
0.0
  0
LINE
  5
3E7
  8
0
  6
CONTINUOUS
 62
     7
 10
-81.2289578216036
 20
624.5405223788474
 30
0.0
 11
-81.20636828890427
 21
624.5645111589585
 31
0.0
  0
LINE
  5
3E8
  8
0
  6
CONTINUOUS
 62
     7
 10
-81.20636828890426
 20
624.5645111589583
 30
0.0
 11
-81.18417626292195
 21
624.5901529705231
 31
0.0
  0
LINE
  5
3E9
  8
0
  6
CONTINUOUS
 62
     7
 10
-81.18417626292195
 20
624.5901529705233
 30
0.0
 11
-81.16307335668823
 21
624.6167341816813
 31
0.0
  0
LINE
  5
3EA
  8
0
  6
CONTINUOUS
 62
     7
 10
-81.16307335668823
 20
624.6167341816812
 30
0.0
 11
-81.14311562992107
 21
624.6441800805535
 31
0.0
  0
LINE
  5
3EB
  8
0
  6
CONTINUOUS
 62
     7
 10
-81.1431156299211
 20
624.6441800805535
 30
0.0
 11
-81.12435914233822
 21
624.6724159552613
 31
0.0
  0
LINE
  5
3EC
  8
0
  6
CONTINUOUS
 62
     7
 10
-81.12435914233821
 20
624.6724159552613
 30
0.0
 11
-81.10734869500608
 21
624.7005086565944
 31
0.0
  0
LINE
  5
3ED
  8
0
  6
CONTINUOUS
 62
     7
 10
-81.10734869500608
 20
624.7005086565944
 30
0.0
 11
-81.09149565358261
 21
624.729293547196
 31
0.0
  0
LINE
  5
3EE
  8
0
  6
CONTINUOUS
 62
     7
 10
-81.09149565358261
 20
624.729293547196
 30
0.0
 11
-81.07683827965653
 21
624.7586952730434
 31
0.0
  0
LINE
  5
3EF
  8
0
  6
CONTINUOUS
 62
     7
 10
-81.07683827965653
 20
624.7586952730434
 30
0.0
 11
-81.063414834817
 21
624.7886384801157
 31
0.0
  0
LINE
  5
3F0
  8
0
  6
CONTINUOUS
 62
     7
 10
-81.063414834817
 20
624.7886384801158
 30
0.0
 11
-81.05090779710291
 21
624.819982508272
 31
0.0
  0
LINE
  5
3F1
  8
0
  6
CONTINUOUS
 62
     7
 10
-81.05090779710294
 20
624.8199825082719
 30
0.0
 11
-81.03972766158392
 21
624.8518428482652
 31
0.0
  0
LINE
  5
3F2
  8
0
  6
CONTINUOUS
 62
     7
 10
-81.03972766158392
 20
624.8518428482652
 30
0.0
 11
-81.02990117431202
 21
624.8841323528844
 31
0.0
  0
LINE
  5
3F3
  8
0
  6
CONTINUOUS
 62
     7
 10
-81.02990117431202
 20
624.8841323528844
 30
0.0
 11
-81.02145508133914
 21
624.9167638749184
 31
0.0
  0
LINE
  5
3F4
  8
0
  6
CONTINUOUS
 62
     7
 10
-81.02145508133913
 20
624.9167638749185
 30
0.0
 11
-81.01376117198123
 21
624.9530917265231
 31
0.0
  0
LINE
  5
3F5
  8
0
  6
CONTINUOUS
 62
     7
 10
-81.01376117198124
 20
624.9530917265231
 30
0.0
 11
-81.00775748919669
 21
624.989778654973
 31
0.0
  0
LINE
  5
3F6
  8
0
  6
CONTINUOUS
 62
     7
 10
-81.00775748919669
 20
624.989778654973
 30
0.0
 11
-81.00345525295738
 21
625.0267048664787
 31
0.0
  0
LINE
  5
3F7
  8
0
  6
CONTINUOUS
 62
     7
 10
-81.00345525295738
 20
625.0267048664787
 30
0.0
 11
-81.00086568323458
 21
625.0637505672506
 31
0.0
  0
LINE
  5
3F8
  8
0
  6
CONTINUOUS
 62
     7
 10
-81.00086568323458
 20
625.0637505672506
 30
0.0
 11
-80.99999999999997
 21
625.1007959634993
 31
0.0
  0
LINE
  5
3F9
  8
0
  6
CONTINUOUS
 62
     7
 10
-80.99999999999999
 20
621.4264556151567
 30
0.0
 11
-80.99999999999999
 21
622.5007959634993
 31
0.0
  0
ARC
  5
3FA
  8
0
  6
CONTINUOUS
 62
     7
 10
-80.50000000000001
 20
623.8007959634992
 30
0.0
 40
2.426415481686567
 50
258.1081330215422
 51
281.8918669784578
  0
LINE
  5
3FB
  8
0
  6
CONTINUOUS
 62
     7
 10
-79.99999999999999
 20
622.5007959634993
 30
0.0
 11
-79.99999999999999
 21
621.4264556151567
 31
0.0
  0
LINE
  5
3FC
  8
0
  6
CONTINUOUS
 62
     7
 10
-77.33359082583469
 20
623.3007959634992
 30
0.0
 11
-79.20000000000002
 21
623.3007959634992
 31
0.0
  0
LINE
  5
3FD
  8
0
  6
CONTINUOUS
 62
     7
 10
-81.79999999999998
 20
623.3007959634992
 30
0.0
 11
-83.66640917416525
 21
623.3007959634992
 31
0.0
  0
LINE
  5
3FE
  8
0
  6
CONTINUOUS
 62
     7
 10
-80.99999999999999
 20
622.5007959634993
 30
0.0
 11
-81.00068107438865
 21
622.5337363035771
 31
0.0
  0
LINE
  5
3FF
  8
0
  6
CONTINUOUS
 62
     7
 10
-81.00068107438862
 20
622.5337363035771
 30
0.0
 11
-81.00272096386853
 21
622.5666647081403
 31
0.0
  0
LINE
  5
400
  8
0
  6
CONTINUOUS
 62
     7
 10
-81.00272096386854
 20
622.5666647081403
 30
0.0
 11
-81.00611466791035
 21
622.5994969984524
 31
0.0
  0
LINE
  5
401
  8
0
  6
CONTINUOUS
 62
     7
 10
-81.00611466791035
 20
622.5994969984525
 30
0.0
 11
-81.01085718598499
 21
622.6321489957768
 31
0.0
  0
LINE
  5
402
  8
0
  6
CONTINUOUS
 62
     7
 10
-81.01085718598499
 20
622.6321489957767
 30
0.0
 11
-81.01714597648498
 21
622.6655223443267
 31
0.0
  0
LINE
  5
403
  8
0
  6
CONTINUOUS
 62
     7
 10
-81.01714597648498
 20
622.6655223443267
 30
0.0
 11
-81.02485640322816
 21
622.6986440758835
 31
0.0
  0
LINE
  5
404
  8
0
  6
CONTINUOUS
 62
     7
 10
-81.02485640322816
 20
622.6986440758835
 30
0.0
 11
-81.03396730474992
 21
622.731423621312
 31
0.0
  0
LINE
  5
405
  8
0
  6
CONTINUOUS
 62
     7
 10
-81.03396730474991
 20
622.731423621312
 30
0.0
 11
-81.04445751958545
 21
622.7637704114768
 31
0.0
  0
LINE
  5
406
  8
0
  6
CONTINUOUS
 62
     7
 10
-81.04445751958545
 20
622.7637704114768
 30
0.0
 11
-81.05598265616075
 21
622.7947922505689
 31
0.0
  0
LINE
  5
407
  8
0
  6
CONTINUOUS
 62
     7
 10
-81.05598265616077
 20
622.7947922505689
 30
0.0
 11
-81.06879689611063
 21
622.8253483347922
 31
0.0
  0
LINE
  5
408
  8
0
  6
CONTINUOUS
 62
     7
 10
-81.06879689611063
 20
622.8253483347922
 30
0.0
 11
-81.08286635746427
 21
622.8553590272827
 31
0.0
  0
LINE
  5
409
  8
0
  6
CONTINUOUS
 62
     7
 10
-81.08286635746425
 20
622.8553590272827
 30
0.0
 11
-81.09815715825061
 21
622.8847446911767
 31
0.0
  0
LINE
  5
40A
  8
0
  6
CONTINUOUS
 62
     7
 10
-81.09815715825061
 20
622.8847446911767
 30
0.0
 11
-81.11516440012504
 21
622.9143116542579
 31
0.0
  0
LINE
  5
40B
  8
0
  6
CONTINUOUS
 62
     7
 10
-81.11516440012504
 20
622.9143116542579
 30
0.0
 11
-81.13343795261483
 21
622.9431602825575
 31
0.0
  0
LINE
  5
40C
  8
0
  6
CONTINUOUS
 62
     7
 10
-81.13343795261483
 20
622.9431602825575
 30
0.0
 11
-81.15292593953991
 21
622.971210873399
 31
0.0
  0
LINE
  5
40D
  8
0
  6
CONTINUOUS
 62
     7
 10
-81.15292593953993
 20
622.971210873399
 30
0.0
 11
-81.17357648472024
 21
622.9983837241047
 31
0.0
  0
LINE
  5
40E
  8
0
  6
CONTINUOUS
 62
     7
 10
-81.17357648472023
 20
622.9983837241048
 30
0.0
 11
-81.19459843670435
 21
623.0237535201683
 31
0.0
  0
LINE
  5
40F
  8
0
  6
CONTINUOUS
 62
     7
 10
-81.19459843670437
 20
623.0237535201683
 30
0.0
 11
-81.21666795467169
 21
623.0482592082592
 31
0.0
  0
LINE
  5
410
  8
0
  6
CONTINUOUS
 62
     7
 10
-81.21666795467169
 20
623.0482592082592
 30
0.0
 11
-81.23972641534799
 21
623.0718381418958
 31
0.0
  0
LINE
  5
411
  8
0
  6
CONTINUOUS
 62
     7
 10
-81.23972641534799
 20
623.0718381418958
 30
0.0
 11
-81.26371519545897
 21
623.0944276745948
 31
0.0
  0
LINE
  5
412
  8
0
  6
CONTINUOUS
 62
     7
 10
-81.263715195459
 20
623.0944276745948
 30
0.0
 11
-81.28935700702391
 21
623.1166197005772
 31
0.0
  0
LINE
  5
413
  8
0
  6
CONTINUOUS
 62
     7
 10
-81.28935700702391
 20
623.1166197005772
 30
0.0
 11
-81.31593821818194
 21
623.1377226068108
 31
0.0
  0
LINE
  5
414
  8
0
  6
CONTINUOUS
 62
     7
 10
-81.31593821818194
 20
623.1377226068108
 30
0.0
 11
-81.34338411705423
 21
623.1576803335782
 31
0.0
  0
LINE
  5
415
  8
0
  6
CONTINUOUS
 62
     7
 10
-81.34338411705421
 20
623.1576803335782
 30
0.0
 11
-81.37161999176188
 21
623.1764368211609
 31
0.0
  0
LINE
  5
416
  8
0
  6
CONTINUOUS
 62
     7
 10
-81.3716199917619
 20
623.176436821161
 30
0.0
 11
-81.39971269309508
 21
623.1934472684933
 31
0.0
  0
LINE
  5
417
  8
0
  6
CONTINUOUS
 62
     7
 10
-81.39971269309507
 20
623.1934472684932
 30
0.0
 11
-81.42849758369651
 21
623.2093003099166
 31
0.0
  0
LINE
  5
418
  8
0
  6
CONTINUOUS
 62
     7
 10
-81.42849758369653
 20
623.2093003099166
 30
0.0
 11
-81.45789930954432
 21
623.2239576838424
 31
0.0
  0
LINE
  5
419
  8
0
  6
CONTINUOUS
 62
     7
 10
-81.4578993095443
 20
623.2239576838425
 30
0.0
 11
-81.48784251661641
 21
623.2373811286822
 31
0.0
  0
LINE
  5
41A
  8
0
  6
CONTINUOUS
 62
     7
 10
-81.4878425166164
 20
623.2373811286822
 30
0.0
 11
-81.5191865447727
 21
623.2498881663963
 31
0.0
  0
LINE
  5
41B
  8
0
  6
CONTINUOUS
 62
     7
 10
-81.5191865447727
 20
623.2498881663962
 30
0.0
 11
-81.55104688476595
 21
623.2610683019154
 31
0.0
  0
LINE
  5
41C
  8
0
  6
CONTINUOUS
 62
     7
 10
-81.55104688476597
 20
623.2610683019155
 30
0.0
 11
-81.58333638938515
 21
623.2708947891873
 31
0.0
  0
LINE
  5
41D
  8
0
  6
CONTINUOUS
 62
     7
 10
-81.58333638938514
 20
623.2708947891873
 30
0.0
 11
-81.61596791141928
 21
623.2793408821602
 31
0.0
  0
LINE
  5
41E
  8
0
  6
CONTINUOUS
 62
     7
 10
-81.61596791141929
 20
623.2793408821602
 30
0.0
 11
-81.65229576302376
 21
623.2870347915182
 31
0.0
  0
LINE
  5
41F
  8
0
  6
CONTINUOUS
 62
     7
 10
-81.65229576302374
 20
623.2870347915182
 30
0.0
 11
-81.68898269147356
 21
623.2930384743024
 31
0.0
  0
LINE
  5
420
  8
0
  6
CONTINUOUS
 62
     7
 10
-81.68898269147357
 20
623.2930384743024
 30
0.0
 11
-81.72590890297931
 21
623.2973407105416
 31
0.0
  0
LINE
  5
421
  8
0
  6
CONTINUOUS
 62
     7
 10
-81.72590890297931
 20
623.2973407105416
 30
0.0
 11
-81.76295460375133
 21
623.2999302802647
 31
0.0
  0
LINE
  5
422
  8
0
  6
CONTINUOUS
 62
     7
 10
-81.76295460375133
 20
623.2999302802647
 30
0.0
 11
-81.79999999999998
 21
623.3007959634991
 31
0.0
  0
LINE
  5
423
  8
0
  6
CONTINUOUS
 62
     7
 10
-79.19999999999999
 20
623.3007959634992
 30
0.0
 11
-79.23294034007772
 21
623.3001148891104
 31
0.0
  0
LINE
  5
424
  8
0
  6
CONTINUOUS
 62
     7
 10
-79.23294034007772
 20
623.3001148891104
 30
0.0
 11
-79.26586874464097
 21
623.2980749996308
 31
0.0
  0
LINE
  5
425
  8
0
  6
CONTINUOUS
 62
     7
 10
-79.26586874464097
 20
623.2980749996308
 30
0.0
 11
-79.29870103495311
 21
623.2946812955889
 31
0.0
  0
LINE
  5
426
  8
0
  6
CONTINUOUS
 62
     7
 10
-79.2987010349531
 20
623.2946812955888
 30
0.0
 11
-79.33135303227753
 21
623.2899387775143
 31
0.0
  0
LINE
  5
427
  8
0
  6
CONTINUOUS
 62
     7
 10
-79.33135303227756
 20
623.2899387775143
 30
0.0
 11
-79.36472638082735
 21
623.2836499870142
 31
0.0
  0
LINE
  5
428
  8
0
  6
CONTINUOUS
 62
     7
 10
-79.36472638082734
 20
623.2836499870142
 30
0.0
 11
-79.39784811238421
 21
623.2759395602709
 31
0.0
  0
LINE
  5
429
  8
0
  6
CONTINUOUS
 62
     7
 10
-79.39784811238421
 20
623.2759395602709
 30
0.0
 11
-79.43062765781278
 21
623.2668286587492
 31
0.0
  0
LINE
  5
42A
  8
0
  6
CONTINUOUS
 62
     7
 10
-79.43062765781278
 20
623.2668286587492
 30
0.0
 11
-79.4629744479775
 21
623.2563384439137
 31
0.0
  0
LINE
  5
42B
  8
0
  6
CONTINUOUS
 62
     7
 10
-79.4629744479775
 20
623.2563384439137
 30
0.0
 11
-79.49399628706962
 21
623.2448133073385
 31
0.0
  0
LINE
  5
42C
  8
0
  6
CONTINUOUS
 62
     7
 10
-79.49399628706962
 20
623.2448133073385
 30
0.0
 11
-79.52455237129284
 21
623.2319990673886
 31
0.0
  0
LINE
  5
42D
  8
0
  6
CONTINUOUS
 62
     7
 10
-79.52455237129286
 20
623.2319990673885
 30
0.0
 11
-79.55456306378339
 21
623.2179296060349
 31
0.0
  0
LINE
  5
42E
  8
0
  6
CONTINUOUS
 62
     7
 10
-79.55456306378339
 20
623.2179296060349
 30
0.0
 11
-79.58394872767748
 21
623.2026388052485
 31
0.0
  0
LINE
  5
42F
  8
0
  6
CONTINUOUS
 62
     7
 10
-79.58394872767747
 20
623.2026388052486
 30
0.0
 11
-79.61351569075863
 21
623.1856315633743
 31
0.0
  0
LINE
  5
430
  8
0
  6
CONTINUOUS
 62
     7
 10
-79.61351569075863
 20
623.1856315633743
 30
0.0
 11
-79.64236431905829
 21
623.1673580108845
 31
0.0
  0
LINE
  5
431
  8
0
  6
CONTINUOUS
 62
     7
 10
-79.6423643190583
 20
623.1673580108844
 30
0.0
 11
-79.67041490989962
 21
623.1478700239595
 31
0.0
  0
LINE
  5
432
  8
0
  6
CONTINUOUS
 62
     7
 10
-79.67041490989959
 20
623.1478700239595
 30
0.0
 11
-79.69758776060561
 21
623.1272194787789
 31
0.0
  0
LINE
  5
433
  8
0
  6
CONTINUOUS
 62
     7
 10
-79.69758776060561
 20
623.1272194787789
 30
0.0
 11
-79.72295755666893
 21
623.106197526795
 31
0.0
  0
LINE
  5
434
  8
0
  6
CONTINUOUS
 62
     7
 10
-79.72295755666892
 20
623.106197526795
 30
0.0
 11
-79.74746324475997
 21
623.0841280088275
 31
0.0
  0
LINE
  5
435
  8
0
  6
CONTINUOUS
 62
     7
 10
-79.74746324475998
 20
623.0841280088275
 30
0.0
 11
-79.77104217839633
 21
623.0610695481512
 31
0.0
  0
LINE
  5
436
  8
0
  6
CONTINUOUS
 62
     7
 10
-79.77104217839631
 20
623.0610695481513
 30
0.0
 11
-79.79363171109564
 21
623.0370807680401
 31
0.0
  0
LINE
  5
437
  8
0
  6
CONTINUOUS
 62
     7
 10
-79.79363171109566
 20
623.0370807680401
 30
0.0
 11
-79.815823737078
 21
623.0114389564751
 31
0.0
  0
LINE
  5
438
  8
0
  6
CONTINUOUS
 62
     7
 10
-79.81582373707802
 20
623.0114389564751
 30
0.0
 11
-79.83692664331167
 21
622.9848577453172
 31
0.0
  0
LINE
  5
439
  8
0
  6
CONTINUOUS
 62
     7
 10
-79.83692664331166
 20
622.9848577453172
 30
0.0
 11
-79.85688437007892
 21
622.9574118464451
 31
0.0
  0
LINE
  5
43A
  8
0
  6
CONTINUOUS
 62
     7
 10
-79.85688437007893
 20
622.9574118464451
 30
0.0
 11
-79.87564085766176
 21
622.9291759717372
 31
0.0
  0
LINE
  5
43B
  8
0
  6
CONTINUOUS
 62
     7
 10
-79.87564085766176
 20
622.9291759717371
 30
0.0
 11
-79.89265130499385
 21
622.9010832704041
 31
0.0
  0
LINE
  5
43C
  8
0
  6
CONTINUOUS
 62
     7
 10
-79.89265130499385
 20
622.9010832704041
 30
0.0
 11
-79.90850434641737
 21
622.8722983798026
 31
0.0
  0
LINE
  5
43D
  8
0
  6
CONTINUOUS
 62
     7
 10
-79.90850434641736
 20
622.8722983798027
 30
0.0
 11
-79.92316172034336
 21
622.842896653955
 31
0.0
  0
LINE
  5
43E
  8
0
  6
CONTINUOUS
 62
     7
 10
-79.92316172034336
 20
622.842896653955
 30
0.0
 11
-79.93658516518295
 21
622.8129534468828
 31
0.0
  0
LINE
  5
43F
  8
0
  6
CONTINUOUS
 62
     7
 10
-79.93658516518295
 20
622.8129534468828
 30
0.0
 11
-79.94909220289703
 21
622.7816094187268
 31
0.0
  0
LINE
  5
440
  8
0
  6
CONTINUOUS
 62
     7
 10
-79.94909220289703
 20
622.7816094187267
 30
0.0
 11
-79.960272338416
 21
622.7497490787331
 31
0.0
  0
LINE
  5
441
  8
0
  6
CONTINUOUS
 62
     7
 10
-79.96027233841602
 20
622.7497490787331
 30
0.0
 11
-79.97009882568796
 21
622.7174595741142
 31
0.0
  0
LINE
  5
442
  8
0
  6
CONTINUOUS
 62
     7
 10
-79.97009882568796
 20
622.7174595741142
 30
0.0
 11
-79.97854491866084
 21
622.68482805208
 31
0.0
  0
LINE
  5
443
  8
0
  6
CONTINUOUS
 62
     7
 10
-79.97854491866083
 20
622.68482805208
 30
0.0
 11
-79.98623882801881
 21
622.6485002004756
 31
0.0
  0
LINE
  5
444
  8
0
  6
CONTINUOUS
 62
     7
 10
-79.98623882801881
 20
622.6485002004756
 30
0.0
 11
-79.9922425108032
 21
622.6118132720258
 31
0.0
  0
LINE
  5
445
  8
0
  6
CONTINUOUS
 62
     7
 10
-79.99224251080322
 20
622.6118132720258
 30
0.0
 11
-79.99654474704263
 21
622.57488706052
 31
0.0
  0
LINE
  5
446
  8
0
  6
CONTINUOUS
 62
     7
 10
-79.99654474704262
 20
622.5748870605199
 30
0.0
 11
-79.99913431676538
 21
622.537841359748
 31
0.0
  0
LINE
  5
447
  8
0
  6
CONTINUOUS
 62
     7
 10
-79.99913431676536
 20
622.5378413597481
 30
0.0
 11
-79.99999999999997
 21
622.5007959634993
 31
0.0
  0
LINE
  5
448
  8
0
  6
CONTINUOUS
 62
     7
 10
-84.84345120993403
 20
623.3007959634992
 30
0.0
 11
-83.66640917416527
 21
623.3007959634992
 31
0.0
  0
LINE
  5
449
  8
0
  6
CONTINUOUS
 62
     7
 10
-77.33359082583469
 20
623.3007959634992
 30
0.0
 11
-76.15654879006594
 21
623.3007959634992
 31
0.0
  0
LINE
  5
44A
  8
0
  6
CONTINUOUS
 62
     7
 10
-76.15654879006594
 20
624.3007959634991
 30
0.0
 11
-77.33359082583469
 21
624.3007959634991
 31
0.0
  0
LINE
  5
44B
  8
0
  6
CONTINUOUS
 62
     7
 10
-83.66640917416524
 20
624.3007959634991
 30
0.0
 11
-84.84345120993738
 21
624.3007959634991
 31
0.0
  0
ARC
  5
44C
  8
0
  6
CONTINUOUS
 62
     7
 10
-80.50000000000001
 20
623.8007959634992
 30
0.0
 40
4.500000000000004
 50
172.6520804723058
 51
180.0
  0
ARC
  5
44D
  8
0
  6
CONTINUOUS
 62
     7
 10
-80.50000000000001
 20
623.8007959634992
 30
0.0
 40
4.500000000000004
 50
7.214782889959565
 51
172.6520804723058
  0
ARC
  5
44E
  8
0
  6
CONTINUOUS
 62
     7
 10
-80.50000000000001
 20
623.8007959634992
 30
0.0
 40
4.500000000000032
 50
352.6474220075074
 51
7.214782889959565
  0
ARC
  5
44F
  8
0
  6
CONTINUOUS
 62
     7
 10
-80.50000000000001
 20
623.8007959634992
 30
0.0
 40
4.50000000000006
 50
180.0
 51
352.6474220075077
  0
ARC
  5
450
  8
0
  6
CONTINUOUS
 62
     7
 10
-80.50000000000001
 20
623.8007959634992
 30
0.0
 40
4.412511336474134
 50
353.4936022856121
 51
6.506397714387958
  0
ARC
  5
451
  8
0
  6
CONTINUOUS
 62
     7
 10
-80.50000000000001
 20
623.8007959634992
 30
0.0
 40
4.412511336474078
 50
173.4936022856121
 51
186.506397714388
  0
ARC
  5
452
  8
0
  6
CONTINUOUS
 62
     7
 10
-80.50000000000001
 20
623.8007959634992
 30
0.0
 40
1.403262301477221
 50
339.1260896468198
 51
20.87391035318024
  0
ARC
  5
453
  8
0
  6
CONTINUOUS
 62
     7
 10
-80.50000000000001
 20
623.8007959634992
 30
0.0
 40
1.403262301477082
 50
159.1260896468198
 51
200.8739103531803
  0
LINE
  5
454
  8
0
  6
CONTINUOUS
 62
     7
 10
-83.66640917416524
 20
392.3007959634992
 30
0.0
 11
-81.7999999999999
 21
392.3007959634992
 31
0.0
  0
LINE
  5
455
  8
0
  6
CONTINUOUS
 62
     7
 10
-81.79999999999993
 20
392.3007959634992
 30
0.0
 11
-81.76705965992223
 21
392.3001148891105
 31
0.0
  0
LINE
  5
456
  8
0
  6
CONTINUOUS
 62
     7
 10
-81.7670596599222
 20
392.3001148891105
 30
0.0
 11
-81.73413125535896
 21
392.2980749996307
 31
0.0
  0
LINE
  5
457
  8
0
  6
CONTINUOUS
 62
     7
 10
-81.73413125535897
 20
392.2980749996307
 30
0.0
 11
-81.70129896504682
 21
392.2946812955888
 31
0.0
  0
LINE
  5
458
  8
0
  6
CONTINUOUS
 62
     7
 10
-81.70129896504682
 20
392.2946812955888
 30
0.0
 11
-81.66864696772238
 21
392.2899387775143
 31
0.0
  0
LINE
  5
459
  8
0
  6
CONTINUOUS
 62
     7
 10
-81.66864696772238
 20
392.2899387775142
 30
0.0
 11
-81.63527361917262
 21
392.2836499870142
 31
0.0
  0
LINE
  5
45A
  8
0
  6
CONTINUOUS
 62
     7
 10
-81.63527361917261
 20
392.2836499870142
 30
0.0
 11
-81.60215188761572
 21
392.275939560271
 31
0.0
  0
LINE
  5
45B
  8
0
  6
CONTINUOUS
 62
     7
 10
-81.60215188761572
 20
392.275939560271
 30
0.0
 11
-81.56937234218714
 21
392.2668286587493
 31
0.0
  0
LINE
  5
45C
  8
0
  6
CONTINUOUS
 62
     7
 10
-81.56937234218714
 20
392.2668286587493
 30
0.0
 11
-81.53702555202241
 21
392.2563384439137
 31
0.0
  0
LINE
  5
45D
  8
0
  6
CONTINUOUS
 62
     7
 10
-81.53702555202241
 20
392.2563384439137
 30
0.0
 11
-81.5060037129303
 21
392.2448133073385
 31
0.0
  0
LINE
  5
45E
  8
0
  6
CONTINUOUS
 62
     7
 10
-81.50600371293032
 20
392.2448133073385
 30
0.0
 11
-81.4754476287071
 21
392.2319990673885
 31
0.0
  0
LINE
  5
45F
  8
0
  6
CONTINUOUS
 62
     7
 10
-81.47544762870709
 20
392.2319990673884
 30
0.0
 11
-81.44543693621655
 21
392.2179296060349
 31
0.0
  0
LINE
  5
460
  8
0
  6
CONTINUOUS
 62
     7
 10
-81.44543693621655
 20
392.2179296060349
 30
0.0
 11
-81.41605127232248
 21
392.2026388052487
 31
0.0
  0
LINE
  5
461
  8
0
  6
CONTINUOUS
 62
     7
 10
-81.41605127232249
 20
392.2026388052487
 30
0.0
 11
-81.38648430924133
 21
392.1856315633742
 31
0.0
  0
LINE
  5
462
  8
0
  6
CONTINUOUS
 62
     7
 10
-81.38648430924131
 20
392.1856315633742
 30
0.0
 11
-81.35763568094166
 21
392.1673580108844
 31
0.0
  0
LINE
  5
463
  8
0
  6
CONTINUOUS
 62
     7
 10
-81.35763568094164
 20
392.1673580108844
 30
0.0
 11
-81.32958509010027
 21
392.1478700239592
 31
0.0
  0
LINE
  5
464
  8
0
  6
CONTINUOUS
 62
     7
 10
-81.32958509010027
 20
392.1478700239592
 30
0.0
 11
-81.30241223939433
 21
392.127219478779
 31
0.0
  0
LINE
  5
465
  8
0
  6
CONTINUOUS
 62
     7
 10
-81.30241223939433
 20
392.127219478779
 30
0.0
 11
-81.27704244333097
 21
392.1061975267947
 31
0.0
  0
LINE
  5
466
  8
0
  6
CONTINUOUS
 62
     7
 10
-81.27704244333097
 20
392.1061975267947
 30
0.0
 11
-81.25253675523997
 21
392.0841280088275
 31
0.0
  0
LINE
  5
467
  8
0
  6
CONTINUOUS
 62
     7
 10
-81.25253675523997
 20
392.0841280088275
 30
0.0
 11
-81.22895782160361
 21
392.0610695481513
 31
0.0
  0
LINE
  5
468
  8
0
  6
CONTINUOUS
 62
     7
 10
-81.2289578216036
 20
392.0610695481513
 30
0.0
 11
-81.20636828890427
 21
392.0370807680403
 31
0.0
  0
LINE
  5
469
  8
0
  6
CONTINUOUS
 62
     7
 10
-81.20636828890426
 20
392.0370807680402
 30
0.0
 11
-81.18417626292191
 21
392.0114389564754
 31
0.0
  0
LINE
  5
46A
  8
0
  6
CONTINUOUS
 62
     7
 10
-81.18417626292192
 20
392.0114389564754
 30
0.0
 11
-81.16307335668824
 21
391.9848577453172
 31
0.0
  0
LINE
  5
46B
  8
0
  6
CONTINUOUS
 62
     7
 10
-81.16307335668823
 20
391.9848577453172
 30
0.0
 11
-81.14311562992104
 21
391.9574118464449
 31
0.0
  0
LINE
  5
46C
  8
0
  6
CONTINUOUS
 62
     7
 10
-81.14311562992104
 20
391.9574118464449
 30
0.0
 11
-81.12435914233821
 21
391.9291759717375
 31
0.0
  0
LINE
  5
46D
  8
0
  6
CONTINUOUS
 62
     7
 10
-81.12435914233821
 20
391.9291759717375
 30
0.0
 11
-81.10734869500608
 21
391.9010832704042
 31
0.0
  0
LINE
  5
46E
  8
0
  6
CONTINUOUS
 62
     7
 10
-81.10734869500608
 20
391.9010832704042
 30
0.0
 11
-81.09149565358258
 21
391.8722983798028
 31
0.0
  0
LINE
  5
46F
  8
0
  6
CONTINUOUS
 62
     7
 10
-81.09149565358258
 20
391.8722983798028
 30
0.0
 11
-81.07683827965654
 21
391.842896653955
 31
0.0
  0
LINE
  5
470
  8
0
  6
CONTINUOUS
 62
     7
 10
-81.07683827965653
 20
391.842896653955
 30
0.0
 11
-81.06341483481697
 21
391.8129534468827
 31
0.0
  0
LINE
  5
471
  8
0
  6
CONTINUOUS
 62
     7
 10
-81.06341483481697
 20
391.8129534468827
 30
0.0
 11
-81.05090779710292
 21
391.7816094187265
 31
0.0
  0
LINE
  5
472
  8
0
  6
CONTINUOUS
 62
     7
 10
-81.05090779710294
 20
391.7816094187265
 30
0.0
 11
-81.03972766158392
 21
391.7497490787333
 31
0.0
  0
LINE
  5
473
  8
0
  6
CONTINUOUS
 62
     7
 10
-81.03972766158392
 20
391.7497490787333
 30
0.0
 11
-81.02990117431196
 21
391.717459574114
 31
0.0
  0
LINE
  5
474
  8
0
  6
CONTINUOUS
 62
     7
 10
-81.02990117431197
 20
391.717459574114
 30
0.0
 11
-81.02145508133911
 21
391.6848280520799
 31
0.0
  0
LINE
  5
475
  8
0
  6
CONTINUOUS
 62
     7
 10
-81.0214550813391
 20
391.6848280520799
 30
0.0
 11
-81.01376117198119
 21
391.6485002004755
 31
0.0
  0
LINE
  5
476
  8
0
  6
CONTINUOUS
 62
     7
 10
-81.01376117198117
 20
391.6485002004755
 30
0.0
 11
-81.00775748919666
 21
391.6118132720257
 31
0.0
  0
LINE
  5
477
  8
0
  6
CONTINUOUS
 62
     7
 10
-81.00775748919669
 20
391.6118132720258
 30
0.0
 11
-81.00345525295738
 21
391.57488706052
 31
0.0
  0
LINE
  5
478
  8
0
  6
CONTINUOUS
 62
     7
 10
-81.00345525295738
 20
391.57488706052
 30
0.0
 11
-81.00086568323455
 21
391.537841359748
 31
0.0
  0
LINE
  5
479
  8
0
  6
CONTINUOUS
 62
     7
 10
-81.00086568323455
 20
391.537841359748
 30
0.0
 11
-80.99999999999994
 21
391.5007959634993
 31
0.0
  0
LINE
  5
47A
  8
0
  6
CONTINUOUS
 62
     7
 10
-80.99999999999996
 20
391.5007959634992
 30
0.0
 11
-80.99999999999996
 21
390.4264556151564
 31
0.0
  0
ARC
  5
47B
  8
0
  6
CONTINUOUS
 62
     7
 10
-80.4999999999999
 20
392.8007959634992
 30
0.0
 40
2.426415481686484
 50
258.1081330215422
 51
281.8918669784578
  0
LINE
  5
47C
  8
0
  6
CONTINUOUS
 62
     7
 10
-79.99999999999996
 20
390.4264556151565
 30
0.0
 11
-79.99999999999996
 21
391.5007959634993
 31
0.0
  0
LINE
  5
47D
  8
0
  6
CONTINUOUS
 62
     7
 10
-79.99999999999996
 20
391.5007959634992
 30
0.0
 11
-79.99931892561129
 21
391.5337363035769
 31
0.0
  0
LINE
  5
47E
  8
0
  6
CONTINUOUS
 62
     7
 10
-79.99931892561129
 20
391.533736303577
 30
0.0
 11
-79.99727903613139
 21
391.5666647081402
 31
0.0
  0
LINE
  5
47F
  8
0
  6
CONTINUOUS
 62
     7
 10
-79.9972790361314
 20
391.5666647081401
 30
0.0
 11
-79.99388533208956
 21
391.5994969984524
 31
0.0
  0
LINE
  5
480
  8
0
  6
CONTINUOUS
 62
     7
 10
-79.99388533208953
 20
391.5994969984524
 30
0.0
 11
-79.98914281401493
 21
391.6321489957767
 31
0.0
  0
LINE
  5
481
  8
0
  6
CONTINUOUS
 62
     7
 10
-79.98914281401493
 20
391.6321489957767
 30
0.0
 11
-79.9828540235149
 21
391.6655223443267
 31
0.0
  0
LINE
  5
482
  8
0
  6
CONTINUOUS
 62
     7
 10
-79.9828540235149
 20
391.6655223443267
 30
0.0
 11
-79.97514359677172
 21
391.6986440758834
 31
0.0
  0
LINE
  5
483
  8
0
  6
CONTINUOUS
 62
     7
 10
-79.97514359677172
 20
391.6986440758835
 30
0.0
 11
-79.96603269525002
 21
391.731423621312
 31
0.0
  0
LINE
  5
484
  8
0
  6
CONTINUOUS
 62
     7
 10
-79.96603269525005
 20
391.731423621312
 30
0.0
 11
-79.95554248041451
 21
391.7637704114767
 31
0.0
  0
LINE
  5
485
  8
0
  6
CONTINUOUS
 62
     7
 10
-79.95554248041448
 20
391.7637704114767
 30
0.0
 11
-79.94401734383916
 21
391.794792250569
 31
0.0
  0
LINE
  5
486
  8
0
  6
CONTINUOUS
 62
     7
 10
-79.94401734383918
 20
391.794792250569
 30
0.0
 11
-79.93120310388927
 21
391.825348334792
 31
0.0
  0
LINE
  5
487
  8
0
  6
CONTINUOUS
 62
     7
 10
-79.93120310388929
 20
391.825348334792
 30
0.0
 11
-79.91713364253569
 21
391.8553590272828
 31
0.0
  0
LINE
  5
488
  8
0
  6
CONTINUOUS
 62
     7
 10
-79.91713364253566
 20
391.8553590272828
 30
0.0
 11
-79.90184284174931
 21
391.8847446911766
 31
0.0
  0
LINE
  5
489
  8
0
  6
CONTINUOUS
 62
     7
 10
-79.90184284174934
 20
391.8847446911766
 30
0.0
 11
-79.88483559987492
 21
391.9143116542579
 31
0.0
  0
LINE
  5
48A
  8
0
  6
CONTINUOUS
 62
     7
 10
-79.88483559987492
 20
391.9143116542579
 30
0.0
 11
-79.86656204738513
 21
391.9431602825574
 31
0.0
  0
LINE
  5
48B
  8
0
  6
CONTINUOUS
 62
     7
 10
-79.86656204738513
 20
391.9431602825574
 30
0.0
 11
-79.84707406046003
 21
391.9712108733987
 31
0.0
  0
LINE
  5
48C
  8
0
  6
CONTINUOUS
 62
     7
 10
-79.84707406046002
 20
391.9712108733987
 30
0.0
 11
-79.8264235152797
 21
391.9983837241049
 31
0.0
  0
LINE
  5
48D
  8
0
  6
CONTINUOUS
 62
     7
 10
-79.82642351527969
 20
391.998383724105
 30
0.0
 11
-79.80540156329552
 21
392.0237535201683
 31
0.0
  0
LINE
  5
48E
  8
0
  6
CONTINUOUS
 62
     7
 10
-79.80540156329552
 20
392.0237535201682
 30
0.0
 11
-79.7833320453282
 21
392.0482592082592
 31
0.0
  0
LINE
  5
48F
  8
0
  6
CONTINUOUS
 62
     7
 10
-79.7833320453282
 20
392.0482592082592
 30
0.0
 11
-79.76027358465196
 21
392.0718381418955
 31
0.0
  0
LINE
  5
490
  8
0
  6
CONTINUOUS
 62
     7
 10
-79.76027358465198
 20
392.0718381418955
 30
0.0
 11
-79.73628480454096
 21
392.094427674595
 31
0.0
  0
LINE
  5
491
  8
0
  6
CONTINUOUS
 62
     7
 10
-79.73628480454094
 20
392.094427674595
 30
0.0
 11
-79.7106429929761
 21
392.1166197005772
 31
0.0
  0
LINE
  5
492
  8
0
  6
CONTINUOUS
 62
     7
 10
-79.71064299297609
 20
392.1166197005772
 30
0.0
 11
-79.68406178181797
 21
392.137722606811
 31
0.0
  0
LINE
  5
493
  8
0
  6
CONTINUOUS
 62
     7
 10
-79.68406178181797
 20
392.137722606811
 30
0.0
 11
-79.65661588294569
 21
392.1576803335782
 31
0.0
  0
LINE
  5
494
  8
0
  6
CONTINUOUS
 62
     7
 10
-79.6566158829457
 20
392.1576803335782
 30
0.0
 11
-79.62838000823804
 21
392.176436821161
 31
0.0
  0
LINE
  5
495
  8
0
  6
CONTINUOUS
 62
     7
 10
-79.62838000823804
 20
392.176436821161
 30
0.0
 11
-79.60028730690486
 21
392.1934472684933
 31
0.0
  0
LINE
  5
496
  8
0
  6
CONTINUOUS
 62
     7
 10
-79.60028730690487
 20
392.1934472684932
 30
0.0
 11
-79.57150241630343
 21
392.2093003099167
 31
0.0
  0
LINE
  5
497
  8
0
  6
CONTINUOUS
 62
     7
 10
-79.57150241630342
 20
392.2093003099167
 30
0.0
 11
-79.54210069045563
 21
392.2239576838427
 31
0.0
  0
LINE
  5
498
  8
0
  6
CONTINUOUS
 62
     7
 10
-79.54210069045564
 20
392.2239576838427
 30
0.0
 11
-79.51215748338355
 21
392.2373811286822
 31
0.0
  0
LINE
  5
499
  8
0
  6
CONTINUOUS
 62
     7
 10
-79.51215748338353
 20
392.2373811286822
 30
0.0
 11
-79.48081345522722
 21
392.2498881663961
 31
0.0
  0
LINE
  5
49A
  8
0
  6
CONTINUOUS
 62
     7
 10
-79.48081345522722
 20
392.2498881663961
 30
0.0
 11
-79.44895311523403
 21
392.2610683019152
 31
0.0
  0
LINE
  5
49B
  8
0
  6
CONTINUOUS
 62
     7
 10
-79.44895311523403
 20
392.2610683019152
 30
0.0
 11
-79.41666361061478
 21
392.2708947891872
 31
0.0
  0
LINE
  5
49C
  8
0
  6
CONTINUOUS
 62
     7
 10
-79.41666361061478
 20
392.2708947891873
 30
0.0
 11
-79.38403208858065
 21
392.2793408821601
 31
0.0
  0
LINE
  5
49D
  8
0
  6
CONTINUOUS
 62
     7
 10
-79.38403208858064
 20
392.2793408821601
 30
0.0
 11
-79.34770423697623
 21
392.287034791518
 31
0.0
  0
LINE
  5
49E
  8
0
  6
CONTINUOUS
 62
     7
 10
-79.34770423697623
 20
392.287034791518
 30
0.0
 11
-79.31101730852636
 21
392.2930384743025
 31
0.0
  0
LINE
  5
49F
  8
0
  6
CONTINUOUS
 62
     7
 10
-79.31101730852636
 20
392.2930384743025
 30
0.0
 11
-79.2740910970206
 21
392.297340710542
 31
0.0
  0
LINE
  5
4A0
  8
0
  6
CONTINUOUS
 62
     7
 10
-79.2740910970206
 20
392.297340710542
 30
0.0
 11
-79.23704539624862
 21
392.2999302802648
 31
0.0
  0
LINE
  5
4A1
  8
0
  6
CONTINUOUS
 62
     7
 10
-79.23704539624865
 20
392.2999302802648
 30
0.0
 11
-79.19999999999996
 21
392.3007959634992
 31
0.0
  0
LINE
  5
4A2
  8
0
  6
CONTINUOUS
 62
     7
 10
-79.19999999999993
 20
392.3007959634992
 30
0.0
 11
-77.33359082583468
 21
392.3007959634992
 31
0.0
  0
LINE
  5
4A3
  8
0
  6
CONTINUOUS
 62
     7
 10
-77.33359082583469
 20
393.3007959634992
 30
0.0
 11
-79.19999999999995
 21
393.3007959634992
 31
0.0
  0
LINE
  5
4A4
  8
0
  6
CONTINUOUS
 62
     7
 10
-79.19999999999993
 20
393.3007959634992
 30
0.0
 11
-79.232841874811
 21
393.3014706515105
 31
0.0
  0
LINE
  5
4A5
  8
0
  6
CONTINUOUS
 62
     7
 10
-79.232841874811
 20
393.3014706515104
 30
0.0
 11
-79.2656442341774
 21
393.3034937406756
 31
0.0
  0
LINE
  5
4A6
  8
0
  6
CONTINUOUS
 62
     7
 10
-79.26564423417742
 20
393.3034937406757
 30
0.0
 11
-79.2985752649051
 21
393.3068926682367
 31
0.0
  0
LINE
  5
4A7
  8
0
  6
CONTINUOUS
 62
     7
 10
-79.29857526490508
 20
393.3068926682367
 30
0.0
 11
-79.3313530322775
 21
393.3116531494842
 31
0.0
  0
LINE
  5
4A8
  8
0
  6
CONTINUOUS
 62
     7
 10
-79.3313530322775
 20
393.3116531494842
 30
0.0
 11
-79.36462043005012
 21
393.3179169236719
 31
0.0
  0
LINE
  5
4A9
  8
0
  6
CONTINUOUS
 62
     7
 10
-79.36462043005012
 20
393.3179169236719
 30
0.0
 11
-79.39760819628638
 21
393.3255856689594
 31
0.0
  0
LINE
  5
4AA
  8
0
  6
CONTINUOUS
 62
     7
 10
-79.39760819628638
 20
393.3255856689594
 30
0.0
 11
-79.43049423129183
 21
393.3347203372385
 31
0.0
  0
LINE
  5
4AB
  8
0
  6
CONTINUOUS
 62
     7
 10
-79.43049423129183
 20
393.3347203372385
 30
0.0
 11
-79.46297444797747
 21
393.3452534830847
 31
0.0
  0
LINE
  5
4AC
  8
0
  6
CONTINUOUS
 62
     7
 10
-79.46297444797747
 20
393.3452534830847
 30
0.0
 11
-79.49390300136666
 21
393.3567391458974
 31
0.0
  0
LINE
  5
4AD
  8
0
  6
CONTINUOUS
 62
     7
 10
-79.49390300136666
 20
393.3567391458974
 30
0.0
 11
-79.52434262626227
 21
393.369494479302
 31
0.0
  0
LINE
  5
4AE
  8
0
  6
CONTINUOUS
 62
     7
 10
-79.52434262626225
 20
393.369494479302
 30
0.0
 11
-79.55444727335814
 21
393.3836023808025
 31
0.0
  0
LINE
  5
4AF
  8
0
  6
CONTINUOUS
 62
     7
 10
-79.55444727335814
 20
393.3836023808024
 30
0.0
 11
-79.58394872767742
 21
393.39895312175
 31
0.0
  0
LINE
  5
4B0
  8
0
  6
CONTINUOUS
 62
     7
 10
-79.58394872767744
 20
393.39895312175
 30
0.0
 11
-79.61342183405884
 21
393.4159004654689
 31
0.0
  0
LINE
  5
4B1
  8
0
  6
CONTINUOUS
 62
     7
 10
-79.61342183405884
 20
393.4159004654689
 30
0.0
 11
-79.6421552464481
 21
393.4340885778807
 31
0.0
  0
LINE
  5
4B2
  8
0
  6
CONTINUOUS
 62
     7
 10
-79.64215524644807
 20
393.4340885778807
 30
0.0
 11
-79.67030064672826
 21
393.4536354434402
 31
0.0
  0
LINE
  5
4B3
  8
0
  6
CONTINUOUS
 62
     7
 10
-79.67030064672828
 20
393.4536354434402
 30
0.0
 11
-79.69758776060561
 21
393.4743724482195
 31
0.0
  0
LINE
  5
4B4
  8
0
  6
CONTINUOUS
 62
     7
 10
-79.69758776060561
 20
393.4743724482195
 30
0.0
 11
-79.7228831467346
 21
393.4953269396828
 31
0.0
  0
LINE
  5
4B5
  8
0
  6
CONTINUOUS
 62
     7
 10
-79.72288314673459
 20
393.4953269396828
 30
0.0
 11
-79.74729910599659
 21
393.5173032998132
 31
0.0
  0
LINE
  5
4B6
  8
0
  6
CONTINUOUS
 62
     7
 10
-79.74729910599659
 20
393.5173032998132
 30
0.0
 11
-79.77095341237775
 21
393.540428484937
 31
0.0
  0
LINE
  5
4B7
  8
0
  6
CONTINUOUS
 62
     7
 10
-79.77095341237778
 20
393.540428484937
 30
0.0
 11
-79.79363171109567
 21
393.5645111589582
 31
0.0
  0
LINE
  5
4B8
  8
0
  6
CONTINUOUS
 62
     7
 10
-79.79363171109566
 20
393.5645111589582
 30
0.0
 11
-79.81575602045194
 21
393.5900670826467
 31
0.0
  0
LINE
  5
4B9
  8
0
  6
CONTINUOUS
 62
     7
 10
-79.81575602045193
 20
393.5900670826467
 30
0.0
 11
-79.83677964930321
 21
393.616531905125
 31
0.0
  0
LINE
  5
4BA
  8
0
  6
CONTINUOUS
 62
     7
 10
-79.83677964930324
 20
393.616531905125
 30
0.0
 11
-79.85680629932091
 21
393.6440630684614
 31
0.0
  0
LINE
  5
4BB
  8
0
  6
CONTINUOUS
 62
     7
 10
-79.85680629932091
 20
393.6440630684614
 30
0.0
 11
-79.87564085766175
 21
393.6724159552612
 31
0.0
  0
LINE
  5
4BC
  8
0
  6
CONTINUOUS
 62
     7
 10
-79.87564085766175
 20
393.6724159552612
 30
0.0
 11
-79.89260385187123
 21
393.7004218418085
 31
0.0
  0
LINE
  5
4BD
  8
0
  6
CONTINUOUS
 62
     7
 10
-79.89260385187121
 20
393.7004218418085
 30
0.0
 11
-79.90840349532155
 21
393.7290911238535
 31
0.0
  0
LINE
  5
4BE
  8
0
  6
CONTINUOUS
 62
     7
 10
-79.90840349532155
 20
393.7290911238534
 30
0.0
 11
-79.92325282821729
 21
393.7588882406855
 31
0.0
  0
LINE
  5
4BF
  8
0
  6
CONTINUOUS
 62
     7
 10
-79.92325282821727
 20
393.7588882406856
 30
0.0
 11
-79.9368575016039
 21
393.7892946066045
 31
0.0
  0
LINE
  5
4C0
  8
0
  6
CONTINUOUS
 62
     7
 10
-79.9368575016039
 20
393.7892946066045
 30
0.0
 11
-79.94918463340346
 21
393.8202288117745
 31
0.0
  0
LINE
  5
4C1
  8
0
  6
CONTINUOUS
 62
     7
 10
-79.94918463340348
 20
393.8202288117745
 30
0.0
 11
-79.96020134153773
 21
393.8516094463598
 31
0.0
  0
LINE
  5
4C2
  8
0
  6
CONTINUOUS
 62
     7
 10
-79.96020134153773
 20
393.8516094463598
 30
0.0
 11
-79.97006415934521
 21
393.8839995956638
 31
0.0
  0
LINE
  5
4C3
  8
0
  6
CONTINUOUS
 62
     7
 10
-79.97006415934521
 20
393.8839995956638
 30
0.0
 11
-79.97854491866079
 21
393.9167638749187
 31
0.0
  0
LINE
  5
4C4
  8
0
  6
CONTINUOUS
 62
     7
 10
-79.9785449186608
 20
393.9167638749187
 30
0.0
 11
-79.98504454088001
 21
393.9468360683007
 31
0.0
  0
LINE
  5
4C5
  8
0
  6
CONTINUOUS
 62
     7
 10
-79.98504454088001
 20
393.9468360683007
 30
0.0
 11
-79.99038369756231
 21
393.9771343666634
 31
0.0
  0
LINE
  5
4C6
  8
0
  6
CONTINUOUS
 62
     7
 10
-79.99038369756231
 20
393.9771343666634
 30
0.0
 11
-79.99455195445512
 21
394.0075908581052
 31
0.0
  0
LINE
  5
4C7
  8
0
  6
CONTINUOUS
 62
     7
 10
-79.99455195445512
 20
394.0075908581053
 30
0.0
 11
-79.99757699201068
 21
394.0385909276642
 31
0.0
  0
LINE
  5
4C8
  8
0
  6
CONTINUOUS
 62
     7
 10
-79.99757699201065
 20
394.0385909276642
 30
0.0
 11
-79.99939383439913
 21
394.0696829192142
 31
0.0
  0
LINE
  5
4C9
  8
0
  6
CONTINUOUS
 62
     7
 10
-79.99939383439913
 20
394.0696829192142
 30
0.0
 11
-79.99999999999993
 21
394.1007959634992
 31
0.0
  0
LINE
  5
4CA
  8
0
  6
CONTINUOUS
 62
     7
 10
-79.99999999999996
 20
394.1007959634992
 30
0.0
 11
-79.99999999999996
 21
395.175136311842
 31
0.0
  0
ARC
  5
4CB
  8
0
  6
CONTINUOUS
 62
     7
 10
-80.4999999999999
 20
392.8007959634992
 30
0.0
 40
2.426415481686539
 50
78.10813302154226
 51
101.8918669784577
  0
LINE
  5
4CC
  8
0
  6
CONTINUOUS
 62
     7
 10
-80.99999999999996
 20
395.175136311842
 30
0.0
 11
-80.99999999999996
 21
394.1007959634992
 31
0.0
  0
LINE
  5
4CD
  8
0
  6
CONTINUOUS
 62
     7
 10
-80.99999999999996
 20
394.1007959634992
 30
0.0
 11
-81.00067468801107
 21
394.0679540886882
 31
0.0
  0
LINE
  5
4CE
  8
0
  6
CONTINUOUS
 62
     7
 10
-81.00067468801106
 20
394.0679540886882
 30
0.0
 11
-81.00269777717646
 21
394.0351517293217
 31
0.0
  0
LINE
  5
4CF
  8
0
  6
CONTINUOUS
 62
     7
 10
-81.00269777717645
 20
394.0351517293217
 30
0.0
 11
-81.00609670473752
 21
394.0022206985943
 31
0.0
  0
LINE
  5
4D0
  8
0
  6
CONTINUOUS
 62
     7
 10
-81.00609670473752
 20
394.0022206985943
 30
0.0
 11
-81.01085718598495
 21
393.9694429312217
 31
0.0
  0
LINE
  5
4D1
  8
0
  6
CONTINUOUS
 62
     7
 10
-81.01085718598496
 20
393.9694429312217
 30
0.0
 11
-81.0171209601728
 21
393.936175533449
 31
0.0
  0
LINE
  5
4D2
  8
0
  6
CONTINUOUS
 62
     7
 10
-81.0171209601728
 20
393.936175533449
 30
0.0
 11
-81.02478970546021
 21
393.9031877672127
 31
0.0
  0
LINE
  5
4D3
  8
0
  6
CONTINUOUS
 62
     7
 10
-81.02478970546021
 20
393.9031877672127
 30
0.0
 11
-81.03392437373928
 21
393.8703017322075
 31
0.0
  0
LINE
  5
4D4
  8
0
  6
CONTINUOUS
 62
     7
 10
-81.0339243737393
 20
393.8703017322075
 30
0.0
 11
-81.04445751958545
 21
393.8378215155217
 31
0.0
  0
LINE
  5
4D5
  8
0
  6
CONTINUOUS
 62
     7
 10
-81.04445751958545
 20
393.8378215155217
 30
0.0
 11
-81.05594318239822
 21
393.8068929621325
 31
0.0
  0
LINE
  5
4D6
  8
0
  6
CONTINUOUS
 62
     7
 10
-81.05594318239822
 20
393.8068929621325
 30
0.0
 11
-81.0686985158026
 21
393.776453337237
 31
0.0
  0
LINE
  5
4D7
  8
0
  6
CONTINUOUS
 62
     7
 10
-81.0686985158026
 20
393.776453337237
 30
0.0
 11
-81.08280641730326
 21
393.746348690141
 31
0.0
  0
LINE
  5
4D8
  8
0
  6
CONTINUOUS
 62
     7
 10
-81.08280641730326
 20
393.746348690141
 30
0.0
 11
-81.0981571582506
 21
393.7168472358218
 31
0.0
  0
LINE
  5
4D9
  8
0
  6
CONTINUOUS
 62
     7
 10
-81.09815715825061
 20
393.7168472358218
 30
0.0
 11
-81.11510450196961
 21
393.6873741294405
 31
0.0
  0
LINE
  5
4DA
  8
0
  6
CONTINUOUS
 62
     7
 10
-81.1151045019696
 20
393.6873741294405
 30
0.0
 11
-81.13329261438136
 21
393.6586407170512
 31
0.0
  0
LINE
  5
4DB
  8
0
  6
CONTINUOUS
 62
     7
 10
-81.13329261438135
 20
393.6586407170512
 30
0.0
 11
-81.15283947994087
 21
393.630495316771
 31
0.0
  0
LINE
  5
4DC
  8
0
  6
CONTINUOUS
 62
     7
 10
-81.1528394799409
 20
393.630495316771
 30
0.0
 11
-81.17357648472017
 21
393.6032082028937
 31
0.0
  0
LINE
  5
4DD
  8
0
  6
CONTINUOUS
 62
     7
 10
-81.17357648472017
 20
393.6032082028937
 30
0.0
 11
-81.19453097618336
 21
393.5779128167644
 31
0.0
  0
LINE
  5
4DE
  8
0
  6
CONTINUOUS
 62
     7
 10
-81.19453097618334
 20
393.5779128167644
 30
0.0
 11
-81.21650733631405
 21
393.5534968575025
 31
0.0
  0
LINE
  5
4DF
  8
0
  6
CONTINUOUS
 62
     7
 10
-81.21650733631405
 20
393.5534968575025
 30
0.0
 11
-81.23963252143767
 21
393.5298425511215
 31
0.0
  0
LINE
  5
4E0
  8
0
  6
CONTINUOUS
 62
     7
 10
-81.23963252143767
 20
393.5298425511214
 30
0.0
 11
-81.26371519545891
 21
393.5071642524034
 31
0.0
  0
LINE
  5
4E1
  8
0
  6
CONTINUOUS
 62
     7
 10
-81.26371519545891
 20
393.5071642524035
 30
0.0
 11
-81.28927111914734
 21
393.4850399430473
 31
0.0
  0
LINE
  5
4E2
  8
0
  6
CONTINUOUS
 62
     7
 10
-81.28927111914736
 20
393.4850399430473
 30
0.0
 11
-81.31573594162562
 21
393.464016314196
 31
0.0
  0
LINE
  5
4E3
  8
0
  6
CONTINUOUS
 62
     7
 10
-81.3157359416256
 20
393.464016314196
 30
0.0
 11
-81.34326710496214
 21
393.4439896641783
 31
0.0
  0
LINE
  5
4E4
  8
0
  6
CONTINUOUS
 62
     7
 10
-81.34326710496215
 20
393.4439896641783
 30
0.0
 11
-81.3716199917619
 21
393.4251551058375
 31
0.0
  0
LINE
  5
4E5
  8
0
  6
CONTINUOUS
 62
     7
 10
-81.3716199917619
 20
393.4251551058375
 30
0.0
 11
-81.39962587830927
 21
393.408192111628
 31
0.0
  0
LINE
  5
4E6
  8
0
  6
CONTINUOUS
 62
     7
 10
-81.39962587830927
 20
393.408192111628
 30
0.0
 11
-81.42829516035411
 21
393.3923924681777
 31
0.0
  0
LINE
  5
4E7
  8
0
  6
CONTINUOUS
 62
     7
 10
-81.4282951603541
 20
393.3923924681777
 30
0.0
 11
-81.4580922771862
 21
393.3775431352819
 31
0.0
  0
LINE
  5
4E8
  8
0
  6
CONTINUOUS
 62
     7
 10
-81.4580922771862
 20
393.377543135282
 30
0.0
 11
-81.48849864310523
 21
393.3639384618952
 31
0.0
  0
LINE
  5
4E9
  8
0
  6
CONTINUOUS
 62
     7
 10
-81.48849864310526
 20
393.3639384618952
 30
0.0
 11
-81.51943284827536
 21
393.3516113300957
 31
0.0
  0
LINE
  5
4EA
  8
0
  6
CONTINUOUS
 62
     7
 10
-81.51943284827534
 20
393.3516113300957
 30
0.0
 11
-81.55081348286036
 21
393.3405946219615
 31
0.0
  0
LINE
  5
4EB
  8
0
  6
CONTINUOUS
 62
     7
 10
-81.55081348286036
 20
393.3405946219615
 30
0.0
 11
-81.58320363216438
 21
393.330731804154
 31
0.0
  0
LINE
  5
4EC
  8
0
  6
CONTINUOUS
 62
     7
 10
-81.58320363216437
 20
393.330731804154
 30
0.0
 11
-81.61596791141928
 21
393.3222510448385
 31
0.0
  0
LINE
  5
4ED
  8
0
  6
CONTINUOUS
 62
     7
 10
-81.61596791141929
 20
393.3222510448385
 30
0.0
 11
-81.64604010480141
 21
393.3157514226193
 31
0.0
  0
LINE
  5
4EE
  8
0
  6
CONTINUOUS
 62
     7
 10
-81.64604010480141
 20
393.3157514226193
 30
0.0
 11
-81.67633840316412
 21
393.3104122659369
 31
0.0
  0
LINE
  5
4EF
  8
0
  6
CONTINUOUS
 62
     7
 10
-81.67633840316412
 20
393.3104122659369
 30
0.0
 11
-81.70679489460599
 21
393.306244009044
 31
0.0
  0
LINE
  5
4F0
  8
0
  6
CONTINUOUS
 62
     7
 10
-81.70679489460599
 20
393.306244009044
 30
0.0
 11
-81.73779496416489
 21
393.3032189714885
 31
0.0
  0
LINE
  5
4F1
  8
0
  6
CONTINUOUS
 62
     7
 10
-81.73779496416489
 20
393.3032189714885
 30
0.0
 11
-81.76888695571499
 21
393.3014021291
 31
0.0
  0
LINE
  5
4F2
  8
0
  6
CONTINUOUS
 62
     7
 10
-81.76888695571499
 20
393.3014021291
 30
0.0
 11
-81.79999999999991
 21
393.3007959634992
 31
0.0
  0
LINE
  5
4F3
  8
0
  6
CONTINUOUS
 62
     7
 10
-81.79999999999993
 20
393.3007959634992
 30
0.0
 11
-83.66640917416527
 21
393.3007959634992
 31
0.0
  0
LINE
  5
4F4
  8
0
  6
CONTINUOUS
 62
     7
 10
-84.84345120993397
 20
393.3007959634992
 30
0.0
 11
-83.66640917416525
 21
393.3007959634992
 31
0.0
  0
LINE
  5
4F5
  8
0
  6
CONTINUOUS
 62
     7
 10
-77.33359082583469
 20
393.3007959634992
 30
0.0
 11
-76.15654879006594
 21
393.3007959634992
 31
0.0
  0
LINE
  5
4F6
  8
0
  6
CONTINUOUS
 62
     7
 10
-76.15654879006594
 20
392.3007959634992
 30
0.0
 11
-77.33359082583469
 21
392.3007959634992
 31
0.0
  0
LINE
  5
4F7
  8
0
  6
CONTINUOUS
 62
     7
 10
-83.66640917416524
 20
392.3007959634992
 30
0.0
 11
-84.84345120993737
 21
392.3007959634992
 31
0.0
  0
ARC
  5
4F8
  8
0
  6
CONTINUOUS
 62
     7
 10
-80.4999999999999
 20
392.8007959634992
 30
0.0
 40
4.500000000000032
 50
180.0
 51
187.3479195276943
  0
ARC
  5
4F9
  8
0
  6
CONTINUOUS
 62
     7
 10
-80.4999999999999
 20
392.8007959634992
 30
0.0
 40
4.500000000000032
 50
187.3479195276943
 51
352.7852171100404
  0
ARC
  5
4FA
  8
0
  6
CONTINUOUS
 62
     7
 10
-80.4999999999999
 20
392.8007959634992
 30
0.0
 40
4.500000000000004
 50
352.7852171100404
 51
7.352577992492457
  0
ARC
  5
4FB
  8
0
  6
CONTINUOUS
 62
     7
 10
-80.4999999999999
 20
392.8007959634992
 30
0.0
 40
4.500000000000004
 50
7.352577992492363
 51
180.0
  0
ARC
  5
4FC
  8
0
  6
CONTINUOUS
 62
     7
 10
-80.4999999999999
 20
392.8007959634992
 30
0.0
 40
4.412511336474107
 50
173.493602285612
 51
186.506397714388
  0
ARC
  5
4FD
  8
0
  6
CONTINUOUS
 62
     7
 10
-80.4999999999999
 20
392.8007959634992
 30
0.0
 40
4.412511336474078
 50
353.4936022856121
 51
6.506397714387958
  0
LINE
  5
4FE
  8
0
  6
CONTINUOUS
 62
     7
 10
-84.88409127351515
 20
393.3007959634992
 30
0.0
 11
-84.8561316112695
 21
393.3007959634992
 31
0.0
  0
LINE
  5
4FF
  8
0
  6
CONTINUOUS
 62
     7
 10
-76.11590872648475
 20
392.3007959634992
 30
0.0
 11
-76.1438683887304
 21
392.3007959634992
 31
0.0
  0
ARC
  5
500
  8
0
  6
CONTINUOUS
 62
     7
 10
-80.4999999999999
 20
392.8007959634992
 30
0.0
 40
1.403262301477137
 50
159.1260896468198
 51
200.8739103531802
  0
ARC
  5
501
  8
0
  6
CONTINUOUS
 62
     7
 10
-80.4999999999999
 20
392.8007959634992
 30
0.0
 40
1.40326230147711
 50
339.1260896468198
 51
20.87391035318024
  0
LINE
  5
502
  8
0
  6
CONTINUOUS
 62
     7
 10
153.6664091741653
 20
624.3007959634991
 30
0.0
 11
151.8
 21
624.3007959634991
 31
0.0
  0
LINE
  5
503
  8
0
  6
CONTINUOUS
 62
     7
 10
151.8
 20
624.3007959634991
 30
0.0
 11
151.7670596599223
 21
624.301477037888
 31
0.0
  0
LINE
  5
504
  8
0
  6
CONTINUOUS
 62
     7
 10
151.7670596599223
 20
624.3014770378879
 30
0.0
 11
151.734131255359
 21
624.3035169273676
 31
0.0
  0
LINE
  5
505
  8
0
  6
CONTINUOUS
 62
     7
 10
151.734131255359
 20
624.3035169273676
 30
0.0
 11
151.701298965047
 21
624.3069106314098
 31
0.0
  0
LINE
  5
506
  8
0
  6
CONTINUOUS
 62
     7
 10
151.701298965047
 20
624.3069106314098
 30
0.0
 11
151.6686469677226
 21
624.3116531494842
 31
0.0
  0
LINE
  5
507
  8
0
  6
CONTINUOUS
 62
     7
 10
151.6686469677225
 20
624.3116531494842
 30
0.0
 11
151.6352736191728
 21
624.3179419399842
 31
0.0
  0
LINE
  5
508
  8
0
  6
CONTINUOUS
 62
     7
 10
151.6352736191728
 20
624.3179419399842
 30
0.0
 11
151.6021518876157
 21
624.3256523667275
 31
0.0
  0
LINE
  5
509
  8
0
  6
CONTINUOUS
 62
     7
 10
151.6021518876157
 20
624.3256523667275
 30
0.0
 11
151.5693723421872
 21
624.334763268249
 31
0.0
  0
LINE
  5
50A
  8
0
  6
CONTINUOUS
 62
     7
 10
151.5693723421873
 20
624.3347632682492
 30
0.0
 11
151.5370255520225
 21
624.345253483085
 31
0.0
  0
LINE
  5
50B
  8
0
  6
CONTINUOUS
 62
     7
 10
151.5370255520225
 20
624.345253483085
 30
0.0
 11
151.5060037129305
 21
624.3567786196601
 31
0.0
  0
LINE
  5
50C
  8
0
  6
CONTINUOUS
 62
     7
 10
151.5060037129305
 20
624.3567786196601
 30
0.0
 11
151.4754476287073
 21
624.3695928596101
 31
0.0
  0
LINE
  5
50D
  8
0
  6
CONTINUOUS
 62
     7
 10
151.4754476287072
 20
624.3695928596101
 30
0.0
 11
151.4454369362168
 21
624.3836623209637
 31
0.0
  0
LINE
  5
50E
  8
0
  6
CONTINUOUS
 62
     7
 10
151.4454369362168
 20
624.3836623209637
 30
0.0
 11
151.4160512723226
 21
624.39895312175
 31
0.0
  0
LINE
  5
50F
  8
0
  6
CONTINUOUS
 62
     7
 10
151.4160512723225
 20
624.39895312175
 30
0.0
 11
151.3864843092415
 21
624.4159603636243
 31
0.0
  0
LINE
  5
510
  8
0
  6
CONTINUOUS
 62
     7
 10
151.3864843092415
 20
624.4159603636244
 30
0.0
 11
151.3576356809418
 21
624.4342339161142
 31
0.0
  0
LINE
  5
511
  8
0
  6
CONTINUOUS
 62
     7
 10
151.3576356809418
 20
624.4342339161142
 30
0.0
 11
151.3295850901005
 21
624.4537219030392
 31
0.0
  0
LINE
  5
512
  8
0
  6
CONTINUOUS
 62
     7
 10
151.3295850901005
 20
624.4537219030393
 30
0.0
 11
151.3024122393943
 21
624.4743724482196
 31
0.0
  0
LINE
  5
513
  8
0
  6
CONTINUOUS
 62
     7
 10
151.3024122393943
 20
624.4743724482195
 30
0.0
 11
151.277042443331
 21
624.4953944002037
 31
0.0
  0
LINE
  5
514
  8
0
  6
CONTINUOUS
 62
     7
 10
151.277042443331
 20
624.4953944002038
 30
0.0
 11
151.25253675524
 21
624.5174639181713
 31
0.0
  0
LINE
  5
515
  8
0
  6
CONTINUOUS
 62
     7
 10
151.25253675524
 20
624.5174639181712
 30
0.0
 11
151.2289578216038
 21
624.5405223788474
 31
0.0
  0
LINE
  5
516
  8
0
  6
CONTINUOUS
 62
     7
 10
151.2289578216038
 20
624.5405223788474
 30
0.0
 11
151.2063682889043
 21
624.5645111589585
 31
0.0
  0
LINE
  5
517
  8
0
  6
CONTINUOUS
 62
     7
 10
151.2063682889043
 20
624.5645111589583
 30
0.0
 11
151.1841762629221
 21
624.5901529705231
 31
0.0
  0
LINE
  5
518
  8
0
  6
CONTINUOUS
 62
     7
 10
151.184176262922
 20
624.5901529705233
 30
0.0
 11
151.1630733566882
 21
624.6167341816813
 31
0.0
  0
LINE
  5
519
  8
0
  6
CONTINUOUS
 62
     7
 10
151.1630733566882
 20
624.6167341816812
 30
0.0
 11
151.143115629921
 21
624.6441800805535
 31
0.0
  0
LINE
  5
51A
  8
0
  6
CONTINUOUS
 62
     7
 10
151.1431156299211
 20
624.6441800805535
 30
0.0
 11
151.1243591423383
 21
624.6724159552613
 31
0.0
  0
LINE
  5
51B
  8
0
  6
CONTINUOUS
 62
     7
 10
151.1243591423383
 20
624.6724159552613
 30
0.0
 11
151.1073486950062
 21
624.7005086565945
 31
0.0
  0
LINE
  5
51C
  8
0
  6
CONTINUOUS
 62
     7
 10
151.1073486950062
 20
624.7005086565944
 30
0.0
 11
151.0914956535828
 21
624.729293547196
 31
0.0
  0
LINE
  5
51D
  8
0
  6
CONTINUOUS
 62
     7
 10
151.0914956535828
 20
624.729293547196
 30
0.0
 11
151.0768382796567
 21
624.7586952730434
 31
0.0
  0
LINE
  5
51E
  8
0
  6
CONTINUOUS
 62
     7
 10
151.0768382796567
 20
624.7586952730434
 30
0.0
 11
151.063414834817
 21
624.7886384801157
 31
0.0
  0
LINE
  5
51F
  8
0
  6
CONTINUOUS
 62
     7
 10
151.063414834817
 20
624.7886384801158
 30
0.0
 11
151.050907797103
 21
624.819982508272
 31
0.0
  0
LINE
  5
520
  8
0
  6
CONTINUOUS
 62
     7
 10
151.0509077971031
 20
624.8199825082719
 30
0.0
 11
151.039727661584
 21
624.8518428482652
 31
0.0
  0
LINE
  5
521
  8
0
  6
CONTINUOUS
 62
     7
 10
151.039727661584
 20
624.8518428482652
 30
0.0
 11
151.029901174312
 21
624.8841323528844
 31
0.0
  0
LINE
  5
522
  8
0
  6
CONTINUOUS
 62
     7
 10
151.029901174312
 20
624.8841323528844
 30
0.0
 11
151.0214550813392
 21
624.9167638749186
 31
0.0
  0
LINE
  5
523
  8
0
  6
CONTINUOUS
 62
     7
 10
151.0214550813392
 20
624.9167638749186
 30
0.0
 11
151.0137611719812
 21
624.9530917265231
 31
0.0
  0
LINE
  5
524
  8
0
  6
CONTINUOUS
 62
     7
 10
151.0137611719812
 20
624.9530917265231
 30
0.0
 11
151.0077574891967
 21
624.989778654973
 31
0.0
  0
LINE
  5
525
  8
0
  6
CONTINUOUS
 62
     7
 10
151.0077574891968
 20
624.989778654973
 30
0.0
 11
151.0034552529575
 21
625.0267048664787
 31
0.0
  0
LINE
  5
526
  8
0
  6
CONTINUOUS
 62
     7
 10
151.0034552529575
 20
625.0267048664787
 30
0.0
 11
151.0008656832345
 21
625.0637505672506
 31
0.0
  0
LINE
  5
527
  8
0
  6
CONTINUOUS
 62
     7
 10
151.0008656832345
 20
625.0637505672506
 30
0.0
 11
151.0
 21
625.1007959634994
 31
0.0
  0
LINE
  5
528
  8
0
  6
CONTINUOUS
 62
     7
 10
151.0
 20
625.1007959634993
 30
0.0
 11
151.0
 21
626.1751363118419
 31
0.0
  0
ARC
  5
529
  8
0
  6
CONTINUOUS
 62
     7
 10
150.5
 20
623.8007959634992
 30
0.0
 40
2.426415481686484
 50
78.10813302154226
 51
101.8918669784577
  0
LINE
  5
52A
  8
0
  6
CONTINUOUS
 62
     7
 10
150.0
 20
626.1751363118419
 30
0.0
 11
150.0
 21
625.1007959634992
 31
0.0
  0
LINE
  5
52B
  8
0
  6
CONTINUOUS
 62
     7
 10
150.0
 20
625.1007959634993
 30
0.0
 11
149.9993189256112
 21
625.0678556234215
 31
0.0
  0
LINE
  5
52C
  8
0
  6
CONTINUOUS
 62
     7
 10
149.9993189256112
 20
625.0678556234215
 30
0.0
 11
149.9972790361315
 21
625.0349272188585
 31
0.0
  0
LINE
  5
52D
  8
0
  6
CONTINUOUS
 62
     7
 10
149.9972790361315
 20
625.0349272188585
 30
0.0
 11
149.9938853320895
 21
625.0020949285463
 31
0.0
  0
LINE
  5
52E
  8
0
  6
CONTINUOUS
 62
     7
 10
149.9938853320895
 20
625.0020949285463
 30
0.0
 11
149.9891428140149
 21
624.9694429312218
 31
0.0
  0
LINE
  5
52F
  8
0
  6
CONTINUOUS
 62
     7
 10
149.989142814015
 20
624.9694429312218
 30
0.0
 11
149.982854023515
 21
624.936069582672
 31
0.0
  0
LINE
  5
530
  8
0
  6
CONTINUOUS
 62
     7
 10
149.982854023515
 20
624.936069582672
 30
0.0
 11
149.9751435967718
 21
624.902947851115
 31
0.0
  0
LINE
  5
531
  8
0
  6
CONTINUOUS
 62
     7
 10
149.9751435967718
 20
624.9029478511148
 30
0.0
 11
149.96603269525
 21
624.8701683056864
 31
0.0
  0
LINE
  5
532
  8
0
  6
CONTINUOUS
 62
     7
 10
149.96603269525
 20
624.8701683056865
 30
0.0
 11
149.9555424804145
 21
624.8378215155217
 31
0.0
  0
LINE
  5
533
  8
0
  6
CONTINUOUS
 62
     7
 10
149.9555424804145
 20
624.8378215155216
 30
0.0
 11
149.9440173438393
 21
624.8067996764297
 31
0.0
  0
LINE
  5
534
  8
0
  6
CONTINUOUS
 62
     7
 10
149.9440173438393
 20
624.8067996764297
 30
0.0
 11
149.9312031038892
 21
624.7762435922064
 31
0.0
  0
LINE
  5
535
  8
0
  6
CONTINUOUS
 62
     7
 10
149.9312031038892
 20
624.7762435922065
 30
0.0
 11
149.9171336425358
 21
624.746232899716
 31
0.0
  0
LINE
  5
536
  8
0
  6
CONTINUOUS
 62
     7
 10
149.9171336425358
 20
624.746232899716
 30
0.0
 11
149.9018428417495
 21
624.7168472358218
 31
0.0
  0
LINE
  5
537
  8
0
  6
CONTINUOUS
 62
     7
 10
149.9018428417495
 20
624.7168472358218
 30
0.0
 11
149.884835599875
 21
624.6872802727406
 31
0.0
  0
LINE
  5
538
  8
0
  6
CONTINUOUS
 62
     7
 10
149.884835599875
 20
624.6872802727407
 30
0.0
 11
149.8665620473852
 21
624.6584316444411
 31
0.0
  0
LINE
  5
539
  8
0
  6
CONTINUOUS
 62
     7
 10
149.8665620473852
 20
624.658431644441
 30
0.0
 11
149.84707406046
 21
624.6303810535996
 31
0.0
  0
LINE
  5
53A
  8
0
  6
CONTINUOUS
 62
     7
 10
149.84707406046
 20
624.6303810535996
 30
0.0
 11
149.8264235152798
 21
624.6032082028935
 31
0.0
  0
LINE
  5
53B
  8
0
  6
CONTINUOUS
 62
     7
 10
149.8264235152798
 20
624.6032082028935
 30
0.0
 11
149.8054015632956
 21
624.5778384068306
 31
0.0
  0
LINE
  5
53C
  8
0
  6
CONTINUOUS
 62
     7
 10
149.8054015632956
 20
624.5778384068306
 30
0.0
 11
149.7833320453283
 21
624.5533327187392
 31
0.0
  0
LINE
  5
53D
  8
0
  6
CONTINUOUS
 62
     7
 10
149.7833320453282
 20
624.5533327187392
 30
0.0
 11
149.7602735846521
 21
624.5297537851029
 31
0.0
  0
LINE
  5
53E
  8
0
  6
CONTINUOUS
 62
     7
 10
149.7602735846521
 20
624.5297537851029
 30
0.0
 11
149.736284804541
 21
624.5071642524038
 31
0.0
  0
LINE
  5
53F
  8
0
  6
CONTINUOUS
 62
     7
 10
149.736284804541
 20
624.5071642524038
 30
0.0
 11
149.7106429929762
 21
624.4849722264214
 31
0.0
  0
LINE
  5
540
  8
0
  6
CONTINUOUS
 62
     7
 10
149.7106429929762
 20
624.4849722264214
 30
0.0
 11
149.684061781818
 21
624.4638693201873
 31
0.0
  0
LINE
  5
541
  8
0
  6
CONTINUOUS
 62
     7
 10
149.684061781818
 20
624.4638693201874
 30
0.0
 11
149.6566158829458
 21
624.4439115934206
 31
0.0
  0
LINE
  5
542
  8
0
  6
CONTINUOUS
 62
     7
 10
149.6566158829457
 20
624.4439115934206
 30
0.0
 11
149.6283800082382
 21
624.4251551058375
 31
0.0
  0
LINE
  5
543
  8
0
  6
CONTINUOUS
 62
     7
 10
149.6283800082382
 20
624.4251551058375
 30
0.0
 11
149.600287306905
 21
624.4081446585053
 31
0.0
  0
LINE
  5
544
  8
0
  6
CONTINUOUS
 62
     7
 10
149.600287306905
 20
624.4081446585053
 30
0.0
 11
149.5715024163035
 21
624.3922916170819
 31
0.0
  0
LINE
  5
545
  8
0
  6
CONTINUOUS
 62
     7
 10
149.5715024163035
 20
624.3922916170819
 30
0.0
 11
149.5421006904557
 21
624.3776342431559
 31
0.0
  0
LINE
  5
546
  8
0
  6
CONTINUOUS
 62
     7
 10
149.5421006904557
 20
624.377634243156
 30
0.0
 11
149.5121574833838
 21
624.3642107983164
 31
0.0
  0
LINE
  5
547
  8
0
  6
CONTINUOUS
 62
     7
 10
149.5121574833838
 20
624.3642107983164
 30
0.0
 11
149.4808134552272
 21
624.3517037606022
 31
0.0
  0
LINE
  5
548
  8
0
  6
CONTINUOUS
 62
     7
 10
149.4808134552272
 20
624.3517037606022
 30
0.0
 11
149.448953115234
 21
624.3405236250833
 31
0.0
  0
LINE
  5
549
  8
0
  6
CONTINUOUS
 62
     7
 10
149.448953115234
 20
624.3405236250833
 30
0.0
 11
149.4166636106147
 21
624.3306971378113
 31
0.0
  0
LINE
  5
54A
  8
0
  6
CONTINUOUS
 62
     7
 10
149.4166636106147
 20
624.3306971378114
 30
0.0
 11
149.3840320885808
 21
624.3222510448385
 31
0.0
  0
LINE
  5
54B
  8
0
  6
CONTINUOUS
 62
     7
 10
149.3840320885808
 20
624.3222510448385
 30
0.0
 11
149.3477042369763
 21
624.3145571354805
 31
0.0
  0
LINE
  5
54C
  8
0
  6
CONTINUOUS
 62
     7
 10
149.3477042369763
 20
624.3145571354804
 30
0.0
 11
149.3110173085265
 21
624.3085534526962
 31
0.0
  0
LINE
  5
54D
  8
0
  6
CONTINUOUS
 62
     7
 10
149.3110173085265
 20
624.3085534526962
 30
0.0
 11
149.2740910970208
 21
624.3042512164567
 31
0.0
  0
LINE
  5
54E
  8
0
  6
CONTINUOUS
 62
     7
 10
149.2740910970208
 20
624.3042512164567
 30
0.0
 11
149.2370453962488
 21
624.3016616467339
 31
0.0
  0
LINE
  5
54F
  8
0
  6
CONTINUOUS
 62
     7
 10
149.2370453962488
 20
624.3016616467339
 30
0.0
 11
149.2
 21
624.3007959634991
 31
0.0
  0
LINE
  5
550
  8
0
  6
CONTINUOUS
 62
     7
 10
149.2
 20
624.3007959634991
 30
0.0
 11
147.3335908258348
 21
624.3007959634991
 31
0.0
  0
LINE
  5
551
  8
0
  6
CONTINUOUS
 62
     7
 10
147.3335908258347
 20
623.3007959634992
 30
0.0
 11
149.2
 21
623.3007959634992
 31
0.0
  0
LINE
  5
552
  8
0
  6
CONTINUOUS
 62
     7
 10
149.2
 20
623.3007959634992
 30
0.0
 11
149.2329403400778
 21
623.3001148891108
 31
0.0
  0
LINE
  5
553
  8
0
  6
CONTINUOUS
 62
     7
 10
149.2329403400777
 20
623.3001148891107
 30
0.0
 11
149.265868744641
 21
623.2980749996307
 31
0.0
  0
LINE
  5
554
  8
0
  6
CONTINUOUS
 62
     7
 10
149.265868744641
 20
623.2980749996308
 30
0.0
 11
149.298701034953
 21
623.2946812955889
 31
0.0
  0
LINE
  5
555
  8
0
  6
CONTINUOUS
 62
     7
 10
149.298701034953
 20
623.2946812955888
 30
0.0
 11
149.3313530322775
 21
623.2899387775142
 31
0.0
  0
LINE
  5
556
  8
0
  6
CONTINUOUS
 62
     7
 10
149.3313530322775
 20
623.2899387775143
 30
0.0
 11
149.3647263808275
 21
623.2836499870145
 31
0.0
  0
LINE
  5
557
  8
0
  6
CONTINUOUS
 62
     7
 10
149.3647263808275
 20
623.2836499870144
 30
0.0
 11
149.3978481123843
 21
623.2759395602708
 31
0.0
  0
LINE
  5
558
  8
0
  6
CONTINUOUS
 62
     7
 10
149.3978481123843
 20
623.2759395602709
 30
0.0
 11
149.4306276578128
 21
623.2668286587492
 31
0.0
  0
LINE
  5
559
  8
0
  6
CONTINUOUS
 62
     7
 10
149.4306276578128
 20
623.2668286587492
 30
0.0
 11
149.4629744479775
 21
623.2563384439137
 31
0.0
  0
LINE
  5
55A
  8
0
  6
CONTINUOUS
 62
     7
 10
149.4629744479775
 20
623.2563384439137
 30
0.0
 11
149.4939962870698
 21
623.2448133073385
 31
0.0
  0
LINE
  5
55B
  8
0
  6
CONTINUOUS
 62
     7
 10
149.4939962870698
 20
623.2448133073385
 30
0.0
 11
149.524552371293
 21
623.2319990673886
 31
0.0
  0
LINE
  5
55C
  8
0
  6
CONTINUOUS
 62
     7
 10
149.524552371293
 20
623.2319990673885
 30
0.0
 11
149.5545630637835
 21
623.2179296060349
 31
0.0
  0
LINE
  5
55D
  8
0
  6
CONTINUOUS
 62
     7
 10
149.5545630637835
 20
623.2179296060349
 30
0.0
 11
149.5839487276775
 21
623.2026388052485
 31
0.0
  0
LINE
  5
55E
  8
0
  6
CONTINUOUS
 62
     7
 10
149.5839487276775
 20
623.2026388052486
 30
0.0
 11
149.6135156907588
 21
623.1856315633743
 31
0.0
  0
LINE
  5
55F
  8
0
  6
CONTINUOUS
 62
     7
 10
149.6135156907588
 20
623.1856315633743
 30
0.0
 11
149.6423643190585
 21
623.1673580108845
 31
0.0
  0
LINE
  5
560
  8
0
  6
CONTINUOUS
 62
     7
 10
149.6423643190585
 20
623.1673580108844
 30
0.0
 11
149.6704149098998
 21
623.1478700239595
 31
0.0
  0
LINE
  5
561
  8
0
  6
CONTINUOUS
 62
     7
 10
149.6704149098998
 20
623.1478700239595
 30
0.0
 11
149.6975877606058
 21
623.1272194787789
 31
0.0
  0
LINE
  5
562
  8
0
  6
CONTINUOUS
 62
     7
 10
149.6975877606058
 20
623.1272194787789
 30
0.0
 11
149.722957556669
 21
623.106197526795
 31
0.0
  0
LINE
  5
563
  8
0
  6
CONTINUOUS
 62
     7
 10
149.722957556669
 20
623.106197526795
 30
0.0
 11
149.74746324476
 21
623.0841280088275
 31
0.0
  0
LINE
  5
564
  8
0
  6
CONTINUOUS
 62
     7
 10
149.74746324476
 20
623.0841280088275
 30
0.0
 11
149.7710421783966
 21
623.0610695481512
 31
0.0
  0
LINE
  5
565
  8
0
  6
CONTINUOUS
 62
     7
 10
149.7710421783965
 20
623.0610695481513
 30
0.0
 11
149.7936317110957
 21
623.0370807680401
 31
0.0
  0
LINE
  5
566
  8
0
  6
CONTINUOUS
 62
     7
 10
149.7936317110957
 20
623.0370807680401
 30
0.0
 11
149.815823737078
 21
623.0114389564754
 31
0.0
  0
LINE
  5
567
  8
0
  6
CONTINUOUS
 62
     7
 10
149.815823737078
 20
623.0114389564754
 30
0.0
 11
149.8369266433118
 21
622.9848577453172
 31
0.0
  0
LINE
  5
568
  8
0
  6
CONTINUOUS
 62
     7
 10
149.8369266433117
 20
622.9848577453172
 30
0.0
 11
149.856884370079
 21
622.9574118464451
 31
0.0
  0
LINE
  5
569
  8
0
  6
CONTINUOUS
 62
     7
 10
149.856884370079
 20
622.9574118464451
 30
0.0
 11
149.8756408576617
 21
622.9291759717374
 31
0.0
  0
LINE
  5
56A
  8
0
  6
CONTINUOUS
 62
     7
 10
149.8756408576618
 20
622.9291759717374
 30
0.0
 11
149.892651304994
 21
622.9010832704042
 31
0.0
  0
LINE
  5
56B
  8
0
  6
CONTINUOUS
 62
     7
 10
149.892651304994
 20
622.9010832704041
 30
0.0
 11
149.9085043464173
 21
622.8722983798026
 31
0.0
  0
LINE
  5
56C
  8
0
  6
CONTINUOUS
 62
     7
 10
149.9085043464173
 20
622.8722983798027
 30
0.0
 11
149.9231617203435
 21
622.842896653955
 31
0.0
  0
LINE
  5
56D
  8
0
  6
CONTINUOUS
 62
     7
 10
149.9231617203435
 20
622.842896653955
 30
0.0
 11
149.936585165183
 21
622.812953446883
 31
0.0
  0
LINE
  5
56E
  8
0
  6
CONTINUOUS
 62
     7
 10
149.936585165183
 20
622.812953446883
 30
0.0
 11
149.9490922028973
 21
622.7816094187267
 31
0.0
  0
LINE
  5
56F
  8
0
  6
CONTINUOUS
 62
     7
 10
149.9490922028972
 20
622.7816094187267
 30
0.0
 11
149.960272338416
 21
622.7497490787333
 31
0.0
  0
LINE
  5
570
  8
0
  6
CONTINUOUS
 62
     7
 10
149.960272338416
 20
622.7497490787334
 30
0.0
 11
149.970098825688
 21
622.7174595741143
 31
0.0
  0
LINE
  5
571
  8
0
  6
CONTINUOUS
 62
     7
 10
149.970098825688
 20
622.7174595741142
 30
0.0
 11
149.9785449186608
 21
622.68482805208
 31
0.0
  0
LINE
  5
572
  8
0
  6
CONTINUOUS
 62
     7
 10
149.9785449186608
 20
622.68482805208
 30
0.0
 11
149.9862388280187
 21
622.6485002004756
 31
0.0
  0
LINE
  5
573
  8
0
  6
CONTINUOUS
 62
     7
 10
149.9862388280187
 20
622.6485002004756
 30
0.0
 11
149.9922425108033
 21
622.6118132720258
 31
0.0
  0
LINE
  5
574
  8
0
  6
CONTINUOUS
 62
     7
 10
149.9922425108033
 20
622.6118132720258
 30
0.0
 11
149.9965447470427
 21
622.57488706052
 31
0.0
  0
LINE
  5
575
  8
0
  6
CONTINUOUS
 62
     7
 10
149.9965447470427
 20
622.5748870605199
 30
0.0
 11
149.9991343167655
 21
622.537841359748
 31
0.0
  0
LINE
  5
576
  8
0
  6
CONTINUOUS
 62
     7
 10
149.9991343167655
 20
622.5378413597481
 30
0.0
 11
150.0
 21
622.5007959634993
 31
0.0
  0
LINE
  5
577
  8
0
  6
CONTINUOUS
 62
     7
 10
150.0
 20
622.5007959634993
 30
0.0
 11
150.0
 21
621.4264556151567
 31
0.0
  0
ARC
  5
578
  8
0
  6
CONTINUOUS
 62
     7
 10
150.5
 20
623.8007959634992
 30
0.0
 40
2.426415481686484
 50
258.1081330215422
 51
281.8918669784578
  0
LINE
  5
579
  8
0
  6
CONTINUOUS
 62
     7
 10
151.0
 20
621.4264556151567
 30
0.0
 11
151.0
 21
622.5007959634993
 31
0.0
  0
LINE
  5
57A
  8
0
  6
CONTINUOUS
 62
     7
 10
151.8
 20
623.3007959634992
 30
0.0
 11
153.6664091741652
 21
623.3007959634992
 31
0.0
  0
LINE
  5
57B
  8
0
  6
CONTINUOUS
 62
     7
 10
151.0
 20
622.5007959634993
 30
0.0
 11
151.0006810743887
 21
622.5337363035771
 31
0.0
  0
LINE
  5
57C
  8
0
  6
CONTINUOUS
 62
     7
 10
151.0006810743888
 20
622.5337363035771
 30
0.0
 11
151.0027209638686
 21
622.5666647081403
 31
0.0
  0
LINE
  5
57D
  8
0
  6
CONTINUOUS
 62
     7
 10
151.0027209638686
 20
622.5666647081403
 30
0.0
 11
151.0061146679105
 21
622.5994969984524
 31
0.0
  0
LINE
  5
57E
  8
0
  6
CONTINUOUS
 62
     7
 10
151.0061146679105
 20
622.5994969984525
 30
0.0
 11
151.010857185985
 21
622.6321489957768
 31
0.0
  0
LINE
  5
57F
  8
0
  6
CONTINUOUS
 62
     7
 10
151.010857185985
 20
622.6321489957767
 30
0.0
 11
151.017145976485
 21
622.6655223443267
 31
0.0
  0
LINE
  5
580
  8
0
  6
CONTINUOUS
 62
     7
 10
151.017145976485
 20
622.6655223443267
 30
0.0
 11
151.0248564032283
 21
622.6986440758837
 31
0.0
  0
LINE
  5
581
  8
0
  6
CONTINUOUS
 62
     7
 10
151.0248564032283
 20
622.6986440758837
 30
0.0
 11
151.03396730475
 21
622.7314236213123
 31
0.0
  0
LINE
  5
582
  8
0
  6
CONTINUOUS
 62
     7
 10
151.03396730475
 20
622.7314236213123
 30
0.0
 11
151.0444575195855
 21
622.763770411477
 31
0.0
  0
LINE
  5
583
  8
0
  6
CONTINUOUS
 62
     7
 10
151.0444575195855
 20
622.763770411477
 30
0.0
 11
151.0559826561608
 21
622.7947922505689
 31
0.0
  0
LINE
  5
584
  8
0
  6
CONTINUOUS
 62
     7
 10
151.0559826561608
 20
622.7947922505689
 30
0.0
 11
151.0687968961108
 21
622.8253483347922
 31
0.0
  0
LINE
  5
585
  8
0
  6
CONTINUOUS
 62
     7
 10
151.0687968961108
 20
622.8253483347922
 30
0.0
 11
151.0828663574643
 21
622.8553590272827
 31
0.0
  0
LINE
  5
586
  8
0
  6
CONTINUOUS
 62
     7
 10
151.0828663574643
 20
622.8553590272827
 30
0.0
 11
151.0981571582508
 21
622.8847446911767
 31
0.0
  0
LINE
  5
587
  8
0
  6
CONTINUOUS
 62
     7
 10
151.0981571582508
 20
622.8847446911767
 30
0.0
 11
151.1151644001251
 21
622.9143116542579
 31
0.0
  0
LINE
  5
588
  8
0
  6
CONTINUOUS
 62
     7
 10
151.1151644001251
 20
622.9143116542579
 30
0.0
 11
151.133437952615
 21
622.9431602825575
 31
0.0
  0
LINE
  5
589
  8
0
  6
CONTINUOUS
 62
     7
 10
151.133437952615
 20
622.9431602825575
 30
0.0
 11
151.15292593954
 21
622.971210873399
 31
0.0
  0
LINE
  5
58A
  8
0
  6
CONTINUOUS
 62
     7
 10
151.15292593954
 20
622.971210873399
 30
0.0
 11
151.1735764847202
 21
622.998383724105
 31
0.0
  0
LINE
  5
58B
  8
0
  6
CONTINUOUS
 62
     7
 10
151.1735764847202
 20
622.998383724105
 30
0.0
 11
151.1945984367045
 21
623.0237535201683
 31
0.0
  0
LINE
  5
58C
  8
0
  6
CONTINUOUS
 62
     7
 10
151.1945984367045
 20
623.0237535201683
 30
0.0
 11
151.2166679546717
 21
623.0482592082592
 31
0.0
  0
LINE
  5
58D
  8
0
  6
CONTINUOUS
 62
     7
 10
151.2166679546718
 20
623.0482592082592
 30
0.0
 11
151.239726415348
 21
623.0718381418958
 31
0.0
  0
LINE
  5
58E
  8
0
  6
CONTINUOUS
 62
     7
 10
151.239726415348
 20
623.0718381418958
 30
0.0
 11
151.263715195459
 21
623.094427674595
 31
0.0
  0
LINE
  5
58F
  8
0
  6
CONTINUOUS
 62
     7
 10
151.263715195459
 20
623.0944276745948
 30
0.0
 11
151.289357007024
 21
623.1166197005772
 31
0.0
  0
LINE
  5
590
  8
0
  6
CONTINUOUS
 62
     7
 10
151.2893570070241
 20
623.1166197005772
 30
0.0
 11
151.3159382181821
 21
623.1377226068108
 31
0.0
  0
LINE
  5
591
  8
0
  6
CONTINUOUS
 62
     7
 10
151.315938218182
 20
623.1377226068108
 30
0.0
 11
151.3433841170543
 21
623.1576803335782
 31
0.0
  0
LINE
  5
592
  8
0
  6
CONTINUOUS
 62
     7
 10
151.3433841170543
 20
623.1576803335782
 30
0.0
 11
151.3716199917621
 21
623.1764368211609
 31
0.0
  0
LINE
  5
593
  8
0
  6
CONTINUOUS
 62
     7
 10
151.3716199917621
 20
623.176436821161
 30
0.0
 11
151.3997126930953
 21
623.1934472684933
 31
0.0
  0
LINE
  5
594
  8
0
  6
CONTINUOUS
 62
     7
 10
151.3997126930953
 20
623.1934472684932
 30
0.0
 11
151.4284975836965
 21
623.2093003099166
 31
0.0
  0
LINE
  5
595
  8
0
  6
CONTINUOUS
 62
     7
 10
151.4284975836965
 20
623.2093003099166
 30
0.0
 11
151.4578993095442
 21
623.2239576838427
 31
0.0
  0
LINE
  5
596
  8
0
  6
CONTINUOUS
 62
     7
 10
151.4578993095442
 20
623.2239576838427
 30
0.0
 11
151.4878425166165
 21
623.2373811286822
 31
0.0
  0
LINE
  5
597
  8
0
  6
CONTINUOUS
 62
     7
 10
151.4878425166166
 20
623.2373811286822
 30
0.0
 11
151.5191865447728
 21
623.2498881663965
 31
0.0
  0
LINE
  5
598
  8
0
  6
CONTINUOUS
 62
     7
 10
151.5191865447728
 20
623.2498881663965
 30
0.0
 11
151.551046884766
 21
623.2610683019155
 31
0.0
  0
LINE
  5
599
  8
0
  6
CONTINUOUS
 62
     7
 10
151.551046884766
 20
623.2610683019155
 30
0.0
 11
151.5833363893853
 21
623.2708947891873
 31
0.0
  0
LINE
  5
59A
  8
0
  6
CONTINUOUS
 62
     7
 10
151.5833363893853
 20
623.2708947891873
 30
0.0
 11
151.6159679114196
 21
623.2793408821602
 31
0.0
  0
LINE
  5
59B
  8
0
  6
CONTINUOUS
 62
     7
 10
151.6159679114196
 20
623.2793408821602
 30
0.0
 11
151.6522957630237
 21
623.2870347915182
 31
0.0
  0
LINE
  5
59C
  8
0
  6
CONTINUOUS
 62
     7
 10
151.6522957630237
 20
623.2870347915182
 30
0.0
 11
151.6889826914738
 21
623.2930384743024
 31
0.0
  0
LINE
  5
59D
  8
0
  6
CONTINUOUS
 62
     7
 10
151.6889826914738
 20
623.2930384743024
 30
0.0
 11
151.7259089029795
 21
623.2973407105416
 31
0.0
  0
LINE
  5
59E
  8
0
  6
CONTINUOUS
 62
     7
 10
151.7259089029795
 20
623.2973407105416
 30
0.0
 11
151.7629546037513
 21
623.2999302802647
 31
0.0
  0
LINE
  5
59F
  8
0
  6
CONTINUOUS
 62
     7
 10
151.7629546037513
 20
623.2999302802647
 30
0.0
 11
151.8
 21
623.3007959634991
 31
0.0
  0
LINE
  5
5A0
  8
0
  6
CONTINUOUS
 62
     7
 10
154.8434512099341
 20
623.3007959634992
 30
0.0
 11
153.6664091741653
 21
623.3007959634992
 31
0.0
  0
LINE
  5
5A1
  8
0
  6
CONTINUOUS
 62
     7
 10
147.3335908258347
 20
623.3007959634992
 30
0.0
 11
146.156548790066
 21
623.3007959634992
 31
0.0
  0
LINE
  5
5A2
  8
0
  6
CONTINUOUS
 62
     7
 10
146.156548790066
 20
624.3007959634991
 30
0.0
 11
147.3335908258347
 21
624.3007959634991
 31
0.0
  0
LINE
  5
5A3
  8
0
  6
CONTINUOUS
 62
     7
 10
153.6664091741653
 20
624.3007959634991
 30
0.0
 11
154.8434512099376
 21
624.3007959634991
 31
0.0
  0
ARC
  5
5A4
  8
0
  6
CONTINUOUS
 62
     7
 10
150.5
 20
623.8007959634992
 30
0.0
 40
4.50000000000006
 50
0.000000000000007
 51
7.347919527694251
  0
ARC
  5
5A5
  8
0
  6
CONTINUOUS
 62
     7
 10
150.5
 20
623.8007959634992
 30
0.0
 40
4.50000000000006
 50
7.347919527694244
 51
172.7852171100404
  0
ARC
  5
5A6
  8
0
  6
CONTINUOUS
 62
     7
 10
150.5
 20
623.8007959634992
 30
0.0
 40
4.500000000000004
 50
172.7852171100405
 51
187.3525779924925
  0
ARC
  5
5A7
  8
0
  6
CONTINUOUS
 62
     7
 10
150.5
 20
623.8007959634992
 30
0.0
 40
4.500000000000004
 50
187.3525779924923
 51
359.9999999999998
  0
ARC
  5
5A8
  8
0
  6
CONTINUOUS
 62
     7
 10
150.5
 20
623.8007959634992
 30
0.0
 40
4.412511336474078
 50
353.4936022856121
 51
6.506397714387958
  0
ARC
  5
5A9
  8
0
  6
CONTINUOUS
 62
     7
 10
150.5
 20
623.8007959634992
 30
0.0
 40
4.412511336474078
 50
173.493602285612
 51
186.506397714388
  0
LINE
  5
5AA
  8
0
  6
CONTINUOUS
 62
     7
 10
146.1159087264848
 20
624.3007959634991
 30
0.0
 11
146.1438683887306
 21
624.3007959634991
 31
0.0
  0
LINE
  5
5AB
  8
0
  6
CONTINUOUS
 62
     7
 10
154.8840912735153
 20
623.3007959634992
 30
0.0
 11
154.8561316112698
 21
623.3007959634992
 31
0.0
  0
ARC
  5
5AC
  8
0
  6
CONTINUOUS
 62
     7
 10
150.5
 20
623.8007959634992
 30
0.0
 40
1.403262301477193
 50
339.1260896468198
 51
20.87391035318024
  0
ARC
  5
5AD
  8
0
  6
CONTINUOUS
 62
     7
 10
150.5
 20
623.8007959634992
 30
0.0
 40
1.403262301477082
 50
159.1260896468198
 51
200.8739103531802
  0
LINE
  5
5AE
  8
0
  6
CONTINUOUS
 62
     7
 10
151.0
 20
394.1007959634992
 30
0.0
 11
151.0006746880113
 21
394.0679540886882
 31
0.0
  0
LINE
  5
5AF
  8
0
  6
CONTINUOUS
 62
     7
 10
151.0006746880113
 20
394.0679540886882
 30
0.0
 11
151.0026977771768
 21
394.035151729322
 31
0.0
  0
LINE
  5
5B0
  8
0
  6
CONTINUOUS
 62
     7
 10
151.0026977771768
 20
394.035151729322
 30
0.0
 11
151.0060967047376
 21
394.0022206985942
 31
0.0
  0
LINE
  5
5B1
  8
0
  6
CONTINUOUS
 62
     7
 10
151.0060967047375
 20
394.0022206985943
 30
0.0
 11
151.010857185985
 21
393.9694429312217
 31
0.0
  0
LINE
  5
5B2
  8
0
  6
CONTINUOUS
 62
     7
 10
151.010857185985
 20
393.9694429312217
 30
0.0
 11
151.0171209601727
 21
393.936175533449
 31
0.0
  0
LINE
  5
5B3
  8
0
  6
CONTINUOUS
 62
     7
 10
151.0171209601727
 20
393.936175533449
 30
0.0
 11
151.0247897054602
 21
393.9031877672127
 31
0.0
  0
LINE
  5
5B4
  8
0
  6
CONTINUOUS
 62
     7
 10
151.0247897054602
 20
393.9031877672127
 30
0.0
 11
151.0339243737393
 21
393.8703017322075
 31
0.0
  0
LINE
  5
5B5
  8
0
  6
CONTINUOUS
 62
     7
 10
151.0339243737393
 20
393.8703017322075
 30
0.0
 11
151.0444575195855
 21
393.8378215155217
 31
0.0
  0
LINE
  5
5B6
  8
0
  6
CONTINUOUS
 62
     7
 10
151.0444575195855
 20
393.8378215155217
 30
0.0
 11
151.0559431823982
 21
393.8068929621325
 31
0.0
  0
LINE
  5
5B7
  8
0
  6
CONTINUOUS
 62
     7
 10
151.0559431823982
 20
393.8068929621325
 30
0.0
 11
151.0686985158028
 21
393.776453337237
 31
0.0
  0
LINE
  5
5B8
  8
0
  6
CONTINUOUS
 62
     7
 10
151.0686985158029
 20
393.776453337237
 30
0.0
 11
151.0828064173035
 21
393.746348690141
 31
0.0
  0
LINE
  5
5B9
  8
0
  6
CONTINUOUS
 62
     7
 10
151.0828064173035
 20
393.746348690141
 30
0.0
 11
151.0981571582508
 21
393.7168472358218
 31
0.0
  0
LINE
  5
5BA
  8
0
  6
CONTINUOUS
 62
     7
 10
151.0981571582508
 20
393.7168472358218
 30
0.0
 11
151.1151045019697
 21
393.6873741294405
 31
0.0
  0
LINE
  5
5BB
  8
0
  6
CONTINUOUS
 62
     7
 10
151.1151045019697
 20
393.6873741294405
 30
0.0
 11
151.1332926143815
 21
393.6586407170512
 31
0.0
  0
LINE
  5
5BC
  8
0
  6
CONTINUOUS
 62
     7
 10
151.1332926143815
 20
393.6586407170512
 30
0.0
 11
151.152839479941
 21
393.630495316771
 31
0.0
  0
LINE
  5
5BD
  8
0
  6
CONTINUOUS
 62
     7
 10
151.152839479941
 20
393.630495316771
 30
0.0
 11
151.1735764847202
 21
393.6032082028937
 31
0.0
  0
LINE
  5
5BE
  8
0
  6
CONTINUOUS
 62
     7
 10
151.1735764847202
 20
393.6032082028937
 30
0.0
 11
151.1945309761835
 21
393.5779128167644
 31
0.0
  0
LINE
  5
5BF
  8
0
  6
CONTINUOUS
 62
     7
 10
151.1945309761835
 20
393.5779128167644
 30
0.0
 11
151.216507336314
 21
393.5534968575025
 31
0.0
  0
LINE
  5
5C0
  8
0
  6
CONTINUOUS
 62
     7
 10
151.216507336314
 20
393.5534968575025
 30
0.0
 11
151.2396325214377
 21
393.5298425511214
 31
0.0
  0
LINE
  5
5C1
  8
0
  6
CONTINUOUS
 62
     7
 10
151.2396325214378
 20
393.5298425511214
 30
0.0
 11
151.263715195459
 21
393.5071642524034
 31
0.0
  0
LINE
  5
5C2
  8
0
  6
CONTINUOUS
 62
     7
 10
151.263715195459
 20
393.5071642524035
 30
0.0
 11
151.2892711191475
 21
393.4850399430473
 31
0.0
  0
LINE
  5
5C3
  8
0
  6
CONTINUOUS
 62
     7
 10
151.2892711191475
 20
393.4850399430473
 30
0.0
 11
151.3157359416257
 21
393.464016314196
 31
0.0
  0
LINE
  5
5C4
  8
0
  6
CONTINUOUS
 62
     7
 10
151.3157359416258
 20
393.464016314196
 30
0.0
 11
151.3432671049623
 21
393.4439896641785
 31
0.0
  0
LINE
  5
5C5
  8
0
  6
CONTINUOUS
 62
     7
 10
151.3432671049623
 20
393.4439896641784
 30
0.0
 11
151.371619991762
 21
393.4251551058375
 31
0.0
  0
LINE
  5
5C6
  8
0
  6
CONTINUOUS
 62
     7
 10
151.3716199917621
 20
393.4251551058375
 30
0.0
 11
151.3996258783093
 21
393.408192111628
 31
0.0
  0
LINE
  5
5C7
  8
0
  6
CONTINUOUS
 62
     7
 10
151.3996258783093
 20
393.408192111628
 30
0.0
 11
151.4282951603543
 21
393.3923924681777
 31
0.0
  0
LINE
  5
5C8
  8
0
  6
CONTINUOUS
 62
     7
 10
151.4282951603543
 20
393.3923924681777
 30
0.0
 11
151.4580922771863
 21
393.3775431352819
 31
0.0
  0
LINE
  5
5C9
  8
0
  6
CONTINUOUS
 62
     7
 10
151.4580922771863
 20
393.377543135282
 30
0.0
 11
151.4884986431053
 21
393.3639384618952
 31
0.0
  0
LINE
  5
5CA
  8
0
  6
CONTINUOUS
 62
     7
 10
151.4884986431053
 20
393.3639384618952
 30
0.0
 11
151.5194328482755
 21
393.3516113300957
 31
0.0
  0
LINE
  5
5CB
  8
0
  6
CONTINUOUS
 62
     7
 10
151.5194328482755
 20
393.3516113300957
 30
0.0
 11
151.5508134828605
 21
393.3405946219615
 31
0.0
  0
LINE
  5
5CC
  8
0
  6
CONTINUOUS
 62
     7
 10
151.5508134828605
 20
393.3405946219615
 30
0.0
 11
151.5832036321645
 21
393.330731804154
 31
0.0
  0
LINE
  5
5CD
  8
0
  6
CONTINUOUS
 62
     7
 10
151.5832036321645
 20
393.330731804154
 30
0.0
 11
151.6159679114196
 21
393.3222510448385
 31
0.0
  0
LINE
  5
5CE
  8
0
  6
CONTINUOUS
 62
     7
 10
151.6159679114196
 20
393.3222510448385
 30
0.0
 11
151.6460401048015
 21
393.3157514226193
 31
0.0
  0
LINE
  5
5CF
  8
0
  6
CONTINUOUS
 62
     7
 10
151.6460401048015
 20
393.3157514226193
 30
0.0
 11
151.6763384031643
 21
393.3104122659369
 31
0.0
  0
LINE
  5
5D0
  8
0
  6
CONTINUOUS
 62
     7
 10
151.6763384031643
 20
393.3104122659369
 30
0.0
 11
151.706794894606
 21
393.3062440090442
 31
0.0
  0
LINE
  5
5D1
  8
0
  6
CONTINUOUS
 62
     7
 10
151.706794894606
 20
393.3062440090442
 30
0.0
 11
151.737794964165
 21
393.3032189714885
 31
0.0
  0
LINE
  5
5D2
  8
0
  6
CONTINUOUS
 62
     7
 10
151.7377949641651
 20
393.3032189714885
 30
0.0
 11
151.7688869557151
 21
393.3014021291
 31
0.0
  0
LINE
  5
5D3
  8
0
  6
CONTINUOUS
 62
     7
 10
151.7688869557151
 20
393.3014021291
 30
0.0
 11
151.8
 21
393.3007959634992
 31
0.0
  0
LINE
  5
5D4
  8
0
  6
CONTINUOUS
 62
     7
 10
151.0
 20
395.175136311842
 30
0.0
 11
151.0
 21
394.1007959634992
 31
0.0
  0
ARC
  5
5D5
  8
0
  6
CONTINUOUS
 62
     7
 10
150.5
 20
392.8007959634992
 30
0.0
 40
2.426415481686428
 50
78.10813302154226
 51
101.8918669784577
  0
LINE
  5
5D6
  8
0
  6
CONTINUOUS
 62
     7
 10
150.0
 20
394.1007959634992
 30
0.0
 11
150.0
 21
395.175136311842
 31
0.0
  0
LINE
  5
5D7
  8
0
  6
CONTINUOUS
 62
     7
 10
149.2
 20
393.3007959634992
 30
0.0
 11
149.2329403400778
 21
393.301477037888
 31
0.0
  0
LINE
  5
5D8
  8
0
  6
CONTINUOUS
 62
     7
 10
149.2329403400777
 20
393.301477037888
 30
0.0
 11
149.265868744641
 21
393.3035169273678
 31
0.0
  0
LINE
  5
5D9
  8
0
  6
CONTINUOUS
 62
     7
 10
149.265868744641
 20
393.3035169273678
 30
0.0
 11
149.298701034953
 21
393.3069106314097
 31
0.0
  0
LINE
  5
5DA
  8
0
  6
CONTINUOUS
 62
     7
 10
149.298701034953
 20
393.3069106314097
 30
0.0
 11
149.3313530322777
 21
393.3116531494842
 31
0.0
  0
LINE
  5
5DB
  8
0
  6
CONTINUOUS
 62
     7
 10
149.3313530322777
 20
393.3116531494842
 30
0.0
 11
149.3647263808275
 21
393.3179419399843
 31
0.0
  0
LINE
  5
5DC
  8
0
  6
CONTINUOUS
 62
     7
 10
149.3647263808275
 20
393.3179419399843
 30
0.0
 11
149.3978481123843
 21
393.3256523667275
 31
0.0
  0
LINE
  5
5DD
  8
0
  6
CONTINUOUS
 62
     7
 10
149.3978481123843
 20
393.3256523667275
 30
0.0
 11
149.4306276578128
 21
393.3347632682493
 31
0.0
  0
LINE
  5
5DE
  8
0
  6
CONTINUOUS
 62
     7
 10
149.4306276578128
 20
393.3347632682493
 30
0.0
 11
149.4629744479775
 21
393.3452534830847
 31
0.0
  0
LINE
  5
5DF
  8
0
  6
CONTINUOUS
 62
     7
 10
149.4629744479775
 20
393.3452534830847
 30
0.0
 11
149.4939962870698
 21
393.35677861966
 31
0.0
  0
LINE
  5
5E0
  8
0
  6
CONTINUOUS
 62
     7
 10
149.4939962870698
 20
393.35677861966
 30
0.0
 11
149.524552371293
 21
393.36959285961
 31
0.0
  0
LINE
  5
5E1
  8
0
  6
CONTINUOUS
 62
     7
 10
149.524552371293
 20
393.3695928596099
 30
0.0
 11
149.5545630637835
 21
393.3836623209634
 31
0.0
  0
LINE
  5
5E2
  8
0
  6
CONTINUOUS
 62
     7
 10
149.5545630637835
 20
393.3836623209635
 30
0.0
 11
149.5839487276775
 21
393.39895312175
 31
0.0
  0
LINE
  5
5E3
  8
0
  6
CONTINUOUS
 62
     7
 10
149.5839487276775
 20
393.39895312175
 30
0.0
 11
149.6135156907588
 21
393.4159603636245
 31
0.0
  0
LINE
  5
5E4
  8
0
  6
CONTINUOUS
 62
     7
 10
149.6135156907588
 20
393.4159603636245
 30
0.0
 11
149.6423643190585
 21
393.4342339161142
 31
0.0
  0
LINE
  5
5E5
  8
0
  6
CONTINUOUS
 62
     7
 10
149.6423643190585
 20
393.4342339161142
 30
0.0
 11
149.6704149098998
 21
393.4537219030393
 31
0.0
  0
LINE
  5
5E6
  8
0
  6
CONTINUOUS
 62
     7
 10
149.6704149098998
 20
393.4537219030393
 30
0.0
 11
149.6975877606058
 21
393.4743724482195
 31
0.0
  0
LINE
  5
5E7
  8
0
  6
CONTINUOUS
 62
     7
 10
149.6975877606058
 20
393.4743724482195
 30
0.0
 11
149.722957556669
 21
393.4953944002037
 31
0.0
  0
LINE
  5
5E8
  8
0
  6
CONTINUOUS
 62
     7
 10
149.722957556669
 20
393.4953944002037
 30
0.0
 11
149.74746324476
 21
393.517463918171
 31
0.0
  0
LINE
  5
5E9
  8
0
  6
CONTINUOUS
 62
     7
 10
149.74746324476
 20
393.517463918171
 30
0.0
 11
149.7710421783966
 21
393.5405223788472
 31
0.0
  0
LINE
  5
5EA
  8
0
  6
CONTINUOUS
 62
     7
 10
149.7710421783965
 20
393.5405223788472
 30
0.0
 11
149.7936317110957
 21
393.5645111589582
 31
0.0
  0
LINE
  5
5EB
  8
0
  6
CONTINUOUS
 62
     7
 10
149.7936317110957
 20
393.5645111589582
 30
0.0
 11
149.815823737078
 21
393.5901529705231
 31
0.0
  0
LINE
  5
5EC
  8
0
  6
CONTINUOUS
 62
     7
 10
149.815823737078
 20
393.5901529705232
 30
0.0
 11
149.8369266433118
 21
393.6167341816812
 31
0.0
  0
LINE
  5
5ED
  8
0
  6
CONTINUOUS
 62
     7
 10
149.8369266433117
 20
393.6167341816812
 30
0.0
 11
149.856884370079
 21
393.6441800805536
 31
0.0
  0
LINE
  5
5EE
  8
0
  6
CONTINUOUS
 62
     7
 10
149.856884370079
 20
393.6441800805535
 30
0.0
 11
149.875640857662
 21
393.6724159552612
 31
0.0
  0
LINE
  5
5EF
  8
0
  6
CONTINUOUS
 62
     7
 10
149.875640857662
 20
393.6724159552612
 30
0.0
 11
149.892651304994
 21
393.7005086565942
 31
0.0
  0
LINE
  5
5F0
  8
0
  6
CONTINUOUS
 62
     7
 10
149.892651304994
 20
393.7005086565942
 30
0.0
 11
149.9085043464175
 21
393.7292935471958
 31
0.0
  0
LINE
  5
5F1
  8
0
  6
CONTINUOUS
 62
     7
 10
149.9085043464175
 20
393.7292935471958
 30
0.0
 11
149.9231617203435
 21
393.7586952730435
 31
0.0
  0
LINE
  5
5F2
  8
0
  6
CONTINUOUS
 62
     7
 10
149.9231617203435
 20
393.7586952730435
 30
0.0
 11
149.936585165183
 21
393.7886384801157
 31
0.0
  0
LINE
  5
5F3
  8
0
  6
CONTINUOUS
 62
     7
 10
149.936585165183
 20
393.7886384801157
 30
0.0
 11
149.9490922028973
 21
393.819982508272
 31
0.0
  0
LINE
  5
5F4
  8
0
  6
CONTINUOUS
 62
     7
 10
149.9490922028972
 20
393.819982508272
 30
0.0
 11
149.960272338416
 21
393.8518428482652
 31
0.0
  0
LINE
  5
5F5
  8
0
  6
CONTINUOUS
 62
     7
 10
149.960272338416
 20
393.8518428482652
 30
0.0
 11
149.970098825688
 21
393.8841323528845
 31
0.0
  0
LINE
  5
5F6
  8
0
  6
CONTINUOUS
 62
     7
 10
149.970098825688
 20
393.8841323528845
 30
0.0
 11
149.9785449186608
 21
393.9167638749187
 31
0.0
  0
LINE
  5
5F7
  8
0
  6
CONTINUOUS
 62
     7
 10
149.9785449186608
 20
393.9167638749187
 30
0.0
 11
149.9862388280187
 21
393.9530917265229
 31
0.0
  0
LINE
  5
5F8
  8
0
  6
CONTINUOUS
 62
     7
 10
149.9862388280187
 20
393.9530917265229
 30
0.0
 11
149.9922425108033
 21
393.9897786549727
 31
0.0
  0
LINE
  5
5F9
  8
0
  6
CONTINUOUS
 62
     7
 10
149.9922425108033
 20
393.9897786549727
 30
0.0
 11
149.9965447470427
 21
394.0267048664788
 31
0.0
  0
LINE
  5
5FA
  8
0
  6
CONTINUOUS
 62
     7
 10
149.9965447470427
 20
394.0267048664787
 30
0.0
 11
149.9991343167655
 21
394.0637505672507
 31
0.0
  0
LINE
  5
5FB
  8
0
  6
CONTINUOUS
 62
     7
 10
149.9991343167655
 20
394.0637505672507
 30
0.0
 11
150.0
 21
394.1007959634992
 31
0.0
  0
LINE
  5
5FC
  8
0
  6
CONTINUOUS
 62
     7
 10
147.3335908258347
 20
393.3007959634992
 30
0.0
 11
149.2
 21
393.3007959634992
 31
0.0
  0
LINE
  5
5FD
  8
0
  6
CONTINUOUS
 62
     7
 10
151.8
 20
393.3007959634992
 30
0.0
 11
153.6664091741652
 21
393.3007959634992
 31
0.0
  0
LINE
  5
5FE
  8
0
  6
CONTINUOUS
 62
     7
 10
149.2
 20
392.3007959634992
 30
0.0
 11
147.3335908258348
 21
392.3007959634992
 31
0.0
  0
LINE
  5
5FF
  8
0
  6
CONTINUOUS
 62
     7
 10
150.0
 20
390.4264556151565
 30
0.0
 11
150.0
 21
391.5007959634993
 31
0.0
  0
ARC
  5
600
  8
0
  6
CONTINUOUS
 62
     7
 10
150.5
 20
392.8007959634992
 30
0.0
 40
2.426415481686484
 50
258.1081330215422
 51
281.8918669784578
  0
LINE
  5
601
  8
0
  6
CONTINUOUS
 62
     7
 10
151.0
 20
391.5007959634992
 30
0.0
 11
151.0
 21
390.4264556151564
 31
0.0
  0
LINE
  5
602
  8
0
  6
CONTINUOUS
 62
     7
 10
153.6664091741653
 20
392.3007959634992
 30
0.0
 11
151.8
 21
392.3007959634992
 31
0.0
  0
LINE
  5
603
  8
0
  6
CONTINUOUS
 62
     7
 10
151.8
 20
392.3007959634992
 30
0.0
 11
151.7670596599223
 21
392.3001148891105
 31
0.0
  0
LINE
  5
604
  8
0
  6
CONTINUOUS
 62
     7
 10
151.7670596599223
 20
392.3001148891105
 30
0.0
 11
151.734131255359
 21
392.2980749996307
 31
0.0
  0
LINE
  5
605
  8
0
  6
CONTINUOUS
 62
     7
 10
151.734131255359
 20
392.2980749996307
 30
0.0
 11
151.701298965047
 21
392.294681295589
 31
0.0
  0
LINE
  5
606
  8
0
  6
CONTINUOUS
 62
     7
 10
151.701298965047
 20
392.294681295589
 30
0.0
 11
151.6686469677226
 21
392.2899387775143
 31
0.0
  0
LINE
  5
607
  8
0
  6
CONTINUOUS
 62
     7
 10
151.6686469677225
 20
392.2899387775142
 30
0.0
 11
151.6352736191728
 21
392.2836499870142
 31
0.0
  0
LINE
  5
608
  8
0
  6
CONTINUOUS
 62
     7
 10
151.6352736191728
 20
392.2836499870142
 30
0.0
 11
151.6021518876157
 21
392.2759395602712
 31
0.0
  0
LINE
  5
609
  8
0
  6
CONTINUOUS
 62
     7
 10
151.6021518876157
 20
392.2759395602712
 30
0.0
 11
151.5693723421872
 21
392.2668286587493
 31
0.0
  0
LINE
  5
60A
  8
0
  6
CONTINUOUS
 62
     7
 10
151.5693723421873
 20
392.2668286587493
 30
0.0
 11
151.5370255520225
 21
392.2563384439137
 31
0.0
  0
LINE
  5
60B
  8
0
  6
CONTINUOUS
 62
     7
 10
151.5370255520225
 20
392.2563384439137
 30
0.0
 11
151.5060037129305
 21
392.2448133073385
 31
0.0
  0
LINE
  5
60C
  8
0
  6
CONTINUOUS
 62
     7
 10
151.5060037129305
 20
392.2448133073385
 30
0.0
 11
151.4754476287073
 21
392.2319990673885
 31
0.0
  0
LINE
  5
60D
  8
0
  6
CONTINUOUS
 62
     7
 10
151.4754476287072
 20
392.2319990673884
 30
0.0
 11
151.4454369362168
 21
392.2179296060349
 31
0.0
  0
LINE
  5
60E
  8
0
  6
CONTINUOUS
 62
     7
 10
151.4454369362168
 20
392.2179296060349
 30
0.0
 11
151.4160512723226
 21
392.2026388052487
 31
0.0
  0
LINE
  5
60F
  8
0
  6
CONTINUOUS
 62
     7
 10
151.4160512723225
 20
392.2026388052487
 30
0.0
 11
151.3864843092415
 21
392.1856315633742
 31
0.0
  0
LINE
  5
610
  8
0
  6
CONTINUOUS
 62
     7
 10
151.3864843092415
 20
392.1856315633742
 30
0.0
 11
151.3576356809418
 21
392.1673580108844
 31
0.0
  0
LINE
  5
611
  8
0
  6
CONTINUOUS
 62
     7
 10
151.3576356809418
 20
392.1673580108844
 30
0.0
 11
151.3295850901005
 21
392.1478700239595
 31
0.0
  0
LINE
  5
612
  8
0
  6
CONTINUOUS
 62
     7
 10
151.3295850901005
 20
392.1478700239595
 30
0.0
 11
151.3024122393942
 21
392.127219478779
 31
0.0
  0
LINE
  5
613
  8
0
  6
CONTINUOUS
 62
     7
 10
151.3024122393943
 20
392.127219478779
 30
0.0
 11
151.277042443331
 21
392.106197526795
 31
0.0
  0
LINE
  5
614
  8
0
  6
CONTINUOUS
 62
     7
 10
151.277042443331
 20
392.106197526795
 30
0.0
 11
151.25253675524
 21
392.0841280088275
 31
0.0
  0
LINE
  5
615
  8
0
  6
CONTINUOUS
 62
     7
 10
151.25253675524
 20
392.0841280088275
 30
0.0
 11
151.2289578216038
 21
392.0610695481513
 31
0.0
  0
LINE
  5
616
  8
0
  6
CONTINUOUS
 62
     7
 10
151.2289578216038
 20
392.0610695481513
 30
0.0
 11
151.2063682889043
 21
392.0370807680403
 31
0.0
  0
LINE
  5
617
  8
0
  6
CONTINUOUS
 62
     7
 10
151.2063682889043
 20
392.0370807680402
 30
0.0
 11
151.1841762629221
 21
392.0114389564754
 31
0.0
  0
LINE
  5
618
  8
0
  6
CONTINUOUS
 62
     7
 10
151.184176262922
 20
392.0114389564754
 30
0.0
 11
151.1630733566882
 21
391.9848577453174
 31
0.0
  0
LINE
  5
619
  8
0
  6
CONTINUOUS
 62
     7
 10
151.1630733566882
 20
391.9848577453174
 30
0.0
 11
151.1431156299213
 21
391.9574118464449
 31
0.0
  0
LINE
  5
61A
  8
0
  6
CONTINUOUS
 62
     7
 10
151.1431156299213
 20
391.9574118464449
 30
0.0
 11
151.1243591423383
 21
391.9291759717375
 31
0.0
  0
LINE
  5
61B
  8
0
  6
CONTINUOUS
 62
     7
 10
151.1243591423383
 20
391.9291759717375
 30
0.0
 11
151.1073486950062
 21
391.9010832704042
 31
0.0
  0
LINE
  5
61C
  8
0
  6
CONTINUOUS
 62
     7
 10
151.1073486950062
 20
391.9010832704042
 30
0.0
 11
151.0914956535828
 21
391.8722983798028
 31
0.0
  0
LINE
  5
61D
  8
0
  6
CONTINUOUS
 62
     7
 10
151.0914956535828
 20
391.8722983798028
 30
0.0
 11
151.0768382796567
 21
391.842896653955
 31
0.0
  0
LINE
  5
61E
  8
0
  6
CONTINUOUS
 62
     7
 10
151.0768382796567
 20
391.842896653955
 30
0.0
 11
151.063414834817
 21
391.8129534468827
 31
0.0
  0
LINE
  5
61F
  8
0
  6
CONTINUOUS
 62
     7
 10
151.063414834817
 20
391.8129534468827
 30
0.0
 11
151.050907797103
 21
391.7816094187265
 31
0.0
  0
LINE
  5
620
  8
0
  6
CONTINUOUS
 62
     7
 10
151.0509077971031
 20
391.7816094187265
 30
0.0
 11
151.039727661584
 21
391.7497490787333
 31
0.0
  0
LINE
  5
621
  8
0
  6
CONTINUOUS
 62
     7
 10
151.039727661584
 20
391.7497490787333
 30
0.0
 11
151.029901174312
 21
391.7174595741142
 31
0.0
  0
LINE
  5
622
  8
0
  6
CONTINUOUS
 62
     7
 10
151.029901174312
 20
391.7174595741142
 30
0.0
 11
151.0214550813392
 21
391.6848280520799
 31
0.0
  0
LINE
  5
623
  8
0
  6
CONTINUOUS
 62
     7
 10
151.0214550813392
 20
391.6848280520799
 30
0.0
 11
151.0137611719812
 21
391.6485002004755
 31
0.0
  0
LINE
  5
624
  8
0
  6
CONTINUOUS
 62
     7
 10
151.0137611719812
 20
391.6485002004755
 30
0.0
 11
151.0077574891967
 21
391.6118132720258
 31
0.0
  0
LINE
  5
625
  8
0
  6
CONTINUOUS
 62
     7
 10
151.0077574891968
 20
391.6118132720258
 30
0.0
 11
151.0034552529575
 21
391.57488706052
 31
0.0
  0
LINE
  5
626
  8
0
  6
CONTINUOUS
 62
     7
 10
151.0034552529575
 20
391.57488706052
 30
0.0
 11
151.0008656832345
 21
391.537841359748
 31
0.0
  0
LINE
  5
627
  8
0
  6
CONTINUOUS
 62
     7
 10
151.0008656832345
 20
391.537841359748
 30
0.0
 11
151.0000000000001
 21
391.5007959634993
 31
0.0
  0
LINE
  5
628
  8
0
  6
CONTINUOUS
 62
     7
 10
150.0
 20
391.5007959634992
 30
0.0
 11
149.9993189256112
 21
391.5337363035769
 31
0.0
  0
LINE
  5
629
  8
0
  6
CONTINUOUS
 62
     7
 10
149.9993189256112
 20
391.533736303577
 30
0.0
 11
149.9972790361315
 21
391.5666647081402
 31
0.0
  0
LINE
  5
62A
  8
0
  6
CONTINUOUS
 62
     7
 10
149.9972790361315
 20
391.5666647081401
 30
0.0
 11
149.9938853320897
 21
391.5994969984524
 31
0.0
  0
LINE
  5
62B
  8
0
  6
CONTINUOUS
 62
     7
 10
149.9938853320897
 20
391.5994969984524
 30
0.0
 11
149.989142814015
 21
391.632148995777
 31
0.0
  0
LINE
  5
62C
  8
0
  6
CONTINUOUS
 62
     7
 10
149.989142814015
 20
391.632148995777
 30
0.0
 11
149.982854023515
 21
391.6655223443267
 31
0.0
  0
LINE
  5
62D
  8
0
  6
CONTINUOUS
 62
     7
 10
149.982854023515
 20
391.6655223443267
 30
0.0
 11
149.975143596772
 21
391.6986440758834
 31
0.0
  0
LINE
  5
62E
  8
0
  6
CONTINUOUS
 62
     7
 10
149.9751435967719
 20
391.6986440758835
 30
0.0
 11
149.96603269525
 21
391.731423621312
 31
0.0
  0
LINE
  5
62F
  8
0
  6
CONTINUOUS
 62
     7
 10
149.96603269525
 20
391.731423621312
 30
0.0
 11
149.9555424804145
 21
391.7637704114767
 31
0.0
  0
LINE
  5
630
  8
0
  6
CONTINUOUS
 62
     7
 10
149.9555424804145
 20
391.7637704114767
 30
0.0
 11
149.9440173438393
 21
391.794792250569
 31
0.0
  0
LINE
  5
631
  8
0
  6
CONTINUOUS
 62
     7
 10
149.9440173438393
 20
391.794792250569
 30
0.0
 11
149.9312031038896
 21
391.8253483347922
 31
0.0
  0
LINE
  5
632
  8
0
  6
CONTINUOUS
 62
     7
 10
149.9312031038896
 20
391.8253483347922
 30
0.0
 11
149.9171336425358
 21
391.8553590272828
 31
0.0
  0
LINE
  5
633
  8
0
  6
CONTINUOUS
 62
     7
 10
149.9171336425358
 20
391.8553590272828
 30
0.0
 11
149.9018428417495
 21
391.8847446911766
 31
0.0
  0
LINE
  5
634
  8
0
  6
CONTINUOUS
 62
     7
 10
149.9018428417495
 20
391.8847446911766
 30
0.0
 11
149.884835599875
 21
391.9143116542579
 31
0.0
  0
LINE
  5
635
  8
0
  6
CONTINUOUS
 62
     7
 10
149.884835599875
 20
391.9143116542579
 30
0.0
 11
149.8665620473852
 21
391.9431602825574
 31
0.0
  0
LINE
  5
636
  8
0
  6
CONTINUOUS
 62
     7
 10
149.8665620473852
 20
391.9431602825574
 30
0.0
 11
149.8470740604603
 21
391.9712108733989
 31
0.0
  0
LINE
  5
637
  8
0
  6
CONTINUOUS
 62
     7
 10
149.8470740604603
 20
391.971210873399
 30
0.0
 11
149.8264235152798
 21
391.998383724105
 31
0.0
  0
LINE
  5
638
  8
0
  6
CONTINUOUS
 62
     7
 10
149.8264235152798
 20
391.998383724105
 30
0.0
 11
149.8054015632958
 21
392.0237535201683
 31
0.0
  0
LINE
  5
639
  8
0
  6
CONTINUOUS
 62
     7
 10
149.8054015632957
 20
392.0237535201682
 30
0.0
 11
149.7833320453282
 21
392.0482592082592
 31
0.0
  0
LINE
  5
63A
  8
0
  6
CONTINUOUS
 62
     7
 10
149.7833320453282
 20
392.0482592082592
 30
0.0
 11
149.7602735846521
 21
392.0718381418955
 31
0.0
  0
LINE
  5
63B
  8
0
  6
CONTINUOUS
 62
     7
 10
149.7602735846521
 20
392.0718381418955
 30
0.0
 11
149.736284804541
 21
392.094427674595
 31
0.0
  0
LINE
  5
63C
  8
0
  6
CONTINUOUS
 62
     7
 10
149.736284804541
 20
392.094427674595
 30
0.0
 11
149.7106429929762
 21
392.1166197005772
 31
0.0
  0
LINE
  5
63D
  8
0
  6
CONTINUOUS
 62
     7
 10
149.7106429929762
 20
392.1166197005772
 30
0.0
 11
149.6840617818182
 21
392.137722606811
 31
0.0
  0
LINE
  5
63E
  8
0
  6
CONTINUOUS
 62
     7
 10
149.6840617818182
 20
392.137722606811
 30
0.0
 11
149.6566158829457
 21
392.1576803335782
 31
0.0
  0
LINE
  5
63F
  8
0
  6
CONTINUOUS
 62
     7
 10
149.6566158829457
 20
392.1576803335782
 30
0.0
 11
149.6283800082382
 21
392.176436821161
 31
0.0
  0
LINE
  5
640
  8
0
  6
CONTINUOUS
 62
     7
 10
149.6283800082382
 20
392.176436821161
 30
0.0
 11
149.600287306905
 21
392.1934472684933
 31
0.0
  0
LINE
  5
641
  8
0
  6
CONTINUOUS
 62
     7
 10
149.600287306905
 20
392.1934472684932
 30
0.0
 11
149.5715024163035
 21
392.2093003099167
 31
0.0
  0
LINE
  5
642
  8
0
  6
CONTINUOUS
 62
     7
 10
149.5715024163035
 20
392.2093003099167
 30
0.0
 11
149.5421006904557
 21
392.2239576838427
 31
0.0
  0
LINE
  5
643
  8
0
  6
CONTINUOUS
 62
     7
 10
149.5421006904557
 20
392.2239576838427
 30
0.0
 11
149.5121574833838
 21
392.2373811286822
 31
0.0
  0
LINE
  5
644
  8
0
  6
CONTINUOUS
 62
     7
 10
149.5121574833838
 20
392.2373811286822
 30
0.0
 11
149.4808134552275
 21
392.2498881663961
 31
0.0
  0
LINE
  5
645
  8
0
  6
CONTINUOUS
 62
     7
 10
149.4808134552275
 20
392.2498881663961
 30
0.0
 11
149.448953115234
 21
392.2610683019152
 31
0.0
  0
LINE
  5
646
  8
0
  6
CONTINUOUS
 62
     7
 10
149.448953115234
 20
392.2610683019152
 30
0.0
 11
149.4166636106147
 21
392.2708947891872
 31
0.0
  0
LINE
  5
647
  8
0
  6
CONTINUOUS
 62
     7
 10
149.4166636106147
 20
392.2708947891873
 30
0.0
 11
149.3840320885808
 21
392.2793408821601
 31
0.0
  0
LINE
  5
648
  8
0
  6
CONTINUOUS
 62
     7
 10
149.3840320885808
 20
392.2793408821601
 30
0.0
 11
149.3477042369765
 21
392.287034791518
 31
0.0
  0
LINE
  5
649
  8
0
  6
CONTINUOUS
 62
     7
 10
149.3477042369765
 20
392.287034791518
 30
0.0
 11
149.3110173085265
 21
392.2930384743025
 31
0.0
  0
LINE
  5
64A
  8
0
  6
CONTINUOUS
 62
     7
 10
149.3110173085265
 20
392.2930384743025
 30
0.0
 11
149.2740910970208
 21
392.297340710542
 31
0.0
  0
LINE
  5
64B
  8
0
  6
CONTINUOUS
 62
     7
 10
149.2740910970208
 20
392.297340710542
 30
0.0
 11
149.2370453962488
 21
392.2999302802648
 31
0.0
  0
LINE
  5
64C
  8
0
  6
CONTINUOUS
 62
     7
 10
149.2370453962488
 20
392.2999302802648
 30
0.0
 11
149.2
 21
392.3007959634992
 31
0.0
  0
LINE
  5
64D
  8
0
  6
CONTINUOUS
 62
     7
 10
154.8434512099341
 20
393.3007959634992
 30
0.0
 11
153.6664091741653
 21
393.3007959634992
 31
0.0
  0
LINE
  5
64E
  8
0
  6
CONTINUOUS
 62
     7
 10
147.3335908258347
 20
393.3007959634992
 30
0.0
 11
146.156548790066
 21
393.3007959634992
 31
0.0
  0
LINE
  5
64F
  8
0
  6
CONTINUOUS
 62
     7
 10
146.156548790066
 20
392.3007959634992
 30
0.0
 11
147.3335908258347
 21
392.3007959634992
 31
0.0
  0
LINE
  5
650
  8
0
  6
CONTINUOUS
 62
     7
 10
153.6664091741653
 20
392.3007959634992
 30
0.0
 11
154.8434512099376
 21
392.3007959634992
 31
0.0
  0
ARC
  5
651
  8
0
  6
CONTINUOUS
 62
     7
 10
150.5
 20
392.8007959634992
 30
0.0
 40
4.500000000000004
 50
352.6520804723058
 51
0.0
  0
ARC
  5
652
  8
0
  6
CONTINUOUS
 62
     7
 10
150.5
 20
392.8007959634992
 30
0.0
 40
4.500000000000004
 50
187.2147828899596
 51
352.6520804723058
  0
ARC
  5
653
  8
0
  6
CONTINUOUS
 62
     7
 10
150.5
 20
392.8007959634992
 30
0.0
 40
4.500000000000004
 50
172.6474220075075
 51
187.2147828899596
  0
ARC
  5
654
  8
0
  6
CONTINUOUS
 62
     7
 10
150.5
 20
392.8007959634992
 30
0.0
 40
4.50000000000006
 50
0.0000000000000568
 51
172.6474220075077
  0
ARC
  5
655
  8
0
  6
CONTINUOUS
 62
     7
 10
150.5
 20
392.8007959634992
 30
0.0
 40
4.412511336474078
 50
173.4936022856121
 51
186.506397714388
  0
ARC
  5
656
  8
0
  6
CONTINUOUS
 62
     7
 10
150.5
 20
392.8007959634992
 30
0.0
 40
4.412511336474023
 50
353.4936022856121
 51
6.506397714387958
  0
ARC
  5
657
  8
0
  6
CONTINUOUS
 62
     7
 10
150.5
 20
392.8007959634992
 30
0.0
 40
1.403262301477082
 50
339.1260896468198
 51
20.87391035318024
  0
ARC
  5
658
  8
0
  6
CONTINUOUS
 62
     7
 10
150.5
 20
392.8007959634992
 30
0.0
 40
1.403262301477193
 50
159.1260896468198
 51
200.8739103531803
  0
CIRCLE
  5
659
  8
0
  6
CONTINUOUS
 62
     7
 10
35.00000000000003
 20
508.3007959634992
 30
0.0
 40
115.0
  0
LINE
  5
65A
  8
0
  6
CONTINUOUS
 62
     7
 10
132.8787534486173
 20
577.0554999601495
 30
0.0
 11
133.850365659083
 21
577.0975915664357
 31
0.0
  0
LINE
  5
65B
  8
0
  6
CONTINUOUS
 62
     7
 10
132.8787534486173
 20
439.546091966849
 30
0.0
 11
133.850365659083
 21
439.5040003605627
 31
0.0
  0
LINE
  5
65C
  8
0
  6
CONTINUOUS
 62
     7
 10
103.7547039966503
 20
410.4220425148819
 30
0.0
 11
103.7967956029366
 21
409.4504303044162
 31
0.0
  0
LINE
  5
65D
  8
0
  6
CONTINUOUS
 62
     7
 10
-33.7547039966502
 20
410.4220425148819
 30
0.0
 11
-33.7967956029364
 21
409.4504303044162
 31
0.0
  0
LINE
  5
65E
  8
0
  6
CONTINUOUS
 62
     7
 10
-62.87875344861715
 20
439.546091966849
 30
0.0
 11
-63.85036565908302
 21
439.5040003605627
 31
0.0
  0
LINE
  5
65F
  8
0
  6
CONTINUOUS
 62
     7
 10
-62.87875344861721
 20
577.0554999601495
 30
0.0
 11
-63.85036565908303
 21
577.0975915664357
 31
0.0
  0
LINE
  5
660
  8
0
  6
CONTINUOUS
 62
     7
 10
-33.75470399665026
 20
606.1795494121164
 30
0.0
 11
-33.79679560293646
 21
607.1511616225822
 31
0.0
  0
LINE
  5
661
  8
0
  6
CONTINUOUS
 62
     7
 10
103.7547039966503
 20
606.1795494121164
 30
0.0
 11
103.7967956029366
 21
607.1511616225822
 31
0.0
  0
LINE
  5
662
  8
0
  6
CONTINUOUS
 62
     7
 10
-80.43365669374569
 20
618.6648870073042
 30
0.0
 11
-79.44716302877436
 21
618.7683281963165
 31
0.0
  0
LINE
  5
663
  8
0
  6
CONTINUOUS
 62
     7
 10
-79.44716302877436
 20
618.7683281963165
 30
0.0
 11
-78.49928232897915
 21
619.0605274781108
 31
0.0
  0
LINE
  5
664
  8
0
  6
CONTINUOUS
 62
     7
 10
-78.49928232897912
 20
619.0605274781108
 30
0.0
 11
-77.62577662252872
 21
619.5304606394619
 31
0.0
  0
LINE
  5
665
  8
0
  6
CONTINUOUS
 62
     7
 10
-77.62577662252873
 20
619.5304606394619
 30
0.0
 11
-76.85960188762405
 21
620.1603978511232
 31
0.0
  0
LINE
  5
666
  8
0
  6
CONTINUOUS
 62
     7
 10
-76.85960188762405
 20
620.1603978511232
 30
0.0
 11
-76.22966467596271
 21
620.926572586028
 31
0.0
  0
LINE
  5
667
  8
0
  6
CONTINUOUS
 62
     7
 10
-76.22966467596271
 20
620.926572586028
 30
0.0
 11
-75.75973151461154
 21
621.8000782924781
 31
0.0
  0
LINE
  5
668
  8
0
  6
CONTINUOUS
 62
     7
 10
-75.75973151461154
 20
621.8000782924781
 30
0.0
 11
-75.46753223281735
 21
622.7479589922738
 31
0.0
  0
LINE
  5
669
  8
0
  6
CONTINUOUS
 62
     7
 10
-75.46753223281735
 20
622.7479589922738
 30
0.0
 11
-75.36409104380506
 21
623.7344526572449
 31
0.0
  0
LINE
  5
66A
  8
0
  6
CONTINUOUS
 62
     7
 10
150.4336566937457
 20
397.9367049196942
 30
0.0
 11
149.4471630287746
 21
397.8332637306819
 31
0.0
  0
LINE
  5
66B
  8
0
  6
CONTINUOUS
 62
     7
 10
149.4471630287746
 20
397.8332637306819
 30
0.0
 11
148.4992823289792
 21
397.5410644488878
 31
0.0
  0
LINE
  5
66C
  8
0
  6
CONTINUOUS
 62
     7
 10
148.4992823289792
 20
397.5410644488878
 30
0.0
 11
147.6257766225288
 21
397.0711312875368
 31
0.0
  0
LINE
  5
66D
  8
0
  6
CONTINUOUS
 62
     7
 10
147.6257766225288
 20
397.0711312875368
 30
0.0
 11
146.8596018876242
 21
396.4411940758753
 31
0.0
  0
LINE
  5
66E
  8
0
  6
CONTINUOUS
 62
     7
 10
146.8596018876242
 20
396.4411940758752
 30
0.0
 11
146.2296646759628
 21
395.6750193409705
 31
0.0
  0
LINE
  5
66F
  8
0
  6
CONTINUOUS
 62
     7
 10
146.2296646759628
 20
395.6750193409705
 30
0.0
 11
145.7597315146118
 21
394.8015136345202
 31
0.0
  0
LINE
  5
670
  8
0
  6
CONTINUOUS
 62
     7
 10
145.7597315146117
 20
394.8015136345202
 30
0.0
 11
145.4675322328175
 21
393.8536329347249
 31
0.0
  0
LINE
  5
671
  8
0
  6
CONTINUOUS
 62
     7
 10
145.4675322328175
 20
393.8536329347249
 30
0.0
 11
145.3640910438053
 21
392.8671392697537
 31
0.0
  0
LINE
  5
672
  8
0
  6
CONTINUOUS
 62
     7
 10
-75.36409104380498
 20
392.8671392697535
 30
0.0
 11
-75.46753223281729
 21
393.8536329347249
 31
0.0
  0
LINE
  5
673
  8
0
  6
CONTINUOUS
 62
     7
 10
-75.46753223281726
 20
393.8536329347249
 30
0.0
 11
-75.75973151461146
 21
394.8015136345202
 31
0.0
  0
LINE
  5
674
  8
0
  6
CONTINUOUS
 62
     7
 10
-75.75973151461146
 20
394.8015136345202
 30
0.0
 11
-76.22966467596262
 21
395.6750193409704
 31
0.0
  0
LINE
  5
675
  8
0
  6
CONTINUOUS
 62
     7
 10
-76.22966467596265
 20
395.6750193409705
 30
0.0
 11
-76.859601887624
 21
396.4411940758752
 31
0.0
  0
LINE
  5
676
  8
0
  6
CONTINUOUS
 62
     7
 10
-76.85960188762397
 20
396.4411940758752
 30
0.0
 11
-77.6257766225287
 21
397.0711312875364
 31
0.0
  0
LINE
  5
677
  8
0
  6
CONTINUOUS
 62
     7
 10
-77.62577662252873
 20
397.0711312875364
 30
0.0
 11
-78.49928232897906
 21
397.5410644488878
 31
0.0
  0
LINE
  5
678
  8
0
  6
CONTINUOUS
 62
     7
 10
-78.49928232897906
 20
397.5410644488878
 30
0.0
 11
-79.44716302877427
 21
397.8332637306819
 31
0.0
  0
LINE
  5
679
  8
0
  6
CONTINUOUS
 62
     7
 10
-79.44716302877427
 20
397.8332637306819
 30
0.0
 11
-80.43365669374562
 21
397.9367049196942
 31
0.0
  0
LINE
  5
67A
  8
0
  6
CONTINUOUS
 62
     7
 10
145.364091043805
 20
623.734452657245
 30
0.0
 11
145.4675322328173
 21
622.7479589922735
 31
0.0
  0
LINE
  5
67B
  8
0
  6
CONTINUOUS
 62
     7
 10
145.4675322328173
 20
622.7479589922735
 30
0.0
 11
145.7597315146115
 21
621.8000782924781
 31
0.0
  0
LINE
  5
67C
  8
0
  6
CONTINUOUS
 62
     7
 10
145.7597315146115
 20
621.8000782924781
 30
0.0
 11
146.2296646759628
 21
620.926572586028
 31
0.0
  0
LINE
  5
67D
  8
0
  6
CONTINUOUS
 62
     7
 10
146.2296646759628
 20
620.926572586028
 30
0.0
 11
146.859601887624
 21
620.1603978511232
 31
0.0
  0
LINE
  5
67E
  8
0
  6
CONTINUOUS
 62
     7
 10
146.859601887624
 20
620.1603978511232
 30
0.0
 11
147.6257766225288
 21
619.5304606394619
 31
0.0
  0
LINE
  5
67F
  8
0
  6
CONTINUOUS
 62
     7
 10
147.6257766225288
 20
619.5304606394619
 30
0.0
 11
148.4992823289792
 21
619.0605274781108
 31
0.0
  0
LINE
  5
680
  8
0
  6
CONTINUOUS
 62
     7
 10
148.4992823289792
 20
619.0605274781108
 30
0.0
 11
149.4471630287742
 21
618.7683281963165
 31
0.0
  0
LINE
  5
681
  8
0
  6
CONTINUOUS
 62
     7
 10
149.4471630287742
 20
618.7683281963165
 30
0.0
 11
150.4336566937458
 21
618.6648870073042
 31
0.0
  0
LINE
  5
682
  8
0
  6
CONTINUOUS
 62
     7
 10
103.7967956029365
 20
607.1511616225822
 30
0.0
 11
105.6452513974174
 21
608.2961996287785
 31
0.0
  0
LINE
  5
683
  8
0
  6
CONTINUOUS
 62
     7
 10
146.0
 20
631.5950245975592
 30
0.0
 11
105.6452513974174
 21
608.2961996287786
 31
0.0
  0
LINE
  5
684
  8
0
  6
CONTINUOUS
 62
     7
 10
146.0
 20
385.0065673294392
 30
0.0
 11
105.6452513974174
 21
408.3053922982202
 31
0.0
  0
LINE
  5
685
  8
0
  6
CONTINUOUS
 62
     7
 10
103.7967956029365
 20
409.4504303044162
 30
0.0
 11
105.6452513974174
 21
408.3053922982202
 31
0.0
  0
LINE
  5
686
  8
0
  6
CONTINUOUS
 62
     7
 10
-33.79679560293641
 20
409.4504303044162
 30
0.0
 11
-35.64525139741735
 21
408.30539229822
 31
0.0
  0
LINE
  5
687
  8
0
  6
CONTINUOUS
 62
     7
 10
-75.9999999999999
 20
385.0065673294392
 30
0.0
 11
-35.64525139741733
 21
408.30539229822
 31
0.0
  0
LINE
  5
688
  8
0
  6
CONTINUOUS
 62
     7
 10
-63.85036565908303
 20
577.0975915664357
 30
0.0
 11
-64.99540366527917
 21
578.9460473609167
 31
0.0
  0
LINE
  5
689
  8
0
  6
CONTINUOUS
 62
     7
 10
-88.29422863405998
 20
619.300795963499
 30
0.0
 11
-64.99540366527917
 21
578.9460473609166
 31
0.0
  0
LINE
  5
68A
  8
0
  6
CONTINUOUS
 62
     7
 10
158.2942286340601
 20
619.300795963499
 30
0.0
 11
134.9954036652793
 21
578.9460473609166
 31
0.0
  0
LINE
  5
68B
  8
0
  6
CONTINUOUS
 62
     7
 10
133.850365659083
 20
577.0975915664357
 30
0.0
 11
134.9954036652792
 21
578.9460473609167
 31
0.0
  0
LINE
  5
68C
  8
0
  6
CONTINUOUS
 62
     7
 10
133.850365659083
 20
439.5040003605627
 30
0.0
 11
134.9954036652793
 21
437.655544566082
 31
0.0
  0
LINE
  5
68D
  8
0
  6
CONTINUOUS
 62
     7
 10
158.2942286340601
 20
397.3007959634992
 30
0.0
 11
134.9954036652793
 21
437.655544566082
 31
0.0
  0
LINE
  5
68E
  8
0
  6
CONTINUOUS
 62
     7
 10
-88.29422863405986
 20
397.3007959634992
 30
0.0
 11
-64.99540366527908
 21
437.6555445660817
 31
0.0
  0
LINE
  5
68F
  8
0
  6
CONTINUOUS
 62
     7
 10
-63.85036565908303
 20
439.5040003605627
 30
0.0
 11
-64.9954036652791
 21
437.6555445660817
 31
0.0
  0
LINE
  5
690
  8
0
  6
CONTINUOUS
 62
     7
 10
-76.00000000000001
 20
631.5950245975592
 30
0.0
 11
-35.6452513974174
 21
608.2961996287783
 31
0.0
  0
LINE
  5
691
  8
0
  6
CONTINUOUS
 62
     7
 10
-33.79679560293647
 20
607.1511616225822
 30
0.0
 11
-35.6452513974174
 21
608.2961996287783
 31
0.0
  0
ARC
  5
692
  8
0
  6
CONTINUOUS
 62
     7
 10
-80.48161026596392
 20
623.7824062294633
 30
0.0
 40
5.117743891037668
 50
359.4631271971594
 51
270.5368728028411
  0
ARC
  5
693
  8
0
  6
CONTINUOUS
 62
     7
 10
150.481610265964
 20
623.7824062294633
 30
0.0
 40
5.11774389103764
 50
269.4631271971593
 51
180.5368728028406
  0
ARC
  5
694
  8
0
  6
CONTINUOUS
 62
     7
 10
150.481610265964
 20
392.8191856975355
 30
0.0
 40
5.11774389103764
 50
179.4631271971594
 51
90.53687280283985
  0
ARC
  5
695
  8
0
  6
CONTINUOUS
 62
     7
 10
-80.48161026596381
 20
392.8191856975353
 30
0.0
 40
5.117743891037668
 50
89.4631271971594
 51
0.5368728028414012
  0
ARC
  5
696
  8
0
  6
CONTINUOUS
 62
     7
 10
-80.4999999999999
 20
392.8007959634992
 30
0.0
 40
9.000000000000007
 50
150.0000000000001
 51
300.0
  0
ARC
  5
697
  8
0
  6
CONTINUOUS
 62
     7
 10
-80.50000000000001
 20
623.8007959634992
 30
0.0
 40
9.000000000000064
 50
60.0
 51
209.9999999999999
  0
ARC
  5
698
  8
0
  6
CONTINUOUS
 62
     7
 10
150.5
 20
623.8007959634992
 30
0.0
 40
8.999999999999897
 50
330.0000000000002
 51
120.0000000000001
  0
ARC
  5
699
  8
0
  6
CONTINUOUS
 62
     7
 10
150.5
 20
392.8007959634992
 30
0.0
 40
8.999999999999952
 50
240.0
 51
29.99999999999994
  0
LINE
  5
69A
  8
0
  6
CONTINUOUS
 62
     7
 10
163.5
 20
624.3026997740446
 30
0.0
 11
163.2598722702217
 21
626.7411601733892
 31
0.0
  0
LINE
  5
69B
  8
0
  6
CONTINUOUS
 62
     7
 10
163.2598722702218
 20
626.7411601733892
 30
0.0
 11
162.5487134880083
 21
629.0858018487734
 31
0.0
  0
LINE
  5
69C
  8
0
  6
CONTINUOUS
 62
     7
 10
162.5487134880082
 20
629.0858018487734
 30
0.0
 11
161.3938425229515
 21
631.2465563629216
 31
0.0
  0
LINE
  5
69D
  8
0
  6
CONTINUOUS
 62
     7
 10
161.3938425229515
 20
631.2465563629216
 30
0.0
 11
159.839623264071
 21
633.1404192275702
 31
0.0
  0
LINE
  5
69E
  8
0
  6
CONTINUOUS
 62
     7
 10
159.839623264071
 20
633.1404192275702
 30
0.0
 11
157.9457603994223
 21
634.6946384864508
 31
0.0
  0
LINE
  5
69F
  8
0
  6
CONTINUOUS
 62
     7
 10
157.9457603994223
 20
634.6946384864507
 30
0.0
 11
155.7850058852743
 21
635.8495094515073
 31
0.0
  0
LINE
  5
6A0
  8
0
  6
CONTINUOUS
 62
     7
 10
155.7850058852742
 20
635.8495094515073
 30
0.0
 11
153.4403642098898
 21
636.560668233721
 31
0.0
  0
LINE
  5
6A1
  8
0
  6
CONTINUOUS
 62
     7
 10
153.4403642098898
 20
636.560668233721
 30
0.0
 11
151.0019038105453
 21
636.8007959634991
 31
0.0
  0
LINE
  5
6A2
  8
0
  6
CONTINUOUS
 62
     7
 10
-81.00190381054506
 20
636.8007959634991
 30
0.0
 11
-83.44036420988984
 21
636.560668233721
 31
0.0
  0
LINE
  5
6A3
  8
0
  6
CONTINUOUS
 62
     7
 10
-83.44036420988984
 20
636.560668233721
 30
0.0
 11
-85.78500588527415
 21
635.8495094515073
 31
0.0
  0
LINE
  5
6A4
  8
0
  6
CONTINUOUS
 62
     7
 10
-85.78500588527413
 20
635.8495094515073
 30
0.0
 11
-87.9457603994222
 21
634.6946384864507
 31
0.0
  0
LINE
  5
6A5
  8
0
  6
CONTINUOUS
 62
     7
 10
-87.94576039942223
 20
634.6946384864507
 30
0.0
 11
-89.83962326407094
 21
633.1404192275699
 31
0.0
  0
LINE
  5
6A6
  8
0
  6
CONTINUOUS
 62
     7
 10
-89.83962326407091
 20
633.14041922757
 30
0.0
 11
-91.39384252295153
 21
631.2465563629215
 31
0.0
  0
LINE
  5
6A7
  8
0
  6
CONTINUOUS
 62
     7
 10
-91.39384252295154
 20
631.2465563629215
 30
0.0
 11
-92.54871348800836
 21
629.0858018487735
 31
0.0
  0
LINE
  5
6A8
  8
0
  6
CONTINUOUS
 62
     7
 10
-92.54871348800836
 20
629.0858018487734
 30
0.0
 11
-93.25987227022175
 21
626.741160173389
 31
0.0
  0
LINE
  5
6A9
  8
0
  6
CONTINUOUS
 62
     7
 10
-93.25987227022175
 20
626.741160173389
 30
0.0
 11
-93.50000000000003
 21
624.3026997740446
 31
0.0
  0
LINE
  5
6AA
  8
0
  6
CONTINUOUS
 62
     7
 10
151.0019038105451
 20
379.8007959634992
 30
0.0
 11
153.44036420989
 21
380.0409236932775
 31
0.0
  0
LINE
  5
6AB
  8
0
  6
CONTINUOUS
 62
     7
 10
153.44036420989
 20
380.0409236932775
 30
0.0
 11
155.7850058852742
 21
380.752082475491
 31
0.0
  0
LINE
  5
6AC
  8
0
  6
CONTINUOUS
 62
     7
 10
155.7850058852742
 20
380.752082475491
 30
0.0
 11
157.9457603994223
 21
381.9069534405477
 31
0.0
  0
LINE
  5
6AD
  8
0
  6
CONTINUOUS
 62
     7
 10
157.9457603994223
 20
381.9069534405477
 30
0.0
 11
159.8396232640711
 21
383.4611726994285
 31
0.0
  0
LINE
  5
6AE
  8
0
  6
CONTINUOUS
 62
     7
 10
159.839623264071
 20
383.4611726994285
 30
0.0
 11
161.3938425229515
 21
385.355035564077
 31
0.0
  0
LINE
  5
6AF
  8
0
  6
CONTINUOUS
 62
     7
 10
161.3938425229515
 20
385.355035564077
 30
0.0
 11
162.5487134880085
 21
387.5157900782253
 31
0.0
  0
LINE
  5
6B0
  8
0
  6
CONTINUOUS
 62
     7
 10
162.5487134880085
 20
387.5157900782253
 30
0.0
 11
163.2598722702217
 21
389.8604317536095
 31
0.0
  0
LINE
  5
6B1
  8
0
  6
CONTINUOUS
 62
     7
 10
163.2598722702218
 20
389.8604317536095
 30
0.0
 11
163.5000000000001
 21
392.2988921529541
 31
0.0
  0
LINE
  5
6B2
  8
0
  6
CONTINUOUS
 62
     7
 10
-93.49999999999989
 20
392.2988921529541
 30
0.0
 11
-93.25987227022163
 21
389.8604317536092
 31
0.0
  0
LINE
  5
6B3
  8
0
  6
CONTINUOUS
 62
     7
 10
-93.25987227022162
 20
389.8604317536092
 30
0.0
 11
-92.54871348800827
 21
387.5157900782249
 31
0.0
  0
LINE
  5
6B4
  8
0
  6
CONTINUOUS
 62
     7
 10
-92.54871348800827
 20
387.5157900782249
 30
0.0
 11
-91.39384252295143
 21
385.355035564077
 31
0.0
  0
LINE
  5
6B5
  8
0
  6
CONTINUOUS
 62
     7
 10
-91.39384252295143
 20
385.355035564077
 30
0.0
 11
-89.83962326407078
 21
383.4611726994281
 31
0.0
  0
LINE
  5
6B6
  8
0
  6
CONTINUOUS
 62
     7
 10
-89.8396232640708
 20
383.4611726994281
 30
0.0
 11
-87.94576039942211
 21
381.9069534405477
 31
0.0
  0
LINE
  5
6B7
  8
0
  6
CONTINUOUS
 62
     7
 10
-87.94576039942208
 20
381.9069534405477
 30
0.0
 11
-85.78500588527403
 21
380.7520824754908
 31
0.0
  0
LINE
  5
6B8
  8
0
  6
CONTINUOUS
 62
     7
 10
-85.78500588527405
 20
380.7520824754907
 30
0.0
 11
-83.4403642098898
 21
380.0409236932774
 31
0.0
  0
LINE
  5
6B9
  8
0
  6
CONTINUOUS
 62
     7
 10
-83.44036420988976
 20
380.0409236932775
 30
0.0
 11
-81.00190381054502
 21
379.8007959634992
 31
0.0
  0
LINE
  5
6BA
  8
0
  6
CONTINUOUS
 62
     7
 10
151.0019038105451
 20
379.8007959634992
 30
0.0
 11
-81.001903810545
 21
379.8007959634992
 31
0.0
  0
LINE
  5
6BB
  8
0
  6
CONTINUOUS
 62
     7
 10
151.0019038105451
 20
636.8007959634991
 30
0.0
 11
-81.00190381054509
 21
636.8007959634991
 31
0.0
  0
LINE
  5
6BC
  8
0
  6
CONTINUOUS
 62
     7
 10
-93.50000000000003
 20
624.3026997740443
 30
0.0
 11
-93.49999999999991
 21
392.2988921529541
 31
0.0
  0
LINE
  5
6BD
  8
0
  6
CONTINUOUS
 62
     7
 10
163.5
 20
624.3026997740446
 30
0.0
 11
163.5
 21
392.2988921529542
 31
0.0
  0
LINE
  5
6BE
  8
0
  6
CONTINUOUS
 62
     7
 10
-79.74999999999993
 20
320.466136024334
 30
0.0
 11
149.75
 21
320.466136024334
 31
0.0
  0
LINE
  5
6BF
  8
0
  6
CONTINUOUS
 62
     7
 10
-75.99999999999935
 20
320.6292659505983
 30
0.0
 11
-75.61914219434276
 21
320.6446124734202
 31
0.0
  0
LINE
  5
6C0
  8
0
  6
CONTINUOUS
 62
     7
 10
145.9999999999996
 20
320.6292659505983
 30
0.0
 11
145.6191421943428
 21
320.6446124734202
 31
0.0
  0
LINE
  5
6C1
  8
0
  6
CONTINUOUS
 62
     7
 10
48.78961884093924
 20
321.9661360243337
 30
0.0
 11
55.35177148192901
 21
321.9661360243337
 31
0.0
  0
LINE
  5
6C2
  8
0
  6
CONTINUOUS
 62
     7
 10
55.35177148192904
 20
321.9661360243337
 30
0.0
 11
58.64734603858304
 21
321.9661360243337
 31
0.0
  0
LINE
  5
6C3
  8
0
  6
CONTINUOUS
 62
     7
 10
76.40817326900628
 20
321.9661360243337
 30
0.0
 11
77.35261420817751
 21
321.9659105725095
 31
0.0
  0
LINE
  5
6C4
  8
0
  6
CONTINUOUS
 62
     7
 10
76.40817326900628
 20
321.9661360243337
 30
0.0
 11
77.33731462130073
 21
321.9661360243337
 31
0.0
  0
LINE
  5
6C5
  8
0
  6
CONTINUOUS
 62
     7
 10
77.33731462130072
 20
321.9661360243337
 30
0.0
 11
79.2628177287308
 21
321.9661360243337
 31
0.0
  0
LINE
  5
6C6
  8
0
  6
CONTINUOUS
 62
     7
 10
80.67145188238645
 20
321.9651469204477
 30
0.0
 11
79.26281772873078
 21
321.9661360243337
 31
0.0
  0
LINE
  5
6C7
  8
0
  6
CONTINUOUS
 62
     7
 10
-10.67145188238627
 20
321.9651469204477
 30
0.0
 11
-9.26281772873061
 21
321.9661360243337
 31
0.0
  0
LINE
  5
6C8
  8
0
  6
CONTINUOUS
 62
     7
 10
-6.408173269006223
 20
321.9661360243337
 30
0.0
 11
-7.360411260484971
 21
321.9661360243337
 31
0.0
  0
LINE
  5
6C9
  8
0
  6
CONTINUOUS
 62
     7
 10
-7.360411260484978
 20
321.9661360243337
 30
0.0
 11
-9.262817728730617
 21
321.9661360243337
 31
0.0
  0
LINE
  5
6CA
  8
0
  6
CONTINUOUS
 62
     7
 10
-6.408173269006167
 20
321.9661360243337
 30
0.0
 11
-7.352614208177364
 21
321.9659105725094
 31
0.0
  0
LINE
  5
6CB
  8
0
  6
CONTINUOUS
 62
     7
 10
21.21038115906077
 20
321.9661360243337
 30
0.0
 11
14.648228518071
 21
321.9661360243337
 31
0.0
  0
LINE
  5
6CC
  8
0
  6
CONTINUOUS
 62
     7
 10
14.64822851807102
 20
321.9661360243337
 30
0.0
 11
11.35265396141706
 21
321.9661360243337
 31
0.0
  0
LINE
  5
6CD
  8
0
  6
CONTINUOUS
 62
     7
 10
33.3405820082
 20
321.8976725755268
 30
0.0
 11
33.352653961417
 21
321.9661360243337
 31
0.0
  0
LINE
  5
6CE
  8
0
  6
CONTINUOUS
 62
     7
 10
36.64734603858327
 20
321.9661360243337
 30
0.0
 11
33.35265396141727
 21
321.9661360243337
 31
0.0
  0
LINE
  5
6CF
  8
0
  6
CONTINUOUS
 62
     7
 10
36.65941799180028
 20
321.8976725755268
 30
0.0
 11
36.64734603858325
 21
321.9661360243338
 31
0.0
  0
LINE
  5
6D0
  8
0
  6
CONTINUOUS
 62
     7
 10
33.32912674413829
 20
321.8327065447154
 30
0.0
 11
14.6783828290095
 21
321.7901176390498
 31
0.0
  0
LINE
  5
6D1
  8
0
  6
CONTINUOUS
 62
     7
 10
30.98301579352774
 20
321.8723143102104
 30
0.0
 11
14.64850101941698
 21
321.9595858025279
 31
0.0
  0
LINE
  5
6D2
  8
0
  6
CONTINUOUS
 62
     7
 10
-62.13798818159427
 20
321.150161418235
 30
0.0
 11
-75.58631395482928
 21
320.6348406072937
 31
0.0
  0
LINE
  5
6D3
  8
0
  6
CONTINUOUS
 62
     7
 10
9.019631633984087
 20
321.9583293809263
 30
0.0
 11
-7.340150907247302
 21
321.8952276805322
 31
0.0
  0
LINE
  5
6D4
  8
0
  6
CONTINUOUS
 62
     7
 10
-10.64816171468663
 20
321.9615100952767
 30
0.0
 11
-10.78121265334715
 21
321.9612118858252
 31
0.0
  0
LINE
  5
6D5
  8
0
  6
CONTINUOUS
 62
     7
 10
-10.78121265334717
 20
321.9612118858252
 30
0.0
 11
-19.98222896122333
 21
321.9167611587362
 31
0.0
  0
LINE
  5
6D6
  8
0
  6
CONTINUOUS
 62
     7
 10
-19.98222896122331
 20
321.9167611587362
 30
0.0
 11
-29.32707711341258
 21
321.8210825112439
 31
0.0
  0
LINE
  5
6D7
  8
0
  6
CONTINUOUS
 62
     7
 10
36.67087325586171
 20
321.8327065447154
 30
0.0
 11
55.3216171709905
 21
321.7901176390498
 31
0.0
  0
LINE
  5
6D8
  8
0
  6
CONTINUOUS
 62
     7
 10
39.01698420647226
 20
321.8723143102104
 30
0.0
 11
55.35149898058303
 21
321.9595858025279
 31
0.0
  0
LINE
  5
6D9
  8
0
  6
CONTINUOUS
 62
     7
 10
132.1379881815943
 20
321.150161418235
 30
0.0
 11
145.5863139548293
 21
320.6348406072937
 31
0.0
  0
LINE
  5
6DA
  8
0
  6
CONTINUOUS
 62
     7
 10
124.7514610189534
 20
321.3756706290105
 30
0.0
 11
124.7980330638319
 21
321.3743628936696
 31
0.0
  0
LINE
  5
6DB
  8
0
  6
CONTINUOUS
 62
     7
 10
106.1041164785517
 20
321.718370905414
 30
0.0
 11
121.2500592534155
 21
321.3842925220562
 31
0.0
  0
LINE
  5
6DC
  8
0
  6
CONTINUOUS
 62
     7
 10
60.98036836601606
 20
321.9583293809263
 30
0.0
 11
77.34015090724728
 21
321.8952276805322
 31
0.0
  0
LINE
  5
6DD
  8
0
  6
CONTINUOUS
 62
     7
 10
80.64816171468675
 20
321.9615100952767
 30
0.0
 11
80.7812126533472
 21
321.9612118858252
 31
0.0
  0
LINE
  5
6DE
  8
0
  6
CONTINUOUS
 62
     7
 10
80.7812126533472
 20
321.9612118858252
 30
0.0
 11
99.3270771134127
 21
321.8210825112439
 31
0.0
  0
LINE
  5
6DF
  8
0
  6
CONTINUOUS
 62
     7
 10
-81.79999999999993
 20
281.9850285903402
 30
0.0
 11
-80.99999999999996
 21
281.9850285903402
 31
0.0
  0
LINE
  5
6E0
  8
0
  6
CONTINUOUS
 62
     7
 10
151.8
 20
281.9850285903402
 30
0.0
 11
151.0
 21
281.9850285903402
 31
0.0
  0
LINE
  5
6E1
  8
0
  6
CONTINUOUS
 62
     7
 10
151.0019038105451
 20
259.466136024334
 30
0.0
 11
-81.001903810545
 21
259.466136024334
 31
0.0
  0
LINE
  5
6E2
  8
0
  6
CONTINUOUS
 62
     7
 10
-93.49999999999991
 20
259.466136024334
 30
0.0
 11
-93.25471519234232
 21
273.5184932436458
 31
0.0
  0
LINE
  5
6E3
  8
0
  6
CONTINUOUS
 62
     7
 10
-81.00190381054503
 20
259.466136024334
 30
0.0
 11
-93.49999999999993
 21
259.466136024334
 31
0.0
  0
LINE
  5
6E4
  8
0
  6
CONTINUOUS
 62
     7
 10
163.5
 20
259.466136024334
 30
0.0
 11
163.2547151923425
 21
273.5184932436458
 31
0.0
  0
LINE
  5
6E5
  8
0
  6
CONTINUOUS
 62
     7
 10
151.0019038105451
 20
259.466136024334
 30
0.0
 11
163.5
 21
259.466136024334
 31
0.0
  0
ARC
  5
6E6
  8
0
  6
CONTINUOUS
 62
     7
 10
-90.25517210687315
 20
273.4661360243339
 30
0.0
 40
3.000000000000003
 50
90.0
 51
178.9999999999999
  0
LINE
  5
6E7
  8
0
  6
CONTINUOUS
 62
     7
 10
-90.25517210687315
 20
276.466136024334
 30
0.0
 11
-80.75661900288742
 21
276.466136024334
 31
0.0
  0
LINE
  5
6E8
  8
0
  6
CONTINUOUS
 62
     7
 10
-80.75661900288745
 20
276.466136024334
 30
0.0
 11
150.7566190028875
 21
276.466136024334
 31
0.0
  0
LINE
  5
6E9
  8
0
  6
CONTINUOUS
 62
     7
 10
160.2551721068732
 20
276.466136024334
 30
0.0
 11
150.7566190028875
 21
276.466136024334
 31
0.0
  0
ARC
  5
6EA
  8
0
  6
CONTINUOUS
 62
     7
 10
160.2551721068732
 20
273.4661360243339
 30
0.0
 40
3.000000000000058
 50
1.000000000000057
 51
90.0
  0
LINE
  5
6EB
  8
0
  6
CONTINUOUS
 62
     7
 10
-33.79679560293641
 20
278.396337030929
 30
0.0
 11
-33.79833096554572
 21
278.3199348911069
 31
0.0
  0
LINE
  5
6EC
  8
0
  6
CONTINUOUS
 62
     7
 10
-33.79833096554572
 20
278.319934891107
 30
0.0
 11
-33.80266537691356
 21
278.2437409579285
 31
0.0
  0
LINE
  5
6ED
  8
0
  6
CONTINUOUS
 62
     7
 10
-33.80266537691357
 20
278.2437409579285
 30
0.0
 11
-33.80985505509044
 21
278.1673441703205
 31
0.0
  0
LINE
  5
6EE
  8
0
  6
CONTINUOUS
 62
     7
 10
-33.80985505509043
 20
278.1673441703205
 30
0.0
 11
-33.81985923180022
 21
278.0914343884207
 31
0.0
  0
LINE
  5
6EF
  8
0
  6
CONTINUOUS
 62
     7
 10
-33.81985923180019
 20
278.0914343884207
 30
0.0
 11
-33.83297711906347
 21
278.014458357631
 31
0.0
  0
LINE
  5
6F0
  8
0
  6
CONTINUOUS
 62
     7
 10
-33.83297711906349
 20
278.014458357631
 30
0.0
 11
-33.84897817174058
 21
277.9382753285828
 31
0.0
  0
LINE
  5
6F1
  8
0
  6
CONTINUOUS
 62
     7
 10
-33.84897817174057
 20
277.9382753285827
 30
0.0
 11
-33.8679759484786
 21
277.8624619883615
 31
0.0
  0
LINE
  5
6F2
  8
0
  6
CONTINUOUS
 62
     7
 10
-33.86797594847862
 20
277.8624619883615
 30
0.0
 11
-33.8898072412952
 21
277.787730359032
 31
0.0
  0
LINE
  5
6F3
  8
0
  6
CONTINUOUS
 62
     7
 10
-33.8898072412952
 20
277.787730359032
 30
0.0
 11
-33.91347324294615
 21
277.716866887397
 31
0.0
  0
LINE
  5
6F4
  8
0
  6
CONTINUOUS
 62
     7
 10
-33.91347324294613
 20
277.716866887397
 30
0.0
 11
-33.93965957159831
 21
277.6472419632155
 31
0.0
  0
LINE
  5
6F5
  8
0
  6
CONTINUOUS
 62
     7
 10
-33.93965957159831
 20
277.6472419632155
 30
0.0
 11
-33.96850747420002
 21
277.5785083421904
 31
0.0
  0
LINE
  5
6F6
  8
0
  6
CONTINUOUS
 62
     7
 10
-33.96850747420002
 20
277.5785083421904
 30
0.0
 11
-33.99977848597771
 21
277.5112414225632
 31
0.0
  0
LINE
  5
6F7
  8
0
  6
CONTINUOUS
 62
     7
 10
-33.99977848597774
 20
277.5112414225632
 30
0.0
 11
-34.03411470573152
 21
277.4442121024369
 31
0.0
  0
LINE
  5
6F8
  8
0
  6
CONTINUOUS
 62
     7
 10
-34.0341147057315
 20
277.4442121024369
 30
0.0
 11
-34.07081862091081
 21
277.3789077565022
 31
0.0
  0
LINE
  5
6F9
  8
0
  6
CONTINUOUS
 62
     7
 10
-34.0708186209108
 20
277.3789077565022
 30
0.0
 11
-34.11007419940286
 21
277.3150058207664
 31
0.0
  0
LINE
  5
6FA
  8
0
  6
CONTINUOUS
 62
     7
 10
-34.11007419940287
 20
277.3150058207664
 30
0.0
 11
-34.1515565375848
 21
277.2530275903512
 31
0.0
  0
LINE
  5
6FB
  8
0
  6
CONTINUOUS
 62
     7
 10
-34.15155653758478
 20
277.2530275903512
 30
0.0
 11
-34.21040190905948
 21
277.173240160758
 31
0.0
  0
LINE
  5
6FC
  8
0
  6
CONTINUOUS
 62
     7
 10
-34.21040190905949
 20
277.173240160758
 30
0.0
 11
-34.27289605564524
 21
277.097150527246
 31
0.0
  0
LINE
  5
6FD
  8
0
  6
CONTINUOUS
 62
     7
 10
-34.27289605564523
 20
277.097150527246
 30
0.0
 11
-34.33873284542405
 21
277.0250105085939
 31
0.0
  0
LINE
  5
6FE
  8
0
  6
CONTINUOUS
 62
     7
 10
-34.33873284542405
 20
277.0250105085939
 30
0.0
 11
-34.40947761757779
 21
276.9552914002954
 31
0.0
  0
LINE
  5
6FF
  8
0
  6
CONTINUOUS
 62
     7
 10
-34.40947761757779
 20
276.9552914002954
 30
0.0
 11
-34.48335253026948
 21
276.8898799055162
 31
0.0
  0
LINE
  5
700
  8
0
  6
CONTINUOUS
 62
     7
 10
-34.48335253026949
 20
276.8898799055162
 30
0.0
 11
-34.56002528041744
 21
276.828964367181
 31
0.0
  0
LINE
  5
701
  8
0
  6
CONTINUOUS
 62
     7
 10
-34.56002528041743
 20
276.828964367181
 30
0.0
 11
-34.64426579610409
 21
276.7692959718962
 31
0.0
  0
LINE
  5
702
  8
0
  6
CONTINUOUS
 62
     7
 10
-34.64426579610411
 20
276.7692959718963
 30
0.0
 11
-34.73123373681261
 21
276.714794396356
 31
0.0
  0
LINE
  5
703
  8
0
  6
CONTINUOUS
 62
     7
 10
-34.73123373681258
 20
276.714794396356
 30
0.0
 11
-34.82054401221083
 21
276.6656040512455
 31
0.0
  0
LINE
  5
704
  8
0
  6
CONTINUOUS
 62
     7
 10
-34.82054401221085
 20
276.6656040512455
 30
0.0
 11
-34.9142537262527
 21
276.6207606140422
 31
0.0
  0
LINE
  5
705
  8
0
  6
CONTINUOUS
 62
     7
 10
-34.91425372625267
 20
276.6207606140422
 30
0.0
 11
-35.00999299195788
 21
276.5815369127675
 31
0.0
  0
LINE
  5
706
  8
0
  6
CONTINUOUS
 62
     7
 10
-35.00999299195789
 20
276.5815369127675
 30
0.0
 11
-35.10736763884843
 21
276.5480212302682
 31
0.0
  0
LINE
  5
707
  8
0
  6
CONTINUOUS
 62
     7
 10
-35.10736763884842
 20
276.5480212302682
 30
0.0
 11
-35.19444032185425
 21
276.523214791369
 31
0.0
  0
LINE
  5
708
  8
0
  6
CONTINUOUS
 62
     7
 10
-35.19444032185426
 20
276.523214791369
 30
0.0
 11
-35.28249275055148
 21
276.502853824972
 31
0.0
  0
LINE
  5
709
  8
0
  6
CONTINUOUS
 62
     7
 10
-35.28249275055148
 20
276.502853824972
 30
0.0
 11
-35.37126624325452
 21
276.4869665367337
 31
0.0
  0
LINE
  5
70A
  8
0
  6
CONTINUOUS
 62
     7
 10
-35.37126624325454
 20
276.4869665367337
 30
0.0
 11
-35.46220545120985
 21
276.4753968345278
 31
0.0
  0
LINE
  5
70B
  8
0
  6
CONTINUOUS
 62
     7
 10
-35.46220545120984
 20
276.4753968345278
 30
0.0
 11
-35.55362210310618
 21
276.468451928053
 31
0.0
  0
LINE
  5
70C
  8
0
  6
CONTINUOUS
 62
     7
 10
-35.55362210310617
 20
276.468451928053
 30
0.0
 11
-35.64525139741733
 21
276.4661360243339
 31
0.0
  0
LINE
  5
70D
  8
0
  6
CONTINUOUS
 62
     7
 10
-33.7547039966502
 20
301.8893775820927
 30
0.0
 11
-33.7967956029364
 21
278.396337030929
 31
0.0
  0
LINE
  5
70E
  8
0
  6
CONTINUOUS
 62
     7
 10
103.7967956029365
 20
278.396337030929
 30
0.0
 11
103.7983462731223
 21
278.3196938224212
 31
0.0
  0
LINE
  5
70F
  8
0
  6
CONTINUOUS
 62
     7
 10
103.7983462731223
 20
278.3196938224212
 30
0.0
 11
103.8027189044268
 21
278.2431921181215
 31
0.0
  0
LINE
  5
710
  8
0
  6
CONTINUOUS
 62
     7
 10
103.8027189044268
 20
278.2431921181215
 30
0.0
 11
103.8098957922023
 21
278.1670372095982
 31
0.0
  0
LINE
  5
711
  8
0
  6
CONTINUOUS
 62
     7
 10
103.8098957922023
 20
278.1670372095982
 30
0.0
 11
103.8198592318003
 21
278.0914343884207
 31
0.0
  0
LINE
  5
712
  8
0
  6
CONTINUOUS
 62
     7
 10
103.8198592318003
 20
278.0914343884207
 30
0.0
 11
103.833031258395
 21
278.0142084635743
 31
0.0
  0
LINE
  5
713
  8
0
  6
CONTINUOUS
 62
     7
 10
103.8330312583949
 20
278.0142084635743
 30
0.0
 11
103.8491216272263
 21
277.9377104675675
 31
0.0
  0
LINE
  5
714
  8
0
  6
CONTINUOUS
 62
     7
 10
103.8491216272263
 20
277.9377104675675
 30
0.0
 11
103.8680678007183
 21
277.8621484246399
 31
0.0
  0
LINE
  5
715
  8
0
  6
CONTINUOUS
 62
     7
 10
103.8680678007183
 20
277.8621484246399
 30
0.0
 11
103.8898072412953
 21
277.7877303590319
 31
0.0
  0
LINE
  5
716
  8
0
  6
CONTINUOUS
 62
     7
 10
103.8898072412953
 20
277.787730359032
 30
0.0
 11
103.9135512262312
 21
277.7166627451605
 31
0.0
  0
LINE
  5
717
  8
0
  6
CONTINUOUS
 62
     7
 10
103.9135512262312
 20
277.7166627451605
 30
0.0
 11
103.9398531761435
 21
277.6467836390387
 31
0.0
  0
LINE
  5
718
  8
0
  6
CONTINUOUS
 62
     7
 10
103.9398531761435
 20
277.6467836390387
 30
0.0
 11
103.9686249698023
 21
277.5782556587965
 31
0.0
  0
LINE
  5
719
  8
0
  6
CONTINUOUS
 62
     7
 10
103.9686249698023
 20
277.5782556587965
 30
0.0
 11
103.9997784859778
 21
277.5112414225632
 31
0.0
  0
LINE
  5
71A
  8
0
  6
CONTINUOUS
 62
     7
 10
103.9997784859778
 20
277.5112414225632
 30
0.0
 11
104.0342212666433
 21
277.4440242404502
 31
0.0
  0
LINE
  5
71B
  8
0
  6
CONTINUOUS
 62
     7
 10
104.0342212666433
 20
277.4440242404502
 30
0.0
 11
104.071076308753
 21
277.378489435927
 31
0.0
  0
LINE
  5
71C
  8
0
  6
CONTINUOUS
 62
     7
 10
104.071076308753
 20
277.378489435927
 30
0.0
 11
104.110226952377
 21
277.314777166669
 31
0.0
  0
LINE
  5
71D
  8
0
  6
CONTINUOUS
 62
     7
 10
104.110226952377
 20
277.314777166669
 30
0.0
 11
104.151556537585
 21
277.2530275903512
 31
0.0
  0
LINE
  5
71E
  8
0
  6
CONTINUOUS
 62
     7
 10
104.151556537585
 20
277.2530275903512
 30
0.0
 11
104.2110429720152
 21
277.1724720995902
 31
0.0
  0
LINE
  5
71F
  8
0
  6
CONTINUOUS
 62
     7
 10
104.2110429720152
 20
277.1724720995902
 30
0.0
 11
104.2743916087113
 21
277.0955754312428
 31
0.0
  0
LINE
  5
720
  8
0
  6
CONTINUOUS
 62
     7
 10
104.2743916087113
 20
277.0955754312428
 30
0.0
 11
104.3412833027863
 21
277.0225569545685
 31
0.0
  0
LINE
  5
721
  8
0
  6
CONTINUOUS
 62
     7
 10
104.3412833027863
 20
277.0225569545685
 30
0.0
 11
104.4113989093535
 21
276.9536360388272
 31
0.0
  0
LINE
  5
722
  8
0
  6
CONTINUOUS
 62
     7
 10
104.4113989093535
 20
276.9536360388272
 30
0.0
 11
104.4844192835262
 21
276.889032053278
 31
0.0
  0
LINE
  5
723
  8
0
  6
CONTINUOUS
 62
     7
 10
104.4844192835262
 20
276.889032053278
 30
0.0
 11
104.5600252804175
 21
276.828964367181
 31
0.0
  0
LINE
  5
724
  8
0
  6
CONTINUOUS
 62
     7
 10
104.5600252804175
 20
276.828964367181
 30
0.0
 11
104.6451466967295
 21
276.7687492845452
 31
0.0
  0
LINE
  5
725
  8
0
  6
CONTINUOUS
 62
     7
 10
104.6451466967295
 20
276.7687492845452
 30
0.0
 11
104.7332273935798
 21
276.7137366451257
 31
0.0
  0
LINE
  5
726
  8
0
  6
CONTINUOUS
 62
     7
 10
104.7332273935798
 20
276.7137366451257
 30
0.0
 11
104.8238786035923
 21
276.6640419844555
 31
0.0
  0
LINE
  5
727
  8
0
  6
CONTINUOUS
 62
     7
 10
104.8238786035923
 20
276.6640419844555
 30
0.0
 11
104.9167115593917
 21
276.619780838067
 31
0.0
  0
LINE
  5
728
  8
0
  6
CONTINUOUS
 62
     7
 10
104.9167115593917
 20
276.619780838067
 30
0.0
 11
105.0113374936023
 21
276.5810687414937
 31
0.0
  0
LINE
  5
729
  8
0
  6
CONTINUOUS
 62
     7
 10
105.0113374936023
 20
276.5810687414937
 30
0.0
 11
105.1073676388485
 21
276.5480212302682
 31
0.0
  0
LINE
  5
72A
  8
0
  6
CONTINUOUS
 62
     7
 10
105.1073676388485
 20
276.5480212302682
 30
0.0
 11
105.1950832006
 21
276.5230679290497
 31
0.0
  0
LINE
  5
72B
  8
0
  6
CONTINUOUS
 62
     7
 10
105.1950832006
 20
276.5230679290497
 30
0.0
 11
105.2839194884351
 21
276.5026154375103
 31
0.0
  0
LINE
  5
72C
  8
0
  6
CONTINUOUS
 62
     7
 10
105.283919488435
 20
276.5026154375102
 30
0.0
 11
105.3736154771938
 21
276.4866798784597
 31
0.0
  0
LINE
  5
72D
  8
0
  6
CONTINUOUS
 62
     7
 10
105.3736154771938
 20
276.4866798784598
 30
0.0
 11
105.463910141717
 21
276.4752773747072
 31
0.0
  0
LINE
  5
72E
  8
0
  6
CONTINUOUS
 62
     7
 10
105.463910141717
 20
276.4752773747072
 30
0.0
 11
105.5545424568445
 21
276.468424049062
 31
0.0
  0
LINE
  5
72F
  8
0
  6
CONTINUOUS
 62
     7
 10
105.5545424568445
 20
276.468424049062
 30
0.0
 11
105.6452513974175
 21
276.466136024334
 31
0.0
  0
LINE
  5
730
  8
0
  6
CONTINUOUS
 62
     7
 10
103.7547039966503
 20
301.8893775820927
 30
0.0
 11
103.7967956029366
 21
278.396337030929
 31
0.0
  0
LINE
  5
731
  8
0
  6
CONTINUOUS
 62
     7
 10
-75.36409104380498
 20
284.2769024132342
 30
0.0
 11
-75.43051234039325
 21
283.9810640111266
 31
0.0
  0
LINE
  5
732
  8
0
  6
CONTINUOUS
 62
     7
 10
-75.43051234039322
 20
283.9810640111267
 30
0.0
 11
-75.57329261562569
 21
283.7495234979658
 31
0.0
  0
LINE
  5
733
  8
0
  6
CONTINUOUS
 62
     7
 10
-75.5732926156257
 20
283.7495234979658
 30
0.0
 11
-75.79624932423972
 21
283.5127771716045
 31
0.0
  0
ARC
  5
734
  8
0
  6
CONTINUOUS
 62
     7
 10
-83.50122243929259
 20
298.8773764845939
 30
0.0
 40
17.1882960979966
 50
264.4366679660898
 51
296.6326521072236
  0
LINE
  5
735
  8
0
  6
CONTINUOUS
 62
     7
 10
-85.16755826116884
 20
281.7700433294487
 30
0.0
 11
-85.44078098294071
 21
281.8257043744535
 31
0.0
  0
LINE
  5
736
  8
0
  6
CONTINUOUS
 62
     7
 10
-85.44078098294072
 20
281.8257043744535
 30
0.0
 11
-85.59581786107844
 21
281.9555376095147
 31
0.0
  0
LINE
  5
737
  8
0
  6
CONTINUOUS
 62
     7
 10
145.364091043805
 20
284.2769024132342
 30
0.0
 11
145.4305123403935
 21
283.9810640111266
 31
0.0
  0
LINE
  5
738
  8
0
  6
CONTINUOUS
 62
     7
 10
145.4305123403935
 20
283.9810640111267
 30
0.0
 11
145.5732926156257
 21
283.7495234979658
 31
0.0
  0
LINE
  5
739
  8
0
  6
CONTINUOUS
 62
     7
 10
145.5732926156257
 20
283.7495234979658
 30
0.0
 11
145.7962493242398
 21
283.5127771716045
 31
0.0
  0
ARC
  5
73A
  8
0
  6
CONTINUOUS
 62
     7
 10
153.5012224392928
 20
298.8773764845942
 30
0.0
 40
17.18829609799683
 50
243.3673478927766
 51
275.5633320339101
  0
LINE
  5
73B
  8
0
  6
CONTINUOUS
 62
     7
 10
155.167558261169
 20
281.7700433294487
 30
0.0
 11
155.4407809829407
 21
281.8257043744535
 31
0.0
  0
LINE
  5
73C
  8
0
  6
CONTINUOUS
 62
     7
 10
155.4407809829407
 20
281.8257043744535
 30
0.0
 11
155.5958178610785
 21
281.9555376095147
 31
0.0
  0
LINE
  5
73D
  8
0
  6
CONTINUOUS
 62
     7
 10
-85.59581786107844
 20
281.9555376095147
 30
0.0
 11
-85.43596392657909
 21
282.1600950153173
 31
0.0
  0
ARC
  5
73E
  8
0
  6
CONTINUOUS
 62
     7
 10
-71.5694194174161
 20
256.3605157335342
 30
0.0
 40
29.28991887564061
 50
107.616105965536
 51
118.2567729117366
  0
LINE
  5
73F
  8
0
  6
CONTINUOUS
 62
     7
 10
-75.37464265650198
 20
284.3701582388459
 30
0.0
 11
-75.52531977442806
 21
284.6315454630364
 31
0.0
  0
LINE
  5
740
  8
0
  6
CONTINUOUS
 62
     7
 10
-75.52531977442806
 20
284.6315454630365
 30
0.0
 11
-75.84908382719438
 21
284.8211610827307
 31
0.0
  0
LINE
  5
741
  8
0
  6
CONTINUOUS
 62
     7
 10
-75.8490838271944
 20
284.8211610827307
 30
0.0
 11
-76.33460295309739
 21
284.9323684810439
 31
0.0
  0
LINE
  5
742
  8
0
  6
CONTINUOUS
 62
     7
 10
-76.33460295309737
 20
284.932368481044
 30
0.0
 11
-76.96488380299218
 21
284.9612753578667
 31
0.0
  0
LINE
  5
743
  8
0
  6
CONTINUOUS
 62
     7
 10
-76.96488380299218
 20
284.9612753578667
 30
0.0
 11
-77.71786631380387
 21
284.9068699618088
 31
0.0
  0
LINE
  5
744
  8
0
  6
CONTINUOUS
 62
     7
 10
-77.71786631380387
 20
284.9068699618088
 30
0.0
 11
-78.5671958189013
 21
284.7710565018727
 31
0.0
  0
LINE
  5
745
  8
0
  6
CONTINUOUS
 62
     7
 10
-78.56719581890131
 20
284.7710565018727
 30
0.0
 11
-79.48314547118612
 21
284.5585884994345
 31
0.0
  0
LINE
  5
746
  8
0
  6
CONTINUOUS
 62
     7
 10
-79.48314547118612
 20
284.5585884994345
 30
0.0
 11
-80.43365669374563
 21
284.2769024132344
 31
0.0
  0
LINE
  5
747
  8
0
  6
CONTINUOUS
 62
     7
 10
-75.36409104380503
 20
284.2769024132344
 30
0.0
 11
-75.37464265650198
 21
284.3701582388459
 31
0.0
  0
LINE
  5
748
  8
0
  6
CONTINUOUS
 62
     7
 10
155.5958178610785
 20
281.9555376095147
 30
0.0
 11
155.5828884454676
 21
282.0070458318475
 31
0.0
  0
LINE
  5
749
  8
0
  6
CONTINUOUS
 62
     7
 10
155.5828884454676
 20
282.0070458318475
 30
0.0
 11
155.399560694802
 21
282.1868228262762
 31
0.0
  0
ARC
  5
74A
  8
0
  6
CONTINUOUS
 62
     7
 10
141.2590538542218
 20
255.5342100595472
 30
0.0
 40
30.17143849738857
 50
62.05187574033186
 51
72.2970337593013
  0
LINE
  5
74B
  8
0
  6
CONTINUOUS
 62
     7
 10
150.4336566937457
 20
284.2769024132344
 30
0.0
 11
149.4831454711863
 21
284.5585884994345
 31
0.0
  0
LINE
  5
74C
  8
0
  6
CONTINUOUS
 62
     7
 10
149.4831454711862
 20
284.5585884994345
 30
0.0
 11
148.5671958189014
 21
284.7710565018727
 31
0.0
  0
LINE
  5
74D
  8
0
  6
CONTINUOUS
 62
     7
 10
148.5671958189014
 20
284.7710565018727
 30
0.0
 11
147.717866313804
 21
284.9068699618088
 31
0.0
  0
LINE
  5
74E
  8
0
  6
CONTINUOUS
 62
     7
 10
147.717866313804
 20
284.9068699618088
 30
0.0
 11
146.9648838029922
 21
284.9612753578667
 31
0.0
  0
LINE
  5
74F
  8
0
  6
CONTINUOUS
 62
     7
 10
146.9648838029922
 20
284.9612753578667
 30
0.0
 11
146.3346029530975
 21
284.932368481044
 31
0.0
  0
LINE
  5
750
  8
0
  6
CONTINUOUS
 62
     7
 10
146.3346029530976
 20
284.932368481044
 30
0.0
 11
145.8490838271945
 21
284.8211610827307
 31
0.0
  0
LINE
  5
751
  8
0
  6
CONTINUOUS
 62
     7
 10
145.8490838271945
 20
284.8211610827307
 30
0.0
 11
145.5253197744283
 21
284.6315454630364
 31
0.0
  0
LINE
  5
752
  8
0
  6
CONTINUOUS
 62
     7
 10
145.5253197744283
 20
284.6315454630365
 30
0.0
 11
145.374642656502
 21
284.370158238846
 31
0.0
  0
LINE
  5
753
  8
0
  6
CONTINUOUS
 62
     7
 10
145.3746426565022
 20
284.3701582388459
 30
0.0
 11
145.3640910438053
 21
284.2769024132344
 31
0.0
  0
LINE
  5
754
  8
0
  6
CONTINUOUS
 62
     7
 10
105.2877078315038
 20
303.6659603485442
 30
0.0
 11
119.5530461850232
 21
302.9698026616178
 31
0.0
  0
LINE
  5
755
  8
0
  6
CONTINUOUS
 62
     7
 10
119.5530461850233
 20
302.9698026616178
 30
0.0
 11
131.7070839300622
 21
303.6659603485442
 31
0.0
  0
LINE
  5
756
  8
0
  6
CONTINUOUS
 62
     7
 10
103.7547039966503
 20
301.8893775820927
 30
0.0
 11
103.7566522673923
 21
301.9966794888032
 31
0.0
  0
LINE
  5
757
  8
0
  6
CONTINUOUS
 62
     7
 10
103.7566522673923
 20
301.9966794888032
 30
0.0
 11
103.7629623126965
 21
302.103664396516
 31
0.0
  0
LINE
  5
758
  8
0
  6
CONTINUOUS
 62
     7
 10
103.7629623126965
 20
302.1036643965159
 30
0.0
 11
103.7737402209692
 21
302.2099096287374
 31
0.0
  0
LINE
  5
759
  8
0
  6
CONTINUOUS
 62
     7
 10
103.7737402209692
 20
302.2099096287375
 30
0.0
 11
103.7851495010195
 21
302.2909701569734
 31
0.0
  0
LINE
  5
75A
  8
0
  6
CONTINUOUS
 62
     7
 10
103.7851495010196
 20
302.2909701569734
 30
0.0
 11
103.7993223478642
 21
302.3713724053002
 31
0.0
  0
LINE
  5
75B
  8
0
  6
CONTINUOUS
 62
     7
 10
103.7993223478642
 20
302.3713724053002
 30
0.0
 11
103.816276766954
 21
302.4508817211573
 31
0.0
  0
LINE
  5
75C
  8
0
  6
CONTINUOUS
 62
     7
 10
103.816276766954
 20
302.4508817211573
 30
0.0
 11
103.8360307637397
 21
302.529263451984
 31
0.0
  0
LINE
  5
75D
  8
0
  6
CONTINUOUS
 62
     7
 10
103.8360307637398
 20
302.529263451984
 30
0.0
 11
103.8580708421631
 21
302.6046177193438
 31
0.0
  0
LINE
  5
75E
  8
0
  6
CONTINUOUS
 62
     7
 10
103.858070842163
 20
302.6046177193437
 30
0.0
 11
103.8828485868343
 21
302.6787051567576
 31
0.0
  0
LINE
  5
75F
  8
0
  6
CONTINUOUS
 62
     7
 10
103.8828485868343
 20
302.6787051567576
 30
0.0
 11
103.9103316015522
 21
302.7512782391137
 31
0.0
  0
LINE
  5
760
  8
0
  6
CONTINUOUS
 62
     7
 10
103.9103316015523
 20
302.7512782391137
 30
0.0
 11
103.9404874901161
 21
302.8220894412999
 31
0.0
  0
LINE
  5
761
  8
0
  6
CONTINUOUS
 62
     7
 10
103.9404874901161
 20
302.8220894413
 30
0.0
 11
103.9745647939608
 21
302.8934577460942
 31
0.0
  0
LINE
  5
762
  8
0
  6
CONTINUOUS
 62
     7
 10
103.9745647939608
 20
302.8934577460942
 30
0.0
 11
104.0115182244677
 21
302.9627098748413
 31
0.0
  0
LINE
  5
763
  8
0
  6
CONTINUOUS
 62
     7
 10
104.0115182244677
 20
302.9627098748412
 30
0.0
 11
104.051237625855
 21
303.0295713331267
 31
0.0
  0
LINE
  5
764
  8
0
  6
CONTINUOUS
 62
     7
 10
104.051237625855
 20
303.0295713331267
 30
0.0
 11
104.0936128423401
 21
303.0937676265362
 31
0.0
  0
LINE
  5
765
  8
0
  6
CONTINUOUS
 62
     7
 10
104.09361284234
 20
303.0937676265362
 30
0.0
 11
104.1325843754745
 21
303.147305640315
 31
0.0
  0
LINE
  5
766
  8
0
  6
CONTINUOUS
 62
     7
 10
104.1325843754745
 20
303.147305640315
 30
0.0
 11
104.1735061000217
 21
303.1986898350204
 31
0.0
  0
LINE
  5
767
  8
0
  6
CONTINUOUS
 62
     7
 10
104.1735061000217
 20
303.1986898350204
 30
0.0
 11
104.216259431927
 21
303.2477691891614
 31
0.0
  0
LINE
  5
768
  8
0
  6
CONTINUOUS
 62
     7
 10
104.216259431927
 20
303.2477691891615
 30
0.0
 11
104.2607257871357
 21
303.294392681246
 31
0.0
  0
LINE
  5
769
  8
0
  6
CONTINUOUS
 62
     7
 10
104.2607257871357
 20
303.2943926812459
 30
0.0
 11
104.3084023263368
 21
303.3399010702077
 31
0.0
  0
LINE
  5
76A
  8
0
  6
CONTINUOUS
 62
     7
 10
104.3084023263368
 20
303.3399010702077
 30
0.0
 11
104.357800706659
 21
303.3827016308257
 31
0.0
  0
LINE
  5
76B
  8
0
  6
CONTINUOUS
 62
     7
 10
104.357800706659
 20
303.3827016308257
 30
0.0
 11
104.4087576657997
 21
303.4226827511505
 31
0.0
  0
LINE
  5
76C
  8
0
  6
CONTINUOUS
 62
     7
 10
104.4087576657998
 20
303.4226827511505
 30
0.0
 11
104.4611099414555
 21
303.4597328192328
 31
0.0
  0
LINE
  5
76D
  8
0
  6
CONTINUOUS
 62
     7
 10
104.4611099414555
 20
303.4597328192328
 30
0.0
 11
104.5103120477795
 21
303.4911202157845
 31
0.0
  0
LINE
  5
76E
  8
0
  6
CONTINUOUS
 62
     7
 10
104.5103120477795
 20
303.4911202157845
 30
0.0
 11
104.5605809547423
 21
303.5200256668119
 31
0.0
  0
LINE
  5
76F
  8
0
  6
CONTINUOUS
 62
     7
 10
104.5605809547423
 20
303.5200256668119
 30
0.0
 11
104.6117832586768
 21
303.5464098322644
 31
0.0
  0
LINE
  5
770
  8
0
  6
CONTINUOUS
 62
     7
 10
104.6117832586768
 20
303.5464098322644
 30
0.0
 11
104.6637855559152
 21
303.5702333720909
 31
0.0
  0
LINE
  5
771
  8
0
  6
CONTINUOUS
 62
     7
 10
104.6637855559153
 20
303.570233372091
 30
0.0
 11
104.7361256473828
 21
303.5986879363564
 31
0.0
  0
LINE
  5
772
  8
0
  6
CONTINUOUS
 62
     7
 10
104.7361256473828
 20
303.5986879363564
 30
0.0
 11
104.809687541676
 21
303.6224126745785
 31
0.0
  0
LINE
  5
773
  8
0
  6
CONTINUOUS
 62
     7
 10
104.809687541676
 20
303.6224126745785
 30
0.0
 11
104.8841491149347
 21
303.6414079771427
 31
0.0
  0
LINE
  5
774
  8
0
  6
CONTINUOUS
 62
     7
 10
104.8841491149347
 20
303.6414079771427
 30
0.0
 11
104.9640168634117
 21
303.6564384322115
 31
0.0
  0
LINE
  5
775
  8
0
  6
CONTINUOUS
 62
     7
 10
104.9640168634117
 20
303.6564384322115
 30
0.0
 11
105.0446210868214
 21
303.666299847484
 31
0.0
  0
LINE
  5
776
  8
0
  6
CONTINUOUS
 62
     7
 10
105.0446210868214
 20
303.666299847484
 30
0.0
 11
105.1256473076498
 21
303.6711012723622
 31
0.0
  0
LINE
  5
777
  8
0
  6
CONTINUOUS
 62
     7
 10
105.1256473076498
 20
303.6711012723622
 30
0.0
 11
105.2067810483818
 21
303.6709517562485
 31
0.0
  0
LINE
  5
778
  8
0
  6
CONTINUOUS
 62
     7
 10
105.2067810483818
 20
303.6709517562485
 30
0.0
 11
105.2877078315038
 21
303.6659603485442
 31
0.0
  0
LINE
  5
779
  8
0
  6
CONTINUOUS
 62
     7
 10
-33.7547039966502
 20
301.8893775820927
 30
0.0
 11
-33.75665226739213
 21
301.9966794888032
 31
0.0
  0
LINE
  5
77A
  8
0
  6
CONTINUOUS
 62
     7
 10
-33.75665226739213
 20
301.9966794888032
 30
0.0
 11
-33.76296231269632
 21
302.1036643965159
 31
0.0
  0
LINE
  5
77B
  8
0
  6
CONTINUOUS
 62
     7
 10
-33.76296231269632
 20
302.1036643965159
 30
0.0
 11
-33.77374022096923
 21
302.2099096287374
 31
0.0
  0
LINE
  5
77C
  8
0
  6
CONTINUOUS
 62
     7
 10
-33.77374022096924
 20
302.2099096287375
 30
0.0
 11
-33.78514950101937
 21
302.2909701569734
 31
0.0
  0
LINE
  5
77D
  8
0
  6
CONTINUOUS
 62
     7
 10
-33.78514950101935
 20
302.2909701569734
 30
0.0
 11
-33.79932234786406
 21
302.3713724053002
 31
0.0
  0
LINE
  5
77E
  8
0
  6
CONTINUOUS
 62
     7
 10
-33.79932234786406
 20
302.3713724053002
 30
0.0
 11
-33.81627676695398
 21
302.4508817211573
 31
0.0
  0
LINE
  5
77F
  8
0
  6
CONTINUOUS
 62
     7
 10
-33.81627676695398
 20
302.4508817211573
 30
0.0
 11
-33.83603076373971
 21
302.529263451984
 31
0.0
  0
LINE
  5
780
  8
0
  6
CONTINUOUS
 62
     7
 10
-33.8360307637397
 20
302.529263451984
 30
0.0
 11
-33.85807084216292
 21
302.6046177193438
 31
0.0
  0
LINE
  5
781
  8
0
  6
CONTINUOUS
 62
     7
 10
-33.85807084216294
 20
302.6046177193437
 30
0.0
 11
-33.88284858683414
 21
302.6787051567576
 31
0.0
  0
LINE
  5
782
  8
0
  6
CONTINUOUS
 62
     7
 10
-33.88284858683413
 20
302.6787051567576
 30
0.0
 11
-33.91033160155219
 21
302.7512782391137
 31
0.0
  0
LINE
  5
783
  8
0
  6
CONTINUOUS
 62
     7
 10
-33.91033160155219
 20
302.7512782391137
 30
0.0
 11
-33.94048749011591
 21
302.8220894413
 31
0.0
  0
LINE
  5
784
  8
0
  6
CONTINUOUS
 62
     7
 10
-33.94048749011591
 20
302.8220894413
 30
0.0
 11
-33.9745647939606
 21
302.8934577460942
 31
0.0
  0
LINE
  5
785
  8
0
  6
CONTINUOUS
 62
     7
 10
-33.9745647939606
 20
302.8934577460942
 30
0.0
 11
-34.01151822446761
 21
302.9627098748413
 31
0.0
  0
LINE
  5
786
  8
0
  6
CONTINUOUS
 62
     7
 10
-34.0115182244676
 20
302.9627098748412
 30
0.0
 11
-34.05123762585475
 21
303.0295713331267
 31
0.0
  0
LINE
  5
787
  8
0
  6
CONTINUOUS
 62
     7
 10
-34.05123762585477
 20
303.0295713331267
 30
0.0
 11
-34.09361284233987
 21
303.0937676265362
 31
0.0
  0
LINE
  5
788
  8
0
  6
CONTINUOUS
 62
     7
 10
-34.09361284233986
 20
303.0937676265362
 30
0.0
 11
-34.13258437547441
 21
303.147305640315
 31
0.0
  0
LINE
  5
789
  8
0
  6
CONTINUOUS
 62
     7
 10
-34.13258437547439
 20
303.147305640315
 30
0.0
 11
-34.17350610002158
 21
303.1986898350204
 31
0.0
  0
LINE
  5
78A
  8
0
  6
CONTINUOUS
 62
     7
 10
-34.17350610002157
 20
303.1986898350204
 30
0.0
 11
-34.21625943192685
 21
303.2477691891614
 31
0.0
  0
LINE
  5
78B
  8
0
  6
CONTINUOUS
 62
     7
 10
-34.21625943192685
 20
303.2477691891615
 30
0.0
 11
-34.26072578713566
 21
303.294392681246
 31
0.0
  0
LINE
  5
78C
  8
0
  6
CONTINUOUS
 62
     7
 10
-34.26072578713568
 20
303.2943926812459
 30
0.0
 11
-34.30840232633666
 21
303.3399010702077
 31
0.0
  0
LINE
  5
78D
  8
0
  6
CONTINUOUS
 62
     7
 10
-34.30840232633664
 20
303.3399010702077
 30
0.0
 11
-34.3578007066589
 21
303.3827016308257
 31
0.0
  0
LINE
  5
78E
  8
0
  6
CONTINUOUS
 62
     7
 10
-34.35780070665892
 20
303.3827016308257
 30
0.0
 11
-34.40875766579951
 21
303.4226827511505
 31
0.0
  0
LINE
  5
78F
  8
0
  6
CONTINUOUS
 62
     7
 10
-34.40875766579951
 20
303.4226827511505
 30
0.0
 11
-34.46110994145548
 21
303.4597328192328
 31
0.0
  0
LINE
  5
790
  8
0
  6
CONTINUOUS
 62
     7
 10
-34.46110994145548
 20
303.4597328192328
 30
0.0
 11
-34.51031204777937
 21
303.4911202157845
 31
0.0
  0
LINE
  5
791
  8
0
  6
CONTINUOUS
 62
     7
 10
-34.51031204777938
 20
303.4911202157845
 30
0.0
 11
-34.56058095474224
 21
303.5200256668119
 31
0.0
  0
LINE
  5
792
  8
0
  6
CONTINUOUS
 62
     7
 10
-34.56058095474224
 20
303.5200256668119
 30
0.0
 11
-34.61178325867662
 21
303.5464098322644
 31
0.0
  0
LINE
  5
793
  8
0
  6
CONTINUOUS
 62
     7
 10
-34.61178325867659
 20
303.5464098322644
 30
0.0
 11
-34.66378555591506
 21
303.5702333720909
 31
0.0
  0
LINE
  5
794
  8
0
  6
CONTINUOUS
 62
     7
 10
-34.66378555591509
 20
303.570233372091
 30
0.0
 11
-34.73612564738264
 21
303.5986879363564
 31
0.0
  0
LINE
  5
795
  8
0
  6
CONTINUOUS
 62
     7
 10
-34.73612564738263
 20
303.5986879363564
 30
0.0
 11
-34.80968754167586
 21
303.6224126745785
 31
0.0
  0
LINE
  5
796
  8
0
  6
CONTINUOUS
 62
     7
 10
-34.80968754167585
 20
303.6224126745785
 30
0.0
 11
-34.88414911493467
 21
303.6414079771427
 31
0.0
  0
LINE
  5
797
  8
0
  6
CONTINUOUS
 62
     7
 10
-34.88414911493467
 20
303.6414079771427
 30
0.0
 11
-34.96401686341169
 21
303.6564384322115
 31
0.0
  0
LINE
  5
798
  8
0
  6
CONTINUOUS
 62
     7
 10
-34.96401686341169
 20
303.6564384322115
 30
0.0
 11
-35.04462108682141
 21
303.666299847484
 31
0.0
  0
LINE
  5
799
  8
0
  6
CONTINUOUS
 62
     7
 10
-35.04462108682141
 20
303.666299847484
 30
0.0
 11
-35.12564730764952
 21
303.6711012723622
 31
0.0
  0
LINE
  5
79A
  8
0
  6
CONTINUOUS
 62
     7
 10
-35.12564730764952
 20
303.6711012723622
 30
0.0
 11
-35.2067810483817
 21
303.6709517562485
 31
0.0
  0
LINE
  5
79B
  8
0
  6
CONTINUOUS
 62
     7
 10
-35.20678104838171
 20
303.6709517562485
 30
0.0
 11
-35.2877078315037
 21
303.6659603485442
 31
0.0
  0
LINE
  5
79C
  8
0
  6
CONTINUOUS
 62
     7
 10
-61.70708393006208
 20
303.6659603485442
 30
0.0
 11
-49.55304618502309
 21
302.9698026616178
 31
0.0
  0
LINE
  5
79D
  8
0
  6
CONTINUOUS
 62
     7
 10
-49.55304618502307
 20
302.9698026616178
 30
0.0
 11
-35.28770783150373
 21
303.6659603485442
 31
0.0
  0
LINE
  5
79E
  8
0
  6
CONTINUOUS
 62
     7
 10
-83.51715561259626
 20
319.466136024334
 30
0.0
 11
153.5171556125963
 21
319.466136024334
 31
0.0
  0
LINE
  5
79F
  8
0
  6
CONTINUOUS
 62
     7
 10
-62.23768069444918
 20
303.5200356060614
 30
0.0
 11
-61.70708393006206
 21
303.6659603485442
 31
0.0
  0
LINE
  5
7A0
  8
0
  6
CONTINUOUS
 62
     7
 10
132.3017928990632
 20
303.4682534033979
 30
0.0
 11
131.7070839300622
 21
303.6659603485442
 31
0.0
  0
LINE
  5
7A1
  8
0
  6
CONTINUOUS
 62
     7
 10
-80.99999999999996
 20
19.46613602433386
 30
0.0
 11
151.0
 21
19.46613602433386
 31
0.0
  0
LINE
  5
7A2
  8
0
  6
CONTINUOUS
 62
     7
 10
-89.99999999999997
 20
19.46613602433386
 30
0.0
 11
-89.99999999999997
 21
259.466136024334
 31
0.0
  0
LINE
  5
7A3
  8
0
  6
CONTINUOUS
 62
     7
 10
-80.99999999999996
 20
19.46613602433386
 30
0.0
 11
-89.99999999999997
 21
19.46613602433386
 31
0.0
  0
LINE
  5
7A4
  8
0
  6
CONTINUOUS
 62
     7
 10
160.0
 20
259.466136024334
 30
0.0
 11
160.0
 21
19.46613602433389
 31
0.0
  0
LINE
  5
7A5
  8
0
  6
CONTINUOUS
 62
     7
 10
160.0
 20
19.46613602433386
 30
0.0
 11
151.0000000000001
 21
19.46613602433386
 31
0.0
  0
LINE
  5
7A6
  8
0
  6
CONTINUOUS
 62
     7
 10
-79.74999999999993
 20
320.466136024334
 30
0.0
 11
-79.66304347826085
 21
319.466136024334
 31
0.0
  0
LINE
  5
7A7
  8
0
  6
CONTINUOUS
 62
     7
 10
149.663043478261
 20
319.466136024334
 30
0.0
 11
149.7500000000001
 21
320.466136024334
 31
0.0
  0
ARC
  5
7A8
  8
0
  6
CONTINUOUS
 62
     7
 10
-12.68473328167549
 20
-1178.033863975666
 30
0.0
 40
1500.0
 50
92.41918883303211
 51
92.56255873312314
  0
ARC
  5
7A9
  8
0
  6
CONTINUOUS
 62
     7
 10
-12.68473328167549
 20
-1178.033863975666
 30
0.0
 40
1500.0
 50
90.51856726360374
 51
90.76269525381126
  0
ARC
  5
7AA
  8
0
  6
CONTINUOUS
 62
     7
 10
-12.68473328167549
 20
-1178.033863975666
 30
0.0
 40
1500.000000000001
 50
90.76269525381126
 51
91.01687367775524
  0
ARC
  5
7AB
  8
0
  6
CONTINUOUS
 62
     7
 10
-12.68473328167549
 20
-1178.033863975666
 30
0.0
 40
1500.0
 50
91.01687367775524
 51
91.21996922571162
  0
ARC
  5
7AC
  8
0
  6
CONTINUOUS
 62
     7
 10
-12.68473328167549
 20
-1178.033863975666
 30
0.0
 40
1500.0
 50
91.21996922571162
 51
91.30413608918036
  0
ARC
  5
7AD
  8
0
  6
CONTINUOUS
 62
     7
 10
-12.68473328167549
 20
-1178.033863975666
 30
0.0
 40
1500.0
 50
91.30413608918036
 51
91.47381477124891
  0
ARC
  5
7AE
  8
0
  6
CONTINUOUS
 62
     7
 10
-12.68473328167549
 20
-1178.033863975666
 30
0.0
 40
1500.0
 50
91.47381477124891
 51
91.6073599239834
  0
ARC
  5
7AF
  8
0
  6
CONTINUOUS
 62
     7
 10
-12.68473328167549
 20
-1178.033863975666
 30
0.0
 40
1500.000000000001
 50
91.6073599239834
 51
91.87258387841906
  0
ARC
  5
7B0
  8
0
  6
CONTINUOUS
 62
     7
 10
82.68473328167558
 20
-1178.033863975666
 30
0.0
 40
1500.0
 50
87.9632263581056
 51
88.3931818483396
  0
ARC
  5
7B1
  8
0
  6
CONTINUOUS
 62
     7
 10
82.68473328167558
 20
-1178.033863975666
 30
0.0
 40
1500.0
 50
88.3931818483396
 51
88.5255680777302
  0
ARC
  5
7B2
  8
0
  6
CONTINUOUS
 62
     7
 10
82.68473328167558
 20
-1178.033863975666
 30
0.0
 40
1500.0
 50
88.52556807773023
 51
88.67194524816766
  0
ARC
  5
7B3
  8
0
  6
CONTINUOUS
 62
     7
 10
82.68473328167558
 20
-1178.033863975666
 30
0.0
 40
1500.0
 50
88.67194524816766
 51
88.75159641588972
  0
ARC
  5
7B4
  8
0
  6
CONTINUOUS
 62
     7
 10
82.68473328167558
 20
-1178.033863975666
 30
0.0
 40
1500.0
 50
88.75159641588968
 51
88.86131253556321
  0
ARC
  5
7B5
  8
0
  6
CONTINUOUS
 62
     7
 10
82.68473328167558
 20
-1178.033863975666
 30
0.0
 40
1500.0
 50
89.07452552538012
 51
89.23627695135531
  0
ARC
  5
7B6
  8
0
  6
CONTINUOUS
 62
     7
 10
82.68473328167558
 20
-1178.033863975666
 30
0.0
 40
1500.0
 50
89.23627695135531
 51
89.48142687808823
  0
ARC
  5
7B7
  8
0
  6
CONTINUOUS
 62
     7
 10
82.68473328167558
 20
-1178.033863975666
 30
0.0
 40
1500.0
 50
87.43744126687686
 51
87.58081359120915
  0
LINE
  5
7B8
  8
0
  6
CONTINUOUS
 62
     7
 10
-89.38344081971461
 20
279.8039542334325
 30
0.0
 11
-89.49999999999989
 21
276.4661360243339
 31
0.0
  0
ARC
  5
7B9
  8
0
  6
CONTINUOUS
 62
     7
 10
-85.81800421300068
 20
278.0788694103685
 30
0.0
 40
4.275410356161941
 50
111.3618185933033
 51
135.7752431728353
  0
LINE
  5
7BA
  8
0
  6
CONTINUOUS
 62
     7
 10
-88.88180305246976
 20
281.060860420557
 30
0.0
 11
-89.03747169491349
 21
280.8579132413975
 31
0.0
  0
LINE
  5
7BB
  8
0
  6
CONTINUOUS
 62
     7
 10
-89.03747169491349
 20
280.8579132413975
 30
0.0
 11
-89.17094856577472
 21
280.6311645465672
 31
0.0
  0
LINE
  5
7BC
  8
0
  6
CONTINUOUS
 62
     7
 10
-89.17094856577474
 20
280.6311645465672
 30
0.0
 11
-89.29967568719302
 21
280.3098617884165
 31
0.0
  0
LINE
  5
7BD
  8
0
  6
CONTINUOUS
 62
     7
 10
-89.29967568719302
 20
280.3098617884165
 30
0.0
 11
-89.36639098150073
 21
280.0036629078068
 31
0.0
  0
LINE
  5
7BE
  8
0
  6
CONTINUOUS
 62
     7
 10
-89.36639098150073
 20
280.0036629078067
 30
0.0
 11
-89.38343937936729
 21
279.8039851130414
 31
0.0
  0
LINE
  5
7BF
  8
0
  6
CONTINUOUS
 62
     7
 10
159.5000000000001
 20
276.466136024334
 30
0.0
 11
159.3834408197148
 21
279.8039542334325
 31
0.0
  0
LINE
  5
7C0
  8
0
  6
CONTINUOUS
 62
     7
 10
159.3834393793675
 20
279.8039851130415
 30
0.0
 11
159.3498554466768
 21
280.1052657450325
 31
0.0
  0
LINE
  5
7C1
  8
0
  6
CONTINUOUS
 62
     7
 10
159.3498554466768
 20
280.1052657450325
 30
0.0
 11
159.2763129981355
 21
280.382056972033
 31
0.0
  0
LINE
  5
7C2
  8
0
  6
CONTINUOUS
 62
     7
 10
159.2763129981355
 20
280.382056972033
 30
0.0
 11
159.170948565775
 21
280.6311645465672
 31
0.0
  0
LINE
  5
7C3
  8
0
  6
CONTINUOUS
 62
     7
 10
159.1709485657749
 20
280.6311645465672
 30
0.0
 11
159.0374716949136
 21
280.8579132413975
 31
0.0
  0
LINE
  5
7C4
  8
0
  6
CONTINUOUS
 62
     7
 10
159.0374716949136
 20
280.8579132413975
 30
0.0
 11
158.88180305247
 21
281.0608604205569
 31
0.0
  0
LINE
  5
7C5
  8
0
  6
CONTINUOUS
 62
     7
 10
158.88180305247
 20
281.060860420557
 30
0.0
 11
158.707781110308
 21
281.242328986648
 31
0.0
  0
ARC
  5
7C6
  8
0
  6
CONTINUOUS
 62
     7
 10
155.6344845446246
 20
277.7316492855702
 30
0.0
 40
4.665835803390417
 50
48.80065772705008
 51
68.09252356043355
  0
LINE
  5
7C7
  8
0
  6
CONTINUOUS
 62
     7
 10
155.262643080695
 20
283.3087689596322
 30
0.0
 11
154.016851026106
 21
318.9835857726852
 31
0.0
  0
LINE
  5
7C8
  8
0
  6
CONTINUOUS
 62
     7
 10
-84.01685102610595
 20
318.9835857726852
 30
0.0
 11
-85.26264308069489
 21
283.3087689596322
 31
0.0
  0
ARC
  5
7C9
  8
0
  6
CONTINUOUS
 62
     7
 10
-83.5171556125964
 20
318.9661360243339
 30
0.0
 40
0.5000000000000004
 50
90.0
 51
178.0000000000007
  0
ARC
  5
7CA
  8
0
  6
CONTINUOUS
 62
     7
 10
153.5171556125966
 20
318.9661360243339
 30
0.0
 40
0.500000000000056
 50
1.999999999999323
 51
90.0
  0
LINE
  5
7CB
  8
0
  6
CONTINUOUS
 62
     7
 10
-84.44201675649856
 20
283.9724161265915
 30
0.0
 11
-87.23614057614539
 21
282.122185122329
 31
0.0
  0
LINE
  5
7CC
  8
0
  6
CONTINUOUS
 62
     7
 10
-87.2361405761454
 20
282.122185122329
 30
0.0
 11
-87.37534918180914
 21
282.0605537727587
 31
0.0
  0
LINE
  5
7CD
  8
0
  6
CONTINUOUS
 62
     7
 10
157.3753491818093
 20
282.0605537727587
 30
0.0
 11
157.2361405761455
 21
282.122185122329
 31
0.0
  0
LINE
  5
7CE
  8
0
  6
CONTINUOUS
 62
     7
 10
157.2361405761455
 20
282.122185122329
 30
0.0
 11
154.4420167564987
 21
283.9724161265915
 31
0.0
  0
LINE
  5
7CF
  8
0
  6
CONTINUOUS
 62
     7
 10
-62.32301089827119
 20
303.4495697032995
 30
0.0
 11
-84.45017331813587
 21
283.9652976700232
 31
0.0
  0
LINE
  5
7D0
  8
0
  6
CONTINUOUS
 62
     7
 10
154.4501733181361
 20
283.9652976700232
 30
0.0
 11
132.3018728243383
 21
303.468183024563
 31
0.0
  0
LINE
  5
7D1
  8
0
  6
CONTINUOUS
 62
     7
 10
-46.49643954558447
 20
19.46613602433386
 30
0.0
 11
-46.49643954558447
 21
19.42863602433383
 31
0.0
  0
LINE
  5
7D2
  8
0
  6
CONTINUOUS
 62
     7
 10
-46.64718781613403
 20
19.46613602433386
 30
0.0
 11
-46.64718781613403
 21
19.42863602433383
 31
0.0
  0
LINE
  5
7D3
  8
0
  6
CONTINUOUS
 62
     7
 10
-43.30180599795222
 20
19.42863602433383
 30
0.0
 11
-43.30180599795222
 21
19.46613602433386
 31
0.0
  0
POINT
  5
7D4
  8
0
 62
     1
 10
35.00000000000003
 20
498.3007959634992
 30
0.0
  0
POINT
  5
7D5
  8
0
 62
     1
 10
35.00000000000003
 20
508.3007959634992
 30
0.0
  0
LINE
  5
7D6
  8
0
  6
CONTINUOUS
 62
     7
 10
124.7514610189534
 20
506.549334944546
 30
0.0
 11
132.1379881815943
 21
506.509571586288
 31
0.0
  0
LINE
  5
7D7
  8
0
  6
CONTINUOUS
 62
     7
 10
133.850365659083
 20
439.5040003605627
 30
0.0
 11
134.9954036652792
 21
437.6555445660817
 31
0.0
  0
LINE
  5
7D8
  8
0
  6
CONTINUOUS
 62
     7
 10
137.55620515485
 20
466.1828853034
 30
0.0
 11
124.803511960139
 21
466.104307923638
 31
0.0
  0
LINE
  5
7D9
  8
0
  6
CONTINUOUS
 62
     7
 10
121.2060872736073
 20
462.5068832371065
 30
0.0
 11
121.1535464297017
 21
446.7585292152057
 31
0.0
  0
LINE
  5
7DA
  8
0
  6
CONTINUOUS
 62
     7
 10
121.2650761201675
 20
506.5658720836664
 30
0.0
 11
121.256763389898
 21
490.509341430033
 31
0.0
  0
LINE
  5
7DB
  8
0
  6
CONTINUOUS
 62
     7
 10
124.8670071282407
 20
446.9613968470182
 30
0.0
 11
124.813362360069
 21
462.4874336034302
 31
0.0
  0
ARC
  5
7DC
  8
0
  6
CONTINUOUS
 62
     7
 10
35.00000000000026
 20
508.3007959634992
 30
0.0
 40
110.8679106600992
 50
337.672963180143
 51
347.5604004845143
  0
LINE
  5
7DD
  8
0
  6
CONTINUOUS
 62
     7
 10
121.1535464297017
 20
446.7585292152057
 30
0.0
 11
105.1615919809567
 21
462.5770081239239
 31
0.0
  0
LINE
  5
7DE
  8
0
  6
CONTINUOUS
 62
     7
 10
102.6812591675926
 20
484.6195367959068
 30
0.0
 11
121.2500592534155
 21
484.5508552169147
 31
0.0
  0
LINE
  5
7DF
  8
0
  6
CONTINUOUS
 62
     7
 10
124.767325149722
 20
484.5334708137773
 30
0.0
 11
143.2651348444953
 21
484.4187066235986
 31
0.0
  0
LINE
  5
7E0
  8
0
  6
CONTINUOUS
 62
     7
 10
121.2154368664875
 20
466.0853590970117
 30
0.0
 11
102.708090811854
 21
466.0088867753532
 31
0.0
  0
LINE
  5
7E1
  8
0
  6
CONTINUOUS
 62
     7
 10
102.7700566423625
 20
444.0708526058618
 30
0.0
 11
102.7210610585698
 21
460.1457870142282
 31
0.0
  0
LINE
  5
7E2
  8
0
  6
CONTINUOUS
 62
     7
 10
102.783795417856
 20
440.5170005456432
 30
0.0
 11
122.6568055600105
 21
440.4187066235984
 31
0.0
  0
LINE
  5
7E3
  8
0
  6
CONTINUOUS
 62
     7
 10
132.8787534486173
 20
439.5460919668487
 30
0.0
 11
133.850365659083
 21
439.5040003605627
 31
0.0
  0
LINE
  5
7E4
  8
0
  6
CENTER
 62
     1
 10
35.00000000000003
 20
11.92863602433383
 30
0.0
 11
35.00000000000003
 21
329.4661360243337
 31
0.0
  0
LINE
  5
7E5
  8
0
  6
CONTINUOUS
 62
     7
 10
118.5510646182573
 20
444.1436053367385
 30
0.0
 11
118.1715728752539
 21
444.3007959634992
 31
0.0
  0
LINE
  5
7E6
  8
0
  6
CONTINUOUS
 62
     7
 10
102.6711084925722
 20
504.2663831765345
 30
0.0
 11
118.8121273178065
 21
488.0354696259554
 31
0.0
  0
LINE
  5
7E7
  8
0
  6
CONTINUOUS
 62
     7
 10
77.34015090724722
 20
462.6409468707465
 30
0.0
 11
77.30882277364326
 21
446.3836589597465
 31
0.0
  0
LINE
  5
7E8
  8
0
  6
CONTINUOUS
 62
     7
 10
39.01698420647226
 20
443.9646853016584
 30
0.0
 11
55.35149898058303
 21
460.3209624448367
 31
0.0
  0
LINE
  5
7E9
  8
0
  6
CONTINUOUS
 62
     7
 10
144.0273510858997
 20
488.1828853033999
 30
0.0
 11
124.7628799872399
 21
488.0636759507391
 31
0.0
  0
LINE
  5
7EA
  8
0
  6
CONTINUOUS
 62
     7
 10
55.32965519697153
 20
443.9711407665278
 30
0.0
 11
39.01698420647226
 21
443.9646853016584
 31
0.0
  0
LINE
  5
7EB
  8
0
  6
CONTINUOUS
 62
     7
 10
55.25423987681327
 20
422.046556086686
 30
0.0
 11
36.73492387983278
 21
422.035719843332
 31
0.0
  0
LINE
  5
7EC
  8
0
  6
CONTINUOUS
 62
     7
 10
36.647346038583
 20
477.3342525073567
 30
0.0
 11
36.647346038583
 21
484.6534499249161
 31
0.0
  0
LINE
  5
7ED
  8
0
  6
CONTINUOUS
 62
     7
 10
55.35265396141703
 20
484.6534499249162
 30
0.0
 11
55.35265396141703
 21
465.9481420020823
 31
0.0
  0
LINE
  5
7EE
  8
0
  6
CONTINUOUS
 62
     7
 10
36.647346038583
 20
462.6534499249162
 30
0.0
 11
48.78961884093924
 21
462.6534499249162
 31
0.0
  0
LINE
  5
7EF
  8
0
  6
CONTINUOUS
 62
     7
 10
55.22447046583878
 20
416.1140886990456
 30
0.0
 11
55.11791066009928
 21
399.2734448775994
 31
0.0
  0
LINE
  5
7F0
  8
0
  6
CONTINUOUS
 62
     7
 10
36.75146101895326
 20
418.5493349445458
 30
0.0
 11
52.63551840588476
 21
418.5407125638426
 31
0.0
  0
LINE
  5
7F1
  8
0
  6
CONTINUOUS
 62
     7
 10
77.30882277364326
 20
446.3836589597465
 30
0.0
 11
60.980368366016
 21
462.6520734030547
 31
0.0
  0
LINE
  5
7F2
  8
0
  6
CONTINUOUS
 62
     7
 10
36.67087325586171
 20
440.6299227076374
 30
0.0
 11
55.3216171709905
 21
440.6224131344898
 31
0.0
  0
ARC
  5
7F3
  8
0
  6
CONTINUOUS
 62
     7
 10
35.00000000000003
 20
466.5507959634992
 30
0.0
 40
2.897346038583049
 50
347.9947061599102
 51
55.34938430076544
  0
LINE
  5
7F4
  8
0
  6
CONTINUOUS
 62
     7
 10
55.351498980583
 20
460.3209624448367
 30
0.0
 11
55.3296551969715
 21
443.9711407665278
 31
0.0
  0
LINE
  5
7F5
  8
0
  6
CONTINUOUS
 62
     7
 10
36.647346038583
 20
484.6534499249162
 30
0.0
 11
55.352653961417
 21
484.6534499249162
 31
0.0
  0
LINE
  5
7F6
  8
0
  6
CONTINUOUS
 62
     7
 10
52.63551840588476
 20
418.5407125638426
 30
0.0
 11
41.51349348829874
 21
408.5950256833012
 31
0.0
  0
ARC
  5
7F7
  8
0
  6
CONTINUOUS
 62
     7
 10
35.00000000000026
 20
508.3007959634992
 30
0.0
 40
110.8679106600992
 50
331.6445925431227
 51
335.5534216889998
  0
LINE
  5
7F8
  8
0
  6
CONTINUOUS
 62
     7
 10
124.803511960139
 20
466.104307923638
 30
0.0
 11
124.767325149722
 21
484.5334708137772
 31
0.0
  0
LINE
  5
7F9
  8
0
  6
CONTINUOUS
 62
     7
 10
132.5658100436195
 20
455.6452518615902
 30
0.0
 11
124.8670071282407
 21
446.9613968470183
 31
0.0
  0
LINE
  5
7FA
  8
0
  6
CONTINUOUS
 62
     7
 10
43.49945428493201
 20
405.4905834456068
 30
0.0
 11
55.22447046583877
 21
416.1140886990457
 31
0.0
  0
LINE
  5
7FB
  8
0
  6
CONTINUOUS
 62
     7
 10
36.647346038583
 20
468.934252507357
 30
0.0
 11
36.647346038583
 21
472.5673394196417
 31
0.0
  0
LINE
  5
7FC
  8
0
  6
CONTINUOUS
 62
     7
 10
55.35265396141703
 20
465.9481420020822
 30
0.0
 11
37.83397640605604
 21
465.9481420020822
 31
0.0
  0
LINE
  5
7FD
  8
0
  6
CONTINUOUS
 62
     7
 10
36.64734603858327
 20
460.6445262902055
 30
0.0
 11
36.64734603858303
 21
462.6534499249162
 31
0.0
  0
LINE
  5
7FE
  8
0
  6
CONTINUOUS
 62
     7
 10
36.79122437721127
 20
411.1628077819049
 30
0.0
 11
36.75146101895326
 21
418.5493349445458
 31
0.0
  0
LINE
  5
7FF
  8
0
  6
CONTINUOUS
 62
     7
 10
36.73492387983273
 20
422.035719843332
 30
0.0
 11
36.67087325586171
 21
440.6299227076374
 31
0.0
  0
LINE
  5
800
  8
0
  6
CONTINUOUS
 62
     7
 10
36.65941799180028
 20
446.3069853849489
 30
0.0
 11
36.64734603858325
 21
460.6445262902055
 31
0.0
  0
LINE
  5
801
  8
0
  6
CONTINUOUS
 62
     7
 10
102.6783828290095
 20
487.9791787925087
 30
0.0
 11
102.6711084925722
 21
504.2663831765345
 31
0.0
  0
ARC
  5
802
  8
0
  6
CONTINUOUS
 62
     7
 10
35.00000000000003
 20
474.9507959634992
 30
0.0
 40
2.897346038583049
 50
304.650615699234
 51
55.34938430076579
  0
ARC
  5
803
  8
0
  6
CONTINUOUS
 62
     7
 10
35.00000000000026
 20
508.3007959634992
 30
0.0
 40
110.8679106600992
 50
349.545282575991
 51
355.9154854336853
  0
ARC
  5
804
  8
0
  6
CONTINUOUS
 62
     7
 10
34.99500342608624
 20
402.23819603311
 30
0.0
 40
9.105147351443133
 50
330.2094782545602
 51
20.9285315682738
  0
LINE
  5
805
  8
0
  6
CONTINUOUS
 62
     7
 10
104.8240580149488
 20
422.1828853033999
 30
0.0
 11
102.87317202128
 21
422.173967984779
 31
0.0
  0
LINE
  5
806
  8
0
  6
CONTINUOUS
 62
     7
 10
58.64734603858302
 20
484.6534499249162
 30
0.0
 11
76.40817326900627
 21
484.6534499249162
 31
0.0
  0
LINE
  5
807
  8
0
  6
CONTINUOUS
 62
     7
 10
58.64734603858324
 20
466.892622694493
 30
0.0
 11
58.647346038583
 21
484.6534499249162
 31
0.0
  0
ARC
  5
808
  8
0
  6
CONTINUOUS
 62
     7
 10
34.99905247497603
 20
402.2407955676047
 30
0.0
 40
9.100229781675074
 50
44.28672246224961
 51
78.64210031634761
  0
LINE
  5
809
  8
0
  6
CONTINUOUS
 62
     7
 10
75.0449301521563
 20
404.9175420814285
 30
0.0
 11
61.27544703473727
 21
418.5298478165033
 31
0.0
  0
ARC
  5
80A
  8
0
  6
CONTINUOUS
 62
     7
 10
35.00000000000026
 20
508.3007959634992
 30
0.0
 40
110.8679106600992
 50
309.0350011045959
 51
322.2455301480513
  0
LINE
  5
80B
  8
0
  6
CONTINUOUS
 62
     7
 10
60.98036836601606
 20
462.6520734030547
 30
0.0
 11
77.34015090724728
 21
462.6409468707465
 31
0.0
  0
LINE
  5
80C
  8
0
  6
CONTINUOUS
 62
     7
 10
53.02267997605997
 20
462.6533360676852
 30
0.0
 11
36.65941799180027
 21
446.3069853849489
 31
0.0
  0
LINE
  5
80D
  8
0
  6
CONTINUOUS
 62
     7
 10
124.813362360069
 20
462.4874336034302
 30
0.0
 11
135.9283284907718
 21
462.4187066235984
 31
0.0
  0
LINE
  5
80E
  8
0
  6
CONTINUOUS
 62
     7
 10
118.8121273178065
 20
488.0354696259554
 30
0.0
 11
102.6783828290095
 21
487.9791787925087
 31
0.0
  0
LINE
  5
80F
  8
0
  6
CONTINUOUS
 62
     7
 10
121.2500592534155
 20
484.5508552169147
 30
0.0
 11
121.2154368664875
 21
466.0853590970117
 31
0.0
  0
LINE
  5
810
  8
0
  6
CONTINUOUS
 62
     7
 10
102.708090811854
 20
466.0088867753532
 30
0.0
 11
102.6812591675926
 21
484.6195367959068
 31
0.0
  0
LINE
  5
811
  8
0
  6
CONTINUOUS
 62
     7
 10
55.32161717099054
 20
440.6224131344898
 30
0.0
 11
55.25423987681327
 21
422.0465560866861
 31
0.0
  0
LINE
  5
812
  8
0
  6
CONTINUOUS
 62
     7
 10
48.78961884093924
 20
462.6534499249162
 30
0.0
 11
53.02267997605997
 21
462.6533360676852
 31
0.0
  0
LINE
  5
813
  8
0
  6
CONTINUOUS
 62
     7
 10
102.7210610585698
 20
460.1457870142282
 30
0.0
 11
118.5510646182573
 21
444.1436053367385
 31
0.0
  0
LINE
  5
814
  8
0
  6
CONTINUOUS
 62
     7
 10
118.5510646182573
 20
444.1436053367385
 30
0.0
 11
102.7700566423625
 21
444.0708526058618
 31
0.0
  0
LINE
  5
815
  8
0
  6
CONTINUOUS
 62
     7
 10
102.87317202128
 20
422.173967984779
 30
0.0
 11
102.783795417856
 21
440.5170005456432
 31
0.0
  0
LINE
  5
816
  8
0
  6
CONTINUOUS
 62
     7
 10
105.1615919809567
 20
462.5770081239239
 30
0.0
 11
121.2060872736073
 21
462.5068832371065
 31
0.0
  0
CIRCLE
  5
817
  8
0
  6
CONTINUOUS
 62
     7
 10
35.00000000000003
 20
508.3007959634992
 30
0.0
 40
119.5760646548184
  0
TEXT
  5
818
  8
0
  6
CONTINUOUS
 62
     1
 10
103.1211579342254
 20
3.013658246842571
 30
0.0
 40
3.0
  1
MHM-2530
  0
LINE
  5
819
  8
0
  6
CONTINUOUS
 62
     7
 10
77.19648803986101
 20
418.4972840033602
 30
0.0
 11
77.11791066009928
 21
405.7445908086494
 31
0.0
  0
LINE
  5
81A
  8
0
  6
CONTINUOUS
 62
     7
 10
99.30224431067752
 20
465.9985516528218
 30
0.0
 11
80.65984909275271
 21
465.9606450562517
 31
0.0
  0
ARC
  5
81B
  8
0
  6
CONTINUOUS
 62
     7
 10
35.00000000000003
 20
508.3007959634992
 30
0.0
 40
110.8679106600992
 50
291.173600529336
 51
292.327036819857
  0
ARC
  5
81C
  8
0
  6
CONTINUOUS
 62
     7
 10
35.00000000000003
 20
508.3007959634992
 30
0.0
 40
110.8679106600993
 50
294.4465783110001
 51
299.8453859267502
  0
LINE
  5
81D
  8
0
  6
CONTINUOUS
 62
     7
 10
80.64816171468675
 20
484.6526342488124
 30
0.0
 11
99.3270771134127
 21
484.6278730769116
 31
0.0
  0
ARC
  5
81E
  8
0
  6
CONTINUOUS
 62
     7
 10
141.0627592216493
 20
508.3038009985204
 30
0.0
 40
9.103339898142993
 50
191.3671763137471
 51
299.7958792422339
  0
LINE
  5
81F
  8
0
  6
CONTINUOUS
 62
     7
 10
96.49114972848999
 20
418.4331690303302
 30
0.0
 11
90.17465651052703
 21
412.1371287441117
 31
0.0
  0
ARC
  5
820
  8
0
  6
CONTINUOUS
 62
     7
 10
35.00000000000003
 20
508.3007959634992
 30
0.0
 40
110.8679106600992
 50
274.0845145663145
 51
280.454717424009
  0
LINE
  5
821
  8
0
  6
CONTINUOUS
 62
     7
 10
80.6598490927527
 20
465.9606450562517
 30
0.0
 11
80.64816171468674
 21
484.6526342488125
 31
0.0
  0
LINE
  5
822
  8
0
  6
CONTINUOUS
 62
     7
 10
99.24310051894453
 20
444.0576954445547
 30
0.0
 11
83.12808965900719
 21
444.0107066869522
 31
0.0
  0
LINE
  5
823
  8
0
  6
CONTINUOUS
 62
     7
 10
76.40817326900628
 20
484.6534499249162
 30
0.0
 11
77.35261420817751
 21
484.6534101716768
 31
0.0
  0
LINE
  5
824
  8
0
  6
CONTINUOUS
 62
     7
 10
99.22994335763747
 20
440.5307393211367
 30
0.0
 11
99.14297627503522
 21
422.1578196884637
 31
0.0
  0
LINE
  5
825
  8
0
  6
CONTINUOUS
 62
     7
 10
74.91169271572451
 20
443.994228287795
 30
0.0
 11
58.67292288658749
 21
443.9737188500865
 31
0.0
  0
LINE
  5
826
  8
0
  6
CONTINUOUS
 62
     7
 10
61.27544703473725
 20
418.5298478165033
 30
0.0
 11
77.19648803986101
 21
418.4972840033603
 31
0.0
  0
LINE
  5
827
  8
0
  6
CONTINUOUS
 62
     7
 10
77.21543686648752
 20
422.0853590970117
 30
0.0
 11
58.74994074658453
 21
422.0507367100838
 31
0.0
  0
LINE
  5
828
  8
0
  6
CONTINUOUS
 62
     7
 10
99.32707711341271
 20
484.6278730769117
 30
0.0
 11
99.30224431067754
 21
465.9985516528218
 31
0.0
  0
LINE
  5
829
  8
0
  6
CONTINUOUS
 62
     7
 10
58.68125916759254
 20
440.6195367959067
 30
0.0
 11
77.29190918814602
 21
440.5927051516452
 31
0.0
  0
LINE
  5
82A
  8
0
  6
CONTINUOUS
 62
     7
 10
124.7628799872399
 20
488.0636759507392
 30
0.0
 11
124.7514610189534
 21
506.549334944546
 31
0.0
  0
LINE
  5
82B
  8
0
  6
CONTINUOUS
 62
     7
 10
99.29008927654704
 20
460.172706304492
 30
0.0
 11
99.24310051894457
 21
444.0576954445547
 31
0.0
  0
LINE
  5
82C
  8
0
  6
CONTINUOUS
 62
     7
 10
58.64932919312199
 20
460.3189630566465
 30
0.0
 11
74.91169271572451
 21
443.994228287795
 31
0.0
  0
LINE
  5
82D
  8
0
  6
CONTINUOUS
 62
     7
 10
58.88208933990074
 20
400.035661119004
 30
0.0
 11
58.78071125986126
 21
416.0017786892717
 31
0.0
  0
LINE
  5
82E
  8
0
  6
CONTINUOUS
 62
     7
 10
80.8820893399007
 20
407.3724674727277
 30
0.0
 11
80.81336236006895
 21
418.4874336034302
 31
0.0
  0
LINE
  5
82F
  8
0
  6
CONTINUOUS
 62
     7
 10
121.256763389898
 20
490.509341430033
 30
0.0
 11
105.0481423361508
 21
506.624000505449
 31
0.0
  0
LINE
  5
830
  8
0
  6
CONTINUOUS
 62
     7
 10
80.69766202708023
 20
446.3993146536022
 30
0.0
 11
80.66412174210176
 21
462.6366742213974
 31
0.0
  0
LINE
  5
831
  8
0
  6
CONTINUOUS
 62
     7
 10
77.291909188146
 20
440.5927051516452
 30
0.0
 11
77.21543686648751
 21
422.0853590970117
 31
0.0
  0
LINE
  5
832
  8
0
  6
CONTINUOUS
 62
     7
 10
58.64738579182255
 20
465.9481817553217
 30
0.0
 11
58.64734603858327
 21
466.892622694493
 31
0.0
  0
LINE
  5
833
  8
0
  6
CONTINUOUS
 62
     7
 10
58.74994074658451
 20
422.0507367100838
 30
0.0
 11
58.68125916759251
 21
440.6195367959067
 31
0.0
  0
LINE
  5
834
  8
0
  6
CONTINUOUS
 62
     7
 10
80.6641217421018
 20
462.6366742213974
 30
0.0
 11
96.90148130989705
 21
462.603133936419
 31
0.0
  0
LINE
  5
835
  8
0
  6
CONTINUOUS
 62
     7
 10
99.14297627503527
 20
422.1578196884637
 30
0.0
 11
80.7939127263928
 21
422.0947086898919
 31
0.0
  0
LINE
  5
836
  8
0
  6
CONTINUOUS
 62
     7
 10
96.90148130989701
 20
462.603133936419
 30
0.0
 11
80.69766202708023
 21
446.3993146536022
 31
0.0
  0
LINE
  5
837
  8
0
  6
CONTINUOUS
 62
     7
 10
77.34390766205273
 20
465.9568883014465
 30
0.0
 11
58.64738579182252
 21
465.9481817553217
 31
0.0
  0
LINE
  5
838
  8
0
  6
CONTINUOUS
 62
     7
 10
80.7939127263928
 20
422.0947086898919
 30
0.0
 11
80.71536968911902
 21
440.5854262743801
 31
0.0
  0
LINE
  5
839
  8
0
  6
CONTINUOUS
 62
     7
 10
105.0481423361507
 20
506.624000505449
 30
0.0
 11
121.2650761201675
 21
506.5658720836664
 31
0.0
  0
LINE
  5
83A
  8
0
  6
CONTINUOUS
 62
     7
 10
80.71536968911902
 20
440.5854262743802
 30
0.0
 11
99.2299433576375
 21
440.5307393211368
 31
0.0
  0
LINE
  5
83B
  8
0
  6
CONTINUOUS
 62
     7
 10
83.1280896590072
 20
444.0107066869522
 30
0.0
 11
99.29008927654701
 21
460.172706304492
 31
0.0
  0
LINE
  5
83C
  8
0
  6
CONTINUOUS
 62
     7
 10
58.67292288658749
 20
443.9737188500865
 30
0.0
 11
58.64932919312199
 21
460.3189630566465
 31
0.0
  0
LINE
  5
83D
  8
0
  6
CONTINUOUS
 62
     7
 10
80.81336236006898
 20
418.4874336034302
 30
0.0
 11
96.49114972848997
 21
418.4331690303302
 31
0.0
  0
LINE
  5
83E
  8
0
  6
CONTINUOUS
 62
     7
 10
58.78071125986128
 20
416.0017786892717
 30
0.0
 11
71.14781366827553
 21
403.4913060251382
 31
0.0
  0
LINE
  5
83F
  8
0
  6
CONTINUOUS
 62
     7
 10
77.35261420817751
 20
484.6534101716767
 30
0.0
 11
77.34390766205276
 21
465.9568883014465
 31
0.0
  0
ARC
  5
840
  8
0
  6
CONTINUOUS
 62
     7
 10
35.00000000000003
 20
508.3007959634992
 30
0.0
 40
110.8679106600992
 50
282.4395995154857
 51
289.02883555227
  0
ENDSEC
  0
EOF
