  0
SECTION
  2
HEADER
  9
$ACADVER
  1
AC1014
  9
$ACADMAINTVER
 70
     9
  9
$DWGCODEPAGE
  3
ANSI_932
  9
$INSBASE
 10
0.0
 20
0.0
 30
0.0
  9
$EXTMIN
 10
53.0
 20
59.74579844010806
 30
0.0
  9
$EXTMAX
 10
200.2542015598919
 20
161.2513941043745
 30
0.0
  9
$LIMMIN
 10
0.0
 20
0.0
  9
$LIMMAX
 10
12.0
 20
9.0
  9
$ORTHOMODE
 70
     0
  9
$REGENMODE
 70
     1
  9
$FILLMODE
 70
     1
  9
$QTEXTMODE
 70
     0
  9
$MIRRTEXT
 70
     1
  9
$DRAGMODE
 70
     2
  9
$LTSCALE
 40
1.0
  9
$OSMODE
 70
    37
  9
$ATTMODE
 70
     1
  9
$TEXTSIZE
 40
0.2
  9
$TRACEWID
 40
0.05
  9
$TEXTSTYLE
  7
STANDARD
  9
$CLAYER
  8
0
  9
$CELTYPE
  6
BYLAYER
  9
$CECOLOR
 62
   256
  9
$CELTSCALE
 40
1.0
  9
$DELOBJ
 70
     1
  9
$DISPSILH
 70
     0
  9
$DIMSCALE
 40
1.0
  9
$DIMASZ
 40
3.0
  9
$DIMEXO
 40
0.0625
  9
$DIMDLI
 40
0.38
  9
$DIMRND
 40
0.0
  9
$DIMDLE
 40
0.0
  9
$DIMEXE
 40
1.5
  9
$DIMTP
 40
0.0
  9
$DIMTM
 40
0.0
  9
$DIMTXT
 40
3.0
  9
$DIMCEN
 40
0.09
  9
$DIMTSZ
 40
0.0
  9
$DIMTOL
 70
     0
  9
$DIMLIM
 70
     0
  9
$DIMTIH
 70
     1
  9
$DIMTOH
 70
     1
  9
$DIMSE1
 70
     0
  9
$DIMSE2
 70
     0
  9
$DIMTAD
 70
     1
  9
$DIMZIN
 70
     0
  9
$DIMBLK
  1

  9
$DIMASO
 70
     1
  9
$DIMSHO
 70
     1
  9
$DIMPOST
  1

  9
$DIMAPOST
  1

  9
$DIMALT
 70
     0
  9
$DIMALTD
 70
     2
  9
$DIMALTF
 40
25.4
  9
$DIMLFAC
 40
1.0
  9
$DIMTOFL
 70
     0
  9
$DIMTVP
 40
0.0
  9
$DIMTIX
 70
     0
  9
$DIMSOXD
 70
     0
  9
$DIMSAH
 70
     0
  9
$DIMBLK1
  1

  9
$DIMBLK2
  1

  9
$DIMSTYLE
  2
STANDARD
  9
$DIMCLRD
 70
     0
  9
$DIMCLRE
 70
     0
  9
$DIMCLRT
 70
     0
  9
$DIMTFAC
 40
1.0
  9
$DIMGAP
 40
1.5
  9
$DIMJUST
 70
     0
  9
$DIMSD1
 70
     0
  9
$DIMSD2
 70
     0
  9
$DIMTOLJ
 70
     1
  9
$DIMTZIN
 70
     0
  9
$DIMALTZ
 70
     0
  9
$DIMALTTZ
 70
     0
  9
$DIMFIT
 70
     3
  9
$DIMUPT
 70
     0
  9
$DIMUNIT
 70
     2
  9
$DIMDEC
 70
     2
  9
$DIMTDEC
 70
     4
  9
$DIMALTU
 70
     2
  9
$DIMALTTD
 70
     2
  9
$DIMTXSTY
  7
ＭＳ_ゴシック
  9
$DIMAUNIT
 70
     0
  9
$LUNITS
 70
     2
  9
$LUPREC
 70
     4
  9
$SKETCHINC
 40
0.1
  9
$FILLETRAD
 40
0.5
  9
$AUNITS
 70
     0
  9
$AUPREC
 70
     0
  9
$MENU
  1
.
  9
$ELEVATION
 40
0.0
  9
$PELEVATION
 40
0.0
  9
$THICKNESS
 40
0.0
  9
$LIMCHECK
 70
     0
  9
$CHAMFERA
 40
0.0
  9
$CHAMFERB
 40
0.0
  9
$CHAMFERC
 40
0.0
  9
$CHAMFERD
 40
0.0
  9
$SKPOLY
 70
     0
  9
$TDCREATE
 40
2459230.554768738
  9
$TDUPDATE
 40
2459230.554768924
  9
$TDINDWG
 40
0.0000000116
  9
$TDUSRTIMER
 40
0.0000000116
  9
$USRTIMER
 70
     1
  9
$ANGBASE
 50
0.0
  9
$ANGDIR
 70
     0
  9
$PDMODE
 70
     0
  9
$PDSIZE
 40
0.0
  9
$PLINEWID
 40
0.0
  9
$COORDS
 70
     1
  9
$SPLFRAME
 70
     0
  9
$SPLINETYPE
 70
     6
  9
$SPLINESEGS
 70
     8
  9
$ATTDIA
 70
     0
  9
$ATTREQ
 70
     1
  9
$HANDLING
 70
     1
  9
$HANDSEED
  5
1A7
  9
$SURFTAB1
 70
     6
  9
$SURFTAB2
 70
     6
  9
$SURFTYPE
 70
     6
  9
$SURFU
 70
     6
  9
$SURFV
 70
     6
  9
$UCSNAME
  2

  9
$UCSORG
 10
0.0
 20
0.0
 30
0.0
  9
$UCSXDIR
 10
1.0
 20
0.0
 30
0.0
  9
$UCSYDIR
 10
0.0
 20
1.0
 30
0.0
  9
$PUCSNAME
  2

  9
$PUCSORG
 10
0.0
 20
0.0
 30
0.0
  9
$PUCSXDIR
 10
1.0
 20
0.0
 30
0.0
  9
$PUCSYDIR
 10
0.0
 20
1.0
 30
0.0
  9
$USERI1
 70
     0
  9
$USERI2
 70
     0
  9
$USERI3
 70
     0
  9
$USERI4
 70
     0
  9
$USERI5
 70
     0
  9
$USERR1
 40
0.0
  9
$USERR2
 40
0.0
  9
$USERR3
 40
0.0
  9
$USERR4
 40
0.0
  9
$USERR5
 40
0.0
  9
$WORLDVIEW
 70
     1
  9
$SHADEDGE
 70
     3
  9
$SHADEDIF
 70
    70
  9
$TILEMODE
 70
     1
  9
$MAXACTVP
 70
    64
  9
$PINSBASE
 10
0.0
 20
0.0
 30
0.0
  9
$PLIMCHECK
 70
     0
  9
$PEXTMIN
 10
1.000000000000000E+20
 20
1.000000000000000E+20
 30
1.000000000000000E+20
  9
$PEXTMAX
 10
-1.000000000000000E+20
 20
-1.000000000000000E+20
 30
-1.000000000000000E+20
  9
$PLIMMIN
 10
0.0
 20
0.0
  9
$PLIMMAX
 10
12.0
 20
9.0
  9
$UNITMODE
 70
     0
  9
$VISRETAIN
 70
     1
  9
$PLINEGEN
 70
     0
  9
$PSLTSCALE
 70
     1
  9
$TREEDEPTH
 70
  3020
  9
$PICKSTYLE
 70
     1
  9
$CMLSTYLE
  2
STANDARD
  9
$CMLJUST
 70
     0
  9
$CMLSCALE
 40
1.0
  9
$PROXYGRAPHICS
 70
     1
  9
$MEASUREMENT
 70
     1
  0
ENDSEC
  0
SECTION
  2
CLASSES
  0
CLASS
  1
ACDBDICTIONARYWDFLT
  2
AcDbDictionaryWithDefault
  3
ObjectDBX Classes
 90
        0
280
     0
281
     0
  0
CLASS
  1
VISUALSTYLE
  2
AcDbVisualStyle
  3
ObjectDBX Classes
 90
     4095
280
     0
281
     0
  0
CLASS
  1
MATERIAL
  2
AcDbMaterial
  3
ObjectDBX Classes
 90
     1153
280
     0
281
     0
  0
CLASS
  1
SCALE
  2
AcDbScale
  3
ObjectDBX Classes
 90
     1153
280
     0
281
     0
  0
CLASS
  1
TABLESTYLE
  2
AcDbTableStyle
  3
ObjectDBX Classes
 90
     4095
280
     0
281
     0
  0
CLASS
  1
MLEADERSTYLE
  2
AcDbMLeaderStyle
  3
ACDB_MLEADERSTYLE_CLASS
 90
     4095
280
     0
281
     0
  0
CLASS
  1
SUN
  2
AcDbSun
  3
SCENEOE
 90
     1153
280
     0
281
     0
  0
CLASS
  1
DICTIONARYVAR
  2
AcDbDictionaryVar
  3
ObjectDBX Classes
 90
        0
280
     0
281
     0
  0
CLASS
  1
XRECORD
  2
AcDbXrecord
  3
ObjectDBX Classes
 90
        0
280
     0
281
     0
  0
CLASS
  1
LWPOLYLINE
  2
AcDbPolyline
  3
ObjectDBX Classes
 90
        0
280
     0
281
     1
  0
CLASS
  1
HATCH
  2
AcDbHatch
  3
ObjectDBX Classes
 90
        0
280
     0
281
     1
  0
CLASS
  1
ACDBPLACEHOLDER
  2
AcDbPlaceHolder
  3
ObjectDBX Classes
 90
        0
280
     0
281
     0
  0
CLASS
  1
LAYOUT
  2
AcDbLayout
  3
ObjectDBX Classes
 90
        0
280
     0
281
     0
  0
ENDSEC
  0
SECTION
  2
TABLES
  0
TABLE
  2
VPORT
  5
8
102
{ACAD_XDICTIONARY
360
19C
102
}
330
0
100
AcDbSymbolTable
 70
     1
  0
VPORT
  5
29
330
8
100
AcDbSymbolTableRecord
100
AcDbViewportTableRecord
  2
*ACTIVE
 70
     0
 10
0.0
 20
0.0
 11
1.0
 21
1.0
 12
126.6271007799459
 22
110.4985962722413
 13
0.0
 23
0.0
 14
0.5
 24
0.5
 15
0.5
 25
0.5
 16
0.0
 26
0.0
 36
1.0
 17
0.0
 27
0.0
 37
0.0
 40
101.5055956642664
 41
1.6
 42
50.0
 43
0.0
 44
0.0
 50
0.0
 51
0.0
 71
     0
 72
   100
 73
     1
 74
     3
 75
     0
 76
     0
 77
     0
 78
     0
  0
ENDTAB
  0
TABLE
  2
LTYPE
  5
5
330
0
100
AcDbSymbolTable
 70
     1
  0
LTYPE
  5
14
330
5
100
AcDbSymbolTableRecord
100
AcDbLinetypeTableRecord
  2
BYBLOCK
 70
     0
  3

 72
    65
 73
     0
 40
0.0
  0
LTYPE
  5
15
330
5
100
AcDbSymbolTableRecord
100
AcDbLinetypeTableRecord
  2
BYLAYER
 70
     0
  3

 72
    65
 73
     0
 40
0.0
  0
LTYPE
  5
16
330
5
100
AcDbSymbolTableRecord
100
AcDbLinetypeTableRecord
  2
CONTINUOUS
 70
     0
  3
Solid line
 72
    65
 73
     0
 40
0.0
  0
ENDTAB
  0
TABLE
  2
LAYER
  5
2
330
0
100
AcDbSymbolTable
 70
     2
  0
LAYER
  5
10
330
2
100
AcDbSymbolTableRecord
100
AcDbLayerTableRecord
  2
0
 70
     0
 62
     7
  6
CONTINUOUS
  0
LAYER
  5
6E
330
2
100
AcDbSymbolTableRecord
100
AcDbLayerTableRecord
  2
1
 70
     0
 62
     7
  6
CONTINUOUS
  0
ENDTAB
  0
TABLE
  2
STYLE
  5
3
330
0
100
AcDbSymbolTable
 70
     2
  0
STYLE
  5
11
330
3
100
AcDbSymbolTableRecord
100
AcDbTextStyleTableRecord
  2
STANDARD
 70
     0
 40
0.0
 41
1.0
 50
0.0
 71
     0
 42
0.2
  3
txt
  4

  0
STYLE
  5
6F
330
3
100
AcDbSymbolTableRecord
100
AcDbTextStyleTableRecord
  2
ＭＳ_ゴシック
 70
     0
 40
0.0
 41
1.0
 50
0.0
 71
     0
 42
0.2
  3
ＭＳ ゴシック.shx
  4

  0
ENDTAB
  0
TABLE
  2
VIEW
  5
6
330
0
100
AcDbSymbolTable
 70
     0
  0
ENDTAB
  0
TABLE
  2
UCS
  5
7
330
0
100
AcDbSymbolTable
 70
     0
  0
ENDTAB
  0
TABLE
  2
APPID
  5
9
330
0
100
AcDbSymbolTable
 70
     2
  0
APPID
  5
12
330
9
100
AcDbSymbolTableRecord
100
AcDbRegAppTableRecord
  2
ACAD
 70
     0
  0
APPID
  5
1A6
330
9
100
AcDbSymbolTableRecord
100
AcDbRegAppTableRecord
  2
ACAD_MLEADERVER
 70
     0
  0
ENDTAB
  0
TABLE
  2
DIMSTYLE
  5
A
330
0
100
AcDbSymbolTable
 70
     1
  0
DIMSTYLE
105
27
330
A
100
AcDbSymbolTableRecord
100
AcDbDimStyleTableRecord
  2
STANDARD
 70
     0
  3

  4

  5

  6

  7

 40
1.0
 41
0.18
 42
0.0625
 43
0.38
 44
0.18
 45
0.0
 46
0.0
 47
0.0
 48
0.0
140
0.18
141
0.09
142
0.0
143
25.4
144
1.0
145
0.0
146
1.0
147
0.09
 71
     0
 72
     0
 73
     1
 74
     1
 75
     0
 76
     0
 77
     0
 78
     0
170
     0
171
     2
172
     0
173
     0
174
     0
175
     0
176
     0
177
     0
178
     0
270
     2
271
     4
272
     4
273
     2
274
     2
340
11
275
     0
280
     0
281
     0
282
     0
283
     1
284
     0
285
     0
286
     0
287
     3
288
     0
  0
ENDTAB
  0
TABLE
  2
BLOCK_RECORD
  5
1
330
0
100
AcDbSymbolTable
 70
     0
  0
BLOCK_RECORD
  5
1F
330
1
100
AcDbSymbolTableRecord
100
AcDbBlockTableRecord
  2
*MODEL_SPACE
  0
BLOCK_RECORD
  5
1B
330
1
100
AcDbSymbolTableRecord
100
AcDbBlockTableRecord
  2
*PAPER_SPACE
  0
ENDTAB
  0
ENDSEC
  0
SECTION
  2
BLOCKS
  0
BLOCK
  5
20
330
1F
100
AcDbEntity
  8
0
100
AcDbBlockBegin
  2
*MODEL_SPACE
 70
     0
 10
0.0
 20
0.0
 30
0.0
  3
*MODEL_SPACE
  1

  0
ENDBLK
  5
21
330
1F
100
AcDbEntity
  8
0
100
AcDbBlockEnd
  0
BLOCK
  5
1C
330
1B
100
AcDbEntity
 67
     1
  8
0
100
AcDbBlockBegin
  2
*PAPER_SPACE
 70
     0
 10
0.0
 20
0.0
 30
0.0
  3
*PAPER_SPACE
  1

  0
ENDBLK
  5
1D
330
1B
100
AcDbEntity
 67
     1
  8
0
100
AcDbBlockEnd
  0
ENDSEC
  0
SECTION
  2
ENTITIES
  0
LINE
  5
70
330
1F
100
AcDbEntity
  8
1
  6
CONTINUOUS
 62
     7
100
AcDbLine
 10
68.06659347387374
 20
102.5457984401081
 30
0.0
 11
66.94058848861606
 21
102.5457984401081
 31
0.0
  0
LINE
  5
71
330
1F
100
AcDbEntity
  8
1
  6
CONTINUOUS
 62
     7
100
AcDbLine
 10
101.9334065261263
 20
102.5457984401081
 30
0.0
 11
103.059411511384
 21
102.5457984401081
 31
0.0
  0
LINE
  5
72
330
1F
100
AcDbEntity
  8
1
  6
CONTINUOUS
 62
     7
100
AcDbLine
 10
64.5
 20
74.64974436570938
 30
0.0
 11
66.94058848861606
 21
102.5457984401081
 31
0.0
  0
LINE
  5
73
330
1F
100
AcDbEntity
  8
1
  6
CONTINUOUS
 62
     7
100
AcDbLine
 10
64.5
 20
59.74579844010806
 30
0.0
 11
64.5
 21
74.64974436570938
 31
0.0
  0
LINE
  5
74
330
1F
100
AcDbEntity
  8
1
  6
CONTINUOUS
 62
     7
100
AcDbLine
 10
64.5
 20
59.74579844010806
 30
0.0
 11
64.75344200574045
 21
60.75995266751148
 31
0.0
  0
LINE
  5
75
330
1F
100
AcDbEntity
  8
1
  6
CONTINUOUS
 62
     7
100
AcDbLine
 10
105.5
 20
74.64974436570938
 30
0.0
 11
103.059411511384
 21
102.5457984401081
 31
0.0
  0
LINE
  5
76
330
1F
100
AcDbEntity
  8
1
  6
CONTINUOUS
 62
     7
100
AcDbLine
 10
105.5
 20
59.74579844010806
 30
0.0
 11
105.5
 21
74.64974436570938
 31
0.0
  0
LINE
  5
77
330
1F
100
AcDbEntity
  8
1
  6
CONTINUOUS
 62
     7
100
AcDbLine
 10
105.5
 20
59.74579844010806
 30
0.0
 11
105.2465579942595
 21
60.75995266751148
 31
0.0
  0
ELLIPSE
  5
78
330
1F
100
AcDbEntity
  8
1
  6
CONTINUOUS
 62
     7
100
AcDbEllipse
 10
76.58081073136768
 20
119.0457603617223
 30
0.0
 11
0.5150647670682174
 21
0.8572117239132828
 31
0.0
210
0.0
220
0.0
230
1.0
 40
0.9999481770839949
 41
0.5410291893442604
 42
1.570796326794898
  0
CIRCLE
  5
79
330
1F
100
AcDbEntity
  8
1
  6
CONTINUOUS
 62
     7
100
AcDbCircle
 10
-112.0
 20
87.24579844010806
 30
0.0
 40
2.499999999999988
210
0.0
220
0.0
230
-1.0
  0
ARC
  5
7A
330
1F
100
AcDbEntity
  8
1
  6
CONTINUOUS
 62
     7
100
AcDbCircle
 10
-101.2303544361882
 20
106.045798440108
 30
0.0
 40
1.000000000000001
210
0.0
220
0.0
230
-1.0
100
AcDbArc
 50
90.00000000000001
 51
149.0000000000001
  0
LINE
  5
7B
330
1F
100
AcDbEntity
  8
1
  6
CONTINUOUS
 62
     7
100
AcDbLine
 10
102.0875217368903
 20
106.5608365150181
 30
0.0
 11
103.1781066381394
 21
104.7457984401081
 31
0.0
  0
ELLIPSE
  5
7C
330
1F
100
AcDbEntity
  8
1
  6
CONTINUOUS
 62
     7
100
AcDbEllipse
 10
106.2629011114608
 20
96.9089889734258
 30
0.0
 11
-0.4217161317142833
 21
-0.2686628060179457
 31
0.0
210
0.0
220
0.0
230
1.0
 40
0.9999516053423074
 41
5.803239584377053
 42
6.763131029982113
  0
LINE
  5
7D
330
1F
100
AcDbEntity
  8
1
  6
CONTINUOUS
 62
     7
100
AcDbLine
 10
114.5
 20
91.57592545903024
 30
0.0
 11
106.01287442553
 21
96.47596969409668
 31
0.0
  0
ARC
  5
7E
330
1F
100
AcDbEntity
  8
1
  6
CONTINUOUS
 62
     7
100
AcDbCircle
 10
112.0
 20
87.24579844010806
 30
0.0
 40
5.0
100
AcDbArc
 50
300.0
 51
60.00000000000006
  0
LINE
  5
7F
330
1F
100
AcDbEntity
  8
1
  6
CONTINUOUS
 62
     7
100
AcDbLine
 10
107.6205218471418
 20
78.94380285774902
 30
0.0
 11
114.5
 21
82.91567142118586
 31
0.0
  0
LWPOLYLINE
  5
80
330
1F
100
AcDbEntity
  8
1
  6
CONTINUOUS
 62
     7
100
AcDbPolyline
 90
       28
 70
     0
 43
0.0
 10
107.6205218471418
 20
78.94380285774902
 10
107.6027530986332
 20
78.93304389077845
 10
107.5854316026944
 20
78.9215462280772
 10
107.5686015334069
 20
78.90934052358783
 10
107.5523070648523
 20
78.89645743125283
 10
107.5361153299172
 20
78.88250269976136
 10
107.5205205830778
 20
78.86785523925666
 10
107.5055646685761
 20
78.8525560615851
 10
107.491289430654
 20
78.8366461785931
 10
107.4780835739731
 20
78.82061217187642
 10
107.4655442924972
 20
78.80402913336701
 10
107.4537031230151
 20
78.78694061540021
 10
107.4425916023157
 20
78.76939017031145
 10
107.431931748167
 20
78.75086246281565
 10
107.4220645459584
 20
78.73187867482102
 10
107.4130159031201
 20
78.71249136067304
 10
107.404811727082
 20
78.69275307471719
 10
107.3976578613217
 20
78.67325198167431
 10
107.3913147051749
 20
78.653453459747
 10
107.3857975969603
 20
78.63340904346245
 10
107.3811218749968
 20
78.61317026734784
 10
107.3771958091724
 20
78.59215887262788
 10
107.3741686329337
 20
78.57097948957102
 10
107.372047393099
 20
78.5496902806133
 10
107.3708391364866
 20
78.52834940819069
 10
107.3705351221301
 20
78.5090077536636
 10
107.3709792478898
 20
78.48966155831705
 10
107.3721705133432
 20
78.47035423022537
  0
LINE
  5
81
330
1F
100
AcDbEntity
  8
1
  6
CONTINUOUS
 62
     7
100
AcDbLine
 10
100.5514271023629
 20
104.8457984401081
 30
0.0
 11
101.9334065261263
 21
102.5457984401081
 31
0.0
  0
LINE
  5
82
330
1F
100
AcDbEntity
  8
1
  6
CONTINUOUS
 62
     7
100
AcDbLine
 10
99.22953374050226
 20
104.8457984401081
 30
0.0
 11
100.5514271023629
 21
104.8457984401081
 31
0.0
  0
LINE
  5
83
330
1F
100
AcDbEntity
  8
1
  6
CONTINUOUS
 62
     7
100
AcDbLine
 10
96.826091264392
 20
108.8457984401081
 30
0.0
 11
98.14798462625264
 21
108.8457984401081
 31
0.0
  0
LINE
  5
84
330
1F
100
AcDbEntity
  8
1
  6
CONTINUOUS
 62
     7
100
AcDbLine
 10
94.42264878828176
 20
112.8457984401081
 30
0.0
 11
95.7445421501424
 21
112.8457984401081
 31
0.0
  0
LINE
  5
85
330
1F
100
AcDbEntity
  8
1
  6
CONTINUOUS
 62
     7
100
AcDbLine
 10
92.50000000000001
 20
117.845798440108
 30
0.0
 11
92.7402390550046
 21
117.845798440108
 31
0.0
  0
LINE
  5
86
330
1F
100
AcDbEntity
  8
1
  6
CONTINUOUS
 62
     7
100
AcDbLine
 10
92.50000000000001
 20
120.0457984401081
 30
0.0
 11
92.50000000000001
 21
117.845798440108
 31
0.0
  0
ELLIPSE
  5
87
330
1F
100
AcDbEntity
  8
1
  6
CONTINUOUS
 62
     7
100
AcDbEllipse
 10
93.41918926863235
 20
119.0457603617223
 30
0.0
 11
-0.5150647670682207
 21
0.857211723913289
 31
0.0
210
0.0
220
0.0
230
-1.0
 40
0.9999481770839709
 41
0.5410291893442609
 42
1.570796326794898
  0
LINE
  5
88
330
1F
100
AcDbEntity
  8
1
  6
CONTINUOUS
 62
     7
100
AcDbLine
 10
94.27635656933445
 20
119.5607984366324
 30
0.0
 11
95.7071399562776
 21
117.1795750020549
 31
0.0
  0
ARC
  5
89
330
1F
100
AcDbEntity
  8
1
  6
CONTINUOUS
 62
     7
100
AcDbCircle
 10
-95.27855630592654
 20
116.9220559645999
 30
0.0
 40
0.5000000000000162
210
0.0
220
0.0
230
-1.0
100
AcDbArc
 50
149.0000000000001
 51
210.0
  0
LINE
  5
8A
330
1F
100
AcDbEntity
  8
1
  6
CONTINUOUS
 62
     7
100
AcDbLine
 10
95.57299174495556
 20
116.432033104547
 30
0.0
 11
95.71156900781877
 21
116.6720559645999
 31
0.0
  0
LINE
  5
8B
330
1F
100
AcDbEntity
  8
1
  6
CONTINUOUS
 62
     7
100
AcDbLine
 10
95.57299174495556
 20
116.432033104547
 30
0.0
 11
96.40592556354783
 21
115.045798440108
 31
0.0
  0
LINE
  5
8C
330
1F
100
AcDbEntity
  8
1
  6
CONTINUOUS
 62
     7
100
AcDbLine
 10
96.40592556354783
 20
115.045798440108
 30
0.0
 11
96.42346948396772
 21
115.045798440108
 31
0.0
  0
ARC
  5
8D
330
1F
100
AcDbEntity
  8
1
  6
CONTINUOUS
 62
     7
100
AcDbCircle
 10
-96.42346948396772
 20
114.045798440108
 30
0.0
 40
1.000000000000001
210
0.0
220
0.0
230
-1.0
100
AcDbArc
 50
90.00000000000001
 51
149.0000000000001
  0
LINE
  5
8E
330
1F
100
AcDbEntity
  8
1
  6
CONTINUOUS
 62
     7
100
AcDbLine
 10
97.28063678466982
 20
114.5608365150181
 30
0.0
 11
98.11058243238784
 21
113.1795750020549
 31
0.0
  0
ARC
  5
8F
330
1F
100
AcDbEntity
  8
1
  6
CONTINUOUS
 62
     7
100
AcDbCircle
 10
-97.68199878203679
 20
112.9220559645999
 30
0.0
 40
0.500000000000002
210
0.0
220
0.0
230
-1.0
100
AcDbArc
 50
149.0000000000001
 51
210.0
  0
LINE
  5
90
330
1F
100
AcDbEntity
  8
1
  6
CONTINUOUS
 62
     7
100
AcDbLine
 10
97.97643422106582
 20
112.432033104547
 30
0.0
 11
98.11501148392901
 21
112.6720559645999
 31
0.0
  0
LINE
  5
91
330
1F
100
AcDbEntity
  8
1
  6
CONTINUOUS
 62
     7
100
AcDbLine
 10
97.97643422106582
 20
112.432033104547
 30
0.0
 11
98.80936803965807
 21
111.045798440108
 31
0.0
  0
LINE
  5
92
330
1F
100
AcDbEntity
  8
1
  6
CONTINUOUS
 62
     7
100
AcDbLine
 10
98.80936803965807
 20
111.045798440108
 30
0.0
 11
98.82691196007796
 21
111.045798440108
 31
0.0
  0
ARC
  5
93
330
1F
100
AcDbEntity
  8
1
  6
CONTINUOUS
 62
     7
100
AcDbCircle
 10
-98.82691196007796
 20
110.045798440108
 30
0.0
 40
1.000000000000001
210
0.0
220
0.0
230
-1.0
100
AcDbArc
 50
90.00000000000001
 51
149.0
  0
LINE
  5
94
330
1F
100
AcDbEntity
  8
1
  6
CONTINUOUS
 62
     7
100
AcDbLine
 10
99.68407926078007
 20
110.5608365150181
 30
0.0
 11
100.5140249084981
 21
109.1795750020549
 31
0.0
  0
ARC
  5
95
330
1F
100
AcDbEntity
  8
1
  6
CONTINUOUS
 62
     7
100
AcDbCircle
 10
-100.085441258147
 20
108.9220559645999
 30
0.0
 40
0.4999999999999972
210
0.0
220
0.0
230
-1.0
100
AcDbArc
 50
148.9999999999999
 51
210.0
  0
LINE
  5
96
330
1F
100
AcDbEntity
  8
1
  6
CONTINUOUS
 62
     7
100
AcDbLine
 10
100.3798766971761
 20
108.432033104547
 30
0.0
 11
100.5184539600393
 21
108.6720559645999
 31
0.0
  0
LINE
  5
97
330
1F
100
AcDbEntity
  8
1
  6
CONTINUOUS
 62
     7
100
AcDbLine
 10
100.3798766971761
 20
108.432033104547
 30
0.0
 11
101.2128105157683
 21
107.045798440108
 31
0.0
  0
LINE
  5
98
330
1F
100
AcDbEntity
  8
1
  6
CONTINUOUS
 62
     7
100
AcDbLine
 10
101.2128105157683
 20
107.045798440108
 30
0.0
 11
101.2303544361882
 21
107.045798440108
 31
0.0
  0
LINE
  5
99
330
1F
100
AcDbEntity
  8
1
  6
CONTINUOUS
 62
     7
100
AcDbLine
 10
92.50000000000001
 20
120.0457984401081
 30
0.0
 11
93.41914350989869
 21
120.0457984401081
 31
0.0
  0
ELLIPSE
  5
9A
330
1F
100
AcDbEntity
  8
1
  6
CONTINUOUS
 62
     7
100
AcDbEllipse
 10
106.2904454118721
 20
60.24610321225748
 30
0.0
 11
0.04975320667393772
 21
-0.4978278100813129
 31
0.0
210
0.0
220
0.0
230
-1.0
 40
0.999384748139036
 41
5.00949631319225
 42
6.382734259832732
  0
LINE
  5
9B
330
1F
100
AcDbEntity
  8
1
  6
CONTINUOUS
 62
     7
100
AcDbLine
 10
107.7
 20
64.7459126767152
 30
0.0
 11
106.7807347126579
 21
60.14790549737172
 31
0.0
  0
LINE
  5
9C
330
1F
100
AcDbEntity
  8
1
  6
CONTINUOUS
 62
     7
100
AcDbLine
 10
107.7
 20
64.7459126767152
 30
0.0
 11
107.7
 21
70.37987039674888
 31
0.0
  0
ELLIPSE
  5
9D
330
1F
100
AcDbEntity
  8
1
  6
CONTINUOUS
 62
     7
100
AcDbEllipse
 10
7.696192161426321
 20
70.37953789543418
 30
0.0
 11
-99.90863362429246
 21
-4.362105148737437
 31
0.0
210
0.0
220
0.0
230
-1.0
 40
0.9999618504831022
 41
3.104230856353406
 42
3.185224222414787
  0
LINE
  5
9E
330
1F
100
AcDbEntity
  8
1
  6
CONTINUOUS
 62
     7
100
AcDbLine
 10
105.5
 20
59.74579844010806
 30
0.0
 11
106.2905063115361
 21
59.74579844010806
 31
0.0
  0
LINE
  5
9F
330
1F
100
AcDbEntity
  8
1
  6
CONTINUOUS
 62
     7
100
AcDbLine
 10
105.7647865232709
 20
96.86538969613002
 30
0.0
 11
105.1951308188963
 21
103.3765841916979
 31
0.0
  0
ELLIPSE
  5
A0
330
1F
100
AcDbEntity
  8
1
  6
CONTINUOUS
 62
     7
100
AcDbEllipse
 10
103.7007909945783
 20
103.2457413225295
 30
0.0
 11
-1.013456299338892
 21
-1.105993474930737
 31
0.0
210
0.0
220
0.0
230
-1.0
 40
0.9999299546359905
 41
2.39986261201777
 42
3.8833226951618
  0
LINE
  5
A1
330
1F
100
AcDbEntity
  8
1
  6
CONTINUOUS
 62
     7
100
AcDbLine
 10
99.22953374050226
 20
107.045798440108
 30
0.0
 11
99.22953374050226
 21
104.8457984401081
 31
0.0
  0
LINE
  5
A2
330
1F
100
AcDbEntity
  8
1
  6
CONTINUOUS
 62
     7
100
AcDbLine
 10
98.14798462625264
 20
108.8457984401081
 30
0.0
 11
99.22953374050226
 21
107.045798440108
 31
0.0
  0
LINE
  5
A3
330
1F
100
AcDbEntity
  8
1
  6
CONTINUOUS
 62
     7
100
AcDbLine
 10
96.826091264392
 20
111.045798440108
 30
0.0
 11
96.826091264392
 21
108.8457984401081
 31
0.0
  0
LINE
  5
A4
330
1F
100
AcDbEntity
  8
1
  6
CONTINUOUS
 62
     7
100
AcDbLine
 10
95.7445421501424
 20
112.8457984401081
 30
0.0
 11
96.826091264392
 21
111.045798440108
 31
0.0
  0
LINE
  5
A5
330
1F
100
AcDbEntity
  8
1
  6
CONTINUOUS
 62
     7
100
AcDbLine
 10
94.42264878828176
 20
115.045798440108
 30
0.0
 11
94.42264878828176
 21
112.8457984401081
 31
0.0
  0
LINE
  5
A6
330
1F
100
AcDbEntity
  8
1
  6
CONTINUOUS
 62
     7
100
AcDbLine
 10
92.7402390550046
 20
117.845798440108
 30
0.0
 11
94.42264878828176
 21
115.045798440108
 31
0.0
  0
LINE
  5
A7
330
1F
100
AcDbEntity
  8
1
  6
CONTINUOUS
 62
     7
100
AcDbLine
 10
103.1781066381394
 20
104.7457984401081
 30
0.0
 11
103.7008956698211
 21
104.7457984401081
 31
0.0
  0
CIRCLE
  5
A8
330
1F
100
AcDbEntity
  8
1
  6
CONTINUOUS
 62
     7
100
AcDbCircle
 10
58.00000000000001
 20
87.24579844010806
 30
0.0
 40
2.500000000000002
  0
LINE
  5
A9
330
1F
100
AcDbEntity
  8
1
  6
CONTINUOUS
 62
     7
100
AcDbLine
 10
69.62012330282394
 20
108.432033104547
 30
0.0
 11
68.78718948423169
 21
107.045798440108
 31
0.0
  0
LINE
  5
AA
330
1F
100
AcDbEntity
  8
1
  6
CONTINUOUS
 62
     7
100
AcDbLine
 10
69.62012330282394
 20
108.432033104547
 30
0.0
 11
69.48154603996075
 21
108.6720559645999
 31
0.0
  0
ARC
  5
AB
330
1F
100
AcDbEntity
  8
1
  6
CONTINUOUS
 62
     7
100
AcDbCircle
 10
69.91455874185297
 20
108.9220559645999
 30
0.0
 40
0.500000000000002
100
AcDbArc
 50
148.9999999999999
 51
210.0
  0
LINE
  5
AC
330
1F
100
AcDbEntity
  8
1
  6
CONTINUOUS
 62
     7
100
AcDbLine
 10
70.31592073921993
 20
110.5608365150181
 30
0.0
 11
69.48597509150191
 21
109.1795750020549
 31
0.0
  0
ARC
  5
AD
330
1F
100
AcDbEntity
  8
1
  6
CONTINUOUS
 62
     7
100
AcDbCircle
 10
71.17308803992205
 20
110.045798440108
 30
0.0
 40
1.000000000000001
100
AcDbArc
 50
90.0
 51
149.0
  0
LINE
  5
AE
330
1F
100
AcDbEntity
  8
1
  6
CONTINUOUS
 62
     7
100
AcDbLine
 10
71.19063196034195
 20
111.045798440108
 30
0.0
 11
71.17308803992205
 21
111.045798440108
 31
0.0
  0
LINE
  5
AF
330
1F
100
AcDbEntity
  8
1
  6
CONTINUOUS
 62
     7
100
AcDbLine
 10
72.02356577893418
 20
112.432033104547
 30
0.0
 11
71.19063196034195
 21
111.045798440108
 31
0.0
  0
LINE
  5
B0
330
1F
100
AcDbEntity
  8
1
  6
CONTINUOUS
 62
     7
100
AcDbLine
 10
72.02356577893418
 20
112.432033104547
 30
0.0
 11
71.884988516071
 21
112.6720559645999
 31
0.0
  0
ARC
  5
B1
330
1F
100
AcDbEntity
  8
1
  6
CONTINUOUS
 62
     7
100
AcDbCircle
 10
72.31800121796323
 20
112.9220559645999
 30
0.0
 40
0.5000000000000162
100
AcDbArc
 50
149.0000000000001
 51
210.0
  0
LINE
  5
B2
330
1F
100
AcDbEntity
  8
1
  6
CONTINUOUS
 62
     7
100
AcDbLine
 10
72.71936321533018
 20
114.5608365150181
 30
0.0
 11
71.88941756761216
 21
113.1795750020549
 31
0.0
  0
ARC
  5
B3
330
1F
100
AcDbEntity
  8
1
  6
CONTINUOUS
 62
     7
100
AcDbCircle
 10
73.57653051603229
 20
114.0457984401081
 30
0.0
 40
1.000000000000001
100
AcDbArc
 50
90.0
 51
149.0000000000001
  0
LINE
  5
B4
330
1F
100
AcDbEntity
  8
1
  6
CONTINUOUS
 62
     7
100
AcDbLine
 10
73.59407443645219
 20
115.0457984401081
 30
0.0
 11
73.57653051603229
 21
115.0457984401081
 31
0.0
  0
LINE
  5
B5
330
1F
100
AcDbEntity
  8
1
  6
CONTINUOUS
 62
     7
100
AcDbLine
 10
74.42700825504444
 20
116.432033104547
 30
0.0
 11
73.59407443645219
 21
115.0457984401081
 31
0.0
  0
LINE
  5
B6
330
1F
100
AcDbEntity
  8
1
  6
CONTINUOUS
 62
     7
100
AcDbLine
 10
74.42700825504444
 20
116.432033104547
 30
0.0
 11
74.28843099218125
 21
116.6720559645999
 31
0.0
  0
ARC
  5
B7
330
1F
100
AcDbEntity
  8
1
  6
CONTINUOUS
 62
     7
100
AcDbCircle
 10
74.72144369407346
 20
116.9220559645999
 30
0.0
 40
0.49999999999999
100
AcDbArc
 50
149.0000000000001
 51
210.0
  0
LINE
  5
B8
330
1F
100
AcDbEntity
  8
1
  6
CONTINUOUS
 62
     7
100
AcDbLine
 10
75.72364343066555
 20
119.5607984366324
 30
0.0
 11
74.29286004372241
 21
117.1795750020549
 31
0.0
  0
LINE
  5
B9
330
1F
100
AcDbEntity
  8
1
  6
CONTINUOUS
 62
     7
100
AcDbLine
 10
77.50000000000001
 20
117.8457984401081
 30
0.0
 11
77.2597609449954
 21
117.8457984401081
 31
0.0
  0
LINE
  5
BA
330
1F
100
AcDbEntity
  8
1
  6
CONTINUOUS
 62
     7
100
AcDbLine
 10
75.57735121171825
 20
112.8457984401081
 30
0.0
 11
74.2554578498576
 21
112.8457984401081
 31
0.0
  0
LINE
  5
BB
330
1F
100
AcDbEntity
  8
1
  6
CONTINUOUS
 62
     7
100
AcDbLine
 10
73.173908735608
 20
108.8457984401081
 30
0.0
 11
71.85201537374736
 21
108.8457984401081
 31
0.0
  0
LINE
  5
BC
330
1F
100
AcDbEntity
  8
1
  6
CONTINUOUS
 62
     7
100
AcDbLine
 10
70.77046625949775
 20
104.8457984401081
 30
0.0
 11
69.44857289763712
 21
104.8457984401081
 31
0.0
  0
LINE
  5
BD
330
1F
100
AcDbEntity
  8
1
  6
CONTINUOUS
 62
     7
100
AcDbLine
 10
69.44857289763712
 20
104.8457984401081
 30
0.0
 11
68.06659347387374
 21
102.5457984401081
 31
0.0
  0
LWPOLYLINE
  5
BE
330
1F
100
AcDbEntity
  8
1
  6
CONTINUOUS
 62
     7
100
AcDbPolyline
 90
       28
 70
     0
 43
0.0
 10
-62.37947815285821
 20
78.94380285774902
 10
-62.39724690136679
 20
78.93304389077845
 10
-62.41456839730557
 20
78.9215462280772
 10
-62.43139846659304
 20
78.90934052358782
 10
-62.44769293514771
 20
78.8964574312528
 10
-62.46388467008276
 20
78.88250269976135
 10
-62.47947941692216
 20
78.86785523925666
 10
-62.49443533142393
 20
78.8525560615851
 10
-62.50871056934604
 20
78.8366461785931
 10
-62.52191642602692
 20
78.82061217187642
 10
-62.53445570750281
 20
78.80402913336701
 10
-62.54629687698489
 20
78.78694061540023
 10
-62.55740839768431
 20
78.76939017031147
 10
-62.56806825183305
 20
78.75086246281565
 10
-62.57793545404158
 20
78.73187867482102
 10
-62.5869840968799
 20
78.71249136067304
 10
-62.59518827291803
 20
78.6927530747172
 10
-62.60234213867831
 20
78.67325198167431
 10
-62.60868529482511
 20
78.65345345974701
 10
-62.61420240303969
 20
78.63340904346246
 10
-62.61887812500326
 20
78.61317026734785
 10
-62.62280419082761
 20
78.59215887262789
 10
-62.62583136706631
 20
78.57097948957103
 10
-62.62795260690103
 20
78.5496902806133
 10
-62.62916086351336
 20
78.5283494081907
 10
-62.62946487786991
 20
78.50900775366361
 10
-62.62902075211023
 20
78.48966155831705
 10
-62.62782948665682
 20
78.47035423022537
210
0.0
220
0.0
230
-1.0
  0
LINE
  5
BF
330
1F
100
AcDbEntity
  8
1
  6
CONTINUOUS
 62
     7
100
AcDbLine
 10
62.37947815285821
 20
78.94380285774902
 30
0.0
 11
55.50000000000001
 21
82.91567142118586
 31
0.0
  0
ARC
  5
C0
330
1F
100
AcDbEntity
  8
1
  6
CONTINUOUS
 62
     7
100
AcDbCircle
 10
-58.0
 20
87.24579844010806
 30
0.0
 40
5.000000000000004
210
0.0
220
0.0
230
-1.0
100
AcDbArc
 50
300.0
 51
60.00000000000011
  0
LINE
  5
C1
330
1F
100
AcDbEntity
  8
1
  6
CONTINUOUS
 62
     7
100
AcDbLine
 10
55.50000000000001
 20
91.57592545903024
 30
0.0
 11
63.98712557447004
 21
96.47596969409668
 31
0.0
  0
ELLIPSE
  5
C2
330
1F
100
AcDbEntity
  8
1
  6
CONTINUOUS
 62
     7
100
AcDbEllipse
 10
63.73709888853922
 20
96.9089889734258
 30
0.0
 11
0.4217161317142834
 21
-0.2686628060179459
 31
0.0
210
0.0
220
0.0
230
-1.0
 40
0.9999516053423074
 41
5.803239584377053
 42
6.763131029982113
  0
LINE
  5
C3
330
1F
100
AcDbEntity
  8
1
  6
CONTINUOUS
 62
     7
100
AcDbLine
 10
67.91247826310969
 20
106.5608365150181
 30
0.0
 11
66.82189336186065
 21
104.7457984401081
 31
0.0
  0
ARC
  5
C4
330
1F
100
AcDbEntity
  8
1
  6
CONTINUOUS
 62
     7
100
AcDbCircle
 10
68.76964556381179
 20
106.045798440108
 30
0.0
 40
1.000000000000001
100
AcDbArc
 50
90.0
 51
149.0000000000001
  0
LINE
  5
C5
330
1F
100
AcDbEntity
  8
1
  6
CONTINUOUS
 62
     7
100
AcDbLine
 10
68.78718948423169
 20
107.045798440108
 30
0.0
 11
68.76964556381179
 21
107.045798440108
 31
0.0
  0
LINE
  5
C6
330
1F
100
AcDbEntity
  8
1
  6
CONTINUOUS
 62
     7
100
AcDbLine
 10
77.50000000000001
 20
120.0457984401081
 30
0.0
 11
77.50000000000001
 21
117.8457984401081
 31
0.0
  0
LINE
  5
C7
330
1F
100
AcDbEntity
  8
1
  6
CONTINUOUS
 62
     7
100
AcDbLine
 10
77.50000000000001
 20
120.0457984401081
 30
0.0
 11
76.58085649010133
 21
120.0457984401081
 31
0.0
  0
LINE
  5
C8
330
1F
100
AcDbEntity
  8
1
  6
CONTINUOUS
 62
     7
100
AcDbLine
 10
64.5
 20
59.74579844010806
 30
0.0
 11
63.70949368846389
 21
59.74579844010806
 31
0.0
  0
ELLIPSE
  5
C9
330
1F
100
AcDbEntity
  8
1
  6
CONTINUOUS
 62
     7
100
AcDbEllipse
 10
63.70955458812785
 20
60.24610321225747
 30
0.0
 11
-0.049753206673938
 21
-0.4978278100813143
 31
0.0
210
0.0
220
0.0
230
1.0
 40
0.9993847481390057
 41
5.009496313192249
 42
6.38273425983273
  0
LINE
  5
CA
330
1F
100
AcDbEntity
  8
1
  6
CONTINUOUS
 62
     7
100
AcDbLine
 10
62.3
 20
64.74591267671518
 30
0.0
 11
63.21926528734209
 21
60.1479054973717
 31
0.0
  0
LINE
  5
CB
330
1F
100
AcDbEntity
  8
1
  6
CONTINUOUS
 62
     7
100
AcDbLine
 10
62.3
 20
64.74591267671518
 30
0.0
 11
62.3
 21
70.37987039674888
 31
0.0
  0
ELLIPSE
  5
CC
330
1F
100
AcDbEntity
  8
1
  6
CONTINUOUS
 62
     7
100
AcDbEllipse
 10
162.3038078385737
 20
70.37953789543417
 30
0.0
 11
99.90863362429251
 21
-4.362105148737464
 31
0.0
210
0.0
220
0.0
230
1.0
 40
0.9999618504831024
 41
3.104230856353406
 42
3.185224222414787
  0
LINE
  5
CD
330
1F
100
AcDbEntity
  8
1
  6
CONTINUOUS
 62
     7
100
AcDbLine
 10
64.23521347672909
 20
96.86538969613002
 30
0.0
 11
64.80486918110365
 21
103.3765841916979
 31
0.0
  0
ELLIPSE
  5
CE
330
1F
100
AcDbEntity
  8
1
  6
CONTINUOUS
 62
     7
100
AcDbEllipse
 10
66.29920900542172
 20
103.2457413225295
 30
0.0
 11
1.013456299338886
 21
-1.105993474930731
 31
0.0
210
0.0
220
0.0
230
1.0
 40
0.9999299546359904
 41
2.39986261201777
 42
3.8833226951618
  0
LINE
  5
CF
330
1F
100
AcDbEntity
  8
1
  6
CONTINUOUS
 62
     7
100
AcDbLine
 10
66.82189336186065
 20
104.7457984401081
 30
0.0
 11
66.29910433017889
 21
104.7457984401081
 31
0.0
  0
LINE
  5
D0
330
1F
100
AcDbEntity
  8
1
  6
CONTINUOUS
 62
     7
100
AcDbLine
 10
70.77046625949775
 20
107.045798440108
 30
0.0
 11
70.77046625949775
 21
104.8457984401081
 31
0.0
  0
LINE
  5
D1
330
1F
100
AcDbEntity
  8
1
  6
CONTINUOUS
 62
     7
100
AcDbLine
 10
71.85201537374736
 20
108.8457984401081
 30
0.0
 11
70.77046625949775
 21
107.045798440108
 31
0.0
  0
LINE
  5
D2
330
1F
100
AcDbEntity
  8
1
  6
CONTINUOUS
 62
     7
100
AcDbLine
 10
73.173908735608
 20
111.045798440108
 30
0.0
 11
73.173908735608
 21
108.8457984401081
 31
0.0
  0
LINE
  5
D3
330
1F
100
AcDbEntity
  8
1
  6
CONTINUOUS
 62
     7
100
AcDbLine
 10
74.2554578498576
 20
112.8457984401081
 30
0.0
 11
73.173908735608
 21
111.045798440108
 31
0.0
  0
LINE
  5
D4
330
1F
100
AcDbEntity
  8
1
  6
CONTINUOUS
 62
     7
100
AcDbLine
 10
75.57735121171825
 20
115.0457984401081
 30
0.0
 11
75.57735121171825
 21
112.8457984401081
 31
0.0
  0
LINE
  5
D5
330
1F
100
AcDbEntity
  8
1
  6
CONTINUOUS
 62
     7
100
AcDbLine
 10
77.2597609449954
 20
117.8457984401081
 30
0.0
 11
75.57735121171825
 21
115.0457984401081
 31
0.0
  0
LINE
  5
D6
330
1F
100
AcDbEntity
  8
1
  6
CONTINUOUS
 62
     7
100
AcDbLine
 10
77.5
 20
119.9454394605144
 30
0.0
 11
81.5
 21
119.9105319893513
 31
0.0
  0
LINE
  5
D7
330
1F
100
AcDbEntity
  8
1
  6
CONTINUOUS
 62
     7
100
AcDbLine
 10
92.50000000000001
 20
119.9454394605144
 30
0.0
 11
88.50000000000001
 21
119.9105319893513
 31
0.0
  0
LINE
  5
D8
330
1F
100
AcDbEntity
  8
1
  6
CONTINUOUS
 62
     7
100
AcDbLine
 10
81.5
 20
119.9105319893513
 30
0.0
 11
88.50000000000001
 21
119.9105319893513
 31
0.0
  0
LINE
  5
D9
330
1F
100
AcDbEntity
  8
1
  6
CONTINUOUS
 62
     7
100
AcDbLine
 10
69.51784292990418
 20
60.80738983265718
 30
0.0
 11
65.15536490399013
 21
60.77692161474606
 31
0.0
  0
LINE
  5
DA
330
1F
100
AcDbEntity
  8
1
  6
CONTINUOUS
 62
     7
100
AcDbLine
 10
100.4821570700958
 20
60.80738983265718
 30
0.0
 11
104.8446350960099
 21
60.77692161474606
 31
0.0
  0
LINE
  5
DB
330
1F
100
AcDbEntity
  8
1
  6
CONTINUOUS
 62
     7
100
AcDbLine
 10
65.1553649039893
 20
60.77692161474604
 30
0.0
 11
64.75344200574045
 21
60.75995266751148
 31
0.0
  0
LINE
  5
DC
330
1F
100
AcDbEntity
  8
1
  6
CONTINUOUS
 62
     7
100
AcDbLine
 10
104.8446350960107
 20
60.77692161474604
 30
0.0
 11
105.1815235952461
 21
60.76844744487582
 31
0.0
  0
LINE
  5
DD
330
1F
100
AcDbEntity
  8
1
  6
CONTINUOUS
 62
     7
100
AcDbLine
 10
105.1815235952461
 20
60.76844744487582
 30
0.0
 11
105.2465579942595
 21
60.75995266751148
 31
0.0
  0
LINE
  5
DE
330
1F
100
AcDbEntity
  8
1
  6
CONTINUOUS
 62
     7
100
AcDbLine
 10
69.51784292990418
 20
60.80738983265719
 30
0.0
 11
100.4821570700958
 21
60.80738983265719
 31
0.0
  0
ARC
  5
DF
330
1F
100
AcDbEntity
  8
1
  6
CONTINUOUS
 62
     7
100
AcDbCircle
 10
-81.5
 20
140.1513941043745
 30
0.0
 40
4.000000000000004
210
0.0
220
0.0
230
-1.0
100
AcDbArc
 50
0.0
 51
90.0
  0
LINE
  5
E0
330
1F
100
AcDbEntity
  8
1
  6
CONTINUOUS
 62
     7
100
AcDbLine
 10
77.5
 20
128.6513941043745
 30
0.0
 11
77.5
 21
140.1513941043745
 31
0.0
  0
LINE
  5
E1
330
1F
100
AcDbEntity
  8
1
  6
CONTINUOUS
 62
     7
100
AcDbLine
 10
92.5
 20
128.6513941043745
 30
0.0
 11
92.5
 21
140.1513941043745
 31
0.0
  0
ARC
  5
E2
330
1F
100
AcDbEntity
  8
1
  6
CONTINUOUS
 62
     7
100
AcDbCircle
 10
88.50000000000001
 20
140.1513941043745
 30
0.0
 40
4.000000000000006
100
AcDbArc
 50
0.0000000000000248
 51
90.0
  0
LINE
  5
E3
330
1F
100
AcDbEntity
  8
1
  6
CONTINUOUS
 62
     7
100
AcDbLine
 10
81.5
 20
144.1513941043745
 30
0.0
 11
88.50000000000001
 21
144.1513941043745
 31
0.0
  0
LINE
  5
E4
330
1F
100
AcDbEntity
  8
1
  6
CONTINUOUS
 62
     7
100
AcDbLine
 10
81.69198684155396
 20
148.1538706525328
 30
0.0
 11
81.69206384962071
 21
148.153770218704
 31
0.0
  0
LINE
  5
E5
330
1F
100
AcDbEntity
  8
1
  6
CONTINUOUS
 62
     7
100
AcDbLine
 10
88.30801315844603
 20
148.1538706525328
 30
0.0
 11
88.30793615037928
 21
148.153770218704
 31
0.0
  0
LINE
  5
E6
330
1F
100
AcDbEntity
  8
1
  6
CONTINUOUS
 62
     7
100
AcDbLine
 10
73.59407443645219
 20
131.6513941043745
 30
0.0
 11
73.59407443645219
 21
128.6513941043745
 31
0.0
  0
LINE
  5
E7
330
1F
100
AcDbEntity
  8
1
  6
CONTINUOUS
 62
     7
100
AcDbLine
 10
74.22144369407346
 20
132.4045983129413
 30
0.0
 11
73.59407443645219
 21
131.6513941043745
 31
0.0
  0
LINE
  5
E8
330
1F
100
AcDbEntity
  8
1
  6
CONTINUOUS
 62
     7
100
AcDbLine
 10
96.40592556354783
 20
131.6513941043745
 30
0.0
 11
96.40592556354783
 21
128.6513941043745
 31
0.0
  0
LINE
  5
E9
330
1F
100
AcDbEntity
  8
1
  6
CONTINUOUS
 62
     7
100
AcDbLine
 10
95.77855630592654
 20
132.4045983129413
 30
0.0
 11
96.40592556354783
 21
131.6513941043745
 31
0.0
  0
LINE
  5
EA
330
1F
100
AcDbEntity
  8
1
  6
CONTINUOUS
 62
     7
100
AcDbLine
 10
86.0
 20
148.9515785155575
 30
0.0
 11
86.81729336851402
 21
148.1540218733781
 31
0.0
  0
LINE
  5
EB
330
1F
100
AcDbEntity
  8
1
  6
CONTINUOUS
 62
     7
100
AcDbLine
 10
84.0
 20
148.9515785155575
 30
0.0
 11
86.0
 21
148.9515785155575
 31
0.0
  0
LINE
  5
EC
330
1F
100
AcDbEntity
  8
1
  6
CONTINUOUS
 62
     7
100
AcDbLine
 10
84.0
 20
148.9515785155575
 30
0.0
 11
83.182706631486
 21
148.1540218733781
 31
0.0
  0
LINE
  5
ED
330
1F
100
AcDbEntity
  8
1
  6
CONTINUOUS
 62
     7
100
AcDbLine
 10
81.34617047616788
 20
151.0600755358144
 30
0.0
 11
81.3462301133858
 21
151.0599750567765
 31
0.0
  0
LINE
  5
EE
330
1F
100
AcDbEntity
  8
1
  6
CONTINUOUS
 62
     7
100
AcDbLine
 10
88.6538295238321
 20
151.0600755358144
 30
0.0
 11
88.65376988661846
 21
151.0599750567911
 31
0.0
  0
LINE
  5
EF
330
1F
100
AcDbEntity
  8
1
  6
CONTINUOUS
 62
     7
100
AcDbLine
 10
71.19063196034193
 20
131.6513941043745
 30
0.0
 11
71.19063196034193
 21
128.6513941043745
 31
0.0
  0
LINE
  5
F0
330
1F
100
AcDbEntity
  8
1
  6
CONTINUOUS
 62
     7
100
AcDbLine
 10
71.81800121796323
 20
132.4045983129413
 30
0.0
 11
71.19063196034195
 21
131.6513941043745
 31
0.0
  0
LINE
  5
F1
330
1F
100
AcDbEntity
  8
1
  6
CONTINUOUS
 62
     7
100
AcDbLine
 10
98.80936803965807
 20
131.6513941043745
 30
0.0
 11
98.80936803965807
 21
128.6513941043745
 31
0.0
  0
LINE
  5
F2
330
1F
100
AcDbEntity
  8
1
  6
CONTINUOUS
 62
     7
100
AcDbLine
 10
98.18199878203679
 20
132.4045983129413
 30
0.0
 11
98.80936803965807
 21
131.6513941043745
 31
0.0
  0
LINE
  5
F3
330
1F
100
AcDbEntity
  8
1
  6
CONTINUOUS
 62
     7
100
AcDbLine
 10
85.99999999999999
 20
151.857748627579
 30
0.0
 11
86.81729336851402
 21
151.0601919853996
 31
0.0
  0
LINE
  5
F4
330
1F
100
AcDbEntity
  8
1
  6
CONTINUOUS
 62
     7
100
AcDbLine
 10
84.0
 20
151.857748627579
 30
0.0
 11
83.182706631486
 21
151.0601919853995
 31
0.0
  0
LINE
  5
F5
330
1F
100
AcDbEntity
  8
1
  6
CONTINUOUS
 62
     7
100
AcDbLine
 10
84.0
 20
151.857748627579
 30
0.0
 11
86.0
 21
151.857748627579
 31
0.0
  0
LINE
  5
F6
330
1F
100
AcDbEntity
  8
1
  6
CONTINUOUS
 62
     7
100
AcDbLine
 10
81.00017686668828
 20
153.9662674202923
 30
0.0
 11
81.00022552697038
 21
153.9661669301344
 31
0.0
  0
LINE
  5
F7
330
1F
100
AcDbEntity
  8
1
  6
CONTINUOUS
 62
     7
100
AcDbLine
 10
88.99982313331171
 20
153.9662674202923
 30
0.0
 11
88.99977447302962
 21
153.9661669301344
 31
0.0
  0
LINE
  5
F8
330
1F
100
AcDbEntity
  8
1
  6
CONTINUOUS
 62
     7
100
AcDbLine
 10
68.78718948423167
 20
131.6513941043745
 30
0.0
 11
68.78718948423167
 21
128.6513941043745
 31
0.0
  0
LINE
  5
F9
330
1F
100
AcDbEntity
  8
1
  6
CONTINUOUS
 62
     7
100
AcDbLine
 10
69.41455874185297
 20
132.4045983129413
 30
0.0
 11
68.78718948423169
 21
131.6513941043745
 31
0.0
  0
LINE
  5
FA
330
1F
100
AcDbEntity
  8
1
  6
CONTINUOUS
 62
     7
100
AcDbLine
 10
100.585441258147
 20
132.4045983129413
 30
0.0
 11
101.2128105157683
 21
131.6513941043745
 31
0.0
  0
LINE
  5
FB
330
1F
100
AcDbEntity
  8
1
  6
CONTINUOUS
 62
     7
100
AcDbLine
 10
101.2128105157683
 20
131.6513941043745
 30
0.0
 11
101.2128105157683
 21
128.6513941043745
 31
0.0
  0
LINE
  5
FC
330
1F
100
AcDbEntity
  8
1
  6
CONTINUOUS
 62
     7
100
AcDbLine
 10
85.99999999999999
 20
154.7639187396005
 30
0.0
 11
86.81729336851403
 21
153.966362097421
 31
0.0
  0
LINE
  5
FD
330
1F
100
AcDbEntity
  8
1
  6
CONTINUOUS
 62
     7
100
AcDbLine
 10
84.0
 20
154.7639187396005
 30
0.0
 11
83.18270663148597
 21
153.966362097421
 31
0.0
  0
LINE
  5
FE
330
1F
100
AcDbEntity
  8
1
  6
CONTINUOUS
 62
     7
100
AcDbLine
 10
84.0
 20
154.7639187396005
 30
0.0
 11
85.99999999999999
 21
154.7639187396005
 31
0.0
  0
ARC
  5
FF
330
1F
100
AcDbEntity
  8
1
  6
CONTINUOUS
 62
     7
100
AcDbCircle
 10
80.68044495179264
 20
143.2990585121111
 30
0.0
 40
13.93517460020658
100
AcDbArc
 50
90.04759288009838
 51
180.360422069429
  0
ARC
  5
100
330
1F
100
AcDbEntity
  8
1
  6
CONTINUOUS
 62
     7
100
AcDbCircle
 10
-89.31955504820736
 20
143.2990585121111
 30
0.0
 40
13.93517460020658
210
0.0
220
0.0
230
-1.0
100
AcDbArc
 50
90.04759288009838
 51
180.3604220694291
  0
LINE
  5
101
330
1F
100
AcDbEntity
  8
1
  6
CONTINUOUS
 62
     7
100
AcDbLine
 10
80.66886966608632
 20
157.2342283047976
 30
0.0
 11
89.33113033391368
 21
157.2342283047976
 31
0.0
  0
LINE
  5
102
330
1F
100
AcDbEntity
  8
1
  6
CONTINUOUS
 62
     7
100
AcDbLine
 10
66.82189336186065
 20
128.6513941043745
 30
0.0
 11
66.74554606536692
 21
143.2113991524609
 31
0.0
  0
LINE
  5
103
330
1F
100
AcDbEntity
  8
1
  6
CONTINUOUS
 62
     7
100
AcDbLine
 10
103.1781066381394
 20
128.6513941043745
 30
0.0
 11
103.2544539346331
 21
143.2113991524609
 31
0.0
  0
LINE
  5
104
330
1F
100
AcDbEntity
  8
1
  6
CONTINUOUS
 62
     7
100
AcDbLine
 10
68.81931877712762
 20
161.1552578598
 30
0.0
 11
62.96809882801579
 21
159.9850138699776
 31
0.0
  0
LINE
  5
105
330
1F
100
AcDbEntity
  8
1
  6
CONTINUOUS
 62
     7
100
AcDbLine
 10
101.1806812228724
 20
161.1552578598
 30
0.0
 11
107.0319011719842
 21
159.9850138699776
 31
0.0
  0
LINE
  5
106
330
1F
100
AcDbEntity
  8
1
  6
CONTINUOUS
 62
     7
100
AcDbLine
 10
68.81451689227305
 20
161.1542974828291
 30
0.0
 11
68.78336615777452
 21
161.1542974828291
 31
0.0
  0
LINE
  5
107
330
1F
100
AcDbEntity
  8
1
  6
CONTINUOUS
 62
     7
100
AcDbLine
 10
68.78336615777452
 20
161.1542974828291
 30
0.0
 11
68.81451689227308
 21
161.1542974828291
 31
0.0
  0
LINE
  5
108
330
1F
100
AcDbEntity
  8
1
  6
CONTINUOUS
 62
     7
100
AcDbLine
 10
56.0174727747744
 20
133.6513941043745
 30
0.0
 11
63.62452676123564
 21
133.6513941043745
 31
0.0
  0
LINE
  5
109
330
1F
100
AcDbEntity
  8
1
  6
CONTINUOUS
 62
     7
100
AcDbLine
 10
113.9825272252256
 20
133.6513941043745
 30
0.0
 11
106.3754732387643
 21
133.6513941043745
 31
0.0
  0
LINE
  5
10A
330
1F
100
AcDbEntity
  8
1
  6
CONTINUOUS
 62
     7
100
AcDbLine
 10
54.03494554954877
 20
133.6513941043745
 30
0.0
 11
56.0174727747744
 21
133.6513941043745
 31
0.0
  0
LINE
  5
10B
330
1F
100
AcDbEntity
  8
1
  6
CONTINUOUS
 62
     7
100
AcDbLine
 10
115.9650544504512
 20
133.6513941043745
 30
0.0
 11
113.9825272252256
 21
133.6513941043745
 31
0.0
  0
LINE
  5
10C
330
1F
100
AcDbEntity
  8
1
  6
CONTINUOUS
 62
     7
100
AcDbLine
 10
62.3436343389538
 20
133.6513941043745
 30
0.0
 11
62.56920902968857
 21
159.4996934190085
 31
0.0
  0
LINE
  5
10D
330
1F
100
AcDbEntity
  8
1
  6
CONTINUOUS
 62
     7
100
AcDbLine
 10
107.6563652813939
 20
133.6514376082199
 30
0.0
 11
107.4307909703114
 21
159.4996934190085
 31
0.0
  0
LWPOLYLINE
  5
10E
330
1F
100
AcDbEntity
  8
1
  6
CONTINUOUS
 62
     7
100
AcDbPolyline
 90
       29
 70
     0
 43
0.0
 10
62.97113192365154
 20
159.9856204891048
 10
62.9489820309238
 20
159.9806651348339
 10
62.92674924977873
 20
159.9746115249611
 10
62.90450947281531
 20
159.9674321813945
 10
62.88234304615214
 20
159.9591061953998
 10
62.86033410016789
 20
159.9496199450832
 10
62.83856975553789
 20
159.9389677363371
 10
62.81713921392845
 20
159.9271523434477
 10
62.79613274771306
 20
159.9141854267043
 10
62.77564060796388
 20
159.9000878066404
 10
62.75575187445309
 20
159.8848895779932
 10
62.73655327517671
 20
159.8686300509908
 10
62.7181280057017
 20
159.8513575130218
 10
62.70055458020221
 20
159.8331288098465
 10
62.68390574622074
 20
159.8140087519762
 10
62.66824749388513
 20
159.7940693583119
 10
62.65363818754942
 20
159.77338895523
 10
62.64012784372859
 20
159.7520511546648
 10
62.62775757398229
 20
159.73014373905
 10
62.61655920536613
 20
159.7077574840033
 10
62.60655508456449
 20
159.6849849512072
 10
62.59775806522246
 20
159.6619192840071
 10
62.59017167167566
 20
159.6386530368719
 10
62.58379042657079
 20
159.6152770671753
 10
62.578600325049
 20
159.5918795139998
 10
62.57457943442418
 20
159.5685448841038
 10
62.57169859573974
 20
159.5453532601438
 10
62.56992220224941
 20
159.52237964101
 10
62.56920902968856
 20
159.4996934190085
  0
LWPOLYLINE
  5
10F
330
1F
100
AcDbEntity
  8
1
  6
CONTINUOUS
 62
     7
100
AcDbPolyline
 90
       29
 70
     0
 43
0.0
 10
-107.0288680763484
 20
159.9856204891048
 10
-107.0510179690762
 20
159.9806651348339
 10
-107.0732507502213
 20
159.9746115249611
 10
-107.0954905271847
 20
159.9674321813945
 10
-107.1176569538478
 20
159.9591061953998
 10
-107.1396658998321
 20
159.9496199450833
 10
-107.1614302444621
 20
159.9389677363371
 10
-107.1828607860715
 20
159.9271523434478
 10
-107.2038672522869
 20
159.9141854267043
 10
-107.2243593920361
 20
159.9000878066404
 10
-107.2442481255469
 20
159.8848895779932
 10
-107.2634467248233
 20
159.8686300509908
 10
-107.2818719942983
 20
159.8513575130218
 10
-107.2994454197978
 20
159.8331288098465
 10
-107.3160942537792
 20
159.8140087519762
 10
-107.3317525061148
 20
159.7940693583119
 10
-107.3463618124506
 20
159.77338895523
 10
-107.3598721562714
 20
159.7520511546648
 10
-107.3722424260177
 20
159.73014373905
 10
-107.3834407946339
 20
159.7077574840033
 10
-107.3934449154355
 20
159.6849849512072
 10
-107.4022419347775
 20
159.6619192840071
 10
-107.4098283283243
 20
159.6386530368719
 10
-107.4162095734292
 20
159.6152770671753
 10
-107.421399674951
 20
159.5918795139998
 10
-107.4254205655758
 20
159.5685448841038
 10
-107.4283014042602
 20
159.5453532601438
 10
-107.4300777977506
 20
159.52237964101
 10
-107.4307909703114
 20
159.4996934190085
210
0.0
220
0.0
230
-1.0
  0
ARC
  5
110
330
1F
100
AcDbEntity
  8
1
  6
CONTINUOUS
 62
     7
100
AcDbCircle
 10
88.27714054218724
 20
140.6532336887506
 30
0.0
 40
7.500599743645342
100
AcDbArc
 50
0.8538290803324927
 51
89.76475705111888
  0
ARC
  5
111
330
1F
100
AcDbEntity
  8
1
  6
CONTINUOUS
 62
     7
100
AcDbCircle
 10
81.72335736456024
 20
140.6527303771917
 30
0.0
 40
7.501105111631741
100
AcDbArc
 50
90.23903029943877
 51
179.1423835691099
  0
LINE
  5
112
330
1F
100
AcDbEntity
  8
1
  6
CONTINUOUS
 62
     7
100
AcDbLine
 10
74.22308115503102
 20
140.7651134608212
 30
0.0
 11
74.22144393397639
 21
140.5452753186504
 31
0.0
  0
LINE
  5
113
330
1F
100
AcDbEntity
  8
1
  6
CONTINUOUS
 62
     7
100
AcDbLine
 10
95.77855606602361
 20
140.5452753186504
 30
0.0
 11
95.77691884496899
 21
140.7651134608212
 31
0.0
  0
LINE
  5
114
330
1F
100
AcDbEntity
  8
1
  6
CONTINUOUS
 62
     7
100
AcDbLine
 10
74.22144369407346
 20
140.5452753186504
 30
0.0
 11
74.22144369407346
 21
128.6513941043745
 31
0.0
  0
LINE
  5
115
330
1F
100
AcDbEntity
  8
1
  6
CONTINUOUS
 62
     7
100
AcDbLine
 10
95.77855630592654
 20
128.6513941043745
 30
0.0
 11
95.77855630592654
 21
140.5452753186504
 31
0.0
  0
LINE
  5
116
330
1F
100
AcDbEntity
  8
1
  6
CONTINUOUS
 62
     7
100
AcDbLine
 10
81.76224705829073
 20
148.1540218480643
 30
0.0
 11
81.6919868416231
 21
148.1538706525375
 31
0.0
  0
LINE
  5
117
330
1F
100
AcDbEntity
  8
1
  6
CONTINUOUS
 62
     7
100
AcDbLine
 10
88.30801315837688
 20
148.1538706525375
 30
0.0
 11
88.23775294170926
 21
148.1540218480643
 31
0.0
  0
LINE
  5
118
330
1F
100
AcDbEntity
  8
1
  6
CONTINUOUS
 62
     7
100
AcDbLine
 10
88.23775294170929
 20
148.1540218733781
 30
0.0
 11
81.76224705829077
 21
148.1540218733781
 31
0.0
  0
ARC
  5
119
330
1F
100
AcDbEntity
  8
1
  6
CONTINUOUS
 62
     7
100
AcDbCircle
 10
88.62281679140057
 20
141.5014698299736
 30
0.0
 40
9.558555337795214
100
AcDbArc
 50
0.6648912708732329
 51
89.8144610088544
  0
ARC
  5
11A
330
1F
100
AcDbEntity
  8
1
  6
CONTINUOUS
 62
     7
100
AcDbCircle
 10
81.37713650122758
 20
141.501516929756
 30
0.0
 40
9.558508087122513
100
AcDbArc
 50
90.18525993269924
 51
179.3353877875732
  0
LINE
  5
11B
330
1F
100
AcDbEntity
  8
1
  6
CONTINUOUS
 62
     7
100
AcDbLine
 10
71.81926029043002
 20
141.6124692455182
 30
0.0
 11
71.81800135614758
 21
141.394302573529
 31
0.0
  0
LINE
  5
11C
330
1F
100
AcDbEntity
  8
1
  6
CONTINUOUS
 62
     7
100
AcDbLine
 10
98.18199864385244
 20
141.394302573529
 30
0.0
 11
98.18073970956998
 21
141.6124692455182
 31
0.0
  0
LINE
  5
11D
330
1F
100
AcDbEntity
  8
1
  6
CONTINUOUS
 62
     7
100
AcDbLine
 10
71.81800121796321
 20
141.394302573529
 30
0.0
 11
71.81800121796321
 21
128.6513941043745
 31
0.0
  0
LINE
  5
11E
330
1F
100
AcDbEntity
  8
1
  6
CONTINUOUS
 62
     7
100
AcDbLine
 10
98.18199878203679
 20
128.6513941043745
 30
0.0
 11
98.18199878203679
 21
141.394302573529
 31
0.0
  0
LINE
  5
11F
330
1F
100
AcDbEntity
  8
1
  6
CONTINUOUS
 62
     7
100
AcDbLine
 10
81.41594743932335
 20
151.0601919571191
 30
0.0
 11
81.3461704761489
 21
151.0600755358128
 31
0.0
  0
LINE
  5
120
330
1F
100
AcDbEntity
  8
1
  6
CONTINUOUS
 62
     7
100
AcDbLine
 10
88.65382952385112
 20
151.0600755358128
 30
0.0
 11
88.58405256067667
 21
151.0601919571191
 31
0.0
  0
LINE
  5
121
330
1F
100
AcDbEntity
  8
1
  6
CONTINUOUS
 62
     7
100
AcDbLine
 10
88.58405256067667
 20
151.0601919853995
 30
0.0
 11
81.41594743932335
 21
151.0601919853995
 31
0.0
  0
ARC
  5
122
330
1F
100
AcDbEntity
  8
1
  6
CONTINUOUS
 62
     7
100
AcDbCircle
 10
88.9695172555421
 20
142.3507990405686
 30
0.0
 40
11.61540729216797
100
AcDbArc
 50
0.5405259501444248
 51
89.85074886371902
  0
ARC
  5
123
330
1F
100
AcDbEntity
  8
1
  6
CONTINUOUS
 62
     7
100
AcDbCircle
 10
81.0310773413617
 20
142.3502003692144
 30
0.0
 40
11.61600752550709
100
AcDbArc
 50
90.15217627430059
 51
179.4565489118359
  0
LINE
  5
124
330
1F
100
AcDbEntity
  8
1
  6
CONTINUOUS
 62
     7
100
AcDbLine
 10
69.41558140661778
 20
142.4604386296986
 30
0.0
 11
69.4145588298159
 21
142.2433298284076
 31
0.0
  0
LINE
  5
125
330
1F
100
AcDbEntity
  8
1
  6
CONTINUOUS
 62
     7
100
AcDbLine
 10
100.5854411701841
 20
142.2433298284076
 30
0.0
 11
100.5844185933822
 21
142.4604386296986
 31
0.0
  0
LINE
  5
126
330
1F
100
AcDbEntity
  8
1
  6
CONTINUOUS
 62
     7
100
AcDbLine
 10
69.41455874185297
 20
142.2433298284076
 30
0.0
 11
69.41455874185297
 21
128.6513941043745
 31
0.0
  0
LINE
  5
127
330
1F
100
AcDbEntity
  8
1
  6
CONTINUOUS
 62
     7
100
AcDbLine
 10
100.585441258147
 20
128.6513941043745
 30
0.0
 11
100.585441258147
 21
142.2433298284076
 31
0.0
  0
LINE
  5
128
330
1F
100
AcDbEntity
  8
1
  6
CONTINUOUS
 62
     7
100
AcDbLine
 10
81.06964782035594
 20
153.9663620671701
 30
0.0
 11
81.0001768666357
 21
153.9662674202871
 31
0.0
  0
LINE
  5
129
330
1F
100
AcDbEntity
  8
1
  6
CONTINUOUS
 62
     7
100
AcDbLine
 10
88.9998231333643
 20
153.9662674202871
 30
0.0
 11
88.93035217964405
 21
153.9663620671701
 31
0.0
  0
LINE
  5
12A
330
1F
100
AcDbEntity
  8
1
  6
CONTINUOUS
 62
     7
100
AcDbLine
 10
88.93035217964405
 20
153.966362097421
 30
0.0
 11
81.06964782035595
 21
153.966362097421
 31
0.0
  0
ARC
  5
12B
330
1F
100
AcDbEntity
  8
1
  6
CONTINUOUS
 62
     7
100
AcDbCircle
 10
100.204902432036
 20
156.2513941043745
 30
0.0
 40
4.999999999999998
100
AcDbArc
 50
78.69006752597991
 51
90.00000000000001
  0
ARC
  5
12C
330
1F
100
AcDbEntity
  8
1
  6
CONTINUOUS
 62
     7
100
AcDbCircle
 10
69.79509756796395
 20
156.2513941043745
 30
0.0
 40
4.999999999999997
100
AcDbArc
 50
90.0
 51
101.3099324740201
  0
LINE
  5
12D
330
1F
100
AcDbEntity
  8
1
  6
CONTINUOUS
 62
     7
100
AcDbLine
 10
53.03498362648461
 20
132.6601206398729
 30
0.0
 11
53.00000000000001
 21
128.6513941043745
 31
0.0
  0
LINE
  5
12E
330
1F
100
AcDbEntity
  8
1
  6
CONTINUOUS
 62
     7
100
AcDbLine
 10
117.0
 20
128.6513941043745
 30
0.0
 11
116.9650163735154
 21
132.6601206398729
 31
0.0
  0
ARC
  5
12F
330
1F
100
AcDbEntity
  8
1
  6
CONTINUOUS
 62
     7
100
AcDbCircle
 10
54.03494554954877
 20
132.6513941043745
 30
0.0
 40
1.000000000000001
100
AcDbArc
 50
90.0
 51
179.5
  0
ARC
  5
130
330
1F
100
AcDbEntity
  8
1
  6
CONTINUOUS
 62
     7
100
AcDbCircle
 10
115.9650544504512
 20
132.6513941043745
 30
0.0
 40
0.9999999999999996
100
AcDbArc
 50
0.4999999999999834
 51
90.00000000000021
  0
LINE
  5
131
330
1F
100
AcDbEntity
  8
1
  6
CONTINUOUS
 62
     7
100
AcDbLine
 10
200.2542015598919
 20
128.6513941043745
 30
0.0
 11
199.1969004503024
 21
158.9285364748887
 31
0.0
  0
LINE
  5
132
330
1F
100
AcDbEntity
  8
1
  6
CONTINUOUS
 62
     7
100
AcDbLine
 10
199.1969004503025
 20
158.928536474887
 30
0.0
 11
199.1605378910796
 21
159.9698239308063
 31
0.0
  0
LINE
  5
133
330
1F
100
AcDbEntity
  8
1
  6
CONTINUOUS
 62
     7
100
AcDbLine
 10
155.5117153794176
 20
158.1595550734666
 30
0.0
 11
155.4647362419108
 21
152.776279122324
 31
0.0
  0
LINE
  5
134
330
1F
100
AcDbEntity
  8
1
  6
CONTINUOUS
 62
     7
100
AcDbLine
 10
155.4647362419108
 20
152.776279122324
 30
0.0
 11
155.254201559892
 21
128.6513941043745
 31
0.0
  0
LINE
  5
135
330
1F
100
AcDbEntity
  8
1
  6
CONTINUOUS
 62
     7
100
AcDbLine
 10
155.5036401750442
 20
157.2342283047976
 30
0.0
 11
153.3664163075995
 21
155.6814442732309
 31
0.0
  0
LINE
  5
136
330
1F
100
AcDbEntity
  8
1
  6
CONTINUOUS
 62
     7
100
AcDbLine
 10
194.9782421457753
 20
161.2513941043745
 30
0.0
 11
185.1977504378725
 21
161.2513941043745
 31
0.0
  0
LINE
  5
137
330
1F
100
AcDbEntity
  8
1
  6
CONTINUOUS
 62
     7
100
AcDbLine
 10
185.1977504378725
 20
161.2513941043745
 30
0.0
 11
164.9806106812926
 21
161.2513941043745
 31
0.0
  0
LINE
  5
138
330
1F
100
AcDbEntity
  8
1
  6
CONTINUOUS
 62
     7
100
AcDbLine
 10
164.9806106812926
 20
161.2513941043745
 30
0.0
 11
157.0256642657604
 21
161.2513941043745
 31
0.0
  0
LINE
  5
139
330
1F
100
AcDbEntity
  8
1
  6
CONTINUOUS
 62
     7
100
AcDbLine
 10
194.9789114215327
 20
161.1552555082415
 30
0.0
 11
194.9782889476828
 21
161.2513851520707
 31
0.0
  0
LINE
  5
13A
330
1F
100
AcDbEntity
  8
1
  6
CONTINUOUS
 62
     7
100
AcDbLine
 10
152.9542015598919
 20
154.872427278856
 30
0.0
 11
152.954201559892
 21
142.799174915631
 31
0.0
  0
ARC
  5
13B
330
1F
100
AcDbEntity
  8
1
  6
CONTINUOUS
 62
     7
100
AcDbCircle
 10
-153.9542015598919
 20
154.872427278856
 30
0.0
 40
1.000000000000001
210
0.0
220
0.0
230
-1.0
100
AcDbArc
 50
0.0
 51
53.99999999999991
  0
LINE
  5
13C
330
1F
100
AcDbEntity
  8
1
  6
CONTINUOUS
 62
     7
100
AcDbLine
 10
152.954201559892
 20
142.799174915631
 30
0.0
 11
152.954201559892
 21
128.6513941043745
 31
0.0
  0
LINE
  5
13D
330
1F
100
AcDbEntity
  8
1
  6
CONTINUOUS
 62
     7
100
AcDbLine
 10
152.9542015598919
 20
128.6513941043745
 30
0.0
 11
153.4391634849819
 21
128.6513941043745
 31
0.0
  0
LINE
  5
13E
330
1F
100
AcDbEntity
  8
1
  6
CONTINUOUS
 62
     7
100
AcDbLine
 10
198.7517724184435
 20
160.5295904116466
 30
0.0
 11
194.9782889476828
 21
161.2513851520707
 31
0.0
  0
LINE
  5
13F
330
1F
100
AcDbEntity
  8
1
  6
CONTINUOUS
 62
     7
100
AcDbLine
 10
151.567966895453
 20
132.6513941043745
 30
0.0
 11
152.9542015598919
 21
131.6513941043745
 31
0.0
  0
LINE
  5
140
330
1F
100
AcDbEntity
  8
1
  6
CONTINUOUS
 62
     7
100
AcDbLine
 10
151.567966895453
 20
132.6513941043745
 30
0.0
 11
151.567966895453
 21
128.6513941043745
 31
0.0
  0
LINE
  5
141
330
1F
100
AcDbEntity
  8
1
  6
CONTINUOUS
 62
     7
100
AcDbLine
 10
151.567966895453
 20
128.6513941043745
 30
0.0
 11
152.9542015598919
 21
128.6513941043745
 31
0.0
  0
LINE
  5
142
330
1F
100
AcDbEntity
  8
1
  6
CONTINUOUS
 62
     7
100
AcDbLine
 10
151.418428738074
 20
153.8992820299416
 30
0.0
 11
152.9542015598919
 21
153.0126031778508
 31
0.0
  0
LINE
  5
143
330
1F
100
AcDbEntity
  8
1
  6
CONTINUOUS
 62
     7
100
AcDbLine
 10
150.8743754306626
 20
153.8708705946085
 30
0.0
 11
149.3664163075995
 21
152.7752741612094
 31
0.0
  0
ARC
  5
144
330
1F
100
AcDbEntity
  8
1
  6
CONTINUOUS
 62
     7
100
AcDbCircle
 10
198.6578351107104
 20
160.0384939015634
 30
0.0
 40
0.5000000000000072
100
AcDbArc
 50
2.000000000000145
 51
79.17122490023782
  0
LINE
  5
145
330
1F
100
AcDbEntity
  8
1
  6
CONTINUOUS
 62
     7
100
AcDbLine
 10
199.1605378910796
 20
159.9698239308063
 30
0.0
 11
199.15753052422
 21
160.0559436499147
 31
0.0
  0
LINE
  5
146
330
1F
100
AcDbEntity
  8
1
  6
CONTINUOUS
 62
     7
100
AcDbLine
 10
150.8204249979451
 20
128.6513941043745
 30
0.0
 11
151.3279440354002
 21
128.6513941043745
 31
0.0
  0
LINE
  5
147
330
1F
100
AcDbEntity
  8
1
  6
CONTINUOUS
 62
     7
100
AcDbLine
 10
151.567966895453
 20
128.6513941043745
 30
0.0
 11
151.3279440354002
 21
128.6513941043745
 31
0.0
  0
LINE
  5
148
330
1F
100
AcDbEntity
  8
1
  6
CONTINUOUS
 62
     7
100
AcDbLine
 10
149.4391634849819
 20
128.6513941043745
 30
0.0
 11
150.8204249979451
 21
128.6513941043745
 31
0.0
  0
LINE
  5
149
330
1F
100
AcDbEntity
  8
1
  6
CONTINUOUS
 62
     7
100
AcDbLine
 10
148.954201559892
 20
151.9662571668345
 30
0.0
 11
148.954201559892
 21
141.9501476607524
 31
0.0
  0
ARC
  5
14A
330
1F
100
AcDbEntity
  8
1
  6
CONTINUOUS
 62
     7
100
AcDbCircle
 10
-149.954201559892
 20
151.9662571668345
 30
0.0
 40
1.000000000000001
210
0.0
220
0.0
230
-1.0
100
AcDbArc
 50
0.0
 51
54.00000000000018
  0
LINE
  5
14B
330
1F
100
AcDbEntity
  8
1
  6
CONTINUOUS
 62
     7
100
AcDbLine
 10
148.954201559892
 20
141.9501476607524
 30
0.0
 11
148.954201559892
 21
128.6513941043745
 31
0.0
  0
LINE
  5
14C
330
1F
100
AcDbEntity
  8
1
  6
CONTINUOUS
 62
     7
100
AcDbLine
 10
148.954201559892
 20
128.6513941043745
 30
0.0
 11
149.4391634849819
 21
128.6513941043745
 31
0.0
  0
LINE
  5
14D
330
1F
100
AcDbEntity
  8
1
  6
CONTINUOUS
 62
     7
100
AcDbLine
 10
155.5251282366015
 20
159.6965162725403
 30
0.0
 11
155.5117153794176
 21
158.1595550734666
 31
0.0
  0
LINE
  5
14E
330
1F
100
AcDbEntity
  8
1
  6
CONTINUOUS
 62
     7
100
AcDbLine
 10
147.567966895453
 20
132.6513941043745
 30
0.0
 11
148.954201559892
 21
131.6513941043745
 31
0.0
  0
LINE
  5
14F
330
1F
100
AcDbEntity
  8
1
  6
CONTINUOUS
 62
     7
100
AcDbLine
 10
147.567966895453
 20
132.6513941043745
 30
0.0
 11
147.567966895453
 21
128.6513941043745
 31
0.0
  0
LINE
  5
150
330
1F
100
AcDbEntity
  8
1
  6
CONTINUOUS
 62
     7
100
AcDbLine
 10
147.567966895453
 20
128.6513941043745
 30
0.0
 11
148.954201559892
 21
128.6513941043745
 31
0.0
  0
LINE
  5
151
330
1F
100
AcDbEntity
  8
1
  6
CONTINUOUS
 62
     7
100
AcDbLine
 10
147.4184648378178
 20
150.9930910757233
 30
0.0
 11
147.461962889016
 21
150.9679774641548
 31
0.0
  0
LINE
  5
152
330
1F
100
AcDbEntity
  8
1
  6
CONTINUOUS
 62
     7
100
AcDbLine
 10
147.461962889016
 20
150.9679774641547
 30
0.0
 11
148.9542015598919
 21
150.1064330658293
 31
0.0
  0
LINE
  5
153
330
1F
100
AcDbEntity
  8
1
  6
CONTINUOUS
 62
     7
100
AcDbLine
 10
146.8743754306626
 20
150.964700482587
 30
0.0
 11
145.3664163075995
 21
149.869104049188
 31
0.0
  0
LINE
  5
154
330
1F
100
AcDbEntity
  8
1
  6
CONTINUOUS
 62
     7
100
AcDbLine
 10
146.8204249979451
 20
128.6513941043745
 30
0.0
 11
147.3279440354001
 21
128.6513941043745
 31
0.0
  0
LINE
  5
155
330
1F
100
AcDbEntity
  8
1
  6
CONTINUOUS
 62
     7
100
AcDbLine
 10
147.567966895453
 20
128.6513941043745
 30
0.0
 11
147.3279440354001
 21
128.6513941043745
 31
0.0
  0
LINE
  5
156
330
1F
100
AcDbEntity
  8
1
  6
CONTINUOUS
 62
     7
100
AcDbLine
 10
145.4391634849819
 20
128.6513941043745
 30
0.0
 11
146.8204249979451
 21
128.6513941043745
 31
0.0
  0
LINE
  5
157
330
1F
100
AcDbEntity
  8
1
  6
CONTINUOUS
 62
     7
100
AcDbLine
 10
144.9542015598919
 20
149.0600870548131
 30
0.0
 11
144.9542015598919
 21
141.1011204058738
 31
0.0
  0
ARC
  5
158
330
1F
100
AcDbEntity
  8
1
  6
CONTINUOUS
 62
     7
100
AcDbCircle
 10
-145.9542015598919
 20
149.0600870548131
 30
0.0
 40
1.000000000000001
210
0.0
220
0.0
230
-1.0
100
AcDbArc
 50
0.0
 51
53.99999999999996
  0
LINE
  5
159
330
1F
100
AcDbEntity
  8
1
  6
CONTINUOUS
 62
     7
100
AcDbLine
 10
144.9542015598919
 20
141.1011204058738
 30
0.0
 11
144.9542015598919
 21
128.6513941043745
 31
0.0
  0
LINE
  5
15A
330
1F
100
AcDbEntity
  8
1
  6
CONTINUOUS
 62
     7
100
AcDbLine
 10
144.9542015598919
 20
128.6513941043745
 30
0.0
 11
145.4391634849819
 21
128.6513941043745
 31
0.0
  0
LINE
  5
15B
330
1F
100
AcDbEntity
  8
1
  6
CONTINUOUS
 62
     7
100
AcDbLine
 10
143.567966895453
 20
132.6513941043745
 30
0.0
 11
144.9542015598919
 21
131.6513941043745
 31
0.0
  0
LINE
  5
15C
330
1F
100
AcDbEntity
  8
1
  6
CONTINUOUS
 62
     7
100
AcDbLine
 10
143.567966895453
 20
132.6513941043745
 30
0.0
 11
143.567966895453
 21
128.6513941043745
 31
0.0
  0
LINE
  5
15D
330
1F
100
AcDbEntity
  8
1
  6
CONTINUOUS
 62
     7
100
AcDbLine
 10
143.567966895453
 20
128.6513941043745
 30
0.0
 11
144.9542015598919
 21
128.6513941043745
 31
0.0
  0
SPLINE
  5
15E
330
1F
100
AcDbEntity
  8
1
  6
CONTINUOUS
 62
     7
100
AcDbSpline
210
0.0
220
0.0
230
1.0
 70
    24
 71
     1
 72
     4
 73
     2
 74
     0
 42
0.000000001
 43
0.0001
 40
0.3505061476770832
 40
0.3505061476770832
 40
0.3546500357000636
 40
0.3546500357000636
 10
143.4185218580454
 20
148.0868880430581
 30
0.0
 10
143.4364654195371
 20
148.0765283230006
 30
0.0
  0
SPLINE
  5
15F
330
1F
100
AcDbEntity
  8
1
  6
CONTINUOUS
 62
     7
100
AcDbSpline
210
0.0
220
0.0
230
1.0
 70
    24
 71
     1
 72
     4
 73
     2
 74
     0
 42
0.000000001
 43
0.0001
 40
0.3459760492536233
 40
0.3459760492536233
 40
0.3505061476770832
 40
0.3505061476770832
 10
143.4364654195371
 20
148.0765283230006
 30
0.0
 10
143.4560813211189
 20
148.065203076942
 30
0.0
  0
LINE
  5
160
330
1F
100
AcDbEntity
  8
1
  6
CONTINUOUS
 62
     7
100
AcDbLine
 10
143.4560813211189
 20
148.065203076942
 30
0.0
 11
144.9542015598919
 21
147.2002629538079
 31
0.0
  0
LINE
  5
161
330
1F
100
AcDbEntity
  8
1
  6
CONTINUOUS
 62
     7
100
AcDbLine
 10
142.8743754306626
 20
148.0585303705656
 30
0.0
 11
140.5137905659435
 21
146.3434650753814
 31
0.0
  0
LINE
  5
162
330
1F
100
AcDbEntity
  8
1
  6
CONTINUOUS
 62
     7
100
AcDbLine
 10
142.8204249979451
 20
128.6513941043745
 30
0.0
 11
143.3279440354001
 21
128.6513941043745
 31
0.0
  0
LINE
  5
163
330
1F
100
AcDbEntity
  8
1
  6
CONTINUOUS
 62
     7
100
AcDbLine
 10
143.567966895453
 20
128.6513941043745
 30
0.0
 11
143.3279440354001
 21
128.6513941043745
 31
0.0
  0
LINE
  5
164
330
1F
100
AcDbEntity
  8
1
  6
CONTINUOUS
 62
     7
100
AcDbLine
 10
140.1016138951718
 20
145.5431746165048
 30
0.0
 11
140.0538476525508
 21
140.0697053528123
 31
0.0
  0
ARC
  5
165
330
1F
100
AcDbEntity
  8
1
  6
CONTINUOUS
 62
     7
100
AcDbCircle
 10
-141.101575818236
 20
145.5344480810064
 30
0.0
 40
1.000000000000003
210
0.0
220
0.0
230
-1.0
100
AcDbArc
 50
0.4999999999992878
 51
54.00000000000001
  0
LINE
  5
166
330
1F
100
AcDbEntity
  8
1
  6
CONTINUOUS
 62
     7
100
AcDbLine
 10
140.0538476525508
 20
140.0697053528123
 30
0.0
 11
139.954201559892
 21
128.6513941043745
 31
0.0
  0
ARC
  5
167
330
1F
100
AcDbEntity
  8
1
  6
CONTINUOUS
 62
     7
100
AcDbCircle
 10
-157.0256642657631
 20
159.7513941043745
 30
0.0
 40
1.500000000000005
210
0.0
220
0.0
230
-1.0
100
AcDbArc
 50
0.5000000000003478
 51
89.99999999989363
  0
LINE
  5
168
330
1F
100
AcDbEntity
  8
1
  6
CONTINUOUS
 62
     7
100
AcDbLine
 10
155.5257213811669
 20
159.7644839076221
 30
0.0
 11
155.5251282366015
 21
159.6965162725403
 31
0.0
  0
ARC
  5
169
330
1F
100
AcDbEntity
  8
1
  6
CONTINUOUS
 62
     7
100
AcDbCircle
 10
-151.1682680568088
 20
153.466362097421
 30
0.0
 40
0.4999999999999912
210
0.0
220
0.0
230
-1.0
100
AcDbArc
 50
54.00000000000234
 51
120.0000000000016
  0
ARC
  5
16A
330
1F
100
AcDbEntity
  8
1
  6
CONTINUOUS
 62
     7
100
AcDbCircle
 10
-147.1682680568088
 20
150.5601919853996
 30
0.0
 40
0.4999999999999933
210
0.0
220
0.0
230
-1.0
100
AcDbArc
 50
53.99999999999747
 51
120.0000000000001
  0
ARC
  5
16B
330
1F
100
AcDbEntity
  8
1
  6
CONTINUOUS
 62
     7
100
AcDbCircle
 10
-143.1682680568088
 20
147.6540218733781
 30
0.0
 40
0.5000000000000158
210
0.0
220
0.0
230
-1.0
100
AcDbArc
 50
53.9999999999997
 51
120.0000000000008
  0
LINE
  5
16C
330
1F
100
AcDbEntity
  8
1
  6
CONTINUOUS
 62
     7
100
AcDbLine
 10
144.954201559892
 20
148.9515785155576
 30
0.0
 11
143.6110577327943
 21
147.9757274039432
 31
0.0
  0
LINE
  5
16D
330
1F
100
AcDbEntity
  8
1
  6
CONTINUOUS
 62
     7
100
AcDbLine
 10
148.954201559892
 20
151.857748627579
 30
0.0
 11
147.6110577327943
 21
150.8818975159647
 31
0.0
  0
LINE
  5
16E
330
1F
100
AcDbEntity
  8
1
  6
CONTINUOUS
 62
     7
100
AcDbLine
 10
152.954201559892
 20
154.7639187396005
 30
0.0
 11
151.6110577327942
 21
153.7880676279861
 31
0.0
  0
MTEXT
  5
16F
330
1F
100
AcDbEntity
  8
1
 62
     7
100
AcDbMText
 10
150.8534450418907
 20
87.90533950231337
 30
0.0
 40
10.0
 41
0.0
 71
     1
 72
     1
  1
{\fＭＳ ゴシック;MIDC-40}
  0
LINE
  5
170
330
1F
100
AcDbEntity
  8
1
  6
CONTINUOUS
 62
     7
100
AcDbLine
 10
92.5
 20
128.6513941043745
 30
0.0
 11
117.0
 21
128.6513941043745
 31
0.0
  0
LINE
  5
171
330
1F
100
AcDbEntity
  8
1
  6
CONTINUOUS
 62
     7
100
AcDbLine
 10
139.954201559892
 20
128.6513941043745
 30
0.0
 11
200.2542015598919
 21
128.6513941043745
 31
0.0
  0
LINE
  5
172
330
1F
100
AcDbEntity
  8
1
  6
CONTINUOUS
 62
     7
100
AcDbLine
 10
53.00000000000001
 20
128.6513941043745
 30
0.0
 11
77.5
 21
128.6513941043745
 31
0.0
  0
LINE
  5
173
330
1F
100
AcDbEntity
  8
1
  6
CONTINUOUS
 62
     7
100
AcDbLine
 10
69.79509756796395
 20
161.2513941043745
 30
0.0
 11
100.204902432036
 21
161.2513941043745
 31
0.0
  0
ENDSEC
  0
SECTION
  2
OBJECTS
  0
DICTIONARY
  5
C
330
0
100
AcDbDictionary
  3
ACAD_GROUP
350
D
  3
ACAD_LAYOUT
350
1A
  3
ACAD_MATERIAL
350
43
  3
ACAD_MLEADERSTYLE
350
6B
  3
ACAD_MLINESTYLE
350
17
  3
ACAD_PLOTSETTINGS
350
19
  3
ACAD_SCALELIST
350
47
  3
ACAD_VISUALSTYLE
350
2A
  3
ACDBHEADERROUNDTRIPXREC
350
174
  3
ACDBVARIABLEDICTIONARY
350
195
  0
DICTIONARY
  5
19C
330
8
100
AcDbDictionary
280
     1
  3
ACAD_XREC_ROUNDTRIP
360
19D
  0
DICTIONARY
  5
D
102
{ACAD_REACTORS
330
C
102
}
330
C
100
AcDbDictionary
  0
DICTIONARY
  5
1A
102
{ACAD_REACTORS
330
C
102
}
330
C
100
AcDbDictionary
  0
DICTIONARY
  5
43
102
{ACAD_REACTORS
330
C
102
}
330
C
100
AcDbDictionary
  3
BYBLOCK
350
45
  3
BYLAYER
350
44
  3
GLOBAL
350
46
  0
DICTIONARY
  5
6B
102
{ACAD_REACTORS
330
C
102
}
330
C
100
AcDbDictionary
  3
STANDARD
350
6C
  0
DICTIONARY
  5
17
102
{ACAD_REACTORS
330
C
102
}
330
C
100
AcDbDictionary
  3
STANDARD
350
18
  0
DICTIONARY
  5
19
102
{ACAD_REACTORS
330
C
102
}
330
C
100
AcDbDictionary
  0
DICTIONARY
  5
47
102
{ACAD_REACTORS
330
C
102
}
330
C
100
AcDbDictionary
  3
A0
350
48
  3
A1
350
49
  3
A2
350
4A
  3
A3
350
4B
  3
A4
350
4C
  3
A5
350
4D
  3
A6
350
4E
  3
A7
350
4F
  3
A8
350
50
  3
A9
350
51
  3
B0
350
52
  3
B1
350
53
  3
B2
350
54
  3
B3
350
55
  3
B4
350
56
  3
B5
350
57
  3
B6
350
58
  3
B7
350
59
  3
B8
350
5A
  3
B9
350
5B
  3
C0
350
5C
  3
C1
350
5D
  3
C2
350
5E
  3
C3
350
5F
  3
C4
350
60
  3
C5
350
61
  3
C6
350
62
  3
C7
350
63
  3
C8
350
64
  3
C9
350
65
  3
D0
350
66
  3
D1
350
67
  3
D2
350
68
  0
DICTIONARY
  5
2A
102
{ACAD_REACTORS
330
C
102
}
330
C
100
AcDbDictionary
  3
2DWIREFRAME
350
2F
  3
BASIC
350
32
  3
BRIGHTEN
350
36
  3
COLORCHANGE
350
3A
  3
CONCEPTUAL
350
34
  3
DIM
350
35
  3
EDGECOLOROFF
350
3D
  3
FACEPATTERN
350
39
  3
FLAT
350
2B
  3
FLATWITHEDGES
350
2C
  3
GOURAUD
350
2D
  3
GOURAUDWITHEDGES
350
2E
  3
HIDDEN
350
31
  3
JITTEROFF
350
3B
  3
LINEPATTERN
350
38
  3
OVERHANGOFF
350
3C
  3
REALISTIC
350
33
  3
SHADED
350
42
  3
SHADED_WITH_EDGES
350
41
  3
SHADES_OF_GRAY
350
3E
  3
SKETCHY
350
3F
  3
THICKEN
350
37
  3
WIREFRAME
350
30
  3
X-RAY
350
40
  0
DICTIONARY
  5
174
102
{ACAD_REACTORS
330
C
102
}
330
C
100
AcDbDictionary
  3
CEPSNID
350
17E
  3
CEPSNTYPE
350
17D
  3
DIMSTYLEDATA
350
194
  3
FINGERPRINTGUID
350
17F
  3
HYPERLINKBASE
350
177
  3
INSUNITS
350
17C
  3
LAYOUTDICT
350
179
  3
LWETCUNION
350
17B
  3
PLOTSETDICT
350
17A
  3
PSVPSCALE
350
181
  3
PUCSBASE
350
184
  3
PUCSORGBACK
350
18A
  3
PUCSORGBOTTOM
350
186
  3
PUCSORGFRONT
350
189
  3
PUCSORGLEFT
350
187
  3
PUCSORGRIGHT
350
188
  3
PUCSORGTOP
350
185
  3
PUCSORTHOREF
350
182
  3
PUCSORTHOVIEW
350
183
  3
STYLESHEET
350
178
  3
TSTACKALIGN
350
175
  3
TSTACKSIZE
350
176
  3
UCSBASE
350
18D
  3
UCSORGBACK
350
193
  3
UCSORGBOTTOM
350
18F
  3
UCSORGFRONT
350
192
  3
UCSORGLEFT
350
190
  3
UCSORGRIGHT
350
191
  3
UCSORGTOP
350
18E
  3
UCSORTHOREF
350
18B
  3
UCSORTHOVIEW
350
18C
  3
VERSIONGUID
350
180
  0
DICTIONARY
  5
195
102
{ACAD_REACTORS
330
C
102
}
330
C
100
AcDbDictionary
  3
CANNOSCALE
350
19E
  3
CMLEADERSTYLE
350
197
  3
CTABLESTYLE
350
196
  3
DIMASSOC
350
19A
  3
HIDETEXT
350
19B
  3
MSLTSCALE
350
19F
  0
XRECORD
  5
19D
102
{ACAD_REACTORS
330
19C
102
}
330
19C
100
AcDbXrecord
102
VTR_0.000_0.000_1.000_1.000_VISUALSTYLE
340
2F
102
VTR_0.000_0.000_1.000_1.000_GRIDDISPLAY
 70
     3
102
VTR_0.000_0.000_1.000_1.000_GRIDMAJOR
 70
     5
102
VTR_0.000_0.000_1.000_1.000_DEFAULTLIGHTING
280
     1
102
VTR_0.000_0.000_1.000_1.000_DEFAULTLIGHTINGTYPE
 70
     1
102
VTR_0.000_0.000_1.000_1.000_BRIGHTNESS
141
0.0
102
VTR_0.000_0.000_1.000_1.000_CONTRAST
142
0.0
  0
MATERIAL
  5
45
102
{ACAD_REACTORS
330
43
102
}
102
{ACAD_XDICTIONARY
360
1A2
102
}
330
43
100
AcDbMaterial
  1
BYBLOCK
  0
MATERIAL
  5
44
102
{ACAD_REACTORS
330
43
102
}
102
{ACAD_XDICTIONARY
360
1A0
102
}
330
43
100
AcDbMaterial
  1
BYLAYER
  0
MATERIAL
  5
46
102
{ACAD_REACTORS
330
43
102
}
102
{ACAD_XDICTIONARY
360
1A4
102
}
330
43
100
AcDbMaterial
  1
GLOBAL
  0
ACAD_PROXY_OBJECT
  5
6C
102
{ACAD_REACTORS
330
6B
102
}
330
6B
100
AcDbProxyObject
 90
      499
 91
      505
 93
      610
310
40901902A4063FBFFFFFE056BD1B81E855B9FC0AD7A3703D0AD73F4214DD185B99185C9900AD7A3703D0AC73F90141901A02B5E8DC0F42B1CFC02B5E8DC0F42B1CFE5764000000000000300FC0
340
14
340
0
340
11
340
0
 94
        0
1001
ACAD_MLEADERVER
1070
     2
  0
MLINESTYLE
  5
18
102
{ACAD_REACTORS
330
17
102
}
330
17
100
AcDbMlineStyle
  2
Standard
 70
     0
  3

 62
   256
 51
90.0
 52
90.0
 71
     2
 49
0.5
 62
   256
  6
BYLAYER
 49
-0.5
 62
   256
  6
BYLAYER
  0
ACAD_PROXY_OBJECT
  5
48
102
{ACAD_REACTORS
330
47
102
}
330
47
100
AcDbProxyObject
 90
      499
 91
      503
 93
       41
310
903313A31580
  0
ACAD_PROXY_OBJECT
  5
49
102
{ACAD_REACTORS
330
47
102
}
330
47
100
AcDbProxyObject
 90
      499
 91
      503
 93
      105
310
903313A324000000000000004000
  0
ACAD_PROXY_OBJECT
  5
4A
102
{ACAD_REACTORS
330
47
102
}
330
47
100
AcDbProxyObject
 90
      499
 91
      503
 93
      105
310
903313A344000000000000104000
  0
ACAD_PROXY_OBJECT
  5
4B
102
{ACAD_REACTORS
330
47
102
}
330
47
100
AcDbProxyObject
 90
      499
 91
      503
 93
      105
310
903313A354000000000000144000
  0
ACAD_PROXY_OBJECT
  5
4C
102
{ACAD_REACTORS
330
47
102
}
330
47
100
AcDbProxyObject
 90
      499
 91
      503
 93
      105
310
903313A384000000000000204000
  0
ACAD_PROXY_OBJECT
  5
4D
102
{ACAD_REACTORS
330
47
102
}
330
47
100
AcDbProxyObject
 90
      499
 91
      503
 93
      113
310
904313A31304000000000000244000
  0
ACAD_PROXY_OBJECT
  5
4E
102
{ACAD_REACTORS
330
47
102
}
330
47
100
AcDbProxyObject
 90
      499
 91
      503
 93
      113
310
904313A31364000000000000304000
  0
ACAD_PROXY_OBJECT
  5
4F
102
{ACAD_REACTORS
330
47
102
}
330
47
100
AcDbProxyObject
 90
      499
 91
      503
 93
      113
310
904313A32304000000000000344000
  0
ACAD_PROXY_OBJECT
  5
50
102
{ACAD_REACTORS
330
47
102
}
330
47
100
AcDbProxyObject
 90
      499
 91
      503
 93
      113
310
904313A333040000000000003E4000
  0
ACAD_PROXY_OBJECT
  5
51
102
{ACAD_REACTORS
330
47
102
}
330
47
100
AcDbProxyObject
 90
      499
 91
      503
 93
      113
310
904313A34304000000000000444000
  0
ACAD_PROXY_OBJECT
  5
52
102
{ACAD_REACTORS
330
47
102
}
330
47
100
AcDbProxyObject
 90
      499
 91
      503
 93
      113
310
904313A35304000000000000494000
  0
ACAD_PROXY_OBJECT
  5
53
102
{ACAD_REACTORS
330
47
102
}
330
47
100
AcDbProxyObject
 90
      499
 91
      503
 93
      121
310
905313A3130304000000000000594000
  0
ACAD_PROXY_OBJECT
  5
54
102
{ACAD_REACTORS
330
47
102
}
330
47
100
AcDbProxyObject
 90
      499
 91
      503
 93
      105
310
903323A310000000000000010100
  0
ACAD_PROXY_OBJECT
  5
55
102
{ACAD_REACTORS
330
47
102
}
330
47
100
AcDbProxyObject
 90
      499
 91
      503
 93
      105
310
903343A310000000000000410100
  0
ACAD_PROXY_OBJECT
  5
56
102
{ACAD_REACTORS
330
47
102
}
330
47
100
AcDbProxyObject
 90
      499
 91
      503
 93
      105
310
903383A310000000000000810100
  0
ACAD_PROXY_OBJECT
  5
57
102
{ACAD_REACTORS
330
47
102
}
330
47
100
AcDbProxyObject
 90
      499
 91
      503
 93
      113
310
90431303A310000000000000910100
  0
ACAD_PROXY_OBJECT
  5
58
102
{ACAD_REACTORS
330
47
102
}
330
47
100
AcDbProxyObject
 90
      499
 91
      503
 93
      121
310
9053130303A310000000000001650100
  0
ACAD_PROXY_OBJECT
  5
59
102
{ACAD_REACTORS
330
47
102
}
330
47
100
AcDbProxyObject
 90
      499
 91
      503
 93
      257
310
90E312F31323822203D2031272D3022000000000000200FC000000000000284000
  0
ACAD_PROXY_OBJECT
  5
5A
102
{ACAD_REACTORS
330
47
102
}
330
47
100
AcDbProxyObject
 90
      499
 91
      503
 93
      249
310
90D312F363422203D2031272D3022000000000000240FC000000000000284000
  0
ACAD_PROXY_OBJECT
  5
5B
102
{ACAD_REACTORS
330
47
102
}
330
47
100
AcDbProxyObject
 90
      499
 91
      503
 93
      249
310
90D312F333222203D2031272D3022000000000000280FC000000000000284000
  0
ACAD_PROXY_OBJECT
  5
5C
102
{ACAD_REACTORS
330
47
102
}
330
47
100
AcDbProxyObject
 90
      499
 91
      503
 93
      249
310
90D312F313622203D2031272D30220000000000002C0FC000000000000284000
  0
ACAD_PROXY_OBJECT
  5
5D
102
{ACAD_REACTORS
330
47
102
}
330
47
100
AcDbProxyObject
 90
      499
 91
      503
 93
      249
310
90D332F333222203D2031272D30220000000000002E0FC000000000000284000
  0
ACAD_PROXY_OBJECT
  5
5E
102
{ACAD_REACTORS
330
47
102
}
330
47
100
AcDbProxyObject
 90
      499
 91
      503
 93
      241
310
90C312F3822203D2031272D3022000000000000300FC000000000000284000
  0
ACAD_PROXY_OBJECT
  5
5F
102
{ACAD_REACTORS
330
47
102
}
330
47
100
AcDbProxyObject
 90
      499
 91
      503
 93
      249
310
90D332F313622203D2031272D3022000000000000320FC000000000000284000
  0
ACAD_PROXY_OBJECT
  5
60
102
{ACAD_REACTORS
330
47
102
}
330
47
100
AcDbProxyObject
 90
      499
 91
      503
 93
      241
310
90C312F3422203D2031272D3022000000000000340FC000000000000284000
  0
ACAD_PROXY_OBJECT
  5
61
102
{ACAD_REACTORS
330
47
102
}
330
47
100
AcDbProxyObject
 90
      499
 91
      503
 93
      241
310
90C332F3822203D2031272D3022000000000000360FC000000000000284000
  0
ACAD_PROXY_OBJECT
  5
62
102
{ACAD_REACTORS
330
47
102
}
330
47
100
AcDbProxyObject
 90
      499
 91
      503
 93
      241
310
90C312F3222203D2031272D3022000000000000380FC000000000000284000
  0
ACAD_PROXY_OBJECT
  5
63
102
{ACAD_REACTORS
330
47
102
}
330
47
100
AcDbProxyObject
 90
      499
 91
      503
 93
      241
310
90C332F3422203D2031272D30220000000000003A0FC000000000000284000
  0
ACAD_PROXY_OBJECT
  5
64
102
{ACAD_REACTORS
330
47
102
}
330
47
100
AcDbProxyObject
 90
      499
 91
      503
 93
      161
310
90A3122203D2031272D30224000000000000284000
  0
ACAD_PROXY_OBJECT
  5
65
102
{ACAD_REACTORS
330
47
102
}
330
47
100
AcDbProxyObject
 90
      499
 91
      503
 93
      257
310
90E312D312F3222203D2031272D30220000000000003E0FC000000000000284000
  0
ACAD_PROXY_OBJECT
  5
66
102
{ACAD_REACTORS
330
47
102
}
330
47
100
AcDbProxyObject
 90
      499
 91
      503
 93
      225
310
90A3322203D2031272D302200000000000002100000000000000284000
  0
ACAD_PROXY_OBJECT
  5
67
102
{ACAD_REACTORS
330
47
102
}
330
47
100
AcDbProxyObject
 90
      499
 91
      503
 93
      225
310
90A3622203D2031272D302200000000000006100000000000000284000
  0
ACAD_PROXY_OBJECT
  5
68
102
{ACAD_REACTORS
330
47
102
}
330
47
100
AcDbProxyObject
 90
      499
 91
      503
 93
      249
310
90D31272D3022203D2031272D30220000000000000A100000000000000284000
  0
ACAD_PROXY_OBJECT
  5
2F
102
{ACAD_REACTORS
330
2A
102
}
330
2A
100
AcDbProxyObject
 90
      499
 91
      501
 93
      436
310
42CC9915DA5C99599C985B595049028333333333333E33F0000000000000F90107901411070040501600405405064090741402480A0340
1001
ACAD
1000
AcDbSavedByObjectVersion
1070
     0
  0
ACAD_PROXY_OBJECT
  5
32
102
{ACAD_REACTORS
330
2A
102
}
330
2A
100
AcDbProxyObject
 90
      499
 91
      501
 93
      388
310
4150985CDA58D07406404333333333333E33F0000000000000F90107A41107004050150841D405064090741402480A0350
1001
ACAD
1000
AcDbSavedByObjectVersion
1070
     0
  0
ACAD_PROXY_OBJECT
  5
36
102
{ACAD_REACTORS
330
2A
102
}
330
2A
100
AcDbProxyObject
 90
      499
 91
      501
 93
      428
310
42109C9A59DA1D195B90C409028333333333333E33F0000000000000F9010790141107004050150841D405064090741402480A029950
1001
ACAD
1000
AcDbSavedByObjectVersion
1070
     0
  0
ACAD_PROXY_OBJECT
  5
3A
102
{ACAD_REACTORS
330
2A
102
}
330
2A
100
AcDbProxyObject
 90
      499
 91
      501
 93
      452
310
42D0DBDB1BDC90DA185B99D95104090240C333333333333E33F0000000000000F90108901411070040501508421405064090741402480A0350
1001
ACAD
1000
AcDbSavedByObjectVersion
1070
     0
  0
ACAD_PROXY_OBJECT
  5
34
102
{ACAD_REACTORS
330
2A
102
}
330
2A
100
AcDbProxyObject
 90
      499
 91
      501
 93
      500
310
4290DBDB98D95C1D1D585B10940D028333333333333E33F0000000000000F90107902409070040501000000000018199010841D405064090740C02480A0340
1001
ACAD
1000
AcDbSavedByObjectVersion
1070
     0
  0
ACAD_PROXY_OBJECT
  5
35
102
{ACAD_REACTORS
330
2A
102
}
330
2A
100
AcDbProxyObject
 90
      499
 91
      501
 93
      412
310
40D11A5B50B409028333333333333E33F0000000000000F9010790141107004050150841D405064090741402480A02677FFFFFD0
1001
ACAD
1000
AcDbSavedByObjectVersion
1070
     0
  0
ACAD_PROXY_OBJECT
  5
3D
102
{ACAD_REACTORS
330
2A
102
}
330
2A
100
AcDbProxyObject
 90
      499
 91
      501
 93
      452
310
43115919D950DBDB1BDC93D999916409028333333333333E33F0000000000000F9010790141107004050150841D405064090741402480A0350
1001
ACAD
1000
AcDbSavedByObjectVersion
1070
     0
  0
ACAD_PROXY_OBJECT
  5
39
102
{ACAD_REACTORS
330
2A
102
}
330
2A
100
AcDbProxyObject
 90
      499
 91
      501
 93
      444
310
42D19858D95C185D1D195C9B90F409028333333333333E33F0000000000000F9010790141107004050150841D405064090741402480A0350
1001
ACAD
1000
AcDbSavedByObjectVersion
1070
     0
  0
ACAD_PROXY_OBJECT
  5
2B
102
{ACAD_REACTORS
330
2A
102
}
330
2A
100
AcDbProxyObject
 90
      499
 91
      501
 93
      380
310
41119B185D240901404333333333333E33F0000000000000F9010740A907004050150841D405064090741402480A1B50
1001
ACAD
1000
AcDbSavedByObjectVersion
1070
     0
  0
ACAD_PROXY_OBJECT
  5
2C
102
{ACAD_REACTORS
330
2A
102
}
330
2A
100
AcDbProxyObject
 90
      499
 91
      501
 93
      468
310
43519B185D15DA5D1A115919D95CD0140901404333333333333E33F0000000000000F90107409019070040501600405405064090741402480A1B50
1001
ACAD
1000
AcDbSavedByObjectVersion
1070
     0
  0
ACAD_PROXY_OBJECT
  5
2D
102
{ACAD_REACTORS
330
2A
102
}
330
2A
100
AcDbProxyObject
 90
      499
 91
      501
 93
      404
310
41D1DBDD5C985D5910240902404333333333333E33F0000000000000F9010740A9070040501641D405064090741402480A1B50
1001
ACAD
1000
AcDbSavedByObjectVersion
1070
     0
  0
ACAD_PROXY_OBJECT
  5
2E
102
{ACAD_REACTORS
330
2A
102
}
330
2A
100
AcDbProxyObject
 90
      499
 91
      501
 93
      492
310
4411DBDD5C985D5915DA5D1A115919D95CD0340902404333333333333E33F0000000000000F90107409019070040501600405405064090741402480A1B50
1001
ACAD
1000
AcDbSavedByObjectVersion
1070
     0
  0
ACAD_PROXY_OBJECT
  5
31
102
{ACAD_REACTORS
330
2A
102
}
330
2A
100
AcDbProxyObject
 90
      499
 91
      501
 93
      476
310
41921A5919195B90640502408333333333333E33F0000000000000F901079024090700405020000000000001110200405405064090740C02480A0340
1001
ACAD
1000
AcDbSavedByObjectVersion
1070
     0
  0
ACAD_PROXY_OBJECT
  5
3B
102
{ACAD_REACTORS
330
2A
102
}
330
2A
100
AcDbProxyObject
 90
      499
 91
      501
 93
      428
310
42529A5D1D195C93D999914409028333333333333E33F0000000000000F9010790141107004050150A41D405064090741402480A0350
1001
ACAD
1000
AcDbSavedByObjectVersion
1070
     0
  0
ACAD_PROXY_OBJECT
  5
38
102
{ACAD_REACTORS
330
2A
102
}
330
2A
100
AcDbProxyObject
 90
      499
 91
      501
 93
      444
310
42D31A5B995C185D1D195C9B90E409028333333333333E33F0000000000000F9010790141107004050750841D405064090741402483A0350
1001
ACAD
1000
AcDbSavedByObjectVersion
1070
     0
  0
ACAD_PROXY_OBJECT
  5
3C
102
{ACAD_REACTORS
330
2A
102
}
330
2A
100
AcDbProxyObject
 90
      499
 91
      501
 93
      444
310
42D3DD995C9A185B99D3D999915409028333333333333E33F0000000000000F9010790141107004050150941D405064090741402480A0350
1001
ACAD
1000
AcDbSavedByObjectVersion
1070
     0
  0
ACAD_PROXY_OBJECT
  5
33
102
{ACAD_REACTORS
330
2A
102
}
330
2A
100
AcDbProxyObject
 90
      499
 91
      501
 93
      428
310
425499585B1A5CDD1A58D08409038333333333333E33F0000000000000F9010740A907004050150800405405064090740C02480A1B40
1001
ACAD
1000
AcDbSavedByObjectVersion
1070
     0
  0
ACAD_PROXY_OBJECT
  5
42
102
{ACAD_REACTORS
330
2A
102
}
330
2A
100
AcDbProxyObject
 90
      499
 91
      501
 93
      420
310
4194DA1859195911B40902404333333333333E33F0000000000000F9010740A41107004050150800405405064090840C02480A0B40
1001
ACAD
1000
AcDbSavedByObjectVersion
1070
     0
  0
ACAD_PROXY_OBJECT
  5
41
102
{ACAD_REACTORS
330
2A
102
}
330
2A
100
AcDbProxyObject
 90
      499
 91
      501
 93
      516
310
4454DA18591959081DDA5D1A08195919D95CD1A40902404333333333333E33F0000000000000F901074090142907004050250800405405064090740C02480A0B40
1001
ACAD
1000
AcDbSavedByObjectVersion
1070
     0
  0
ACAD_PROXY_OBJECT
  5
3E
102
{ACAD_REACTORS
330
2A
102
}
330
2A
100
AcDbProxyObject
 90
      499
 91
      501
 93
      532
310
4394DA1859195CC81BD98811DC985E5174090240C333333333333E33F0000000000000F901079024090741D01000000000000111010841D405064090740C02480A0340
1001
ACAD
1000
AcDbSavedByObjectVersion
1070
     0
  0
ACAD_PROXY_OBJECT
  5
3F
102
{ACAD_REACTORS
330
2A
102
}
330
2A
100
AcDbProxyObject
 90
      499
 91
      501
 93
      476
310
41D4DAD95D18DA1E51840502408333333333333E33F0000000000000F901079024090741D01000000000000111010B41D405064090741802480A0340
1001
ACAD
1000
AcDbSavedByObjectVersion
1070
     0
  0
ACAD_PROXY_OBJECT
  5
37
102
{ACAD_REACTORS
330
2A
102
}
330
2A
100
AcDbProxyObject
 90
      499
 91
      501
 93
      412
310
41D51A1A58DAD95B90D409028333333333333E33F0000000000000F9010790141107004050150C41D405064090741402480A0350
1001
ACAD
1000
AcDbSavedByObjectVersion
1070
     0
  0
ACAD_PROXY_OBJECT
  5
30
102
{ACAD_REACTORS
330
2A
102
}
330
2A
100
AcDbProxyObject
 90
      499
 91
      501
 93
      420
310
4255DA5C99599C985B595059028333333333333E33F0000000000000F90107901411070040501600405405064090740C02480A0340
1001
ACAD
1000
AcDbSavedByObjectVersion
1070
     0
  0
ACAD_PROXY_OBJECT
  5
40
102
{ACAD_REACTORS
330
2A
102
}
330
2A
100
AcDbProxyObject
 90
      499
 91
      501
 93
      404
310
41560B54985E51940902404000000000000E03F0000000000000F9010740501907004050150841D405064090740C02480A1B40
1001
ACAD
1000
AcDbSavedByObjectVersion
1070
     0
  0
XRECORD
  5
17E
102
{ACAD_REACTORS
330
174
102
}
330
174
100
AcDbXrecord
340
0
  0
XRECORD
  5
17D
102
{ACAD_REACTORS
330
174
102
}
330
174
100
AcDbXrecord
 90
        0
  0
XRECORD
  5
194
102
{ACAD_REACTORS
330
174
102
}
330
174
100
AcDbXrecord
1000
DSTYLE
1002
{
1070
   179
 70
     2
1070
   171
 70
     2
1070
   143
 40
25.4
1070
   274
 70
     2
1070
    41
 40
3.0
1070
   141
 40
0.09
1070
    43
 40
0.38
1070
   278
 70
    46
1070
    44
 40
1.5
1070
    42
 40
0.0625
1070
   147
 40
1.5
1070
   272
 70
     4
1070
    73
 70
     1
1070
   172
 70
     0
1070
    74
 70
     1
1070
   283
 70
     1
1070
   340
340
6F
1070
   140
 40
3.0
1070
   284
 70
     0
1070
    78
 70
     0
1002
}
  0
XRECORD
  5
17F
102
{ACAD_REACTORS
330
174
102
}
330
174
100
AcDbXrecord
  1
{12830019-0ED5-4687-BDF0-2E31FCE3BC75}
  0
XRECORD
  5
177
102
{ACAD_REACTORS
330
174
102
}
330
174
100
AcDbXrecord
  1

  0
XRECORD
  5
17C
102
{ACAD_REACTORS
330
174
102
}
330
174
100
AcDbXrecord
 90
        4
  0
XRECORD
  5
179
102
{ACAD_REACTORS
330
174
102
}
330
174
100
AcDbXrecord
340
1A
  0
XRECORD
  5
17B
102
{ACAD_REACTORS
330
174
102
}
330
174
100
AcDbXrecord
 90
    10269
  0
XRECORD
  5
17A
102
{ACAD_REACTORS
330
174
102
}
330
174
100
AcDbXrecord
340
19
  0
XRECORD
  5
181
102
{ACAD_REACTORS
330
174
102
}
330
174
100
AcDbXrecord
 40
0.0
  0
XRECORD
  5
184
102
{ACAD_REACTORS
330
174
102
}
330
174
100
AcDbXrecord
340
0
  0
XRECORD
  5
18A
102
{ACAD_REACTORS
330
174
102
}
330
174
100
AcDbXrecord
 10
0.0
 20
0.0
 30
0.0
  0
XRECORD
  5
186
102
{ACAD_REACTORS
330
174
102
}
330
174
100
AcDbXrecord
 10
0.0
 20
0.0
 30
0.0
  0
XRECORD
  5
189
102
{ACAD_REACTORS
330
174
102
}
330
174
100
AcDbXrecord
 10
0.0
 20
0.0
 30
0.0
  0
XRECORD
  5
187
102
{ACAD_REACTORS
330
174
102
}
330
174
100
AcDbXrecord
 10
0.0
 20
0.0
 30
0.0
  0
XRECORD
  5
188
102
{ACAD_REACTORS
330
174
102
}
330
174
100
AcDbXrecord
 10
0.0
 20
0.0
 30
0.0
  0
XRECORD
  5
185
102
{ACAD_REACTORS
330
174
102
}
330
174
100
AcDbXrecord
 10
0.0
 20
0.0
 30
0.0
  0
XRECORD
  5
182
102
{ACAD_REACTORS
330
174
102
}
330
174
100
AcDbXrecord
340
0
  0
XRECORD
  5
183
102
{ACAD_REACTORS
330
174
102
}
330
174
100
AcDbXrecord
 70
     0
  0
XRECORD
  5
178
102
{ACAD_REACTORS
330
174
102
}
330
174
100
AcDbXrecord
  1

  0
XRECORD
  5
175
102
{ACAD_REACTORS
330
174
102
}
330
174
100
AcDbXrecord
 90
        1
  0
XRECORD
  5
176
102
{ACAD_REACTORS
330
174
102
}
330
174
100
AcDbXrecord
 90
       70
  0
XRECORD
  5
18D
102
{ACAD_REACTORS
330
174
102
}
330
174
100
AcDbXrecord
340
0
  0
XRECORD
  5
193
102
{ACAD_REACTORS
330
174
102
}
330
174
100
AcDbXrecord
 10
0.0
 20
0.0
 30
0.0
  0
XRECORD
  5
18F
102
{ACAD_REACTORS
330
174
102
}
330
174
100
AcDbXrecord
 10
0.0
 20
0.0
 30
0.0
  0
XRECORD
  5
192
102
{ACAD_REACTORS
330
174
102
}
330
174
100
AcDbXrecord
 10
0.0
 20
0.0
 30
0.0
  0
XRECORD
  5
190
102
{ACAD_REACTORS
330
174
102
}
330
174
100
AcDbXrecord
 10
0.0
 20
0.0
 30
0.0
  0
XRECORD
  5
191
102
{ACAD_REACTORS
330
174
102
}
330
174
100
AcDbXrecord
 10
0.0
 20
0.0
 30
0.0
  0
XRECORD
  5
18E
102
{ACAD_REACTORS
330
174
102
}
330
174
100
AcDbXrecord
 10
0.0
 20
0.0
 30
0.0
  0
XRECORD
  5
18B
102
{ACAD_REACTORS
330
174
102
}
330
174
100
AcDbXrecord
340
0
  0
XRECORD
  5
18C
102
{ACAD_REACTORS
330
174
102
}
330
174
100
AcDbXrecord
 70
     0
  0
XRECORD
  5
180
102
{ACAD_REACTORS
330
174
102
}
330
174
100
AcDbXrecord
  1
{FAEB1C32-E019-11D5-929B-00C0DF256EC4}
  0
DICTIONARYVAR
  5
19E
102
{ACAD_REACTORS
330
195
102
}
330
195
100
DictionaryVariables
280
     0
  1
1:1
  0
DICTIONARYVAR
  5
197
102
{ACAD_REACTORS
330
195
102
}
330
195
100
DictionaryVariables
280
     0
  1
Standard
  0
DICTIONARYVAR
  5
196
102
{ACAD_REACTORS
330
195
102
}
330
195
100
DictionaryVariables
280
     0
  1
Standard
  0
DICTIONARYVAR
  5
19A
102
{ACAD_REACTORS
330
195
102
}
330
195
100
DictionaryVariables
280
     0
  1
2
  0
DICTIONARYVAR
  5
19B
102
{ACAD_REACTORS
330
195
102
}
330
195
100
DictionaryVariables
280
     0
  1
1
  0
DICTIONARYVAR
  5
19F
102
{ACAD_REACTORS
330
195
102
}
330
195
100
DictionaryVariables
280
     0
  1
1
  0
DICTIONARY
  5
1A2
330
45
100
AcDbDictionary
280
     1
  3
ACAD_XREC_ROUNDTRIP
360
1A3
  0
DICTIONARY
  5
1A0
330
44
100
AcDbDictionary
280
     1
  3
ACAD_XREC_ROUNDTRIP
360
1A1
  0
DICTIONARY
  5
1A4
330
46
100
AcDbDictionary
280
     1
  3
ACAD_XREC_ROUNDTRIP
360
1A5
  0
XRECORD
  5
1A3
102
{ACAD_REACTORS
330
1A2
102
}
330
1A2
100
AcDbXrecord
102
MATERIAL
148
0.0
149
0.0
149
0.0
 93
        0
 94
      127
282
     0
 72
     1
 77
     1
171
     1
175
     1
179
     1
273
     0
  0
XRECORD
  5
1A1
102
{ACAD_REACTORS
330
1A0
102
}
330
1A0
100
AcDbXrecord
102
MATERIAL
148
0.0
149
0.0
149
0.0
 93
        0
 94
      127
282
     0
 72
     1
 77
     1
171
     1
175
     1
179
     1
273
     0
  0
XRECORD
  5
1A5
102
{ACAD_REACTORS
330
1A4
102
}
330
1A4
100
AcDbXrecord
102
MATERIAL
148
0.0
149
0.0
149
0.0
 93
        0
 94
      127
282
     0
 72
     1
 77
     1
171
     1
175
     1
179
     1
273
     0
  0
ENDSEC
  0
EOF
