  0
SECTION
  2
HEADER
  9
$ACADVER
  1
AC1014
  9
$ACADMAINTVER
 70
     9
  9
$DWGCODEPAGE
  3
ANSI_932
  9
$INSBASE
 10
0.0
 20
0.0
 30
0.0
  9
$EXTMIN
 10
38.6349291404745
 20
28.74855065505561
 30
0.0
  9
$EXTMAX
 10
221.2514493449444
 20
171.4674414706698
 30
0.0
  9
$LIMMIN
 10
0.0
 20
0.0
  9
$LIMMAX
 10
12.0
 20
9.0
  9
$ORTHOMODE
 70
     0
  9
$REGENMODE
 70
     1
  9
$FILLMODE
 70
     1
  9
$QTEXTMODE
 70
     0
  9
$MIRRTEXT
 70
     1
  9
$DRAGMODE
 70
     2
  9
$LTSCALE
 40
1.0
  9
$OSMODE
 70
    37
  9
$ATTMODE
 70
     1
  9
$TEXTSIZE
 40
0.2
  9
$TRACEWID
 40
0.05
  9
$TEXTSTYLE
  7
STANDARD
  9
$CLAYER
  8
0
  9
$CELTYPE
  6
BYLAYER
  9
$CECOLOR
 62
   256
  9
$CELTSCALE
 40
1.0
  9
$DELOBJ
 70
     1
  9
$DISPSILH
 70
     0
  9
$DIMSCALE
 40
1.0
  9
$DIMASZ
 40
3.0
  9
$DIMEXO
 40
0.0625
  9
$DIMDLI
 40
0.38
  9
$DIMRND
 40
0.0
  9
$DIMDLE
 40
0.0
  9
$DIMEXE
 40
1.5
  9
$DIMTP
 40
0.0
  9
$DIMTM
 40
0.0
  9
$DIMTXT
 40
3.0
  9
$DIMCEN
 40
0.09
  9
$DIMTSZ
 40
0.0
  9
$DIMTOL
 70
     0
  9
$DIMLIM
 70
     0
  9
$DIMTIH
 70
     1
  9
$DIMTOH
 70
     1
  9
$DIMSE1
 70
     0
  9
$DIMSE2
 70
     0
  9
$DIMTAD
 70
     1
  9
$DIMZIN
 70
     0
  9
$DIMBLK
  1

  9
$DIMASO
 70
     1
  9
$DIMSHO
 70
     1
  9
$DIMPOST
  1

  9
$DIMAPOST
  1

  9
$DIMALT
 70
     0
  9
$DIMALTD
 70
     2
  9
$DIMALTF
 40
25.4
  9
$DIMLFAC
 40
1.0
  9
$DIMTOFL
 70
     0
  9
$DIMTVP
 40
0.0
  9
$DIMTIX
 70
     0
  9
$DIMSOXD
 70
     0
  9
$DIMSAH
 70
     0
  9
$DIMBLK1
  1

  9
$DIMBLK2
  1

  9
$DIMSTYLE
  2
STANDARD
  9
$DIMCLRD
 70
     0
  9
$DIMCLRE
 70
     0
  9
$DIMCLRT
 70
     0
  9
$DIMTFAC
 40
1.0
  9
$DIMGAP
 40
1.5
  9
$DIMJUST
 70
     0
  9
$DIMSD1
 70
     0
  9
$DIMSD2
 70
     0
  9
$DIMTOLJ
 70
     1
  9
$DIMTZIN
 70
     0
  9
$DIMALTZ
 70
     0
  9
$DIMALTTZ
 70
     0
  9
$DIMFIT
 70
     3
  9
$DIMUPT
 70
     0
  9
$DIMUNIT
 70
     2
  9
$DIMDEC
 70
     2
  9
$DIMTDEC
 70
     4
  9
$DIMALTU
 70
     2
  9
$DIMALTTD
 70
     2
  9
$DIMTXSTY
  7
ＭＳ_ゴシック
  9
$DIMAUNIT
 70
     0
  9
$LUNITS
 70
     2
  9
$LUPREC
 70
     4
  9
$SKETCHINC
 40
0.1
  9
$FILLETRAD
 40
0.5
  9
$AUNITS
 70
     0
  9
$AUPREC
 70
     0
  9
$MENU
  1
.
  9
$ELEVATION
 40
0.0
  9
$PELEVATION
 40
0.0
  9
$THICKNESS
 40
0.0
  9
$LIMCHECK
 70
     0
  9
$CHAMFERA
 40
0.0
  9
$CHAMFERB
 40
0.0
  9
$CHAMFERC
 40
0.0
  9
$CHAMFERD
 40
0.0
  9
$SKPOLY
 70
     0
  9
$TDCREATE
 40
2459230.554348565
  9
$TDUPDATE
 40
2459230.55434875
  9
$TDINDWG
 40
0.0000000116
  9
$TDUSRTIMER
 40
0.0000000116
  9
$USRTIMER
 70
     1
  9
$ANGBASE
 50
0.0
  9
$ANGDIR
 70
     0
  9
$PDMODE
 70
     0
  9
$PDSIZE
 40
0.0
  9
$PLINEWID
 40
0.0
  9
$COORDS
 70
     1
  9
$SPLFRAME
 70
     0
  9
$SPLINETYPE
 70
     6
  9
$SPLINESEGS
 70
     8
  9
$ATTDIA
 70
     0
  9
$ATTREQ
 70
     1
  9
$HANDLING
 70
     1
  9
$HANDSEED
  5
1A7
  9
$SURFTAB1
 70
     6
  9
$SURFTAB2
 70
     6
  9
$SURFTYPE
 70
     6
  9
$SURFU
 70
     6
  9
$SURFV
 70
     6
  9
$UCSNAME
  2

  9
$UCSORG
 10
0.0
 20
0.0
 30
0.0
  9
$UCSXDIR
 10
1.0
 20
0.0
 30
0.0
  9
$UCSYDIR
 10
0.0
 20
1.0
 30
0.0
  9
$PUCSNAME
  2

  9
$PUCSORG
 10
0.0
 20
0.0
 30
0.0
  9
$PUCSXDIR
 10
1.0
 20
0.0
 30
0.0
  9
$PUCSYDIR
 10
0.0
 20
1.0
 30
0.0
  9
$USERI1
 70
     0
  9
$USERI2
 70
     0
  9
$USERI3
 70
     0
  9
$USERI4
 70
     0
  9
$USERI5
 70
     0
  9
$USERR1
 40
0.0
  9
$USERR2
 40
0.0
  9
$USERR3
 40
0.0
  9
$USERR4
 40
0.0
  9
$USERR5
 40
0.0
  9
$WORLDVIEW
 70
     1
  9
$SHADEDGE
 70
     3
  9
$SHADEDIF
 70
    70
  9
$TILEMODE
 70
     1
  9
$MAXACTVP
 70
    64
  9
$PINSBASE
 10
0.0
 20
0.0
 30
0.0
  9
$PLIMCHECK
 70
     0
  9
$PEXTMIN
 10
1.000000000000000E+20
 20
1.000000000000000E+20
 30
1.000000000000000E+20
  9
$PEXTMAX
 10
-1.000000000000000E+20
 20
-1.000000000000000E+20
 30
-1.000000000000000E+20
  9
$PLIMMIN
 10
0.0
 20
0.0
  9
$PLIMMAX
 10
12.0
 20
9.0
  9
$UNITMODE
 70
     0
  9
$VISRETAIN
 70
     1
  9
$PLINEGEN
 70
     0
  9
$PSLTSCALE
 70
     1
  9
$TREEDEPTH
 70
  3020
  9
$PICKSTYLE
 70
     1
  9
$CMLSTYLE
  2
STANDARD
  9
$CMLJUST
 70
     0
  9
$CMLSCALE
 40
1.0
  9
$PROXYGRAPHICS
 70
     1
  9
$MEASUREMENT
 70
     1
  0
ENDSEC
  0
SECTION
  2
CLASSES
  0
CLASS
  1
ACDBDICTIONARYWDFLT
  2
AcDbDictionaryWithDefault
  3
ObjectDBX Classes
 90
        0
280
     0
281
     0
  0
CLASS
  1
VISUALSTYLE
  2
AcDbVisualStyle
  3
ObjectDBX Classes
 90
     4095
280
     0
281
     0
  0
CLASS
  1
MATERIAL
  2
AcDbMaterial
  3
ObjectDBX Classes
 90
     1153
280
     0
281
     0
  0
CLASS
  1
SCALE
  2
AcDbScale
  3
ObjectDBX Classes
 90
     1153
280
     0
281
     0
  0
CLASS
  1
TABLESTYLE
  2
AcDbTableStyle
  3
ObjectDBX Classes
 90
     4095
280
     0
281
     0
  0
CLASS
  1
MLEADERSTYLE
  2
AcDbMLeaderStyle
  3
ACDB_MLEADERSTYLE_CLASS
 90
     4095
280
     0
281
     0
  0
CLASS
  1
SUN
  2
AcDbSun
  3
SCENEOE
 90
     1153
280
     0
281
     0
  0
CLASS
  1
DICTIONARYVAR
  2
AcDbDictionaryVar
  3
ObjectDBX Classes
 90
        0
280
     0
281
     0
  0
CLASS
  1
XRECORD
  2
AcDbXrecord
  3
ObjectDBX Classes
 90
        0
280
     0
281
     0
  0
CLASS
  1
LWPOLYLINE
  2
AcDbPolyline
  3
ObjectDBX Classes
 90
        0
280
     0
281
     1
  0
CLASS
  1
HATCH
  2
AcDbHatch
  3
ObjectDBX Classes
 90
        0
280
     0
281
     1
  0
CLASS
  1
ACDBPLACEHOLDER
  2
AcDbPlaceHolder
  3
ObjectDBX Classes
 90
        0
280
     0
281
     0
  0
CLASS
  1
LAYOUT
  2
AcDbLayout
  3
ObjectDBX Classes
 90
        0
280
     0
281
     0
  0
ENDSEC
  0
SECTION
  2
TABLES
  0
TABLE
  2
VPORT
  5
8
102
{ACAD_XDICTIONARY
360
19C
102
}
330
0
100
AcDbSymbolTable
 70
     1
  0
VPORT
  5
29
330
8
100
AcDbSymbolTableRecord
100
AcDbViewportTableRecord
  2
*ACTIVE
 70
     0
 10
0.0
 20
0.0
 11
1.0
 21
1.0
 12
129.9431892427095
 22
100.1079960628627
 13
0.0
 23
0.0
 14
0.5
 24
0.5
 15
0.5
 25
0.5
 16
0.0
 26
0.0
 36
1.0
 17
0.0
 27
0.0
 37
0.0
 40
142.7188908156142
 41
1.6
 42
50.0
 43
0.0
 44
0.0
 50
0.0
 51
0.0
 71
     0
 72
   100
 73
     1
 74
     3
 75
     0
 76
     0
 77
     0
 78
     0
  0
ENDTAB
  0
TABLE
  2
LTYPE
  5
5
330
0
100
AcDbSymbolTable
 70
     1
  0
LTYPE
  5
14
330
5
100
AcDbSymbolTableRecord
100
AcDbLinetypeTableRecord
  2
BYBLOCK
 70
     0
  3

 72
    65
 73
     0
 40
0.0
  0
LTYPE
  5
15
330
5
100
AcDbSymbolTableRecord
100
AcDbLinetypeTableRecord
  2
BYLAYER
 70
     0
  3

 72
    65
 73
     0
 40
0.0
  0
LTYPE
  5
16
330
5
100
AcDbSymbolTableRecord
100
AcDbLinetypeTableRecord
  2
CONTINUOUS
 70
     0
  3
Solid line
 72
    65
 73
     0
 40
0.0
  0
ENDTAB
  0
TABLE
  2
LAYER
  5
2
330
0
100
AcDbSymbolTable
 70
     2
  0
LAYER
  5
10
330
2
100
AcDbSymbolTableRecord
100
AcDbLayerTableRecord
  2
0
 70
     0
 62
     7
  6
CONTINUOUS
  0
LAYER
  5
6E
330
2
100
AcDbSymbolTableRecord
100
AcDbLayerTableRecord
  2
1
 70
     0
 62
     7
  6
CONTINUOUS
  0
ENDTAB
  0
TABLE
  2
STYLE
  5
3
330
0
100
AcDbSymbolTable
 70
     2
  0
STYLE
  5
11
330
3
100
AcDbSymbolTableRecord
100
AcDbTextStyleTableRecord
  2
STANDARD
 70
     0
 40
0.0
 41
1.0
 50
0.0
 71
     0
 42
0.2
  3
txt
  4

  0
STYLE
  5
6F
330
3
100
AcDbSymbolTableRecord
100
AcDbTextStyleTableRecord
  2
ＭＳ_ゴシック
 70
     0
 40
0.0
 41
1.0
 50
0.0
 71
     0
 42
0.2
  3
ＭＳ ゴシック.shx
  4

  0
ENDTAB
  0
TABLE
  2
VIEW
  5
6
330
0
100
AcDbSymbolTable
 70
     0
  0
ENDTAB
  0
TABLE
  2
UCS
  5
7
330
0
100
AcDbSymbolTable
 70
     0
  0
ENDTAB
  0
TABLE
  2
APPID
  5
9
330
0
100
AcDbSymbolTable
 70
     2
  0
APPID
  5
12
330
9
100
AcDbSymbolTableRecord
100
AcDbRegAppTableRecord
  2
ACAD
 70
     0
  0
APPID
  5
1A6
330
9
100
AcDbSymbolTableRecord
100
AcDbRegAppTableRecord
  2
ACAD_MLEADERVER
 70
     0
  0
ENDTAB
  0
TABLE
  2
DIMSTYLE
  5
A
330
0
100
AcDbSymbolTable
 70
     1
  0
DIMSTYLE
105
27
330
A
100
AcDbSymbolTableRecord
100
AcDbDimStyleTableRecord
  2
STANDARD
 70
     0
  3

  4

  5

  6

  7

 40
1.0
 41
0.18
 42
0.0625
 43
0.38
 44
0.18
 45
0.0
 46
0.0
 47
0.0
 48
0.0
140
0.18
141
0.09
142
0.0
143
25.4
144
1.0
145
0.0
146
1.0
147
0.09
 71
     0
 72
     0
 73
     1
 74
     1
 75
     0
 76
     0
 77
     0
 78
     0
170
     0
171
     2
172
     0
173
     0
174
     0
175
     0
176
     0
177
     0
178
     0
270
     2
271
     4
272
     4
273
     2
274
     2
340
11
275
     0
280
     0
281
     0
282
     0
283
     1
284
     0
285
     0
286
     0
287
     3
288
     0
  0
ENDTAB
  0
TABLE
  2
BLOCK_RECORD
  5
1
330
0
100
AcDbSymbolTable
 70
     0
  0
BLOCK_RECORD
  5
1F
330
1
100
AcDbSymbolTableRecord
100
AcDbBlockTableRecord
  2
*MODEL_SPACE
  0
BLOCK_RECORD
  5
1B
330
1
100
AcDbSymbolTableRecord
100
AcDbBlockTableRecord
  2
*PAPER_SPACE
  0
ENDTAB
  0
ENDSEC
  0
SECTION
  2
BLOCKS
  0
BLOCK
  5
20
330
1F
100
AcDbEntity
  8
0
100
AcDbBlockBegin
  2
*MODEL_SPACE
 70
     0
 10
0.0
 20
0.0
 30
0.0
  3
*MODEL_SPACE
  1

  0
ENDBLK
  5
21
330
1F
100
AcDbEntity
  8
0
100
AcDbBlockEnd
  0
BLOCK
  5
1C
330
1B
100
AcDbEntity
 67
     1
  8
0
100
AcDbBlockBegin
  2
*PAPER_SPACE
 70
     0
 10
0.0
 20
0.0
 30
0.0
  3
*PAPER_SPACE
  1

  0
ENDBLK
  5
1D
330
1B
100
AcDbEntity
 67
     1
  8
0
100
AcDbBlockEnd
  0
ENDSEC
  0
SECTION
  2
ENTITIES
  0
LINE
  5
70
330
1F
100
AcDbEntity
  8
1
  6
CONTINUOUS
 62
     7
100
AcDbLine
 10
54.40473786645051
 20
171.4674414706698
 30
0.0
 11
105.5952621335495
 21
171.4674414706698
 31
0.0
  0
LINE
  5
71
330
1F
100
AcDbEntity
  8
1
  6
CONTINUOUS
 62
     7
100
AcDbLine
 10
38.6349291404745
 20
128.4674414706698
 30
0.0
 11
70.001515475689
 21
128.4674414706698
 31
0.0
  0
LINE
  5
72
330
1F
100
AcDbEntity
  8
1
  6
CONTINUOUS
 62
     7
100
AcDbLine
 10
89.99848452431098
 20
128.4674414706698
 30
0.0
 11
121.3650708595255
 21
128.4674414706697
 31
0.0
  0
LINE
  5
73
330
1F
100
AcDbEntity
  8
1
  6
CONTINUOUS
 62
     7
100
AcDbLine
 10
138.7514493449443
 20
128.4674414706698
 30
0.0
 11
221.2514493449444
 21
128.4674414706698
 31
0.0
  0
LWPOLYLINE
  5
74
330
1F
100
AcDbEntity
  8
1
  6
CONTINUOUS
 62
     7
100
AcDbPolyline
 90
       29
 70
     0
 43
0.0
 10
219.8218057582666
 20
169.407077323071
 10
219.8204114355992
 20
169.4306278327666
 10
219.8178778524333
 20
169.4540846040072
 10
219.8142108012733
 20
169.4773940078254
 10
219.8094186660594
 20
169.5005027521785
 10
219.8035124029993
 20
169.5233580037895
 10
219.7965055155198
 20
169.545907508939
 10
219.7884140233934
 20
169.5680997129325
 10
219.7792564261125
 20
169.5898838779696
 10
219.7690536605949
 20
169.6112101991446
 10
219.757829053315
 20
169.6320299183158
 10
219.7456082669735
 20
169.65229543558
 10
219.7324192418245
 20
169.6719604181001
 10
219.7182921317963
 20
169.690979906035
 10
219.7032592355508
 20
169.7093104153314
 10
219.6873549226391
 20
169.7269100371402
 10
219.6706155549232
 20
169.7437385336327
 10
219.653079403442
 20
169.7597574299959
 10
219.6347865609124
 20
169.7749301023971
 10
219.6157788500665
 20
169.7892218617162
 10
219.5960997280318
 20
169.8026000328554
 10
219.5757941869764
 20
169.815034029444
 10
219.5549086512434
 20
169.8264954237675
 10
219.5334908712116
 20
169.8369580117617
 10
219.5115898141242
 20
169.8463978729225
 10
219.4892555521359
 20
169.8547934249956
 10
219.4665391478329
 20
169.8621254733192
 10
219.4434925374894
 20
169.8683772547091
 10
219.4201684123261
 20
169.8735344757837
  0
LINE
  5
75
330
1F
100
AcDbEntity
  8
1
  6
CONTINUOUS
 62
     7
100
AcDbLine
 10
221.2514493449444
 20
128.4674414706698
 30
0.0
 11
219.8218057582666
 21
169.4070773230692
 31
0.0
  0
LINE
  5
76
330
1F
100
AcDbEntity
  8
1
  6
CONTINUOUS
 62
     7
100
AcDbLine
 10
219.8218057582666
 20
169.407077323071
 30
0.0
 11
219.7902851213993
 21
170.3097102640415
 31
0.0
  0
LINE
  5
77
330
1F
100
AcDbEntity
  8
1
  6
CONTINUOUS
 62
     7
100
AcDbLine
 10
161.2514493449444
 20
164.508815197141
 30
0.0
 11
161.2514493449444
 21
128.4674414706698
 31
0.0
  0
LINE
  5
78
330
1F
100
AcDbEntity
  8
1
  6
CONTINUOUS
 62
     7
100
AcDbLine
 10
161.2514493449444
 20
167.9115537258194
 30
0.0
 11
161.2514493449444
 21
164.5088151915502
 31
0.0
  0
LINE
  5
79
330
1F
100
AcDbEntity
  8
1
  6
CONTINUOUS
 62
     7
100
AcDbLine
 10
216.2514491940138
 20
171.4029734937706
 30
0.0
 11
216.2514802287579
 21
171.4674352939071
 31
0.0
  0
LINE
  5
7A
330
1F
100
AcDbEntity
  8
1
  6
CONTINUOUS
 62
     7
100
AcDbLine
 10
216.2514493449443
 20
171.4674414706698
 30
0.0
 11
162.7514493449444
 21
171.4674414706698
 31
0.0
  0
LINE
  5
7B
330
1F
100
AcDbEntity
  8
1
  6
CONTINUOUS
 62
     7
100
AcDbLine
 10
159.4823822099992
 20
168.0257723572826
 30
0.0
 11
159.488093588063
 21
168.0299322012787
 31
0.0
  0
LINE
  5
7C
330
1F
100
AcDbEntity
  8
1
  6
CONTINUOUS
 62
     7
100
AcDbLine
 10
159.488093588063
 20
168.0299322012787
 30
0.0
 11
161.2514493449442
 21
169.3110851506563
 31
0.0
  0
LINE
  5
7D
330
1F
100
AcDbEntity
  8
1
  6
CONTINUOUS
 62
     7
100
AcDbLine
 10
158.2514493449444
 20
165.6028812181571
 30
0.0
 11
158.2514493449444
 21
154.0713475627364
 31
0.0
  0
ARC
  5
7E
330
1F
100
AcDbEntity
  8
1
  6
CONTINUOUS
 62
     7
100
AcDbCircle
 10
-161.2514493449416
 20
165.6028812181577
 30
0.0
 40
2.999999999997227
210
0.0
220
0.0
230
-1.0
100
AcDbArc
 50
359.9999999999873
 51
53.8650550052331
  0
LINE
  5
7F
330
1F
100
AcDbEntity
  8
1
  6
CONTINUOUS
 62
     7
100
AcDbLine
 10
219.3866274343661
 20
170.8404058527854
 30
0.0
 11
216.2514802287579
 21
171.4674352939071
 31
0.0
  0
ARC
  5
80
330
1F
100
AcDbEntity
  8
1
  6
CONTINUOUS
 62
     7
100
AcDbCircle
 10
219.288569366797
 20
170.35011551494
 30
0.0
 40
0.4999999999999785
100
AcDbArc
 50
2.000000000000145
 51
78.69006752597775
  0
LINE
  5
81
330
1F
100
AcDbEntity
  8
1
  6
CONTINUOUS
 62
     7
100
AcDbLine
 10
219.7902851213993
 20
170.3097102640415
 30
0.0
 11
219.7882647803065
 21
170.3675652632913
 31
0.0
  0
LINE
  5
82
330
1F
100
AcDbEntity
  8
1
  6
CONTINUOUS
 62
     7
100
AcDbLine
 10
158.2514493449444
 20
154.0713475627364
 30
0.0
 11
158.2514493449444
 21
132.4674414706698
 31
0.0
  0
LINE
  5
83
330
1F
100
AcDbEntity
  8
1
  6
CONTINUOUS
 62
     7
100
AcDbLine
 10
158.5424029981706
 20
132.3168390224929
 30
0.0
 11
158.5424029981725
 21
128.4674414706698
 31
0.0
  0
LINE
  5
84
330
1F
100
AcDbEntity
  8
1
  6
CONTINUOUS
 62
     7
100
AcDbLine
 10
161.2514493449444
 20
169.9218724944739
 30
0.0
 11
161.2514493449444
 21
167.9115537258194
 31
0.0
  0
LINE
  5
85
330
1F
100
AcDbEntity
  8
1
  6
CONTINUOUS
 62
     7
100
AcDbLine
 10
156.3195175818936
 20
133.4674414706698
 30
0.0
 11
158.5424029981706
 21
132.3168390224929
 31
0.0
  0
LINE
  5
86
330
1F
100
AcDbEntity
  8
1
  6
CONTINUOUS
 62
     7
100
AcDbLine
 10
156.3195175818936
 20
133.4674414706698
 30
0.0
 11
156.3195175818936
 21
128.4674414706698
 31
0.0
  0
LINE
  5
87
330
1F
100
AcDbEntity
  8
1
  6
CONTINUOUS
 62
     7
100
AcDbLine
 10
152.9784737955322
 20
163.3003873687927
 30
0.0
 11
152.988093588067
 21
163.3074057692471
 31
0.0
  0
LINE
  5
88
330
1F
100
AcDbEntity
  8
1
  6
CONTINUOUS
 62
     7
100
AcDbLine
 10
155.6441572447262
 20
165.2371489728994
 30
0.0
 11
152.988093588067
 21
163.3074057692471
 31
0.0
  0
LINE
  5
89
330
1F
100
AcDbEntity
  8
1
  6
CONTINUOUS
 62
     7
100
AcDbLine
 10
151.7514493449443
 20
160.8803547861222
 30
0.0
 11
151.7514493449443
 21
150.6876047818445
 31
0.0
  0
ARC
  5
8A
330
1F
100
AcDbEntity
  8
1
  6
CONTINUOUS
 62
     7
100
AcDbCircle
 10
-154.7514493449443
 20
160.8803547861222
 30
0.0
 40
2.999999999999919
210
0.0
220
0.0
230
-1.0
100
AcDbArc
 50
359.9999999999989
 51
53.77257549580725
  0
LINE
  5
8B
330
1F
100
AcDbEntity
  8
1
  6
CONTINUOUS
 62
     7
100
AcDbLine
 10
152.0424029981706
 20
132.3168390224929
 30
0.0
 11
152.0424029981725
 21
128.4674414706698
 31
0.0
  0
LINE
  5
8C
330
1F
100
AcDbEntity
  8
1
  6
CONTINUOUS
 62
     7
100
AcDbLine
 10
151.7514493449443
 20
150.6876047818445
 30
0.0
 11
151.7514493449443
 21
132.4674414706698
 31
0.0
  0
LINE
  5
8D
330
1F
100
AcDbEntity
  8
1
  6
CONTINUOUS
 62
     7
100
AcDbLine
 10
149.8195175818936
 20
133.4674414706698
 30
0.0
 11
152.0424029981706
 21
132.3168390224929
 31
0.0
  0
LINE
  5
8E
330
1F
100
AcDbEntity
  8
1
  6
CONTINUOUS
 62
     7
100
AcDbLine
 10
149.8195175818936
 20
133.4674414706698
 30
0.0
 11
149.8195175818936
 21
128.4674414706698
 31
0.0
  0
LINE
  5
8F
330
1F
100
AcDbEntity
  8
1
  6
CONTINUOUS
 62
     7
100
AcDbLine
 10
149.6374724204893
 20
160.5451827731598
 30
0.0
 11
151.7514493449443
 21
159.668761190856
 31
0.0
  0
LWPOLYLINE
  5
90
330
1F
100
AcDbEntity
  8
1
  6
CONTINUOUS
 62
     7
100
AcDbPolyline
 90
       25
 70
     0
 43
0.0
 10
-149.1426905488908
 20
160.4830120129475
 10
-149.1614519703614
 20
160.4964883324562
 10
-149.1808371393413
 20
160.5090991161905
 10
-149.2007831202986
 20
160.5208054533505
 10
-149.221226977701
 20
160.5315684331366
 10
-149.2419719102482
 20
160.5412978266995
 10
-149.2632545965702
 20
160.5501124796886
 10
-149.2849204228759
 20
160.5579401883722
 10
-149.3070421317204
 20
160.5647972963662
 10
-149.327073062201
 20
160.5700571240299
 10
-149.3473042227993
 20
160.5744850544791
 10
-149.3678432598519
 20
160.5780947423188
 10
-149.3885144266019
 20
160.580846965021
 10
-149.4097345718031
 20
160.5827676675965
 10
-149.4310166135954
 20
160.5837847216414
 10
-149.4524787218801
 20
160.5838929099495
 10
-149.4739249043707
 20
160.5830820357796
 10
-149.4945651070038
 20
160.5814290884378
 10
-149.5151183096166
 20
160.5789247416344
 10
-149.535690587194
 20
160.575546320007
 10
-149.5561031440081
 20
160.5713148637479
 10
-149.5767578127658
 20
160.566117144216
 10
-149.597171191398
 20
160.5600460000389
 10
-149.6174530236529
 20
160.5530574655062
 10
-149.6374150547
 20
160.5452065561138
210
0.0
220
0.0
230
-1.0
  0
LINE
  5
91
330
1F
100
AcDbEntity
  8
1
  6
CONTINUOUS
 62
     7
100
AcDbLine
 10
146.4752232699097
 20
158.5754761635019
 30
0.0
 11
146.4880935880669
 21
158.5848793372122
 31
0.0
  0
LINE
  5
92
330
1F
100
AcDbEntity
  8
1
  6
CONTINUOUS
 62
     7
100
AcDbLine
 10
149.144014319418
 20
160.5145186995499
 30
0.0
 11
149.1302076348188
 21
160.5044875560178
 31
0.0
  0
LINE
  5
93
330
1F
100
AcDbEntity
  8
1
  6
CONTINUOUS
 62
     7
100
AcDbLine
 10
149.1302076348188
 20
160.5044875560178
 30
0.0
 11
146.4880935880669
 21
158.5848793372122
 31
0.0
  0
LINE
  5
94
330
1F
100
AcDbEntity
  8
1
  6
CONTINUOUS
 62
     7
100
AcDbLine
 10
145.2514493449444
 20
156.1578283540873
 30
0.0
 11
145.2514493449444
 21
147.2864455474708
 31
0.0
  0
ARC
  5
95
330
1F
100
AcDbEntity
  8
1
  6
CONTINUOUS
 62
     7
100
AcDbCircle
 10
148.2514493449443
 20
156.1578283540874
 30
0.0
 40
2.999999999999922
100
AcDbArc
 50
126.3044206495541
 51
180.0000000000011
  0
LINE
  5
96
330
1F
100
AcDbEntity
  8
1
  6
CONTINUOUS
 62
     7
100
AcDbLine
 10
145.2514493449444
 20
147.2864455474708
 30
0.0
 11
145.2514493449444
 21
132.4674414706698
 31
0.0
  0
LINE
  5
97
330
1F
100
AcDbEntity
  8
1
  6
CONTINUOUS
 62
     7
100
AcDbLine
 10
145.5424029981706
 20
132.3168390224929
 30
0.0
 11
145.5424029981725
 21
128.4674414706698
 31
0.0
  0
LINE
  5
98
330
1F
100
AcDbEntity
  8
1
  6
CONTINUOUS
 62
     7
100
AcDbLine
 10
143.3195175818936
 20
133.4674414706698
 30
0.0
 11
145.5424029981706
 21
132.3168390224929
 31
0.0
  0
LINE
  5
99
330
1F
100
AcDbEntity
  8
1
  6
CONTINUOUS
 62
     7
100
AcDbLine
 10
143.3195175818936
 20
133.4674414706698
 30
0.0
 11
143.3195175818936
 21
128.4674414706698
 31
0.0
  0
LINE
  5
9A
330
1F
100
AcDbEntity
  8
1
  6
CONTINUOUS
 62
     7
100
AcDbLine
 10
143.1379265603958
 20
155.8216759085133
 30
0.0
 11
145.2514493449443
 21
154.9462347588212
 31
0.0
  0
LWPOLYLINE
  5
9B
330
1F
100
AcDbEntity
  8
1
  6
CONTINUOUS
 62
     7
100
AcDbPolyline
 90
       25
 70
     0
 43
0.0
 10
143.1378784192123
 20
155.8216958490474
 10
143.1186170129004
 20
155.8292611775223
 10
143.0990573997175
 20
155.8360241850284
 10
143.0790943158745
 20
155.8420110915512
 10
143.0588975844356
 20
155.8471623955902
 10
143.0380563919639
 20
155.8515526421658
 10
143.0170457725783
 20
155.8550532267422
 10
142.9957477653333
 20
155.8576728033605
 10
142.9743557638905
 20
155.8593783101491
 10
142.9536634573827
 20
155.8601536843403
 10
142.9329558145363
 20
155.8600738280379
 10
142.9121247984605
 20
155.8591286516383
 10
142.8913504590947
 20
155.8573181100589
 10
142.8702202666152
 20
155.8545768554008
 10
142.8492253092715
 20
155.850940450278
 10
142.8282513637087
 20
155.8463781031303
 10
142.8074919578342
 20
155.8409224925541
 10
142.7828792600926
 20
155.833196909444
 10
142.7585355906365
 20
155.8241501310727
 10
142.7346939299157
 20
155.8138557623099
 10
142.711262777068
 20
155.8022578222836
 10
142.6935282431336
 20
155.7924301062435
 10
142.6761927228507
 20
155.7818847198945
 10
142.6592984151983
 20
155.7706485157871
 10
142.6428875190874
 20
155.7587483464206
  0
LINE
  5
9C
330
1F
100
AcDbEntity
  8
1
  6
CONTINUOUS
 62
     7
100
AcDbLine
 10
140.7973153394902
 20
154.4502100723368
 30
0.0
 11
140.8129042014165
 21
154.461612893326
 31
0.0
  0
LINE
  5
9D
330
1F
100
AcDbEntity
  8
1
  6
CONTINUOUS
 62
     7
100
AcDbLine
 10
142.6439267390732
 20
155.7919286366699
 30
0.0
 11
140.8129042014165
 21
154.461612893326
 31
0.0
  0
LINE
  5
9E
330
1F
100
AcDbEntity
  8
1
  6
CONTINUOUS
 62
     7
100
AcDbLine
 10
139.5780874772367
 20
152.1392604003087
 30
0.0
 11
139.3032586854067
 21
144.2691935080272
 31
0.0
  0
ARC
  5
9F
330
1F
100
AcDbEntity
  8
1
  6
CONTINUOUS
 62
     7
100
AcDbCircle
 10
-142.5762599582939
 20
152.0345619102012
 30
0.0
 40
2.999999999999927
210
0.0
220
0.0
230
-1.0
100
AcDbArc
 50
1.999999999999396
 51
53.6311259965096
  0
LINE
  5
A0
330
1F
100
AcDbEntity
  8
1
  6
CONTINUOUS
 62
     7
100
AcDbLine
 10
139.3032586854067
 20
144.2691935080272
 30
0.0
 11
138.7514493449443
 21
128.4674414706698
 31
0.0
  0
ARC
  5
A1
330
1F
100
AcDbEntity
  8
1
  6
CONTINUOUS
 62
     7
100
AcDbCircle
 10
162.7514493449444
 20
169.9674414706698
 30
0.0
 40
1.500000000000001
100
AcDbArc
 50
89.99999999999945
 51
179.9999999999996
  0
LINE
  5
A2
330
1F
100
AcDbEntity
  8
1
  6
CONTINUOUS
 62
     7
100
AcDbLine
 10
161.2514493449444
 20
169.9674414706698
 30
0.0
 11
161.2514493449444
 21
169.9218724944739
 31
0.0
  0
LWPOLYLINE
  5
A3
330
1F
100
AcDbEntity
  8
1
  6
CONTINUOUS
 62
     7
100
AcDbPolyline
 90
       26
 70
     0
 43
0.0
 10
156.1339539562398
 20
165.2927292246729
 10
156.1146824117283
 20
165.300464457596
 10
156.0951066828224
 20
165.3073930754104
 10
156.0751219068962
 20
165.3135418982881
 10
156.0548987309983
 20
165.3188499000574
 10
156.0340263146915
 20
165.3233945693455
 10
156.0129810524112
 20
165.3270436547657
 10
155.9916454545373
 20
165.3298067358598
 10
155.9702142081101
 20
165.3316496682731
 10
155.9494835618238
 20
165.3325519919159
 10
155.9287380037185
 20
165.3325938597345
 10
155.907652224349
 20
165.3317514200799
 10
155.8866089301732
 20
165.3300191886429
 10
155.8656656513128
 20
165.327404217146
 10
155.8448799178895
 20
165.3239135573117
 10
155.823887929079
 20
165.3194607173889
 10
155.8031217773775
 20
165.3141160747043
 10
155.7821639117567
 20
165.3077412289104
 10
155.7615306593209
 20
165.3004646675309
 10
155.741104414511
 20
165.2922355680649
 10
155.7211035255576
 20
165.2831366273388
 10
155.7010561025631
 20
165.2729162663745
 10
155.6815741198222
 20
165.2618565725195
 10
155.6687942316284
 20
165.2539534447978
 10
155.6563263420065
 20
165.2457179274439
 10
155.6442138978439
 20
165.2371901337988
  0
LINE
  5
A4
330
1F
100
AcDbEntity
  8
1
  6
CONTINUOUS
 62
     7
100
AcDbLine
 10
156.1358390503014
 20
165.2919267189298
 30
0.0
 11
156.1339539562398
 21
165.2927292246729
 31
0.0
  0
LINE
  5
A5
330
1F
100
AcDbEntity
  8
1
  6
CONTINUOUS
 62
     7
100
AcDbLine
 10
156.1358390503013
 20
165.2919267189297
 30
0.0
 11
158.2514493449443
 21
164.3912876228908
 31
0.0
  0
ARC
  5
A6
330
1F
100
AcDbEntity
  8
1
  6
CONTINUOUS
 62
     7
100
AcDbCircle
 10
155.9381065239902
 20
164.8326816366113
 30
0.0
 40
0.4999999999999961
100
AcDbArc
 50
66.93999999999936
 51
126.000000000001
  0
LINE
  5
A7
330
1F
100
AcDbEntity
  8
1
  6
CONTINUOUS
 62
     7
100
AcDbLine
 10
149.1442138978441
 20
160.514663701764
 30
0.0
 11
149.1440143194181
 21
160.5145186995499
 31
0.0
  0
LWPOLYLINE
  5
A8
330
1F
100
AcDbEntity
  8
1
  6
CONTINUOUS
 62
     7
100
AcDbPolyline
 90
       26
 70
     0
 43
0.0
 10
-149.1442138978441
 20
160.514663701764
 10
-149.1557770282096
 20
160.5228166523323
 10
-149.1676426235931
 20
160.5306890236249
 10
-149.1797811568473
 20
160.5382533296489
 10
-149.1986588699163
 20
160.5490906971849
 10
-149.2180683402578
 20
160.559135379751
 10
-149.238516332773
 20
160.5685910010259
 10
-149.2594164366626
 20
160.5771347037955
 10
-149.2809044984024
 20
160.5847994820573
 10
-149.3027489425225
 20
160.5914849513605
 10
-149.3227931416871
 20
160.5966761359068
 10
-149.3430507014675
 20
160.6010364433752
 10
-149.3636281631467
 20
160.6045768555202
 10
-149.3843464132578
 20
160.607256653472
 10
-149.4056232132962
 20
160.6090987045531
 10
-149.4269671921128
 20
160.610031104461
 10
-149.4484957183038
 20
160.6100470355383
 10
-149.4700105117528
 20
160.6091363019788
 10
-149.4907153990391
 20
160.6073796160218
 10
-149.5113328556881
 20
160.6047640443136
 10
-149.5321825647769
 20
160.6012232895233
 10
-149.5528843974857
 20
160.5967996098618
 10
-149.5733825710093
 20
160.5915059673876
 10
-149.5936213025432
 20
160.5853553241594
 10
-149.6139510428516
 20
160.5782134120804
 10
-149.6339539562398
 20
160.570202792638
210
0.0
220
0.0
230
-1.0
  0
LINE
  5
A9
330
1F
100
AcDbEntity
  8
1
  6
CONTINUOUS
 62
     7
100
AcDbLine
 10
149.6362789695732
 20
160.5692130083133
 30
0.0
 11
149.6339539562398
 21
160.570202792638
 31
0.0
  0
LINE
  5
AA
330
1F
100
AcDbEntity
  8
1
  6
CONTINUOUS
 62
     7
100
AcDbLine
 10
149.6362789695732
 20
160.5692130083133
 30
0.0
 11
151.7514493449443
 21
159.668761190856
 31
0.0
  0
ARC
  5
AB
330
1F
100
AcDbEntity
  8
1
  6
CONTINUOUS
 62
     7
100
AcDbCircle
 10
149.4381065239902
 20
160.1101552045765
 30
0.0
 40
0.4999999999999961
100
AcDbArc
 50
66.94000000000102
 51
126.0000000000014
  0
LINE
  5
AC
330
1F
100
AcDbEntity
  8
1
  6
CONTINUOUS
 62
     7
100
AcDbLine
 10
142.6442138978504
 20
155.7921372697338
 30
0.0
 11
142.6439267390732
 21
155.7919286366699
 31
0.0
  0
LWPOLYLINE
  5
AD
330
1F
100
AcDbEntity
  8
1
  6
CONTINUOUS
 62
     7
100
AcDbPolyline
 90
       26
 70
     0
 43
0.0
 10
143.1339539562398
 20
155.8476763606032
 10
143.115294141809
 20
155.8551804254012
 10
143.0957194352899
 20
155.8621369166327
 10
143.0758717347592
 20
155.868274948748
 10
143.0556460880389
 20
155.8736166887454
 10
143.0352154318536
 20
155.8781079872018
 10
143.0141683170308
 20
155.8818092960033
 10
142.9929847905482
 20
155.8846080234763
 10
142.971548094937
 20
155.886508958768
 10
142.9500540146955
 20
155.8874860096263
 10
142.9298863911094
 20
155.8875610250629
 10
142.9097382134041
 20
155.8868233628113
 10
142.889512296433
 20
155.8852615905956
 10
142.8693751320953
 20
155.8828822387266
 10
142.8489540481237
 20
155.8796162078382
 10
142.8286983637375
 20
155.875511806137
 10
142.8085067109262
 20
155.8705404351731
 10
142.7885578954734
 20
155.8647400883881
 10
142.7695050344807
 20
155.8583445398718
 10
142.7507500986594
 20
155.8511992309267
 10
142.7322046455541
 20
155.8432647849599
 10
142.7140332182767
 20
155.8346088097543
 10
142.6958896945126
 20
155.8250423887885
 10
142.6782186368677
 20
155.8147801346219
 10
142.6609259852286
 20
155.8037662713775
 10
142.6442138978504
 20
155.7921372697338
  0
LINE
  5
AE
330
1F
100
AcDbEntity
  8
1
  6
CONTINUOUS
 62
     7
100
AcDbLine
 10
143.1365832817284
 20
155.8465570271715
 30
0.0
 11
143.1339539562398
 21
155.8476763606032
 31
0.0
  0
LINE
  5
AF
330
1F
100
AcDbEntity
  8
1
  6
CONTINUOUS
 62
     7
100
AcDbLine
 10
143.1365832817284
 20
155.8465570271715
 30
0.0
 11
145.2514493449443
 21
154.9462347588212
 31
0.0
  0
ARC
  5
B0
330
1F
100
AcDbEntity
  8
1
  6
CONTINUOUS
 62
     7
100
AcDbCircle
 10
142.9381065239902
 20
155.3876287725416
 30
0.0
 40
0.5000000000000216
100
AcDbArc
 50
66.94000000000113
 51
125.9999999999997
  0
LINE
  5
B1
330
1F
100
AcDbEntity
  8
1
  6
CONTINUOUS
 62
     7
100
AcDbLine
 10
158.4403833045316
 20
166.650692134515
 30
0.0
 11
156.4097231544063
 21
165.1753311755232
 31
0.0
  0
LINE
  5
B2
330
1F
100
AcDbEntity
  8
1
  6
CONTINUOUS
 62
     7
100
AcDbLine
 10
145.4403833045316
 20
157.2056392704453
 30
0.0
 11
143.4097231544063
 21
155.7302783114535
 31
0.0
  0
LINE
  5
B3
330
1F
100
AcDbEntity
  8
1
  6
CONTINUOUS
 62
     7
100
AcDbLine
 10
151.9403833045316
 20
161.9281657024801
 30
0.0
 11
149.9097231544063
 21
160.4528047434883
 31
0.0
  0
ELLIPSE
  5
B4
330
1F
100
AcDbEntity
  8
1
  6
CONTINUOUS
 62
     7
100
AcDbEllipse
 10
52.06154395545121
 20
87.24855065505561
 30
0.0
 11
-1.500057554763373
 21
0.0
 31
0.0
210
0.0
220
0.0
230
1.0
 40
0.9999616316299403
 41
4.712388980384691
 42
6.195922175879607
  0
ELLIPSE
  5
B5
330
1F
100
AcDbEntity
  8
1
  6
CONTINUOUS
 62
     7
100
AcDbEllipse
 10
107.9384560445488
 20
87.24855065505561
 30
0.0
 11
1.500057554763373
 21
0.0
 31
0.0
210
0.0
220
0.0
230
-1.0
 40
0.9999616316299403
 41
4.712388980384691
 42
6.195922175879607
  0
LINE
  5
B6
330
1F
100
AcDbEntity
  8
1
  6
CONTINUOUS
 62
     7
100
AcDbLine
 10
54.89658349303832
 20
86.24855065505562
 30
0.0
 11
52.97781779371015
 21
86.24855065505562
 31
0.0
  0
LINE
  5
B7
330
1F
100
AcDbEntity
  8
1
  6
CONTINUOUS
 62
     7
100
AcDbLine
 10
105.1034165069617
 20
86.24855065505561
 30
0.0
 11
107.0221822062899
 21
86.24855065505561
 31
0.0
  0
LINE
  5
B8
330
1F
100
AcDbEntity
  8
1
  6
CONTINUOUS
 62
     7
100
AcDbLine
 10
49.25
 20
43.6393982977844
 30
0.0
 11
52.97781779371015
 21
86.24855065505561
 31
0.0
  0
LINE
  5
B9
330
1F
100
AcDbEntity
  8
1
  6
CONTINUOUS
 62
     7
100
AcDbLine
 10
110.75
 20
43.63939829778439
 30
0.0
 11
107.0221822062899
 21
86.24855065505561
 31
0.0
  0
LINE
  5
BA
330
1F
100
AcDbEntity
  8
1
  6
CONTINUOUS
 62
     7
100
AcDbLine
 10
49.25
 20
28.74855065505562
 30
0.0
 11
49.25
 21
43.6393982977844
 31
0.0
  0
LINE
  5
BB
330
1F
100
AcDbEntity
  8
1
  6
CONTINUOUS
 62
     7
100
AcDbLine
 10
49.25
 20
28.74855065505562
 30
0.0
 11
49.59321133808288
 21
30.12191900570692
 31
0.0
  0
LINE
  5
BC
330
1F
100
AcDbEntity
  8
1
  6
CONTINUOUS
 62
     7
100
AcDbLine
 10
110.75
 20
28.74855065505562
 30
0.0
 11
110.75
 21
43.63939829778439
 31
0.0
  0
LINE
  5
BD
330
1F
100
AcDbEntity
  8
1
  6
CONTINUOUS
 62
     7
100
AcDbLine
 10
110.75
 20
28.74855065505562
 30
0.0
 11
110.4067886619171
 21
30.12191900570692
 31
0.0
  0
CIRCLE
  5
BE
330
1F
100
AcDbEntity
  8
1
  6
CONTINUOUS
 62
     7
100
AcDbCircle
 10
-116.3650708595255
 20
71.24855065505561
 30
0.0
 40
2.500000000000002
210
0.0
220
0.0
230
-1.0
  0
LINE
  5
BF
330
1F
100
AcDbEntity
  8
1
  6
CONTINUOUS
 62
     7
100
AcDbLine
 10
99.39524062619986
 20
95.74855065505561
 30
0.0
 11
97.89308907863095
 21
95.74855065505561
 31
0.0
  0
LINE
  5
C0
330
1F
100
AcDbEntity
  8
1
  6
CONTINUOUS
 62
     7
100
AcDbLine
 10
95.48964660252074
 20
102.2485506550556
 30
0.0
 11
93.98749505495182
 21
102.2485506550556
 31
0.0
  0
LINE
  5
C1
330
1F
100
AcDbEntity
  8
1
  6
CONTINUOUS
 62
     7
100
AcDbLine
 10
91.58405257884156
 20
108.7485506550556
 30
0.0
 11
89.99848452431101
 21
108.7485506550556
 31
0.0
  0
LINE
  5
C2
330
1F
100
AcDbEntity
  8
1
  6
CONTINUOUS
 62
     7
100
AcDbLine
 10
89.99848452431101
 20
108.7485506550556
 30
0.0
 11
89.99848452431101
 21
111.2485506550556
 31
0.0
  0
LINE
  5
C3
330
1F
100
AcDbEntity
  8
1
  6
CONTINUOUS
 62
     7
100
AcDbLine
 10
91.30006810558449
 20
111.2485506550556
 30
0.0
 11
89.99848452431101
 21
111.2485506550556
 31
0.0
  0
ELLIPSE
  5
C4
330
1F
100
AcDbEntity
  8
1
  6
CONTINUOUS
 62
     7
100
AcDbEllipse
 10
91.30226494324184
 20
108.2467220221592
 30
0.0
 11
-1.546395926323732
 21
2.573635011771013
 31
0.0
210
0.0
220
0.0
230
-1.0
 40
0.9991711685398602
 41
0.5406860802974333
 42
1.570796326794896
  0
LINE
  5
C5
330
1F
100
AcDbEntity
  8
1
  6
CONTINUOUS
 62
     7
100
AcDbLine
 10
93.87376684534817
 20
109.7918362468893
 30
0.0
 11
95.27045457215799
 21
107.467357519909
 31
0.0
  0
ARC
  5
C6
330
1F
100
AcDbEntity
  8
1
  6
CONTINUOUS
 62
     7
100
AcDbCircle
 10
-94.84187092180693
 20
107.2098384824539
 30
0.0
 40
0.4999999999999936
210
0.0
220
0.0
230
-1.0
100
AcDbArc
 50
148.9999999999999
 51
203.0599999999991
  0
LINE
  5
C7
330
1F
100
AcDbEntity
  8
1
  6
CONTINUOUS
 62
     7
100
AcDbLine
 10
95.30191850986846
 20
107.0139910502043
 30
0.0
 11
95.15994013431674
 21
106.6804824181064
 31
0.0
  0
LINE
  5
C8
330
1F
100
AcDbEntity
  8
1
  6
CONTINUOUS
 62
     7
100
AcDbLine
 10
95.15994013431677
 20
106.6804824181064
 30
0.0
 11
96.49558444156946
 21
104.4575970018275
 31
0.0
  0
ARC
  5
C9
330
1F
100
AcDbEntity
  8
1
  6
CONTINUOUS
 62
     7
100
AcDbCircle
 10
-95.20676021342683
 20
101.7485506550556
 30
0.0
 40
3.000000000000005
210
0.0
220
0.0
230
-1.0
100
AcDbArc
 50
115.4426902380532
 51
149.0
  0
LINE
  5
CA
330
1F
100
AcDbEntity
  8
1
  6
CONTINUOUS
 62
     7
100
AcDbLine
 10
97.77826211553318
 20
103.2936648797858
 30
0.0
 11
99.17604859583714
 21
100.9673575199089
 31
0.0
  0
ARC
  5
CB
330
1F
100
AcDbEntity
  8
1
  6
CONTINUOUS
 62
     7
100
AcDbCircle
 10
-98.74746494548609
 20
100.7098384824539
 30
0.0
 40
0.500000000000002
210
0.0
220
0.0
230
-1.0
100
AcDbArc
 50
149.0000000000003
 51
203.0600000000001
  0
LINE
  5
CC
330
1F
100
AcDbEntity
  8
1
  6
CONTINUOUS
 62
     7
100
AcDbLine
 10
99.20751253354761
 20
100.5139910502043
 30
0.0
 11
99.06553415799591
 21
100.1804824181064
 31
0.0
  0
LINE
  5
CD
330
1F
100
AcDbEntity
  8
1
  6
CONTINUOUS
 62
     7
100
AcDbLine
 10
99.06553415799593
 20
100.1804824181064
 30
0.0
 11
100.4011784652486
 21
97.95759700182747
 31
0.0
  0
ARC
  5
CE
330
1F
100
AcDbEntity
  8
1
  6
CONTINUOUS
 62
     7
100
AcDbCircle
 10
-99.11235423710598
 20
95.24855065505561
 30
0.0
 40
3.000000000000005
210
0.0
220
0.0
230
-1.0
100
AcDbArc
 50
115.4426902380535
 51
149.0000000000001
  0
LINE
  5
CF
330
1F
100
AcDbEntity
  8
1
  6
CONTINUOUS
 62
     7
100
AcDbLine
 10
101.6838561392123
 20
96.79366487978577
 30
0.0
 11
103.0816426195163
 21
94.46735751990892
 31
0.0
  0
ARC
  5
D0
330
1F
100
AcDbEntity
  8
1
  6
CONTINUOUS
 62
     7
100
AcDbCircle
 10
-102.6530589691652
 20
94.2098384824539
 30
0.0
 40
0.500000000000002
210
0.0
220
0.0
230
-1.0
100
AcDbArc
 50
149.0000000000005
 51
203.0600000000005
  0
LINE
  5
D1
330
1F
100
AcDbEntity
  8
1
  6
CONTINUOUS
 62
     7
100
AcDbLine
 10
103.1131065572268
 20
94.0139910502043
 30
0.0
 11
102.9711281816751
 21
93.6804824181064
 31
0.0
  0
LINE
  5
D2
330
1F
100
AcDbEntity
  8
1
  6
CONTINUOUS
 62
     7
100
AcDbLine
 10
102.9711281816751
 20
93.6804824181064
 30
0.0
 11
104.3067724889278
 21
91.45759700182747
 31
0.0
  0
ARC
  5
D3
330
1F
100
AcDbEntity
  8
1
  6
CONTINUOUS
 62
     7
100
AcDbCircle
 10
-103.0179482607851
 20
88.74855065505561
 30
0.0
 40
2.999999999999999
210
0.0
220
0.0
230
-1.0
100
AcDbArc
 50
115.4426902380533
 51
149.0
  0
LINE
  5
D4
330
1F
100
AcDbEntity
  8
1
  6
CONTINUOUS
 62
     7
100
AcDbLine
 10
106.5178484524311
 20
88.74855065505561
 30
0.0
 11
105.5894501628915
 21
90.29366487978577
 31
0.0
  0
ELLIPSE
  5
D5
330
1F
100
AcDbEntity
  8
1
  6
CONTINUOUS
 62
     7
100
AcDbEllipse
 10
110.4937956193054
 20
80.98918595656893
 30
0.0
 11
0.4330372742071155
 21
-0.25001418683262
 31
0.0
210
0.0
220
0.0
230
1.0
 40
0.9999432558895763
 41
3.752431230279137
 42
4.712388980384689
  0
LINE
  5
D6
330
1F
100
AcDbEntity
  8
1
  6
CONTINUOUS
 62
     7
100
AcDbLine
 10
118.8650708595255
 20
75.5786776739778
 30
0.0
 11
110.2437956193054
 21
80.55617325467672
 31
0.0
  0
ARC
  5
D7
330
1F
100
AcDbEntity
  8
1
  6
CONTINUOUS
 62
     7
100
AcDbCircle
 10
116.3650708595255
 20
71.24855065505561
 30
0.0
 40
4.999999999999998
100
AcDbArc
 50
300.0
 51
59.99999999999988
  0
LINE
  5
D8
330
1F
100
AcDbEntity
  8
1
  6
CONTINUOUS
 62
     7
100
AcDbLine
 10
111.8662339848296
 20
62.87764328251345
 30
0.0
 11
118.8650708595255
 21
66.91842363613343
 31
0.0
  0
ELLIPSE
  5
D9
330
1F
100
AcDbEntity
  8
1
  6
CONTINUOUS
 62
     7
100
AcDbEllipse
 10
112.1162339848296
 20
62.44463058062123
 30
0.0
 11
0.4330327755235746
 21
0.2500115895164665
 31
0.0
210
0.0
220
0.0
230
1.0
 40
0.9999536440831082
 41
1.570796326794898
 42
2.705278096084457
  0
LINE
  5
DA
330
1F
100
AcDbEntity
  8
1
  6
CONTINUOUS
 62
     7
100
AcDbLine
 10
110.75
 20
28.74855065505562
 30
0.0
 11
111.8401730125172
 21
28.74855065505562
 31
0.0
  0
ELLIPSE
  5
DB
330
1F
100
AcDbEntity
  8
1
  6
CONTINUOUS
 62
     7
100
AcDbEllipse
 10
111.8401395868274
 20
29.24885542720503
 30
0.0
 11
-0.02740251615519556
 21
0.4995546861627302
 31
0.0
210
0.0
220
0.0
230
-1.0
 40
0.9993889957283226
 41
1.82313858041681
 42
3.196358206414894
  0
LINE
  5
DC
330
1F
100
AcDbEntity
  8
1
  6
CONTINUOUS
 62
     7
100
AcDbLine
 10
113.25
 20
33.74855065505561
 30
0.0
 11
112.3304196139327
 21
29.15064872471938
 31
0.0
  0
LINE
  5
DD
330
1F
100
AcDbEntity
  8
1
  6
CONTINUOUS
 62
     7
100
AcDbLine
 10
113.25
 20
33.74855065505561
 30
0.0
 11
113.25
 21
39.38262261169645
 31
0.0
  0
ELLIPSE
  5
DE
330
1F
100
AcDbEntity
  8
1
  6
CONTINUOUS
 62
     7
100
AcDbEllipse
 10
13.24619216142635
 20
39.38229011038176
 30
0.0
 11
-99.90863362429243
 21
-4.362105148737437
 31
0.0
210
0.0
220
0.0
230
-1.0
 40
0.9999618504831024
 41
3.097961084764794
 42
3.185224222414787
  0
LINE
  5
DF
330
1F
100
AcDbEntity
  8
1
  6
CONTINUOUS
 62
     7
100
AcDbLine
 10
109.995676979747
 20
80.94563298662727
 30
0.0
 11
109.4328058629578
 21
87.37927929124166
 31
0.0
  0
LINE
  5
E0
330
1F
100
AcDbEntity
  8
1
  6
CONTINUOUS
 62
     7
100
AcDbLine
 10
112.8694842985982
 20
48.0978650240999
 30
0.0
 11
111.6181192165698
 21
62.40103336153417
 31
0.0
  0
LINE
  5
E1
330
1F
100
AcDbEntity
  8
1
  6
CONTINUOUS
 62
     7
100
AcDbLine
 10
106.5178484524311
 20
88.74855065505561
 30
0.0
 11
107.9384560445488
 21
88.74855065505561
 31
0.0
  0
LINE
  5
E2
330
1F
100
AcDbEntity
  8
1
  6
CONTINUOUS
 62
     7
100
AcDbLine
 10
103.300834649879
 20
89.24855065505561
 30
0.0
 11
101.7986831023101
 21
89.24855065505561
 31
0.0
  0
LINE
  5
E3
330
1F
100
AcDbEntity
  8
1
  6
CONTINUOUS
 62
     7
100
AcDbLine
 10
105.1034165069617
 20
86.24855065505561
 30
0.0
 11
103.300834649879
 21
89.24855065505561
 31
0.0
  0
LINE
  5
E4
330
1F
100
AcDbEntity
  8
1
  6
CONTINUOUS
 62
     7
100
AcDbLine
 10
101.7986831023101
 20
91.74855065505561
 30
0.0
 11
101.7986831023101
 21
89.2485506550556
 31
0.0
  0
LINE
  5
E5
330
1F
100
AcDbEntity
  8
1
  6
CONTINUOUS
 62
     7
100
AcDbLine
 10
99.39524062619986
 20
95.74855065505561
 30
0.0
 11
101.7986831023101
 21
91.74855065505561
 31
0.0
  0
LINE
  5
E6
330
1F
100
AcDbEntity
  8
1
  6
CONTINUOUS
 62
     7
100
AcDbLine
 10
97.89308907863095
 20
95.74855065505561
 30
0.0
 11
97.89308907863095
 21
98.24855065505561
 31
0.0
  0
LINE
  5
E7
330
1F
100
AcDbEntity
  8
1
  6
CONTINUOUS
 62
     7
100
AcDbLine
 10
93.98749505495182
 20
102.2485506550556
 30
0.0
 11
93.98749505495182
 21
104.7485506550556
 31
0.0
  0
LINE
  5
E8
330
1F
100
AcDbEntity
  8
1
  6
CONTINUOUS
 62
     7
100
AcDbLine
 10
95.48964660252074
 20
102.2485506550556
 30
0.0
 11
97.89308907863095
 21
98.24855065505562
 31
0.0
  0
LINE
  5
E9
330
1F
100
AcDbEntity
  8
1
  6
CONTINUOUS
 62
     7
100
AcDbLine
 10
91.58405257884156
 20
108.7485506550556
 30
0.0
 11
93.98749505495182
 21
104.7485506550556
 31
0.0
  0
CIRCLE
  5
EA
330
1F
100
AcDbEntity
  8
1
  6
CONTINUOUS
 62
     7
100
AcDbCircle
 10
43.63492914047452
 20
71.24855065505561
 30
0.0
 40
2.500000000000002
  0
ELLIPSE
  5
EB
330
1F
100
AcDbEntity
  8
1
  6
CONTINUOUS
 62
     7
100
AcDbEllipse
 10
47.88376601517044
 20
62.44463058062123
 30
0.0
 11
-0.4330327755235694
 21
0.2500115895164636
 31
0.0
210
0.0
220
0.0
230
-1.0
 40
0.9999536440831197
 41
1.570796326794899
 42
2.705278096084458
  0
LINE
  5
EC
330
1F
100
AcDbEntity
  8
1
  6
CONTINUOUS
 62
     7
100
AcDbLine
 10
48.13376601517044
 20
62.87764328251345
 30
0.0
 11
41.13492914047451
 21
66.91842363613343
 31
0.0
  0
ARC
  5
ED
330
1F
100
AcDbEntity
  8
1
  6
CONTINUOUS
 62
     7
100
AcDbCircle
 10
-43.63492914047452
 20
71.24855065505561
 30
0.0
 40
4.999999999999998
210
0.0
220
0.0
230
-1.0
100
AcDbArc
 50
300.0000000000001
 51
60.0
  0
LINE
  5
EE
330
1F
100
AcDbEntity
  8
1
  6
CONTINUOUS
 62
     7
100
AcDbLine
 10
41.13492914047451
 20
75.5786776739778
 30
0.0
 11
49.75620438069459
 21
80.55617325467671
 31
0.0
  0
ELLIPSE
  5
EF
330
1F
100
AcDbEntity
  8
1
  6
CONTINUOUS
 62
     7
100
AcDbEllipse
 10
49.50620438069459
 20
80.98918595656893
 30
0.0
 11
-0.433037274207121
 21
-0.2500141868326229
 31
0.0
210
0.0
220
0.0
230
-1.0
 40
0.9999432558895763
 41
3.752431230279137
 42
4.71238898038469
  0
LINE
  5
F0
330
1F
100
AcDbEntity
  8
1
  6
CONTINUOUS
 62
     7
100
AcDbLine
 10
53.48215154756891
 20
88.74855065505562
 30
0.0
 11
54.41054983710856
 21
90.29366487978578
 31
0.0
  0
ARC
  5
F1
330
1F
100
AcDbEntity
  8
1
  6
CONTINUOUS
 62
     7
100
AcDbCircle
 10
56.9820517392149
 20
88.74855065505561
 30
0.0
 40
3.000000000000005
100
AcDbArc
 50
115.4426902380533
 51
148.9999999999999
  0
LINE
  5
F2
330
1F
100
AcDbEntity
  8
1
  6
CONTINUOUS
 62
     7
100
AcDbLine
 10
57.02887181832495
 20
93.6804824181064
 30
0.0
 11
55.69322751107227
 21
91.45759700182747
 31
0.0
  0
LINE
  5
F3
330
1F
100
AcDbEntity
  8
1
  6
CONTINUOUS
 62
     7
100
AcDbLine
 10
56.88689344277325
 20
94.0139910502043
 30
0.0
 11
57.02887181832494
 21
93.6804824181064
 31
0.0
  0
ARC
  5
F4
330
1F
100
AcDbEntity
  8
1
  6
CONTINUOUS
 62
     7
100
AcDbCircle
 10
57.34694103083478
 20
94.20983848245392
 30
0.0
 40
0.499999999999996
100
AcDbArc
 50
149.0000000000005
 51
203.0600000000005
  0
LINE
  5
F5
330
1F
100
AcDbEntity
  8
1
  6
CONTINUOUS
 62
     7
100
AcDbLine
 10
58.3161438607877
 20
96.79366487978578
 30
0.0
 11
56.91835738048373
 21
94.46735751990892
 31
0.0
  0
ARC
  5
F6
330
1F
100
AcDbEntity
  8
1
  6
CONTINUOUS
 62
     7
100
AcDbCircle
 10
60.88764576289405
 20
95.24855065505562
 30
0.0
 40
2.999999999999996
100
AcDbArc
 50
115.4426902380534
 51
149.0
  0
LINE
  5
F7
330
1F
100
AcDbEntity
  8
1
  6
CONTINUOUS
 62
     7
100
AcDbLine
 10
60.93446584200409
 20
100.1804824181064
 30
0.0
 11
59.5988215347514
 21
97.95759700182748
 31
0.0
  0
LINE
  5
F8
330
1F
100
AcDbEntity
  8
1
  6
CONTINUOUS
 62
     7
100
AcDbLine
 10
60.79248746645241
 20
100.5139910502043
 30
0.0
 11
60.9344658420041
 21
100.1804824181064
 31
0.0
  0
ARC
  5
F9
330
1F
100
AcDbEntity
  8
1
  6
CONTINUOUS
 62
     7
100
AcDbCircle
 10
61.25253505451393
 20
100.7098384824539
 30
0.0
 40
0.4999999999999996
100
AcDbArc
 50
149.0000000000003
 51
203.06
  0
LINE
  5
FA
330
1F
100
AcDbEntity
  8
1
  6
CONTINUOUS
 62
     7
100
AcDbLine
 10
62.22173788446685
 20
103.2936648797858
 30
0.0
 11
60.82395140416288
 21
100.967357519909
 31
0.0
  0
ARC
  5
FB
330
1F
100
AcDbEntity
  8
1
  6
CONTINUOUS
 62
     7
100
AcDbCircle
 10
64.7932397865732
 20
101.7485506550556
 30
0.0
 40
2.999999999999999
100
AcDbArc
 50
115.4426902380532
 51
148.9999999999999
  0
LINE
  5
FC
330
1F
100
AcDbEntity
  8
1
  6
CONTINUOUS
 62
     7
100
AcDbLine
 10
64.84005986568324
 20
106.6804824181064
 30
0.0
 11
63.50441555843056
 21
104.4575970018275
 31
0.0
  0
LINE
  5
FD
330
1F
100
AcDbEntity
  8
1
  6
CONTINUOUS
 62
     7
100
AcDbLine
 10
64.69808149013156
 20
107.0139910502044
 30
0.0
 11
64.84005986568327
 21
106.6804824181064
 31
0.0
  0
ARC
  5
FE
330
1F
100
AcDbEntity
  8
1
  6
CONTINUOUS
 62
     7
100
AcDbCircle
 10
65.1581290781931
 20
107.2098384824539
 30
0.0
 40
0.500000000000002
100
AcDbArc
 50
148.9999999999999
 51
203.0599999999991
  0
LINE
  5
FF
330
1F
100
AcDbEntity
  8
1
  6
CONTINUOUS
 62
     7
100
AcDbLine
 10
66.12623315465186
 20
109.7918362468893
 30
0.0
 11
64.72954542784204
 21
107.467357519909
 31
0.0
  0
ELLIPSE
  5
100
330
1F
100
AcDbEntity
  8
1
  6
CONTINUOUS
 62
     7
100
AcDbEllipse
 10
68.69773505675819
 20
108.2467220221592
 30
0.0
 11
1.54639592632374
 21
2.573635011771022
 31
0.0
210
0.0
220
0.0
230
1.0
 40
0.9991711685398558
 41
0.5406860802974334
 42
1.570796326794897
  0
LINE
  5
101
330
1F
100
AcDbEntity
  8
1
  6
CONTINUOUS
 62
     7
100
AcDbLine
 10
68.69993189441554
 20
111.2485506550556
 30
0.0
 11
70.00151547568903
 21
111.2485506550556
 31
0.0
  0
LINE
  5
102
330
1F
100
AcDbEntity
  8
1
  6
CONTINUOUS
 62
     7
100
AcDbLine
 10
70.00151547568902
 20
108.7485506550556
 30
0.0
 11
70.00151547568903
 21
111.2485506550556
 31
0.0
  0
LINE
  5
103
330
1F
100
AcDbEntity
  8
1
  6
CONTINUOUS
 62
     7
100
AcDbLine
 10
68.41594742115846
 20
108.7485506550556
 30
0.0
 11
70.00151547568902
 21
108.7485506550556
 31
0.0
  0
LINE
  5
104
330
1F
100
AcDbEntity
  8
1
  6
CONTINUOUS
 62
     7
100
AcDbLine
 10
64.51035339747929
 20
102.2485506550556
 30
0.0
 11
66.0125049450482
 21
102.2485506550556
 31
0.0
  0
LINE
  5
105
330
1F
100
AcDbEntity
  8
1
  6
CONTINUOUS
 62
     7
100
AcDbLine
 10
60.60475937380015
 20
95.74855065505562
 30
0.0
 11
62.10691092136907
 21
95.74855065505562
 31
0.0
  0
LINE
  5
106
330
1F
100
AcDbEntity
  8
1
  6
CONTINUOUS
 62
     7
100
AcDbLine
 10
49.25
 20
28.74855065505562
 30
0.0
 11
48.15982698748281
 21
28.74855065505562
 31
0.0
  0
ELLIPSE
  5
107
330
1F
100
AcDbEntity
  8
1
  6
CONTINUOUS
 62
     7
100
AcDbEllipse
 10
48.15986041317259
 20
29.24885542720503
 30
0.0
 11
0.02740251615519608
 21
0.4995546861627372
 31
0.0
210
0.0
220
0.0
230
1.0
 40
0.9993889957283087
 41
1.823138580416811
 42
3.196358206414893
  0
LINE
  5
108
330
1F
100
AcDbEntity
  8
1
  6
CONTINUOUS
 62
     7
100
AcDbLine
 10
46.75000000000001
 20
33.74855065505562
 30
0.0
 11
47.66958038606725
 21
29.15064872471939
 31
0.0
  0
LINE
  5
109
330
1F
100
AcDbEntity
  8
1
  6
CONTINUOUS
 62
     7
100
AcDbLine
 10
46.75000000000001
 20
33.74855065505562
 30
0.0
 11
46.75000000000001
 21
39.38262261169645
 31
0.0
  0
ELLIPSE
  5
10A
330
1F
100
AcDbEntity
  8
1
  6
CONTINUOUS
 62
     7
100
AcDbEllipse
 10
146.7538078385737
 20
39.38229011038174
 30
0.0
 11
99.90863362429249
 21
-4.362105148737464
 31
0.0
210
0.0
220
0.0
230
1.0
 40
0.9999618504831024
 41
3.097961084764794
 42
3.185224222414787
  0
LINE
  5
10B
330
1F
100
AcDbEntity
  8
1
  6
CONTINUOUS
 62
     7
100
AcDbLine
 10
50.00432302025298
 20
80.94563298662729
 30
0.0
 11
50.56719413704219
 21
87.37927929124169
 31
0.0
  0
LINE
  5
10C
330
1F
100
AcDbEntity
  8
1
  6
CONTINUOUS
 62
     7
100
AcDbLine
 10
47.13051570140179
 20
48.09786502409991
 30
0.0
 11
48.38188078343023
 21
62.40103336153417
 31
0.0
  0
LINE
  5
10D
330
1F
100
AcDbEntity
  8
1
  6
CONTINUOUS
 62
     7
100
AcDbLine
 10
53.48215154756891
 20
88.74855065505562
 30
0.0
 11
52.0615439554512
 21
88.74855065505562
 31
0.0
  0
LINE
  5
10E
330
1F
100
AcDbEntity
  8
1
  6
CONTINUOUS
 62
     7
100
AcDbLine
 10
56.69916535012101
 20
89.24855065505561
 30
0.0
 11
58.20131689768991
 21
89.24855065505561
 31
0.0
  0
LINE
  5
10F
330
1F
100
AcDbEntity
  8
1
  6
CONTINUOUS
 62
     7
100
AcDbLine
 10
54.89658349303832
 20
86.24855065505562
 30
0.0
 11
56.69916535012101
 21
89.24855065505561
 31
0.0
  0
LINE
  5
110
330
1F
100
AcDbEntity
  8
1
  6
CONTINUOUS
 62
     7
100
AcDbLine
 10
58.20131689768991
 20
91.74855065505562
 30
0.0
 11
58.20131689768991
 21
89.24855065505561
 31
0.0
  0
LINE
  5
111
330
1F
100
AcDbEntity
  8
1
  6
CONTINUOUS
 62
     7
100
AcDbLine
 10
60.60475937380015
 20
95.74855065505562
 30
0.0
 11
58.20131689768991
 21
91.74855065505562
 31
0.0
  0
LINE
  5
112
330
1F
100
AcDbEntity
  8
1
  6
CONTINUOUS
 62
     7
100
AcDbLine
 10
62.10691092136907
 20
95.74855065505562
 30
0.0
 11
62.10691092136906
 21
98.24855065505562
 31
0.0
  0
LINE
  5
113
330
1F
100
AcDbEntity
  8
1
  6
CONTINUOUS
 62
     7
100
AcDbLine
 10
66.0125049450482
 20
102.2485506550556
 30
0.0
 11
66.0125049450482
 21
104.7485506550556
 31
0.0
  0
LINE
  5
114
330
1F
100
AcDbEntity
  8
1
  6
CONTINUOUS
 62
     7
100
AcDbLine
 10
64.51035339747929
 20
102.2485506550556
 30
0.0
 11
62.10691092136906
 21
98.24855065505562
 31
0.0
  0
LINE
  5
115
330
1F
100
AcDbEntity
  8
1
  6
CONTINUOUS
 62
     7
100
AcDbLine
 10
68.41594742115846
 20
108.7485506550556
 30
0.0
 11
66.0125049450482
 21
104.7485506550556
 31
0.0
  0
ELLIPSE
  5
116
330
1F
100
AcDbEntity
  8
1
  6
CONTINUOUS
 62
     7
100
AcDbEllipse
 10
78.001515475689
 20
110.7772446966076
 30
0.0
 11
8.000000000000007
 21
0.0
 31
0.0
210
0.0
220
0.0
230
1.0
 40
0.0349207694917477
 41
3.14159265358979
 42
4.71238898038469
  0
ELLIPSE
  5
117
330
1F
100
AcDbEntity
  8
1
  6
CONTINUOUS
 62
     7
100
AcDbEllipse
 10
81.99848452431102
 20
110.7772446966076
 30
0.0
 11
-8.000000000000023
 21
0.0
 31
0.0
210
0.0
220
0.0
230
-1.0
 40
0.0349207694917476
 41
3.14159265358979
 42
4.71238898038469
  0
LINE
  5
118
330
1F
100
AcDbEntity
  8
1
  6
CONTINUOUS
 62
     7
100
AcDbLine
 10
66.0125049450482
 20
102.2485506550556
 30
0.0
 11
66.08803843821292
 21
102.2485506550556
 31
0.0
  0
LINE
  5
119
330
1F
100
AcDbEntity
  8
1
  6
CONTINUOUS
 62
     7
100
AcDbLine
 10
93.98749505495182
 20
102.2485506550556
 30
0.0
 11
93.91196156178711
 21
102.2485506550556
 31
0.0
  0
LINE
  5
11A
330
1F
100
AcDbEntity
  8
1
  6
CONTINUOUS
 62
     7
100
AcDbLine
 10
78.001515475689
 20
110.4978785406736
 30
0.0
 11
81.99848452431102
 21
110.4978785406736
 31
0.0
  0
LINE
  5
11B
330
1F
100
AcDbEntity
  8
1
  6
CONTINUOUS
 62
     7
100
AcDbLine
 10
54.20236893322524
 20
30.16284181947142
 30
0.0
 11
50.01277168483476
 21
30.13899969269337
 31
0.0
  0
LINE
  5
11C
330
1F
100
AcDbEntity
  8
1
  6
CONTINUOUS
 62
     7
100
AcDbLine
 10
105.7976310667748
 20
30.16284181947142
 30
0.0
 11
109.9872283151652
 21
30.13899969269337
 31
0.0
  0
LINE
  5
11D
330
1F
100
AcDbEntity
  8
1
  6
CONTINUOUS
 62
     7
100
AcDbLine
 10
50.01277168483251
 20
30.13899969269336
 30
0.0
 11
49.59321133808288
 21
30.12191900570691
 31
0.0
  0
LINE
  5
11E
330
1F
100
AcDbEntity
  8
1
  6
CONTINUOUS
 62
     7
100
AcDbLine
 10
109.9872283151675
 20
30.13899969269336
 30
0.0
 11
110.3384408309843
 21
30.13061781027793
 31
0.0
  0
LINE
  5
11F
330
1F
100
AcDbEntity
  8
1
  6
CONTINUOUS
 62
     7
100
AcDbLine
 10
110.3384408309843
 20
30.13061781027793
 30
0.0
 11
110.4067886619171
 21
30.12191900570691
 31
0.0
  0
LINE
  5
120
330
1F
100
AcDbEntity
  8
1
  6
CONTINUOUS
 62
     7
100
AcDbLine
 10
54.20236893322525
 20
30.16284181947141
 30
0.0
 11
105.7976310667748
 21
30.16284181947141
 31
0.0
  0
LINE
  5
121
330
1F
100
AcDbEntity
  8
1
  6
CONTINUOUS
 62
     7
100
AcDbLine
 10
89.99848452431098
 20
128.4674414706698
 30
0.0
 11
89.998484524311
 21
141.9638782705358
 31
0.0
  0
ARC
  5
122
330
1F
100
AcDbEntity
  8
1
  6
CONTINUOUS
 62
     7
100
AcDbCircle
 10
81.99848452431101
 20
141.9638782705358
 30
0.0
 40
8.000000000000023
100
AcDbArc
 50
0.0
 51
90.0
  0
LINE
  5
123
330
1F
100
AcDbEntity
  8
1
  6
CONTINUOUS
 62
     7
100
AcDbLine
 10
78.00151547568899
 20
149.9638782705358
 30
0.0
 11
81.99848452431101
 21
149.9638782705358
 31
0.0
  0
ARC
  5
124
330
1F
100
AcDbEntity
  8
1
  6
CONTINUOUS
 62
     7
100
AcDbCircle
 10
-78.00151547568899
 20
141.9638782705358
 30
0.0
 40
8.000000000000007
210
0.0
220
0.0
230
-1.0
100
AcDbArc
 50
0.0
 51
90.0
  0
LINE
  5
125
330
1F
100
AcDbEntity
  8
1
  6
CONTINUOUS
 62
     7
100
AcDbLine
 10
70.001515475689
 20
128.4674414706698
 30
0.0
 11
70.00151547568899
 21
141.9638782705358
 31
0.0
  0
LINE
  5
126
330
1F
100
AcDbEntity
  8
1
  6
CONTINUOUS
 62
     7
100
AcDbLine
 10
63.50441555843171
 20
132.3168390224929
 30
0.0
 11
63.50441555843056
 21
128.4674414706698
 31
0.0
  0
LINE
  5
127
330
1F
100
AcDbEntity
  8
1
  6
CONTINUOUS
 62
     7
100
AcDbLine
 10
64.65840727058863
 20
133.3109552568636
 30
0.0
 11
63.50441555843171
 21
132.3168390224929
 31
0.0
  0
LINE
  5
128
330
1F
100
AcDbEntity
  8
1
  6
CONTINUOUS
 62
     7
100
AcDbLine
 10
95.34159272941136
 20
133.3109552568636
 30
0.0
 11
96.49558444156825
 21
132.3168390224929
 31
0.0
  0
LINE
  5
129
330
1F
100
AcDbEntity
  8
1
  6
CONTINUOUS
 62
     7
100
AcDbLine
 10
96.49558444156827
 20
132.3168390224929
 30
0.0
 11
96.49558444156945
 21
128.4674414706698
 31
0.0
  0
LINE
  5
12A
330
1F
100
AcDbEntity
  8
1
  6
CONTINUOUS
 62
     7
100
AcDbLine
 10
81.89748361205827
 20
157.2056392704453
 30
0.0
 11
78.10251638794173
 21
157.2056392704453
 31
0.0
  0
LINE
  5
12B
330
1F
100
AcDbEntity
  8
1
  6
CONTINUOUS
 62
     7
100
AcDbLine
 10
81.89748361205827
 20
157.2056392704453
 30
0.0
 11
82.88185786974593
 21
155.8875706548404
 31
0.0
  0
LINE
  5
12C
330
1F
100
AcDbEntity
  8
1
  6
CONTINUOUS
 62
     7
100
AcDbLine
 10
78.10251638794172
 20
157.2056392704453
 30
0.0
 11
77.11814213025406
 21
155.8875706548404
 31
0.0
  0
LINE
  5
12D
330
1F
100
AcDbEntity
  8
1
  6
CONTINUOUS
 62
     7
100
AcDbLine
 10
59.59882153475256
 20
132.3168390224929
 30
0.0
 11
59.59882153475139
 21
128.4674414706698
 31
0.0
  0
LINE
  5
12E
330
1F
100
AcDbEntity
  8
1
  6
CONTINUOUS
 62
     7
100
AcDbLine
 10
60.75281325888349
 20
133.3109552671787
 30
0.0
 11
59.59882153475257
 21
132.3168390224928
 31
0.0
  0
LINE
  5
12F
330
1F
100
AcDbEntity
  8
1
  6
CONTINUOUS
 62
     7
100
AcDbLine
 10
99.2471867411165
 20
133.3109552671787
 30
0.0
 11
100.4011784652474
 21
132.3168390224928
 31
0.0
  0
LINE
  5
130
330
1F
100
AcDbEntity
  8
1
  6
CONTINUOUS
 62
     7
100
AcDbLine
 10
100.4011784652474
 20
132.3168390224929
 30
0.0
 11
100.4011784652486
 21
128.4674414706698
 31
0.0
  0
LINE
  5
131
330
1F
100
AcDbEntity
  8
1
  6
CONTINUOUS
 62
     7
100
AcDbLine
 10
81.89748361205827
 20
161.9281657024801
 30
0.0
 11
78.10251638794172
 21
161.9281657024801
 31
0.0
  0
LINE
  5
132
330
1F
100
AcDbEntity
  8
1
  6
CONTINUOUS
 62
     7
100
AcDbLine
 10
81.89748361205827
 20
161.9281657024801
 30
0.0
 11
82.88185786974593
 21
160.6100970868752
 31
0.0
  0
LINE
  5
133
330
1F
100
AcDbEntity
  8
1
  6
CONTINUOUS
 62
     7
100
AcDbLine
 10
78.10251638794172
 20
161.9281657024801
 30
0.0
 11
77.11814213025406
 21
160.6100970868752
 31
0.0
  0
LINE
  5
134
330
1F
100
AcDbEntity
  8
1
  6
CONTINUOUS
 62
     7
100
AcDbLine
 10
55.69322751107342
 20
132.3168390224929
 30
0.0
 11
55.69322751107224
 21
128.4674414706698
 31
0.0
  0
LINE
  5
135
330
1F
100
AcDbEntity
  8
1
  6
CONTINUOUS
 62
     7
100
AcDbLine
 10
56.84721931563534
 20
133.3109553364667
 30
0.0
 11
55.69322751107342
 21
132.3168390224929
 31
0.0
  0
LINE
  5
136
330
1F
100
AcDbEntity
  8
1
  6
CONTINUOUS
 62
     7
100
AcDbLine
 10
103.1527806843647
 20
133.3109553364667
 30
0.0
 11
104.3067724889266
 21
132.3168390224929
 31
0.0
  0
LINE
  5
137
330
1F
100
AcDbEntity
  8
1
  6
CONTINUOUS
 62
     7
100
AcDbLine
 10
104.3067724889266
 20
132.3168390224929
 30
0.0
 11
104.3067724889277
 21
128.4674414706698
 31
0.0
  0
LINE
  5
138
330
1F
100
AcDbEntity
  8
1
  6
CONTINUOUS
 62
     7
100
AcDbLine
 10
81.89748361205827
 20
166.650692134515
 30
0.0
 11
78.10251638794172
 21
166.650692134515
 31
0.0
  0
LINE
  5
139
330
1F
100
AcDbEntity
  8
1
  6
CONTINUOUS
 62
     7
100
AcDbLine
 10
81.89748361205827
 20
166.650692134515
 30
0.0
 11
82.88185786974593
 21
165.3326235189101
 31
0.0
  0
LINE
  5
13A
330
1F
100
AcDbEntity
  8
1
  6
CONTINUOUS
 62
     7
100
AcDbLine
 10
78.10251638794172
 20
166.6506921345149
 30
0.0
 11
77.11814213025407
 21
165.33262351891
 31
0.0
  0
ARC
  5
13B
330
1F
100
AcDbEntity
  8
1
  6
CONTINUOUS
 62
     7
100
AcDbCircle
 10
-67.98218889861337
 20
154.8112505184056
 30
0.0
 40
14.50018787605917
210
0.0
220
0.0
230
-1.0
100
AcDbArc
 50
0.2610691346609163
 51
89.60006540176425
  0
ARC
  5
13C
330
1F
100
AcDbEntity
  8
1
  6
CONTINUOUS
 62
     7
100
AcDbCircle
 10
92.01781110138664
 20
154.8112505184056
 30
0.0
 40
14.50018787605913
100
AcDbArc
 50
0.2610691346607114
 51
89.60006540176437
  0
LINE
  5
13D
330
1F
100
AcDbEntity
  8
1
  6
CONTINUOUS
 62
     7
100
AcDbLine
 10
92.11902413610377
 20
169.3110851506563
 30
0.0
 11
67.88097586389621
 21
169.3110851506562
 31
0.0
  0
LINE
  5
13E
330
1F
100
AcDbEntity
  8
1
  6
CONTINUOUS
 62
     7
100
AcDbLine
 10
53.48215154756888
 20
128.4674414706698
 30
0.0
 11
53.48215154756839
 21
154.8773206274824
 31
0.0
  0
LINE
  5
13F
330
1F
100
AcDbEntity
  8
1
  6
CONTINUOUS
 62
     7
100
AcDbLine
 10
106.5178484524311
 20
128.4674414706698
 30
0.0
 11
106.5178484524316
 21
154.8773206274824
 31
0.0
  0
LINE
  5
140
330
1F
100
AcDbEntity
  8
1
  6
CONTINUOUS
 62
     7
100
AcDbLine
 10
47.53134768029307
 20
170.4132907222731
 30
0.0
 11
47.537834002194
 21
170.4133038257065
 31
0.0
  0
LINE
  5
141
330
1F
100
AcDbEntity
  8
1
  6
CONTINUOUS
 62
     7
100
AcDbLine
 10
53.60441040439191
 20
171.4029750180522
 30
0.0
 11
47.5308979099682
 21
170.4132174263683
 31
0.0
  0
LINE
  5
142
330
1F
100
AcDbEntity
  8
1
  6
CONTINUOUS
 62
     7
100
AcDbLine
 10
106.3955895956081
 20
171.4029750180522
 30
0.0
 11
112.4691020900318
 21
170.4132174263683
 31
0.0
  0
LINE
  5
143
330
1F
100
AcDbEntity
  8
1
  6
CONTINUOUS
 62
     7
100
AcDbLine
 10
112.4686523197069
 20
170.4132907222731
 30
0.0
 11
112.462165997806
 21
170.4133038257065
 31
0.0
  0
LINE
  5
144
330
1F
100
AcDbEntity
  8
1
  6
CONTINUOUS
 62
     7
100
AcDbLine
 10
41.63492914047449
 20
133.4674414706698
 30
0.0
 11
49.39735239878147
 21
133.4674414706698
 31
0.0
  0
LINE
  5
145
330
1F
100
AcDbEntity
  8
1
  6
CONTINUOUS
 62
     7
100
AcDbLine
 10
118.3650708595255
 20
133.4674414706698
 30
0.0
 11
110.6026476012185
 21
133.4674414706698
 31
0.0
  0
LINE
  5
146
330
1F
100
AcDbEntity
  8
1
  6
CONTINUOUS
 62
     7
100
AcDbLine
 10
39.6349291404745
 20
133.4674414706698
 30
0.0
 11
41.63492914047449
 21
133.4674414706698
 31
0.0
  0
LINE
  5
147
330
1F
100
AcDbEntity
  8
1
  6
CONTINUOUS
 62
     7
100
AcDbLine
 10
120.3650708595255
 20
133.4674414706698
 30
0.0
 11
118.3650708595255
 21
133.4674414706698
 31
0.0
  0
LINE
  5
148
330
1F
100
AcDbEntity
  8
1
  6
CONTINUOUS
 62
     7
100
AcDbLine
 10
46.79363433895378
 20
133.4674414706698
 30
0.0
 11
47.11178733518818
 21
169.9241638437646
 31
0.0
  0
LINE
  5
149
330
1F
100
AcDbEntity
  8
1
  6
CONTINUOUS
 62
     7
100
AcDbLine
 10
113.2063656610462
 20
133.4674414706698
 30
0.0
 11
112.8882126648118
 21
169.9241638437646
 31
0.0
  0
LINE
  5
14A
330
1F
100
AcDbEntity
  8
1
  6
CONTINUOUS
 62
     7
100
AcDbLine
 10
47.11815677816987
 20
169.9235315562435
 30
0.0
 11
47.11178733518817
 21
169.9241638437645
 31
0.0
  0
LINE
  5
14B
330
1F
100
AcDbEntity
  8
1
  6
CONTINUOUS
 62
     7
100
AcDbLine
 10
112.881843282987
 20
169.9235315626833
 30
0.0
 11
112.8882126648118
 21
169.9241638437645
 31
0.0
  0
ARC
  5
14C
330
1F
100
AcDbEntity
  8
1
  6
CONTINUOUS
 62
     7
100
AcDbCircle
 10
84.63453512616613
 20
145.1929104214965
 30
0.0
 40
10.69703132417073
100
AcDbArc
 50
6.911501757687654
 51
85.72660080933765
  0
ARC
  5
14D
330
1F
100
AcDbEntity
  8
1
  6
CONTINUOUS
 62
     7
100
AcDbCircle
 10
75.36447760875977
 20
145.1939451272681
 30
0.0
 40
10.69592596674066
100
AcDbArc
 50
94.26853834487686
 51
173.0922280532976
  0
LINE
  5
14E
330
1F
100
AcDbEntity
  8
1
  6
CONTINUOUS
 62
     7
100
AcDbLine
 10
64.74785929949975
 20
146.4898783593832
 30
0.0
 11
64.658185491971
 21
145.1315112664738
 31
0.0
  0
LINE
  5
14F
330
1F
100
AcDbEntity
  8
1
  6
CONTINUOUS
 62
     7
100
AcDbLine
 10
95.34181450802899
 20
145.1315112664735
 30
0.0
 11
95.25214070050023
 21
146.4898783593832
 31
0.0
  0
LINE
  5
150
330
1F
100
AcDbEntity
  8
1
  6
CONTINUOUS
 62
     7
100
AcDbLine
 10
64.65840729407945
 20
145.1324461478216
 30
0.0
 11
64.65840726072541
 21
128.4674414706698
 31
0.0
  0
LINE
  5
151
330
1F
100
AcDbEntity
  8
1
  6
CONTINUOUS
 62
     7
100
AcDbLine
 10
95.34159273927457
 20
128.4674414706698
 30
0.0
 11
95.34159270592053
 21
145.1324461478213
 31
0.0
  0
LINE
  5
152
330
1F
100
AcDbEntity
  8
1
  6
CONTINUOUS
 62
     7
100
AcDbLine
 10
75.13592890963228
 20
155.8875603712836
 30
0.0
 11
74.56434260062939
 21
155.8599236501917
 31
0.0
  0
LINE
  5
153
330
1F
100
AcDbEntity
  8
1
  6
CONTINUOUS
 62
     7
100
AcDbLine
 10
85.4356573993706
 20
155.8599236501917
 30
0.0
 11
84.8640710903677
 21
155.8875603712836
 31
0.0
  0
LINE
  5
154
330
1F
100
AcDbEntity
  8
1
  6
CONTINUOUS
 62
     7
100
AcDbLine
 10
84.86444329275169
 20
155.8875706548404
 30
0.0
 11
79.99999999999999
 21
155.8875706548404
 31
0.0
  0
LINE
  5
155
330
1F
100
AcDbEntity
  8
1
  6
CONTINUOUS
 62
     7
100
AcDbLine
 10
80.0
 20
155.8875706548404
 30
0.0
 11
75.13555670724831
 21
155.8875706548404
 31
0.0
  0
ARC
  5
156
330
1F
100
AcDbEntity
  8
1
  6
CONTINUOUS
 62
     7
100
AcDbCircle
 10
87.24078070546666
 20
148.6139427424876
 30
0.0
 40
11.99731519817981
100
AcDbArc
 50
6.022080436018628
 51
86.13211420751308
  0
ARC
  5
157
330
1F
100
AcDbEntity
  8
1
  6
CONTINUOUS
 62
     7
100
AcDbCircle
 10
72.75889133021839
 20
148.6142829682149
 30
0.0
 40
11.99695362807508
100
AcDbArc
 50
93.86643265568087
 51
173.9797319421965
  0
LINE
  5
158
330
1F
100
AcDbEntity
  8
1
  6
CONTINUOUS
 62
     7
100
AcDbLine
 10
60.82957637728904
 20
149.8819996029608
 30
0.0
 11
60.75262668831856
 21
148.5339021596538
 31
0.0
  0
LINE
  5
159
330
1F
100
AcDbEntity
  8
1
  6
CONTINUOUS
 62
     7
100
AcDbLine
 10
99.24737331168143
 20
148.5339021596537
 30
0.0
 11
99.17042362271094
 21
149.8819996029608
 31
0.0
  0
LINE
  5
15A
330
1F
100
AcDbEntity
  8
1
  6
CONTINUOUS
 62
     7
100
AcDbLine
 10
60.75281332605146
 20
148.5347966309696
 30
0.0
 11
60.75281323704625
 21
128.4674414107834
 31
0.0
  0
LINE
  5
15B
330
1F
100
AcDbEntity
  8
1
  6
CONTINUOUS
 62
     7
100
AcDbLine
 10
99.24718676295373
 20
128.4674414107834
 30
0.0
 11
99.24718667394852
 21
148.5347966309694
 31
0.0
  0
LINE
  5
15C
330
1F
100
AcDbEntity
  8
1
  6
CONTINUOUS
 62
     7
100
AcDbLine
 10
72.56401311847247
 20
160.6100884739436
 30
0.0
 11
71.94572794152582
 21
160.5836683886193
 31
0.0
  0
LINE
  5
15D
330
1F
100
AcDbEntity
  8
1
  6
CONTINUOUS
 62
     7
100
AcDbLine
 10
88.0542720584742
 20
160.5836683886194
 30
0.0
 11
87.43598688152757
 21
160.6100884739436
 31
0.0
  0
LINE
  5
15E
330
1F
100
AcDbEntity
  8
1
  6
CONTINUOUS
 62
     7
100
AcDbLine
 10
80.0
 20
160.6100970868752
 30
0.0
 11
72.56367499186514
 21
160.6100970868752
 31
0.0
  0
LINE
  5
15F
330
1F
100
AcDbEntity
  8
1
  6
CONTINUOUS
 62
     7
100
AcDbLine
 10
87.43632500813492
 20
160.6100970868752
 30
0.0
 11
80.0
 21
160.6100970868752
 31
0.0
  0
ARC
  5
160
330
1F
100
AcDbEntity
  8
1
  6
CONTINUOUS
 62
     7
100
AcDbCircle
 10
89.84333848791282
 20
152.0315465152752
 30
0.0
 40
13.30143823116654
100
AcDbArc
 50
5.281963940021333
 51
86.58218193722044
  0
ARC
  5
161
330
1F
100
AcDbEntity
  8
1
  6
CONTINUOUS
 62
     7
100
AcDbCircle
 10
70.15584304243073
 20
152.0323920570275
 30
0.0
 40
13.30054542089343
100
AcDbArc
 50
93.41451569801578
 51
174.7213384247432
  0
LINE
  5
162
330
1F
100
AcDbEntity
  8
1
  6
CONTINUOUS
 62
     7
100
AcDbLine
 10
56.91213072693835
 20
153.2563420773654
 30
0.0
 11
56.84697774764579
 21
151.9070640280866
 31
0.0
  0
LINE
  5
163
330
1F
100
AcDbEntity
  8
1
  6
CONTINUOUS
 62
     7
100
AcDbLine
 10
103.1530222523542
 20
151.9070640280866
 30
0.0
 11
103.0878692730616
 21
153.2563420773655
 31
0.0
  0
LINE
  5
164
330
1F
100
AcDbEntity
  8
1
  6
CONTINUOUS
 62
     7
100
AcDbLine
 10
56.84721970041306
 20
151.9168521974132
 30
0.0
 11
56.84721921336712
 21
128.4674411942459
 31
0.0
  0
LINE
  5
165
330
1F
100
AcDbEntity
  8
1
  6
CONTINUOUS
 62
     7
100
AcDbLine
 10
103.1527807866329
 20
128.4674411942459
 30
0.0
 11
103.1527802995869
 21
151.9168521974126
 31
0.0
  0
LINE
  5
166
330
1F
100
AcDbEntity
  8
1
  6
CONTINUOUS
 62
     7
100
AcDbLine
 10
90.63581308027962
 20
165.3093546290015
 30
0.0
 11
89.97327504007275
 21
165.3330040259999
 31
0.0
  0
LINE
  5
167
330
1F
100
AcDbEntity
  8
1
  6
CONTINUOUS
 62
     7
100
AcDbLine
 10
70.02672495992778
 20
165.3330040259999
 30
0.0
 11
69.36418691972035
 21
165.3093546290014
 31
0.0
  0
ARC
  5
168
330
1F
100
AcDbEntity
  8
1
  6
CONTINUOUS
 62
     7
100
AcDbCircle
 10
90.60837900938859
 20
164.8101550252478
 30
0.0
 40
0.5000000000000001
100
AcDbArc
 50
86.78586232447687
 51
86.84409888736182
  0
LINE
  5
169
330
1F
100
AcDbEntity
  8
1
  6
CONTINUOUS
 62
     7
100
AcDbLine
 10
80.0
 20
165.3326235189101
 30
0.0
 11
70.02644626333982
 21
165.33262351891
 31
0.0
  0
LINE
  5
16A
330
1F
100
AcDbEntity
  8
1
  6
CONTINUOUS
 62
     7
100
AcDbLine
 10
89.97355373666072
 20
165.3326235189101
 30
0.0
 11
80.0
 21
165.3326235189101
 31
0.0
  0
ARC
  5
16B
330
1F
100
AcDbEntity
  8
1
  6
CONTINUOUS
 62
     7
100
AcDbCircle
 10
54.40473786645051
 20
166.4674414706698
 30
0.0
 40
4.999999999999997
100
AcDbArc
 50
90.0
 51
99.25572774455225
  0
ARC
  5
16C
330
1F
100
AcDbEntity
  8
1
  6
CONTINUOUS
 62
     7
100
AcDbCircle
 10
105.5952621335495
 20
166.4674414706698
 30
0.0
 40
5.000000000000002
100
AcDbArc
 50
80.74427225544778
 51
90.00000000000001
  0
ARC
  5
16D
330
1F
100
AcDbEntity
  8
1
  6
CONTINUOUS
 62
     7
100
AcDbCircle
 10
39.6349291404745
 20
132.4674414706698
 30
0.0
 40
1.000000000000001
100
AcDbArc
 50
90.0
 51
180.0
  0
LINE
  5
16E
330
1F
100
AcDbEntity
  8
1
  6
CONTINUOUS
 62
     7
100
AcDbLine
 10
38.6349291404745
 20
132.4674414706698
 30
0.0
 11
38.6349291404745
 21
128.4674414706698
 31
0.0
  0
ARC
  5
16F
330
1F
100
AcDbEntity
  8
1
  6
CONTINUOUS
 62
     7
100
AcDbCircle
 10
120.3650708595255
 20
132.4674414706698
 30
0.0
 40
1.000000000000001
100
AcDbArc
 50
0.0
 51
90.00000000000043
  0
LINE
  5
170
330
1F
100
AcDbEntity
  8
1
  6
CONTINUOUS
 62
     7
100
AcDbLine
 10
121.3650708595255
 20
128.4674414706697
 30
0.0
 11
121.3650708595255
 21
132.4674414706697
 31
0.0
  0
ELLIPSE
  5
171
330
1F
100
AcDbEntity
  8
1
  6
CONTINUOUS
 62
     7
100
AcDbEllipse
 10
47.61772313748151
 20
169.9198117547606
 30
0.0
 11
-0.03039084219513319
 21
0.499092090084474
 31
0.0
210
0.0
220
0.0
230
1.0
 40
0.9999390856155952
 41
0.100724343045706
 42
1.501220703791983
  0
ELLIPSE
  5
172
330
1F
100
AcDbEntity
  8
1
  6
CONTINUOUS
 62
     7
100
AcDbEllipse
 10
112.3822768625185
 20
169.9198117547606
 30
0.0
 11
-0.03039084219340599
 21
-0.499092090084585
 31
0.0
210
0.0
220
0.0
230
1.0
 40
0.9999390856155952
 41
1.640371949794328
 42
3.040868310540627
  0
MTEXT
  5
173
330
1F
100
AcDbEntity
  8
1
 62
     7
100
AcDbMText
 10
160.8534450418907
 20
72.90533950231337
 30
0.0
 40
10.0
 41
0.0
 71
     1
 72
     1
  1
{\fＭＳ ゴシック;MIDC-60}
  0
ENDSEC
  0
SECTION
  2
OBJECTS
  0
DICTIONARY
  5
C
330
0
100
AcDbDictionary
  3
ACAD_GROUP
350
D
  3
ACAD_LAYOUT
350
1A
  3
ACAD_MATERIAL
350
43
  3
ACAD_MLEADERSTYLE
350
6B
  3
ACAD_MLINESTYLE
350
17
  3
ACAD_PLOTSETTINGS
350
19
  3
ACAD_SCALELIST
350
47
  3
ACAD_VISUALSTYLE
350
2A
  3
ACDBHEADERROUNDTRIPXREC
350
174
  3
ACDBVARIABLEDICTIONARY
350
195
  0
DICTIONARY
  5
19C
330
8
100
AcDbDictionary
280
     1
  3
ACAD_XREC_ROUNDTRIP
360
19D
  0
DICTIONARY
  5
D
102
{ACAD_REACTORS
330
C
102
}
330
C
100
AcDbDictionary
  0
DICTIONARY
  5
1A
102
{ACAD_REACTORS
330
C
102
}
330
C
100
AcDbDictionary
  0
DICTIONARY
  5
43
102
{ACAD_REACTORS
330
C
102
}
330
C
100
AcDbDictionary
  3
BYBLOCK
350
45
  3
BYLAYER
350
44
  3
GLOBAL
350
46
  0
DICTIONARY
  5
6B
102
{ACAD_REACTORS
330
C
102
}
330
C
100
AcDbDictionary
  3
STANDARD
350
6C
  0
DICTIONARY
  5
17
102
{ACAD_REACTORS
330
C
102
}
330
C
100
AcDbDictionary
  3
STANDARD
350
18
  0
DICTIONARY
  5
19
102
{ACAD_REACTORS
330
C
102
}
330
C
100
AcDbDictionary
  0
DICTIONARY
  5
47
102
{ACAD_REACTORS
330
C
102
}
330
C
100
AcDbDictionary
  3
A0
350
48
  3
A1
350
49
  3
A2
350
4A
  3
A3
350
4B
  3
A4
350
4C
  3
A5
350
4D
  3
A6
350
4E
  3
A7
350
4F
  3
A8
350
50
  3
A9
350
51
  3
B0
350
52
  3
B1
350
53
  3
B2
350
54
  3
B3
350
55
  3
B4
350
56
  3
B5
350
57
  3
B6
350
58
  3
B7
350
59
  3
B8
350
5A
  3
B9
350
5B
  3
C0
350
5C
  3
C1
350
5D
  3
C2
350
5E
  3
C3
350
5F
  3
C4
350
60
  3
C5
350
61
  3
C6
350
62
  3
C7
350
63
  3
C8
350
64
  3
C9
350
65
  3
D0
350
66
  3
D1
350
67
  3
D2
350
68
  0
DICTIONARY
  5
2A
102
{ACAD_REACTORS
330
C
102
}
330
C
100
AcDbDictionary
  3
2DWIREFRAME
350
2F
  3
BASIC
350
32
  3
BRIGHTEN
350
36
  3
COLORCHANGE
350
3A
  3
CONCEPTUAL
350
34
  3
DIM
350
35
  3
EDGECOLOROFF
350
3D
  3
FACEPATTERN
350
39
  3
FLAT
350
2B
  3
FLATWITHEDGES
350
2C
  3
GOURAUD
350
2D
  3
GOURAUDWITHEDGES
350
2E
  3
HIDDEN
350
31
  3
JITTEROFF
350
3B
  3
LINEPATTERN
350
38
  3
OVERHANGOFF
350
3C
  3
REALISTIC
350
33
  3
SHADED
350
42
  3
SHADED_WITH_EDGES
350
41
  3
SHADES_OF_GRAY
350
3E
  3
SKETCHY
350
3F
  3
THICKEN
350
37
  3
WIREFRAME
350
30
  3
X-RAY
350
40
  0
DICTIONARY
  5
174
102
{ACAD_REACTORS
330
C
102
}
330
C
100
AcDbDictionary
  3
CEPSNID
350
17E
  3
CEPSNTYPE
350
17D
  3
DIMSTYLEDATA
350
194
  3
FINGERPRINTGUID
350
17F
  3
HYPERLINKBASE
350
177
  3
INSUNITS
350
17C
  3
LAYOUTDICT
350
179
  3
LWETCUNION
350
17B
  3
PLOTSETDICT
350
17A
  3
PSVPSCALE
350
181
  3
PUCSBASE
350
184
  3
PUCSORGBACK
350
18A
  3
PUCSORGBOTTOM
350
186
  3
PUCSORGFRONT
350
189
  3
PUCSORGLEFT
350
187
  3
PUCSORGRIGHT
350
188
  3
PUCSORGTOP
350
185
  3
PUCSORTHOREF
350
182
  3
PUCSORTHOVIEW
350
183
  3
STYLESHEET
350
178
  3
TSTACKALIGN
350
175
  3
TSTACKSIZE
350
176
  3
UCSBASE
350
18D
  3
UCSORGBACK
350
193
  3
UCSORGBOTTOM
350
18F
  3
UCSORGFRONT
350
192
  3
UCSORGLEFT
350
190
  3
UCSORGRIGHT
350
191
  3
UCSORGTOP
350
18E
  3
UCSORTHOREF
350
18B
  3
UCSORTHOVIEW
350
18C
  3
VERSIONGUID
350
180
  0
DICTIONARY
  5
195
102
{ACAD_REACTORS
330
C
102
}
330
C
100
AcDbDictionary
  3
CANNOSCALE
350
19E
  3
CMLEADERSTYLE
350
197
  3
CTABLESTYLE
350
196
  3
DIMASSOC
350
19A
  3
HIDETEXT
350
19B
  3
MSLTSCALE
350
19F
  0
XRECORD
  5
19D
102
{ACAD_REACTORS
330
19C
102
}
330
19C
100
AcDbXrecord
102
VTR_0.000_0.000_1.000_1.000_VISUALSTYLE
340
2F
102
VTR_0.000_0.000_1.000_1.000_GRIDDISPLAY
 70
     3
102
VTR_0.000_0.000_1.000_1.000_GRIDMAJOR
 70
     5
102
VTR_0.000_0.000_1.000_1.000_DEFAULTLIGHTING
280
     1
102
VTR_0.000_0.000_1.000_1.000_DEFAULTLIGHTINGTYPE
 70
     1
102
VTR_0.000_0.000_1.000_1.000_BRIGHTNESS
141
0.0
102
VTR_0.000_0.000_1.000_1.000_CONTRAST
142
0.0
  0
MATERIAL
  5
45
102
{ACAD_REACTORS
330
43
102
}
102
{ACAD_XDICTIONARY
360
1A2
102
}
330
43
100
AcDbMaterial
  1
BYBLOCK
  0
MATERIAL
  5
44
102
{ACAD_REACTORS
330
43
102
}
102
{ACAD_XDICTIONARY
360
1A0
102
}
330
43
100
AcDbMaterial
  1
BYLAYER
  0
MATERIAL
  5
46
102
{ACAD_REACTORS
330
43
102
}
102
{ACAD_XDICTIONARY
360
1A4
102
}
330
43
100
AcDbMaterial
  1
GLOBAL
  0
ACAD_PROXY_OBJECT
  5
6C
102
{ACAD_REACTORS
330
6B
102
}
330
6B
100
AcDbProxyObject
 90
      499
 91
      505
 93
      610
310
40901902A4063FBFFFFFE056BD1B81E855B9FC0AD7A3703D0AD73F4214DD185B99185C9900AD7A3703D0AC73F90141901A02B5E8DC0F42B1CFC02B5E8DC0F42B1CFE5764000000000000300FC0
340
14
340
0
340
11
340
0
 94
        0
1001
ACAD_MLEADERVER
1070
     2
  0
MLINESTYLE
  5
18
102
{ACAD_REACTORS
330
17
102
}
330
17
100
AcDbMlineStyle
  2
Standard
 70
     0
  3

 62
   256
 51
90.0
 52
90.0
 71
     2
 49
0.5
 62
   256
  6
BYLAYER
 49
-0.5
 62
   256
  6
BYLAYER
  0
ACAD_PROXY_OBJECT
  5
48
102
{ACAD_REACTORS
330
47
102
}
330
47
100
AcDbProxyObject
 90
      499
 91
      503
 93
       41
310
903313A31580
  0
ACAD_PROXY_OBJECT
  5
49
102
{ACAD_REACTORS
330
47
102
}
330
47
100
AcDbProxyObject
 90
      499
 91
      503
 93
      105
310
903313A324000000000000004000
  0
ACAD_PROXY_OBJECT
  5
4A
102
{ACAD_REACTORS
330
47
102
}
330
47
100
AcDbProxyObject
 90
      499
 91
      503
 93
      105
310
903313A344000000000000104000
  0
ACAD_PROXY_OBJECT
  5
4B
102
{ACAD_REACTORS
330
47
102
}
330
47
100
AcDbProxyObject
 90
      499
 91
      503
 93
      105
310
903313A354000000000000144000
  0
ACAD_PROXY_OBJECT
  5
4C
102
{ACAD_REACTORS
330
47
102
}
330
47
100
AcDbProxyObject
 90
      499
 91
      503
 93
      105
310
903313A384000000000000204000
  0
ACAD_PROXY_OBJECT
  5
4D
102
{ACAD_REACTORS
330
47
102
}
330
47
100
AcDbProxyObject
 90
      499
 91
      503
 93
      113
310
904313A31304000000000000244000
  0
ACAD_PROXY_OBJECT
  5
4E
102
{ACAD_REACTORS
330
47
102
}
330
47
100
AcDbProxyObject
 90
      499
 91
      503
 93
      113
310
904313A31364000000000000304000
  0
ACAD_PROXY_OBJECT
  5
4F
102
{ACAD_REACTORS
330
47
102
}
330
47
100
AcDbProxyObject
 90
      499
 91
      503
 93
      113
310
904313A32304000000000000344000
  0
ACAD_PROXY_OBJECT
  5
50
102
{ACAD_REACTORS
330
47
102
}
330
47
100
AcDbProxyObject
 90
      499
 91
      503
 93
      113
310
904313A333040000000000003E4000
  0
ACAD_PROXY_OBJECT
  5
51
102
{ACAD_REACTORS
330
47
102
}
330
47
100
AcDbProxyObject
 90
      499
 91
      503
 93
      113
310
904313A34304000000000000444000
  0
ACAD_PROXY_OBJECT
  5
52
102
{ACAD_REACTORS
330
47
102
}
330
47
100
AcDbProxyObject
 90
      499
 91
      503
 93
      113
310
904313A35304000000000000494000
  0
ACAD_PROXY_OBJECT
  5
53
102
{ACAD_REACTORS
330
47
102
}
330
47
100
AcDbProxyObject
 90
      499
 91
      503
 93
      121
310
905313A3130304000000000000594000
  0
ACAD_PROXY_OBJECT
  5
54
102
{ACAD_REACTORS
330
47
102
}
330
47
100
AcDbProxyObject
 90
      499
 91
      503
 93
      105
310
903323A310000000000000010100
  0
ACAD_PROXY_OBJECT
  5
55
102
{ACAD_REACTORS
330
47
102
}
330
47
100
AcDbProxyObject
 90
      499
 91
      503
 93
      105
310
903343A310000000000000410100
  0
ACAD_PROXY_OBJECT
  5
56
102
{ACAD_REACTORS
330
47
102
}
330
47
100
AcDbProxyObject
 90
      499
 91
      503
 93
      105
310
903383A310000000000000810100
  0
ACAD_PROXY_OBJECT
  5
57
102
{ACAD_REACTORS
330
47
102
}
330
47
100
AcDbProxyObject
 90
      499
 91
      503
 93
      113
310
90431303A310000000000000910100
  0
ACAD_PROXY_OBJECT
  5
58
102
{ACAD_REACTORS
330
47
102
}
330
47
100
AcDbProxyObject
 90
      499
 91
      503
 93
      121
310
9053130303A310000000000001650100
  0
ACAD_PROXY_OBJECT
  5
59
102
{ACAD_REACTORS
330
47
102
}
330
47
100
AcDbProxyObject
 90
      499
 91
      503
 93
      257
310
90E312F31323822203D2031272D3022000000000000200FC000000000000284000
  0
ACAD_PROXY_OBJECT
  5
5A
102
{ACAD_REACTORS
330
47
102
}
330
47
100
AcDbProxyObject
 90
      499
 91
      503
 93
      249
310
90D312F363422203D2031272D3022000000000000240FC000000000000284000
  0
ACAD_PROXY_OBJECT
  5
5B
102
{ACAD_REACTORS
330
47
102
}
330
47
100
AcDbProxyObject
 90
      499
 91
      503
 93
      249
310
90D312F333222203D2031272D3022000000000000280FC000000000000284000
  0
ACAD_PROXY_OBJECT
  5
5C
102
{ACAD_REACTORS
330
47
102
}
330
47
100
AcDbProxyObject
 90
      499
 91
      503
 93
      249
310
90D312F313622203D2031272D30220000000000002C0FC000000000000284000
  0
ACAD_PROXY_OBJECT
  5
5D
102
{ACAD_REACTORS
330
47
102
}
330
47
100
AcDbProxyObject
 90
      499
 91
      503
 93
      249
310
90D332F333222203D2031272D30220000000000002E0FC000000000000284000
  0
ACAD_PROXY_OBJECT
  5
5E
102
{ACAD_REACTORS
330
47
102
}
330
47
100
AcDbProxyObject
 90
      499
 91
      503
 93
      241
310
90C312F3822203D2031272D3022000000000000300FC000000000000284000
  0
ACAD_PROXY_OBJECT
  5
5F
102
{ACAD_REACTORS
330
47
102
}
330
47
100
AcDbProxyObject
 90
      499
 91
      503
 93
      249
310
90D332F313622203D2031272D3022000000000000320FC000000000000284000
  0
ACAD_PROXY_OBJECT
  5
60
102
{ACAD_REACTORS
330
47
102
}
330
47
100
AcDbProxyObject
 90
      499
 91
      503
 93
      241
310
90C312F3422203D2031272D3022000000000000340FC000000000000284000
  0
ACAD_PROXY_OBJECT
  5
61
102
{ACAD_REACTORS
330
47
102
}
330
47
100
AcDbProxyObject
 90
      499
 91
      503
 93
      241
310
90C332F3822203D2031272D3022000000000000360FC000000000000284000
  0
ACAD_PROXY_OBJECT
  5
62
102
{ACAD_REACTORS
330
47
102
}
330
47
100
AcDbProxyObject
 90
      499
 91
      503
 93
      241
310
90C312F3222203D2031272D3022000000000000380FC000000000000284000
  0
ACAD_PROXY_OBJECT
  5
63
102
{ACAD_REACTORS
330
47
102
}
330
47
100
AcDbProxyObject
 90
      499
 91
      503
 93
      241
310
90C332F3422203D2031272D30220000000000003A0FC000000000000284000
  0
ACAD_PROXY_OBJECT
  5
64
102
{ACAD_REACTORS
330
47
102
}
330
47
100
AcDbProxyObject
 90
      499
 91
      503
 93
      161
310
90A3122203D2031272D30224000000000000284000
  0
ACAD_PROXY_OBJECT
  5
65
102
{ACAD_REACTORS
330
47
102
}
330
47
100
AcDbProxyObject
 90
      499
 91
      503
 93
      257
310
90E312D312F3222203D2031272D30220000000000003E0FC000000000000284000
  0
ACAD_PROXY_OBJECT
  5
66
102
{ACAD_REACTORS
330
47
102
}
330
47
100
AcDbProxyObject
 90
      499
 91
      503
 93
      225
310
90A3322203D2031272D302200000000000002100000000000000284000
  0
ACAD_PROXY_OBJECT
  5
67
102
{ACAD_REACTORS
330
47
102
}
330
47
100
AcDbProxyObject
 90
      499
 91
      503
 93
      225
310
90A3622203D2031272D302200000000000006100000000000000284000
  0
ACAD_PROXY_OBJECT
  5
68
102
{ACAD_REACTORS
330
47
102
}
330
47
100
AcDbProxyObject
 90
      499
 91
      503
 93
      249
310
90D31272D3022203D2031272D30220000000000000A100000000000000284000
  0
ACAD_PROXY_OBJECT
  5
2F
102
{ACAD_REACTORS
330
2A
102
}
330
2A
100
AcDbProxyObject
 90
      499
 91
      501
 93
      436
310
42CC9915DA5C99599C985B595049028333333333333E33F0000000000000F90107901411070040501600405405064090741402480A0340
1001
ACAD
1000
AcDbSavedByObjectVersion
1070
     0
  0
ACAD_PROXY_OBJECT
  5
32
102
{ACAD_REACTORS
330
2A
102
}
330
2A
100
AcDbProxyObject
 90
      499
 91
      501
 93
      388
310
4150985CDA58D07406404333333333333E33F0000000000000F90107A41107004050150841D405064090741402480A0350
1001
ACAD
1000
AcDbSavedByObjectVersion
1070
     0
  0
ACAD_PROXY_OBJECT
  5
36
102
{ACAD_REACTORS
330
2A
102
}
330
2A
100
AcDbProxyObject
 90
      499
 91
      501
 93
      428
310
42109C9A59DA1D195B90C409028333333333333E33F0000000000000F9010790141107004050150841D405064090741402480A029950
1001
ACAD
1000
AcDbSavedByObjectVersion
1070
     0
  0
ACAD_PROXY_OBJECT
  5
3A
102
{ACAD_REACTORS
330
2A
102
}
330
2A
100
AcDbProxyObject
 90
      499
 91
      501
 93
      452
310
42D0DBDB1BDC90DA185B99D95104090240C333333333333E33F0000000000000F90108901411070040501508421405064090741402480A0350
1001
ACAD
1000
AcDbSavedByObjectVersion
1070
     0
  0
ACAD_PROXY_OBJECT
  5
34
102
{ACAD_REACTORS
330
2A
102
}
330
2A
100
AcDbProxyObject
 90
      499
 91
      501
 93
      500
310
4290DBDB98D95C1D1D585B10940D028333333333333E33F0000000000000F90107902409070040501000000000018199010841D405064090740C02480A0340
1001
ACAD
1000
AcDbSavedByObjectVersion
1070
     0
  0
ACAD_PROXY_OBJECT
  5
35
102
{ACAD_REACTORS
330
2A
102
}
330
2A
100
AcDbProxyObject
 90
      499
 91
      501
 93
      412
310
40D11A5B50B409028333333333333E33F0000000000000F9010790141107004050150841D405064090741402480A02677FFFFFD0
1001
ACAD
1000
AcDbSavedByObjectVersion
1070
     0
  0
ACAD_PROXY_OBJECT
  5
3D
102
{ACAD_REACTORS
330
2A
102
}
330
2A
100
AcDbProxyObject
 90
      499
 91
      501
 93
      452
310
43115919D950DBDB1BDC93D999916409028333333333333E33F0000000000000F9010790141107004050150841D405064090741402480A0350
1001
ACAD
1000
AcDbSavedByObjectVersion
1070
     0
  0
ACAD_PROXY_OBJECT
  5
39
102
{ACAD_REACTORS
330
2A
102
}
330
2A
100
AcDbProxyObject
 90
      499
 91
      501
 93
      444
310
42D19858D95C185D1D195C9B90F409028333333333333E33F0000000000000F9010790141107004050150841D405064090741402480A0350
1001
ACAD
1000
AcDbSavedByObjectVersion
1070
     0
  0
ACAD_PROXY_OBJECT
  5
2B
102
{ACAD_REACTORS
330
2A
102
}
330
2A
100
AcDbProxyObject
 90
      499
 91
      501
 93
      380
310
41119B185D240901404333333333333E33F0000000000000F9010740A907004050150841D405064090741402480A1B50
1001
ACAD
1000
AcDbSavedByObjectVersion
1070
     0
  0
ACAD_PROXY_OBJECT
  5
2C
102
{ACAD_REACTORS
330
2A
102
}
330
2A
100
AcDbProxyObject
 90
      499
 91
      501
 93
      468
310
43519B185D15DA5D1A115919D95CD0140901404333333333333E33F0000000000000F90107409019070040501600405405064090741402480A1B50
1001
ACAD
1000
AcDbSavedByObjectVersion
1070
     0
  0
ACAD_PROXY_OBJECT
  5
2D
102
{ACAD_REACTORS
330
2A
102
}
330
2A
100
AcDbProxyObject
 90
      499
 91
      501
 93
      404
310
41D1DBDD5C985D5910240902404333333333333E33F0000000000000F9010740A9070040501641D405064090741402480A1B50
1001
ACAD
1000
AcDbSavedByObjectVersion
1070
     0
  0
ACAD_PROXY_OBJECT
  5
2E
102
{ACAD_REACTORS
330
2A
102
}
330
2A
100
AcDbProxyObject
 90
      499
 91
      501
 93
      492
310
4411DBDD5C985D5915DA5D1A115919D95CD0340902404333333333333E33F0000000000000F90107409019070040501600405405064090741402480A1B50
1001
ACAD
1000
AcDbSavedByObjectVersion
1070
     0
  0
ACAD_PROXY_OBJECT
  5
31
102
{ACAD_REACTORS
330
2A
102
}
330
2A
100
AcDbProxyObject
 90
      499
 91
      501
 93
      476
310
41921A5919195B90640502408333333333333E33F0000000000000F901079024090700405020000000000001110200405405064090740C02480A0340
1001
ACAD
1000
AcDbSavedByObjectVersion
1070
     0
  0
ACAD_PROXY_OBJECT
  5
3B
102
{ACAD_REACTORS
330
2A
102
}
330
2A
100
AcDbProxyObject
 90
      499
 91
      501
 93
      428
310
42529A5D1D195C93D999914409028333333333333E33F0000000000000F9010790141107004050150A41D405064090741402480A0350
1001
ACAD
1000
AcDbSavedByObjectVersion
1070
     0
  0
ACAD_PROXY_OBJECT
  5
38
102
{ACAD_REACTORS
330
2A
102
}
330
2A
100
AcDbProxyObject
 90
      499
 91
      501
 93
      444
310
42D31A5B995C185D1D195C9B90E409028333333333333E33F0000000000000F9010790141107004050750841D405064090741402483A0350
1001
ACAD
1000
AcDbSavedByObjectVersion
1070
     0
  0
ACAD_PROXY_OBJECT
  5
3C
102
{ACAD_REACTORS
330
2A
102
}
330
2A
100
AcDbProxyObject
 90
      499
 91
      501
 93
      444
310
42D3DD995C9A185B99D3D999915409028333333333333E33F0000000000000F9010790141107004050150941D405064090741402480A0350
1001
ACAD
1000
AcDbSavedByObjectVersion
1070
     0
  0
ACAD_PROXY_OBJECT
  5
33
102
{ACAD_REACTORS
330
2A
102
}
330
2A
100
AcDbProxyObject
 90
      499
 91
      501
 93
      428
310
425499585B1A5CDD1A58D08409038333333333333E33F0000000000000F9010740A907004050150800405405064090740C02480A1B40
1001
ACAD
1000
AcDbSavedByObjectVersion
1070
     0
  0
ACAD_PROXY_OBJECT
  5
42
102
{ACAD_REACTORS
330
2A
102
}
330
2A
100
AcDbProxyObject
 90
      499
 91
      501
 93
      420
310
4194DA1859195911B40902404333333333333E33F0000000000000F9010740A41107004050150800405405064090840C02480A0B40
1001
ACAD
1000
AcDbSavedByObjectVersion
1070
     0
  0
ACAD_PROXY_OBJECT
  5
41
102
{ACAD_REACTORS
330
2A
102
}
330
2A
100
AcDbProxyObject
 90
      499
 91
      501
 93
      516
310
4454DA18591959081DDA5D1A08195919D95CD1A40902404333333333333E33F0000000000000F901074090142907004050250800405405064090740C02480A0B40
1001
ACAD
1000
AcDbSavedByObjectVersion
1070
     0
  0
ACAD_PROXY_OBJECT
  5
3E
102
{ACAD_REACTORS
330
2A
102
}
330
2A
100
AcDbProxyObject
 90
      499
 91
      501
 93
      532
310
4394DA1859195CC81BD98811DC985E5174090240C333333333333E33F0000000000000F901079024090741D01000000000000111010841D405064090740C02480A0340
1001
ACAD
1000
AcDbSavedByObjectVersion
1070
     0
  0
ACAD_PROXY_OBJECT
  5
3F
102
{ACAD_REACTORS
330
2A
102
}
330
2A
100
AcDbProxyObject
 90
      499
 91
      501
 93
      476
310
41D4DAD95D18DA1E51840502408333333333333E33F0000000000000F901079024090741D01000000000000111010B41D405064090741802480A0340
1001
ACAD
1000
AcDbSavedByObjectVersion
1070
     0
  0
ACAD_PROXY_OBJECT
  5
37
102
{ACAD_REACTORS
330
2A
102
}
330
2A
100
AcDbProxyObject
 90
      499
 91
      501
 93
      412
310
41D51A1A58DAD95B90D409028333333333333E33F0000000000000F9010790141107004050150C41D405064090741402480A0350
1001
ACAD
1000
AcDbSavedByObjectVersion
1070
     0
  0
ACAD_PROXY_OBJECT
  5
30
102
{ACAD_REACTORS
330
2A
102
}
330
2A
100
AcDbProxyObject
 90
      499
 91
      501
 93
      420
310
4255DA5C99599C985B595059028333333333333E33F0000000000000F90107901411070040501600405405064090740C02480A0340
1001
ACAD
1000
AcDbSavedByObjectVersion
1070
     0
  0
ACAD_PROXY_OBJECT
  5
40
102
{ACAD_REACTORS
330
2A
102
}
330
2A
100
AcDbProxyObject
 90
      499
 91
      501
 93
      404
310
41560B54985E51940902404000000000000E03F0000000000000F9010740501907004050150841D405064090740C02480A1B40
1001
ACAD
1000
AcDbSavedByObjectVersion
1070
     0
  0
XRECORD
  5
17E
102
{ACAD_REACTORS
330
174
102
}
330
174
100
AcDbXrecord
340
0
  0
XRECORD
  5
17D
102
{ACAD_REACTORS
330
174
102
}
330
174
100
AcDbXrecord
 90
        0
  0
XRECORD
  5
194
102
{ACAD_REACTORS
330
174
102
}
330
174
100
AcDbXrecord
1000
DSTYLE
1002
{
1070
   179
 70
     2
1070
   171
 70
     2
1070
   143
 40
25.4
1070
   274
 70
     2
1070
    41
 40
3.0
1070
   141
 40
0.09
1070
    43
 40
0.38
1070
   278
 70
    46
1070
    44
 40
1.5
1070
    42
 40
0.0625
1070
   147
 40
1.5
1070
   272
 70
     4
1070
    73
 70
     1
1070
   172
 70
     0
1070
    74
 70
     1
1070
   283
 70
     1
1070
   340
340
6F
1070
   140
 40
3.0
1070
   284
 70
     0
1070
    78
 70
     0
1002
}
  0
XRECORD
  5
17F
102
{ACAD_REACTORS
330
174
102
}
330
174
100
AcDbXrecord
  1
{9EE9BF43-0A8E-4D33-9DF9-10FA885B3557}
  0
XRECORD
  5
177
102
{ACAD_REACTORS
330
174
102
}
330
174
100
AcDbXrecord
  1

  0
XRECORD
  5
17C
102
{ACAD_REACTORS
330
174
102
}
330
174
100
AcDbXrecord
 90
        4
  0
XRECORD
  5
179
102
{ACAD_REACTORS
330
174
102
}
330
174
100
AcDbXrecord
340
1A
  0
XRECORD
  5
17B
102
{ACAD_REACTORS
330
174
102
}
330
174
100
AcDbXrecord
 90
    10269
  0
XRECORD
  5
17A
102
{ACAD_REACTORS
330
174
102
}
330
174
100
AcDbXrecord
340
19
  0
XRECORD
  5
181
102
{ACAD_REACTORS
330
174
102
}
330
174
100
AcDbXrecord
 40
0.0
  0
XRECORD
  5
184
102
{ACAD_REACTORS
330
174
102
}
330
174
100
AcDbXrecord
340
0
  0
XRECORD
  5
18A
102
{ACAD_REACTORS
330
174
102
}
330
174
100
AcDbXrecord
 10
0.0
 20
0.0
 30
0.0
  0
XRECORD
  5
186
102
{ACAD_REACTORS
330
174
102
}
330
174
100
AcDbXrecord
 10
0.0
 20
0.0
 30
0.0
  0
XRECORD
  5
189
102
{ACAD_REACTORS
330
174
102
}
330
174
100
AcDbXrecord
 10
0.0
 20
0.0
 30
0.0
  0
XRECORD
  5
187
102
{ACAD_REACTORS
330
174
102
}
330
174
100
AcDbXrecord
 10
0.0
 20
0.0
 30
0.0
  0
XRECORD
  5
188
102
{ACAD_REACTORS
330
174
102
}
330
174
100
AcDbXrecord
 10
0.0
 20
0.0
 30
0.0
  0
XRECORD
  5
185
102
{ACAD_REACTORS
330
174
102
}
330
174
100
AcDbXrecord
 10
0.0
 20
0.0
 30
0.0
  0
XRECORD
  5
182
102
{ACAD_REACTORS
330
174
102
}
330
174
100
AcDbXrecord
340
0
  0
XRECORD
  5
183
102
{ACAD_REACTORS
330
174
102
}
330
174
100
AcDbXrecord
 70
     0
  0
XRECORD
  5
178
102
{ACAD_REACTORS
330
174
102
}
330
174
100
AcDbXrecord
  1

  0
XRECORD
  5
175
102
{ACAD_REACTORS
330
174
102
}
330
174
100
AcDbXrecord
 90
        1
  0
XRECORD
  5
176
102
{ACAD_REACTORS
330
174
102
}
330
174
100
AcDbXrecord
 90
       70
  0
XRECORD
  5
18D
102
{ACAD_REACTORS
330
174
102
}
330
174
100
AcDbXrecord
340
0
  0
XRECORD
  5
193
102
{ACAD_REACTORS
330
174
102
}
330
174
100
AcDbXrecord
 10
0.0
 20
0.0
 30
0.0
  0
XRECORD
  5
18F
102
{ACAD_REACTORS
330
174
102
}
330
174
100
AcDbXrecord
 10
0.0
 20
0.0
 30
0.0
  0
XRECORD
  5
192
102
{ACAD_REACTORS
330
174
102
}
330
174
100
AcDbXrecord
 10
0.0
 20
0.0
 30
0.0
  0
XRECORD
  5
190
102
{ACAD_REACTORS
330
174
102
}
330
174
100
AcDbXrecord
 10
0.0
 20
0.0
 30
0.0
  0
XRECORD
  5
191
102
{ACAD_REACTORS
330
174
102
}
330
174
100
AcDbXrecord
 10
0.0
 20
0.0
 30
0.0
  0
XRECORD
  5
18E
102
{ACAD_REACTORS
330
174
102
}
330
174
100
AcDbXrecord
 10
0.0
 20
0.0
 30
0.0
  0
XRECORD
  5
18B
102
{ACAD_REACTORS
330
174
102
}
330
174
100
AcDbXrecord
340
0
  0
XRECORD
  5
18C
102
{ACAD_REACTORS
330
174
102
}
330
174
100
AcDbXrecord
 70
     0
  0
XRECORD
  5
180
102
{ACAD_REACTORS
330
174
102
}
330
174
100
AcDbXrecord
  1
{FAEB1C32-E019-11D5-929B-00C0DF256EC4}
  0
DICTIONARYVAR
  5
19E
102
{ACAD_REACTORS
330
195
102
}
330
195
100
DictionaryVariables
280
     0
  1
1:1
  0
DICTIONARYVAR
  5
197
102
{ACAD_REACTORS
330
195
102
}
330
195
100
DictionaryVariables
280
     0
  1
Standard
  0
DICTIONARYVAR
  5
196
102
{ACAD_REACTORS
330
195
102
}
330
195
100
DictionaryVariables
280
     0
  1
Standard
  0
DICTIONARYVAR
  5
19A
102
{ACAD_REACTORS
330
195
102
}
330
195
100
DictionaryVariables
280
     0
  1
2
  0
DICTIONARYVAR
  5
19B
102
{ACAD_REACTORS
330
195
102
}
330
195
100
DictionaryVariables
280
     0
  1
1
  0
DICTIONARYVAR
  5
19F
102
{ACAD_REACTORS
330
195
102
}
330
195
100
DictionaryVariables
280
     0
  1
1
  0
DICTIONARY
  5
1A2
330
45
100
AcDbDictionary
280
     1
  3
ACAD_XREC_ROUNDTRIP
360
1A3
  0
DICTIONARY
  5
1A0
330
44
100
AcDbDictionary
280
     1
  3
ACAD_XREC_ROUNDTRIP
360
1A1
  0
DICTIONARY
  5
1A4
330
46
100
AcDbDictionary
280
     1
  3
ACAD_XREC_ROUNDTRIP
360
1A5
  0
XRECORD
  5
1A3
102
{ACAD_REACTORS
330
1A2
102
}
330
1A2
100
AcDbXrecord
102
MATERIAL
148
0.0
149
0.0
149
0.0
 93
        0
 94
      127
282
     0
 72
     1
 77
     1
171
     1
175
     1
179
     1
273
     0
  0
XRECORD
  5
1A1
102
{ACAD_REACTORS
330
1A0
102
}
330
1A0
100
AcDbXrecord
102
MATERIAL
148
0.0
149
0.0
149
0.0
 93
        0
 94
      127
282
     0
 72
     1
 77
     1
171
     1
175
     1
179
     1
273
     0
  0
XRECORD
  5
1A5
102
{ACAD_REACTORS
330
1A4
102
}
330
1A4
100
AcDbXrecord
102
MATERIAL
148
0.0
149
0.0
149
0.0
 93
        0
 94
      127
282
     0
 72
     1
 77
     1
171
     1
175
     1
179
     1
273
     0
  0
ENDSEC
  0
EOF
