  0
SECTION
  2
HEADER
  9
$ACADVER
  1
AC1004
  9
$INSBASE
 10
0.0
 20
0.0
  9
$EXTMIN
 10
0.0
 20
0.0
  9
$EXTMAX
 10
871.9898660867663
 20
354.9898660867663
  9
$LIMMIN
 10
0.0
 20
0.0
  9
$LIMMAX
 10
12.0
 20
9.0
  9
$ORTHOMODE
 70
     0
  9
$REGENMODE
 70
     1
  9
$FILLMODE
 70
     1
  9
$QTEXTMODE
 70
     0
  9
$DRAGMODE
 70
     2
  9
$LTSCALE
 40
1.0
  9
$OSMODE
 70
    37
  9
$ATTMODE
 70
     1
  9
$TEXTSIZE
 40
0.2
  9
$TRACEWID
 40
0.05
  9
$TEXTSTYLE
  7
STANDARD
  9
$CLAYER
  8
0
  9
$CELTYPE
  6
BYLAYER
  9
$CECOLOR
 62
   256
  9
$DIMSCALE
 40
1.0
  9
$DIMASZ
 40
3.0
  9
$DIMEXO
 40
0.0625
  9
$DIMDLI
 40
0.38
  9
$DIMRND
 40
0.0
  9
$DIMDLE
 40
0.0
  9
$DIMEXE
 40
1.5
  9
$DIMTP
 40
0.0
  9
$DIMTM
 40
0.0
  9
$DIMTXT
 40
3.0
  9
$DIMCEN
 40
0.09
  9
$DIMTSZ
 40
0.0
  9
$DIMTOL
 70
     0
  9
$DIMLIM
 70
     0
  9
$DIMTIH
 70
     1
  9
$DIMTOH
 70
     1
  9
$DIMSE1
 70
     0
  9
$DIMSE2
 70
     0
  9
$DIMTAD
 70
     1
  9
$DIMZIN
 70
     0
  9
$DIMBLK
  1

  9
$DIMASO
 70
     1
  9
$DIMSHO
 70
     1
  9
$DIMPOST
  1

  9
$DIMAPOST
  1

  9
$DIMALT
 70
     0
  9
$DIMALTD
 70
     2
  9
$DIMALTF
 40
25.4
  9
$DIMLFAC
 40
1.0
  9
$DIMTOFL
 70
     0
  9
$DIMTVP
 40
0.0
  9
$DIMTIX
 70
     0
  9
$DIMSOXD
 70
     0
  9
$DIMSAH
 70
     0
  9
$DIMBLK1
  1

  9
$DIMBLK2
  1

  9
$LUNITS
 70
     2
  9
$LUPREC
 70
     4
  9
$SKETCHINC
 40
0.1
  9
$FILLETRAD
 40
0.5
  9
$AUNITS
 70
     0
  9
$AUPREC
 70
     0
  9
$MENU
  1
.
  9
$ELEVATION
 40
0.0
  9
$THICKNESS
 40
0.0
  9
$LIMCHECK
 70
     0
  9
$CHAMFERA
 40
0.0
  9
$CHAMFERB
 40
0.0
  9
$SKPOLY
 70
     0
  9
$TDCREATE
 40
2460255.66935257
  9
$TDUPDATE
 40
2460255.669352824
  9
$TDINDWG
 40
0.0000000116
  9
$TDUSRTIMER
 40
0.0000000116
  9
$USRTIMER
 70
     1
  9
$ANGBASE
 50
0.0
  9
$ANGDIR
 70
     0
  9
$PDMODE
 70
     0
  9
$PDSIZE
 40
0.0
  9
$PLINEWID
 40
0.0
  9
$COORDS
 70
     1
  9
$SPLFRAME
 70
     0
  9
$SPLINETYPE
 70
     6
  9
$SPLINESEGS
 70
     8
  9
$ATTDIA
 70
     0
  9
$ATTREQ
 70
     1
  9
$SURFTAB1
 70
     6
  9
$SURFTAB2
 70
     6
  9
$SURFTYPE
 70
     6
  9
$SURFU
 70
     6
  9
$SURFV
 70
     6
  9
$UCSNAME
  2

  9
$UCSORG
 10
0.0
 20
0.0
 30
0.0
  9
$UCSXDIR
 10
1.0
 20
0.0
 30
0.0
  9
$UCSYDIR
 10
0.0
 20
1.0
 30
0.0
  9
$USERI1
 70
     0
  9
$USERI2
 70
     0
  9
$USERI3
 70
     0
  9
$USERI4
 70
     0
  9
$USERI5
 70
     0
  9
$USERR1
 40
0.0
  9
$USERR2
 40
0.0
  9
$USERR3
 40
0.0
  9
$USERR4
 40
0.0
  9
$USERR5
 40
0.0
  9
$WORLDVIEW
 70
     1
  0
ENDSEC
  0
SECTION
  2
TABLES
  0
TABLE
  2
LTYPE
 70
     2
  0
LTYPE
  2
CONTINUOUS
 70
     0
  3
Solid line
 72
    65
 73
     0
 40
0.0
  0
LTYPE
  2
CENTER
 70
     0
  3

 72
    65
 73
     0
 40
0.0
  0
ENDTAB
  0
TABLE
  2
LAYER
 70
     1
  0
LAYER
  2
0
 70
     0
 62
     7
  6
CONTINUOUS
  0
ENDTAB
  0
TABLE
  2
STYLE
 70
     2
  0
STYLE
  2
STANDARD
 70
     0
 40
0.0
 41
1.0
 50
0.0
 71
     0
 42
0.2
  3
txt
  4

  0
STYLE
  2
ＭＳ_ゴシック
 70
     0
 40
0.0
 41
1.0
 50
0.0
 71
     0
 42
0.2
  3
ＭＳ ゴシック.shx
  4

  0
ENDTAB
  0
TABLE
  2
VIEW
 70
     0
  0
ENDTAB
  0
ENDSEC
  0
SECTION
  2
BLOCKS
  0
BLOCK
  8
0
  2
D_FRAME_VIEW_2936
 70
     0
 10
0.0
 20
0.0
  0
LINE
  8
0
  6
CONTINUOUS
 62
     9
 10
819.0102388568151
 20
112.4496371751737
 11
819.0677144322676
 21
105.4409106396753
  0
LINE
  8
0
  6
CONTINUOUS
 62
     9
 10
806.805904580668
 20
112.4496371751737
 11
806.7558017767434
 21
105.4409106396753
  0
LINE
  8
0
  6
CONTINUOUS
 62
     7
 10
819.0677144322676
 20
105.4409106396753
 11
806.7558017767434
 21
105.4409106396753
  0
POLYLINE
  8
0
  6
CONTINUOUS
 62
     9
 66
     1
  0
VERTEX
  8
0
  6
CONTINUOUS
 62
     9
 10
807.6250254341571
 20
113.4409106396753
  0
VERTEX
  8
0
  6
CONTINUOUS
 62
     9
 10
807.4660932797942
 20
113.4219081470411
  0
VERTEX
  8
0
  6
CONTINUOUS
 62
     9
 10
807.3132013396166
 20
113.3656228585908
  0
VERTEX
  8
0
  6
CONTINUOUS
 62
     9
 10
807.1721602695585
 20
113.2741938958831
  0
VERTEX
  8
0
  6
CONTINUOUS
 62
     9
 10
807.0483303334095
 20
113.1510960152986
  0
VERTEX
  8
0
  6
CONTINUOUS
 62
     9
 10
806.9464176860688
 20
113.0010075499756
  0
VERTEX
  8
0
  6
CONTINUOUS
 62
     9
 10
806.8702955161974
 20
112.8296326098277
  0
VERTEX
  8
0
  6
CONTINUOUS
 62
     9
 10
806.8228568457398
 20
112.6434842969306
  0
VERTEX
  8
0
  6
CONTINUOUS
 62
     9
 10
806.805904580668
 20
112.4496371751737
  0
SEQEND
  8
0
  6
CONTINUOUS
 62
     9
  0
LINE
  8
0
  6
CONTINUOUS
 62
     7
 10
818.0705820166448
 20
113.4409106396753
 11
807.6250254341571
 21
113.4409106396753
  0
POLYLINE
  8
0
  6
CONTINUOUS
 62
     9
 66
     1
  0
VERTEX
  8
0
  6
CONTINUOUS
 62
     9
 10
819.0102388568151
 20
112.4496371751737
  0
VERTEX
  8
0
  6
CONTINUOUS
 62
     9
 10
818.9907920172391
 20
112.6434842969306
  0
VERTEX
  8
0
  6
CONTINUOUS
 62
     9
 10
818.9363726101465
 20
112.8296326098277
  0
VERTEX
  8
0
  6
CONTINUOUS
 62
     9
 10
818.8490488443022
 20
113.0010075499756
  0
VERTEX
  8
0
  6
CONTINUOUS
 62
     9
 10
818.7321394581408
 20
113.1510960152986
  0
VERTEX
  8
0
  6
CONTINUOUS
 62
     9
 10
818.5900875911609
 20
113.2741938958831
  0
VERTEX
  8
0
  6
CONTINUOUS
 62
     9
 10
818.4282919224746
 20
113.3656228585908
  0
VERTEX
  8
0
  6
CONTINUOUS
 62
     9
 10
818.2529014940869
 20
113.4219081470411
  0
VERTEX
  8
0
  6
CONTINUOUS
 62
     9
 10
818.0705820166448
 20
113.4409106396753
  0
SEQEND
  8
0
  6
CONTINUOUS
 62
     9
  0
LINE
  8
0
  6
CONTINUOUS
 62
     9
 10
798.182820087268
 20
105.4409106396753
 11
798.2165637175952
 21
112.4496371751737
  0
LINE
  8
0
  6
CONTINUOUS
 62
     7
 10
806.7558017767434
 20
105.4409106396753
 11
798.182820087268
 21
105.4409106396753
  0
POLYLINE
  8
0
  6
CONTINUOUS
 62
     9
 66
     1
  0
VERTEX
  8
0
  6
CONTINUOUS
 62
     9
 10
799.7478729038155
 20
113.4409106396753
  0
VERTEX
  8
0
  6
CONTINUOUS
 62
     9
 10
799.4490575763728
 20
113.4219081470411
  0
VERTEX
  8
0
  6
CONTINUOUS
 62
     9
 10
799.1619712221471
 20
113.3656228585908
  0
VERTEX
  8
0
  6
CONTINUOUS
 62
     9
 10
798.8975245538014
 20
113.2741938958831
  0
VERTEX
  8
0
  6
CONTINUOUS
 62
     9
 10
798.6657678630708
 20
113.1510960152986
  0
VERTEX
  8
0
  6
CONTINUOUS
 62
     9
 10
798.4755090595722
 20
113.0010075499756
  0
VERTEX
  8
0
  6
CONTINUOUS
 62
     9
 10
798.3339789263298
 20
112.8296326098277
  0
VERTEX
  8
0
  6
CONTINUOUS
 62
     9
 10
798.2465563139725
 20
112.6434842969306
  0
VERTEX
  8
0
  6
CONTINUOUS
 62
     9
 10
798.2165637175952
 20
112.4496371751737
  0
SEQEND
  8
0
  6
CONTINUOUS
 62
     9
  0
LINE
  8
0
  6
CONTINUOUS
 62
     7
 10
807.6250254341571
 20
113.4409106396753
 11
799.7478729038156
 21
113.4409106396753
  0
LINE
  8
0
  6
CONTINUOUS
 62
     9
 10
822.0607860415632
 20
112.4496371751737
 11
822.1022095978502
 21
105.4409106396753
  0
LINE
  8
0
  6
CONTINUOUS
 62
     7
 10
822.1022095978502
 20
105.4409106396753
 11
819.0677144322676
 21
105.4409106396753
  0
POLYLINE
  8
0
  6
CONTINUOUS
 62
     9
 66
     1
  0
VERTEX
  8
0
  6
CONTINUOUS
 62
     9
 10
822.0607860415631
 20
112.4496371751737
  0
VERTEX
  8
0
  6
CONTINUOUS
 62
     9
 10
822.039392854568
 20
112.6434842969306
  0
VERTEX
  8
0
  6
CONTINUOUS
 62
     9
 10
821.9778753381426
 20
112.8296326098277
  0
VERTEX
  8
0
  6
CONTINUOUS
 62
     9
 10
821.8785714645926
 20
113.0010075499756
  0
VERTEX
  8
0
  6
CONTINUOUS
 62
     9
 10
821.7452552761694
 20
113.1510960152986
  0
VERTEX
  8
0
  6
CONTINUOUS
 62
     9
 10
821.5829934526499
 20
113.2741938958831
  0
VERTEX
  8
0
  6
CONTINUOUS
 62
     9
 10
821.397952752247
 20
113.3656228585909
  0
VERTEX
  8
0
  6
CONTINUOUS
 62
     9
 10
821.1971656440533
 20
113.4219081470411
  0
VERTEX
  8
0
  6
CONTINUOUS
 62
     9
 10
820.9882630391577
 20
113.4409106396753
  0
SEQEND
  8
0
  6
CONTINUOUS
 62
     9
  0
LINE
  8
0
  6
CONTINUOUS
 62
     7
 10
820.9882630391578
 20
113.4409106396753
 11
818.0705820166448
 21
113.4409106396753
  0
LINE
  8
0
  6
CONTINUOUS
 62
     7
 10
866.4469082979655
 20
168.609311149797
 11
866.4613342994058
 21
166.9562551179698
  0
LINE
  8
0
  6
CONTINUOUS
 62
     9
 10
866.461328385484
 20
166.9569327863019
 11
836.3790493816409
 21
166.956932786299
  0
LINE
  8
0
  6
CONTINUOUS
 62
     9
 10
836.3790493816409
 20
166.956932786299
 11
827.6949520058107
 21
167.0081184900455
  0
LINE
  8
0
  6
CONTINUOUS
 62
     9
 10
827.6949520058107
 20
167.0081184900455
 11
818.4478153462171
 21
166.966426187209
  0
LINE
  8
0
  6
CONTINUOUS
 62
     9
 10
818.4478153462171
 20
166.966426187209
 11
786.8615309833062
 21
166.951064756398
  0
LINE
  8
0
  6
CONTINUOUS
 62
     9
 10
827.6638264721806
 20
166.5257731696839
 11
836.3790493816409
 21
166.4745874698814
  0
LINE
  8
0
  6
CONTINUOUS
 62
     9
 10
827.6949520058107
 20
167.0081184900455
 11
827.6638264721806
 21
166.5257731696839
  0
LINE
  8
0
  6
CONTINUOUS
 62
     9
 10
836.3790493816409
 20
166.956932786299
 11
836.3790493816409
 21
166.4745874698814
  0
ARC
  8
0
  6
CONTINUOUS
 62
     9
 10
-1924.75909737448
 20
5550.112964113056
 40
6044.107897872302
 50
296.6550193738858
 51
296.9884619293686
  0
ARC
  8
0
  6
CONTINUOUS
 62
     9
 10
828.3047361685684
 20
142.9774375488456
 40
23.55705575301317
 50
91.55902132987075
 51
115.6057752207757
  0
LINE
  8
0
  6
CONTINUOUS
 62
     9
 10
836.3790493816409
 20
166.4745874698814
 11
866.4571190216882
 21
166.4745874699343
  0
LINE
  8
0
  6
CONTINUOUS
 62
     7
 10
866.457078434276
 20
166.4792383255116
 11
866.9897518501592
 21
105.4409106396753
  0
LINE
  8
0
  6
CONTINUOUS
 62
     9
 10
836.3557941301254
 20
105.4409106396753
 11
836.3790493816409
 21
166.4745874698814
  0
LINE
  8
0
  6
CONTINUOUS
 62
     7
 10
866.9897518501592
 20
105.4409106396753
 11
836.3557941301254
 21
105.4409106396753
  0
LINE
  8
0
  6
CONTINUOUS
 62
     9
 10
866.4570378468742
 20
166.4838891810891
 11
869.4718973917271
 21
166.031260410632
  0
LINE
  8
0
  6
CONTINUOUS
 62
     7
 10
866.9897518501592
 20
105.4409106396753
 11
871.5877590295026
 21
105.4409106396753
  0
LINE
  8
0
  6
CONTINUOUS
 62
     9
 10
827.6638264721806
 20
166.525773169684
 11
827.640551717722
 21
105.4409106396753
  0
LINE
  8
0
  6
CONTINUOUS
 62
     7
 10
827.640551717722
 20
105.4409106396753
 11
836.3557941301253
 21
105.4409106396753
  0
LINE
  8
0
  6
CONTINUOUS
 62
     7
 10
797.8168358725854
 20
105.4409106396753
 11
786.3590803351765
 21
105.4409106396753
  0
LINE
  8
0
  6
CONTINUOUS
 62
     7
 10
827.640551717722
 20
105.4409106396753
 11
822.6156142299973
 21
105.4409106396753
  0
LINE
  8
0
  6
CONTINUOUS
 62
     7
 10
822.6156142299973
 20
105.4409106396753
 11
822.1022095978502
 21
105.4409106396753
  0
LINE
  8
0
  6
CONTINUOUS
 62
     7
 10
866.4646517109912
 20
166.9562469611184
 11
866.4646517109912
 21
166.479233856464
  0
LINE
  8
0
  6
CONTINUOUS
 62
     9
 10
869.467925794814
 20
166.5041908709997
 11
866.4622134262662
 21
166.9554463518895
  0
LINE
  8
0
  6
CONTINUOUS
 62
     9
 10
869.873574371048
 20
166.043576231521
 11
869.4718973917276
 21
166.0312604106354
  0
LINE
  8
0
  6
CONTINUOUS
 62
     7
 10
871.9898660867663
 20
105.4409106396753
 11
869.8735743710479
 21
166.0435762315229
  0
LINE
  8
0
  6
CONTINUOUS
 62
     7
 10
871.5877590295026
 20
105.4409106396753
 11
871.9898660867663
 21
105.4409106396753
  0
POLYLINE
  8
0
  6
CONTINUOUS
 62
     9
 66
     1
  0
VERTEX
  8
0
  6
CONTINUOUS
 62
     9
 10
869.873574371048
 20
166.043576231521
  0
VERTEX
  8
0
  6
CONTINUOUS
 62
     9
 10
869.872178803758
 20
166.0669501738704
  0
VERTEX
  8
0
  6
CONTINUOUS
 62
     9
 10
869.8696292172283
 20
166.0902295720917
  0
VERTEX
  8
0
  6
CONTINUOUS
 62
     9
 10
869.8659315160803
 20
166.113360513117
  0
VERTEX
  8
0
  6
CONTINUOUS
 62
     9
 10
869.8610942638692
 20
166.1362894276923
  0
VERTEX
  8
0
  6
CONTINUOUS
 62
     9
 10
869.8551286632517
 20
166.1589632144396
  0
VERTEX
  8
0
  6
CONTINUOUS
 62
     9
 10
869.8480485300418
 20
166.1813293628348
  0
VERTEX
  8
0
  6
CONTINUOUS
 62
     9
 10
869.8398702612137
 20
166.2033360748171
  0
VERTEX
  8
0
  6
CONTINUOUS
 62
     9
 10
869.8306127969295
 20
166.2249323847498
  0
VERTEX
  8
0
  6
CONTINUOUS
 62
     9
 10
869.8202975766734
 20
166.2460682774516
  0
VERTEX
  8
0
  6
CONTINUOUS
 62
     9
 10
869.8089484896013
 20
166.2666948040275
  0
VERTEX
  8
0
  6
CONTINUOUS
 62
     9
 10
869.796591819215
 20
166.2867641952303
  0
VERTEX
  8
0
  6
CONTINUOUS
 62
     9
 10
869.7832561824914
 20
166.3062299720901
  0
VERTEX
  8
0
  6
CONTINUOUS
 62
     9
 10
869.7689724636092
 20
166.3250470535554
  0
VERTEX
  8
0
  6
CONTINUOUS
 62
     9
 10
869.7537737424228
 20
166.343171860897
  0
VERTEX
  8
0
  6
CONTINUOUS
 62
     9
 10
869.7376952178527
 20
166.3605624186327
  0
VERTEX
  8
0
  6
CONTINUOUS
 62
     9
 10
869.7207741263677
 20
166.3771784517385
  0
VERTEX
  8
0
  6
CONTINUOUS
 62
     9
 10
869.7030496557486
 20
166.3929814789225
  0
VERTEX
  8
0
  6
CONTINUOUS
 62
     9
 10
869.6845628543326
 20
166.4079349017437
  0
VERTEX
  8
0
  6
CONTINUOUS
 62
     9
 10
869.6653565359488
 20
166.4220040893715
  0
VERTEX
  8
0
  6
CONTINUOUS
 62
     9
 10
869.6454751807657
 20
166.4351564587872
  0
VERTEX
  8
0
  6
CONTINUOUS
 62
     9
 10
869.6249648322777
 20
166.4473615502436
  0
VERTEX
  8
0
  6
CONTINUOUS
 62
     9
 10
869.6038729906737
 20
166.458591097807
  0
VERTEX
  8
0
  6
CONTINUOUS
 62
     9
 10
869.5822485028302
 20
166.468819094819
  0
VERTEX
  8
0
  6
CONTINUOUS
 62
     9
 10
869.5601414491863
 20
166.4780218541253
  0
VERTEX
  8
0
  6
CONTINUOUS
 62
     9
 10
869.5376030277611
 20
166.4861780629332
  0
VERTEX
  8
0
  6
CONTINUOUS
 62
     9
 10
869.5146854355846
 20
166.4932688321703
  0
VERTEX
  8
0
  6
CONTINUOUS
 62
     9
 10
869.4914417478134
 20
166.4992777402298
  0
VERTEX
  8
0
  6
CONTINUOUS
 62
     9
 10
869.467925794813
 20
166.5041908710017
  0
SEQEND
  8
0
  6
CONTINUOUS
 62
     9
  0
LINE
  8
0
  6
CONTINUOUS
 62
     7
 10
869.873574371048
 20
166.043576231521
 11
869.8198365702947
 21
167.5824255047605
  0
LINE
  8
0
  6
CONTINUOUS
 62
     7
 10
798.182820087268
 20
105.4409106396753
 11
797.8168358725854
 21
105.4409106396753
  0
LINE
  8
0
  6
CONTINUOUS
 62
     9
 10
786.7335383602117
 20
148.3495502582133
 11
785.3643241117986
 21
148.3495502582133
  0
LINE
  8
0
  6
CONTINUOUS
 62
     7
 10
785.5140289781108
 20
165.5040288067178
 11
785.3643241117986
 21
148.3495502582189
  0
POLYLINE
  8
0
  6
CONTINUOUS
 62
     9
 66
     1
  0
VERTEX
  8
0
  6
CONTINUOUS
 62
     9
 10
785.5140289781108
 20
165.5040288067178
  0
VERTEX
  8
0
  6
CONTINUOUS
 62
     9
 10
785.523516623595
 20
165.6567784488743
  0
VERTEX
  8
0
  6
CONTINUOUS
 62
     9
 10
785.5492091126036
 20
165.8077250162437
  0
VERTEX
  8
0
  6
CONTINUOUS
 62
     9
 10
785.5908271058091
 20
165.9552273555456
  0
VERTEX
  8
0
  6
CONTINUOUS
 62
     9
 10
785.6479181152405
 20
166.0976817605667
  0
VERTEX
  8
0
  6
CONTINUOUS
 62
     9
 10
785.7198614239176
 20
166.233539408315
  0
VERTEX
  8
0
  6
CONTINUOUS
 62
     9
 10
785.8058748345431
 20
166.361323198462
  0
SEQEND
  8
0
  6
CONTINUOUS
 62
     9
  0
ARC
  8
0
  6
CONTINUOUS
 62
     9
 10
787.0068427038233
 20
165.4512525009995
 40
1.506835258886387
 50
95.53394733271386
 51
142.8458406016877
  0
LINE
  8
0
  6
CONTINUOUS
 62
     9
 10
786.8759901153085
 20
168.6079964813432
 11
787.0292436338138
 21
168.7409106396753
  0
LINE
  8
0
  6
CONTINUOUS
 62
     7
 10
866.4459918314734
 20
168.7409106396753
 11
787.0292436338138
 21
168.7409106396753
  0
LINE
  8
0
  6
CONTINUOUS
 62
     7
 10
866.4469079944218
 20
168.6093079425411
 11
866.4460561268985
 21
168.7408983411983
  0
LINE
  8
0
  6
CONTINUOUS
 62
     7
 10
785.3643241117986
 20
148.3495502582189
 11
784.9898660867664
 21
105.4409106396753
  0
LINE
  8
0
  6
CONTINUOUS
 62
     7
 10
784.9898660867664
 20
105.4409106396753
 11
786.3590803351765
 21
105.4409106396753
  0
LINE
  8
0
  6
CONTINUOUS
 62
     7
 10
785.4992002968098
 20
163.8048302332415
 11
780.1078677267038
 21
158.7773312772323
  0
LINE
  8
0
  6
CONTINUOUS
 62
     9
 10
780.2599468225332
 20
135.996366435754
 11
785.2853175174894
 21
139.2962912650055
  0
LINE
  8
0
  6
CONTINUOUS
 62
     7
 10
869.4099617250108
 20
168.1739602617268
 11
866.4460561268985
 21
168.7408983411983
  0
ARC
  8
0
  6
CONTINUOUS
 62
     7
 10
869.3160244172777
 20
167.6828637516436
 40
0.500000000000035
 50
2.000000000000118
 51
79.17122490024109
  0
LINE
  8
0
  6
CONTINUOUS
 62
     7
 10
869.8198365702947
 20
167.5824255047606
 11
869.8157198307873
 21
167.7003134999949
  0
LINE
  8
0
  6
CONTINUOUS
 62
     7
 10
780.2599468225332
 20
105.4409106396753
 11
784.9898660867664
 21
105.4409106396753
  0
LINE
  8
0
  6
CONTINUOUS
 62
     7
 10
779.7898660867663
 20
158.0459775756131
 11
779.7898660867663
 21
135.996366435754
  0
ARC
  8
0
  6
CONTINUOUS
 62
     7
 10
780.7898660867663
 20
158.0459775756131
 40
1.000000000000001
 50
133.0000000000001
 51
180.0
  0
LINE
  8
0
  6
CONTINUOUS
 62
     9
 10
780.2599468225332
 20
135.996366435754
 11
779.7898660867663
 21
135.996366435754
  0
LINE
  8
0
  6
CONTINUOUS
 62
     7
 10
779.7898660867663
 20
135.996366435754
 11
779.7898660867663
 21
105.4409106396753
  0
LINE
  8
0
  6
CONTINUOUS
 62
     7
 10
779.7898660867663
 20
105.4409106396753
 11
780.2599468225332
 21
105.4409106396753
  0
LINE
  8
0
  6
CONTINUOUS
 62
     7
 10
777.4671529988752
 20
110.4409106396753
 11
779.7898660867663
 21
109.4409106396753
  0
LINE
  8
0
  6
CONTINUOUS
 62
     7
 10
777.4671529988752
 20
110.4409106396753
 11
777.4671529988752
 21
105.4409106396753
  0
LINE
  8
0
  6
CONTINUOUS
 62
     7
 10
777.4671529988752
 20
105.4409106396753
 11
779.7898660867663
 21
105.4409106396753
  0
POLYLINE
  8
0
  6
CONTINUOUS
 62
     9
 66
     1
  0
VERTEX
  8
0
  6
CONTINUOUS
 62
     9
 10
776.8672434173136
 20
134.9221457181222
  0
VERTEX
  8
0
  6
CONTINUOUS
 62
     9
 10
776.7549843619676
 20
134.9316568328489
  0
VERTEX
  8
0
  6
CONTINUOUS
 62
     9
 10
776.6462146216119
 20
134.9406847399011
  0
VERTEX
  8
0
  6
CONTINUOUS
 62
     9
 10
776.5464601913379
 20
134.9487707807411
  0
SEQEND
  8
0
  6
CONTINUOUS
 62
     9
  0
LINE
  8
0
  6
CONTINUOUS
 62
     9
 10
777.0241533549454
 20
155.8970894402605
 11
777.0613295863094
 21
155.7184596247004
  0
ARC
  8
0
  6
CONTINUOUS
 62
     9
 10
502.0562562780933
 20
152.1444611197844
 40
275.0282963816096
 50
356.4153378433532
 51
0.7445808190019533
  0
POLYLINE
  8
0
  6
CONTINUOUS
 62
     9
 66
     1
  0
VERTEX
  8
0
  6
CONTINUOUS
 62
     9
 10
777.4101026945606
 20
156.0308718548491
  0
VERTEX
  8
0
  6
CONTINUOUS
 62
     9
 10
777.3051192137888
 20
156.0289850723619
  0
VERTEX
  8
0
  6
CONTINUOUS
 62
     9
 10
777.2028448296107
 20
156.0052064404347
  0
VERTEX
  8
0
  6
CONTINUOUS
 62
     9
 10
777.1077916898342
 20
155.9605850262684
  0
VERTEX
  8
0
  6
CONTINUOUS
 62
     9
 10
777.0241533549453
 20
155.8970894402605
  0
SEQEND
  8
0
  6
CONTINUOUS
 62
     9
  0
LINE
  8
0
  6
CONTINUOUS
 62
     7
 10
777.4101026945607
 20
156.0308718548491
 11
779.7898660867663
 21
155.8226695361572
  0
LINE
  8
0
  6
CONTINUOUS
 62
     9
 10
779.7898660867663
 20
134.9221457181222
 11
776.8672434173138
 21
134.9221457181222
  0
LINE
  8
0
  6
CONTINUOUS
 62
     7
 10
777.0210654369307
 20
155.8988415740945
 11
773.1078677267038
 21
152.2497256742686
  0
LINE
  8
0
  6
CONTINUOUS
 62
     9
 10
777.0210654369307
 20
155.8988415740945
 11
777.0241533549454
 21
155.8970894402605
  0
LINE
  8
0
  6
CONTINUOUS
 62
     9
 10
776.5464601913372
 20
134.9487707807412
 11
776.4976179876707
 21
133.5258218547478
  0
LINE
  8
0
  6
CONTINUOUS
 62
     9
 10
773.2599468225332
 20
131.399795315549
 11
776.4976179876707
 21
133.5258218547478
  0
LINE
  8
0
  6
CONTINUOUS
 62
     7
 10
777.4671529988752
 20
105.4409106396753
 11
776.806155491161
 21
105.4409106396753
  0
LINE
  8
0
  6
CONTINUOUS
 62
     9
 10
776.4976179876707
 20
133.5258218547478
 11
776.4976179876707
 21
105.4409106396753
  0
LINE
  8
0
  6
CONTINUOUS
 62
     7
 10
776.4976179876707
 20
105.4409106396753
 11
776.806155491161
 21
105.4409106396753
  0
LINE
  8
0
  6
CONTINUOUS
 62
     7
 10
773.2599468225332
 20
105.4409106396753
 11
776.4976179876707
 21
105.4409106396753
  0
LINE
  8
0
  6
CONTINUOUS
 62
     7
 10
772.7898660867663
 20
151.5183719726495
 11
772.7898660867663
 21
131.399795315549
  0
ARC
  8
0
  6
CONTINUOUS
 62
     7
 10
773.7898660867663
 20
151.5183719726495
 40
1.000000000000001
 50
132.9999999999999
 51
180.0
  0
LINE
  8
0
  6
CONTINUOUS
 62
     9
 10
773.2599468225332
 20
131.399795315549
 11
772.7898660867663
 21
131.399795315549
  0
LINE
  8
0
  6
CONTINUOUS
 62
     7
 10
772.7898660867663
 20
131.399795315549
 11
772.7898660867663
 21
105.4409106396753
  0
LINE
  8
0
  6
CONTINUOUS
 62
     7
 10
772.7898660867663
 20
105.4409106396753
 11
773.2599468225332
 21
105.4409106396753
  0
LINE
  8
0
  6
CONTINUOUS
 62
     7
 10
770.4671529988752
 20
110.4409106396753
 11
772.7898660867663
 21
109.4409106396753
  0
LINE
  8
0
  6
CONTINUOUS
 62
     7
 10
770.4671529988752
 20
110.4409106396753
 11
770.4671529988752
 21
105.4409106396753
  0
LINE
  8
0
  6
CONTINUOUS
 62
     7
 10
770.4671529988752
 20
105.4409106396753
 11
772.7898660867663
 21
105.4409106396753
  0
LINE
  8
0
  6
CONTINUOUS
 62
     9
 10
770.0244565173216
 20
149.3693079827189
 11
770.0614813790851
 21
149.2060133684817
  0
ARC
  8
0
  6
CONTINUOUS
 62
     9
 10
541.2191827220644
 20
145.9699230180656
 40
228.8651785121213
 50
356.0877307510482
 51
0.8101734800043233
  0
POLYLINE
  8
0
  6
CONTINUOUS
 62
     9
 66
     1
  0
VERTEX
  8
0
  6
CONTINUOUS
 62
     9
 10
770.410535844395
 20
149.5032283561854
  0
VERTEX
  8
0
  6
CONTINUOUS
 62
     9
 10
770.3055071715557
 20
149.5013350707455
  0
VERTEX
  8
0
  6
CONTINUOUS
 62
     9
 10
770.2031921496178
 20
149.4775295470216
  0
VERTEX
  8
0
  6
CONTINUOUS
 62
     9
 10
770.1081089824922
 20
149.4328630305527
  0
VERTEX
  8
0
  6
CONTINUOUS
 62
     9
 10
770.0244565173217
 20
149.3693079827189
  0
SEQEND
  8
0
  6
CONTINUOUS
 62
     9
  0
POLYLINE
  8
0
  6
CONTINUOUS
 62
     9
 66
     1
  0
VERTEX
  8
0
  6
CONTINUOUS
 62
     9
 10
769.8729325655913
 20
130.3255745979171
  0
VERTEX
  8
0
  6
CONTINUOUS
 62
     9
 10
769.7602216382048
 20
130.3359845377008
  0
VERTEX
  8
0
  6
CONTINUOUS
 62
     9
 10
769.6510561789709
 20
130.3458606068284
  0
VERTEX
  8
0
  6
CONTINUOUS
 62
     9
 10
769.5510347058971
 20
130.3546963140412
  0
SEQEND
  8
0
  6
CONTINUOUS
 62
     9
  0
LINE
  8
0
  6
CONTINUOUS
 62
     7
 10
770.4105358443949
 20
149.5032283561854
 11
772.7898660867663
 21
149.2950639331935
  0
LINE
  8
0
  6
CONTINUOUS
 62
     9
 10
772.7898660867663
 20
130.3255745979171
 11
769.8729325655914
 21
130.3255745979171
  0
LINE
  8
0
  6
CONTINUOUS
 62
     7
 10
770.0210654369307
 20
149.3712359711309
 11
766.1078677267038
 21
145.722120071305
  0
LINE
  8
0
  6
CONTINUOUS
 62
     9
 10
770.0210654369307
 20
149.3712359711309
 11
770.0244565173216
 21
149.3693079827189
  0
LINE
  8
0
  6
CONTINUOUS
 62
     9
 10
769.5510347058975
 20
130.3546963140412
 11
769.4976179876707
 21
128.9292507345428
  0
LINE
  8
0
  6
CONTINUOUS
 62
     9
 10
766.2599468225332
 20
126.8032241953439
 11
769.4976179876707
 21
128.9292507345428
  0
LINE
  8
0
  6
CONTINUOUS
 62
     7
 10
770.4671529988752
 20
105.4409106396753
 11
769.806155491161
 21
105.4409106396753
  0
LINE
  8
0
  6
CONTINUOUS
 62
     9
 10
769.4976179876707
 20
128.9292507345428
 11
769.4976179876707
 21
105.4409106396753
  0
LINE
  8
0
  6
CONTINUOUS
 62
     7
 10
769.4976179876707
 20
105.4409106396753
 11
769.806155491161
 21
105.4409106396753
  0
LINE
  8
0
  6
CONTINUOUS
 62
     7
 10
766.2599468225332
 20
105.4409106396753
 11
769.4976179876707
 21
105.4409106396753
  0
LINE
  8
0
  6
CONTINUOUS
 62
     7
 10
785.5284888022164
 20
167.1609605320904
 11
785.5140289781108
 21
165.5040288067178
  0
LINE
  8
0
  6
CONTINUOUS
 62
     7
 10
765.7898660867663
 20
144.9907663696858
 11
765.7898660867663
 21
126.8032241953439
  0
ARC
  8
0
  6
CONTINUOUS
 62
     7
 10
766.7898660867663
 20
144.9907663696858
 40
1.000000000000001
 50
133.0000000000002
 51
180.0
  0
LINE
  8
0
  6
CONTINUOUS
 62
     9
 10
766.2599468225332
 20
126.8032241953439
 11
765.7898660867663
 21
126.8032241953439
  0
LINE
  8
0
  6
CONTINUOUS
 62
     7
 10
765.7898660867663
 20
126.8032241953439
 11
765.7898660867663
 21
105.4409106396753
  0
LINE
  8
0
  6
CONTINUOUS
 62
     7
 10
765.7898660867663
 20
105.4409106396753
 11
766.2599468225332
 21
105.4409106396753
  0
LINE
  8
0
  6
CONTINUOUS
 62
     7
 10
763.4671529988752
 20
110.4409106396753
 11
765.7898660867663
 21
109.4409106396753
  0
LINE
  8
0
  6
CONTINUOUS
 62
     7
 10
763.4671529988752
 20
110.4409106396753
 11
763.4671529988752
 21
105.4409106396753
  0
LINE
  8
0
  6
CONTINUOUS
 62
     7
 10
763.4671529988752
 20
105.4409106396753
 11
765.7898660867663
 21
105.4409106396753
  0
LINE
  8
0
  6
CONTINUOUS
 62
     9
 10
763.0248256805618
 20
142.8414873378539
 11
763.0622079496873
 21
142.688003895473
  0
ARC
  8
0
  6
CONTINUOUS
 62
     9
 10
575.2613551263244
 20
139.8271403032838
 40
187.8226420367777
 50
355.7051089948466
 51
0.8727475382838179
  0
POLYLINE
  8
0
  6
CONTINUOUS
 62
     9
 66
     1
  0
VERTEX
  8
0
  6
CONTINUOUS
 62
     9
 10
763.4110621771313
 20
142.975576705074
  0
VERTEX
  8
0
  6
CONTINUOUS
 62
     9
 10
763.3059787191272
 20
142.97367541469
  0
VERTEX
  8
0
  6
CONTINUOUS
 62
     9
 10
763.2036144679414
 20
142.9498369348592
  0
VERTEX
  8
0
  6
CONTINUOUS
 62
     9
 10
763.1084950217355
 20
142.9051151821518
  0
VERTEX
  8
0
  6
CONTINUOUS
 62
     9
 10
763.0248256805617
 20
142.8414873378539
  0
SEQEND
  8
0
  6
CONTINUOUS
 62
     9
  0
POLYLINE
  8
0
  6
CONTINUOUS
 62
     9
 66
     1
  0
VERTEX
  8
0
  6
CONTINUOUS
 62
     9
 10
762.8797919799363
 20
125.7290034777121
  0
VERTEX
  8
0
  6
CONTINUOUS
 62
     9
 10
762.7665364555606
 20
125.7405000330908
  0
VERTEX
  8
0
  6
CONTINUOUS
 62
     9
 10
762.656895432765
 20
125.7514002090595
  0
VERTEX
  8
0
  6
CONTINUOUS
 62
     9
 10
762.5565564976412
 20
125.7611385631621
  0
SEQEND
  8
0
  6
CONTINUOUS
 62
     9
  0
LINE
  8
0
  6
CONTINUOUS
 62
     7
 10
763.4110621771314
 20
142.9755767050741
 11
763.8541313558707
 21
142.9368131747766
  0
LINE
  8
0
  6
CONTINUOUS
 62
     7
 10
764.2447810003449
 20
142.9026357594747
 11
765.7898660867662
 21
142.7674583302298
  0
LINE
  8
0
  6
CONTINUOUS
 62
     9
 10
765.7898660867663
 20
125.7290034777121
 11
762.8797919799362
 21
125.7290034777121
  0
LINE
  8
0
  6
CONTINUOUS
 62
     7
 10
763.0210654369307
 20
142.8436303681673
 11
759.3984513671322
 21
139.4654880968257
  0
LINE
  8
0
  6
CONTINUOUS
 62
     9
 10
763.0210654369307
 20
142.8436303681673
 11
763.0248256805618
 21
142.8414873378539
  0
LINE
  8
0
  6
CONTINUOUS
 62
     9
 10
762.556556497642
 20
125.761138563162
 11
762.4976179876707
 21
124.3326796143377
  0
LINE
  8
0
  6
CONTINUOUS
 62
     9
 10
759.4071408172963
 20
122.3033084559098
 11
762.4976179876707
 21
124.3326796143377
  0
LINE
  8
0
  6
CONTINUOUS
 62
     7
 10
763.4671529988752
 20
105.4409106396753
 11
762.8061554911611
 21
105.4409106396753
  0
LINE
  8
0
  6
CONTINUOUS
 62
     9
 10
762.4976179876707
 20
124.3326796143377
 11
762.4976179876707
 21
105.4409106396753
  0
LINE
  8
0
  6
CONTINUOUS
 62
     7
 10
762.4976179876707
 20
105.4409106396753
 11
762.8061554911611
 21
105.4409106396753
  0
LINE
  8
0
  6
CONTINUOUS
 62
     7
 10
759.2599849009188
 20
105.4409106396753
 11
762.4976179876707
 21
105.4409106396753
  0
POLYLINE
  8
0
  6
CONTINUOUS
 62
     9
 66
     1
  0
VERTEX
  8
0
  6
CONTINUOUS
 62
     9
 10
758.9370981584653
 20
122.3120349914082
  0
VERTEX
  8
0
  6
CONTINUOUS
 62
     9
 10
758.9575135195399
 20
122.3107603116218
  0
VERTEX
  8
0
  6
CONTINUOUS
 62
     9
 10
759.017944743257
 20
122.3091812129889
  0
VERTEX
  8
0
  6
CONTINUOUS
 62
     9
 10
759.1159231286465
 20
122.3073622039221
  0
VERTEX
  8
0
  6
CONTINUOUS
 62
     9
 10
759.2474461200733
 20
122.305377593515
  0
VERTEX
  8
0
  6
CONTINUOUS
 62
     9
 10
759.4071408172962
 20
122.3033084559098
  0
SEQEND
  8
0
  6
CONTINUOUS
 62
     9
  0
LINE
  8
0
  6
CONTINUOUS
 62
     7
 10
759.0804878041306
 20
138.7428609307049
 11
758.9370981584653
 21
122.3120349914082
  0
ARC
  8
0
  6
CONTINUOUS
 62
     7
 10
760.0804497271948
 20
138.7341343952065
 40
1.000000000000003
 50
133.0
 51
179.4999999999999
  0
LINE
  8
0
  6
CONTINUOUS
 62
     7
 10
758.9370981584653
 20
122.3120349914082
 11
758.7898660867663
 21
105.4409106396753
  0
LINE
  8
0
  6
CONTINUOUS
 62
     7
 10
758.7898660867663
 20
105.4409106396753
 11
759.2599849009188
 21
105.4409106396753
  0
ARC
  8
0
  6
CONTINUOUS
 62
     7
 10
787.0292436338138
 20
167.2409106396753
 40
1.50000000000006
 50
89.99999999999955
 51
179.4999999999995
  0
LINE
  8
0
  6
CONTINUOUS
 62
     7
 10
785.5293007492176
 20
167.2540004429229
 11
785.5284888022164
 21
167.1609605320904
  0
ARC
  8
0
  6
CONTINUOUS
 62
     7
 10
777.3620646169619
 20
155.5331647232849
 40
0.5000000000000485
 50
84.99999999999308
 51
132.9999999999939
  0
ARC
  8
0
  6
CONTINUOUS
 62
     7
 10
770.3620646169619
 20
149.0055591203213
 40
0.4999999999999524
 50
85.00000000000148
 51
133.0000000000001
  0
LINE
  8
0
  6
CONTINUOUS
 62
     7
 10
763.8541313558707
 20
142.9368131747767
 11
764.244781000345
 21
142.9026357594747
  0
LINE
  8
0
  6
CONTINUOUS
 62
     7
 10
765.7898660867663
 20
144.7419150140975
 11
763.8541313558707
 21
142.9368131747767
  0
LINE
  8
0
  6
CONTINUOUS
 62
     7
 10
772.7898660867663
 20
151.2695206170611
 11
770.8541313558707
 21
149.4644187777403
  0
LINE
  8
0
  6
CONTINUOUS
 62
     7
 10
779.7898660867663
 20
157.7971262200248
 11
777.8541313558707
 21
155.9920243807039
  0
ARC
  8
0
  6
CONTINUOUS
 62
     7
 10
763.3620646169619
 20
142.4779535173576
 40
0.4999999999999524
 50
85.00000000000028
 51
133.0000000000003
  0
ENDBLK
  8
0
  0
BLOCK
  8
0
  2
D_FRAME_VIEW_2756
 70
     0
 10
0.0
 20
0.0
  0
LINE
  8
0
  6
CONTINUOUS
 62
     7
 10
655.8592978319826
 20
346.4469082979653
 11
662.8847859672481
 21
346.4613342994058
  0
LINE
  8
0
  6
CONTINUOUS
 62
     9
 10
662.8819058768371
 20
346.4613283854839
 11
662.8819058768496
 21
316.3790493816409
  0
POLYLINE
  8
0
  6
CONTINUOUS
 62
     9
 66
     1
  0
VERTEX
  8
0
  6
CONTINUOUS
 62
     9
 10
662.8819058768496
 20
316.3790493816409
  0
VERTEX
  8
0
  6
CONTINUOUS
 62
     9
 10
662.7869611037868
 20
312.0340611127711
  0
VERTEX
  8
0
  6
CONTINUOUS
 62
     9
 10
662.5021672099657
 20
307.6949520058105
  0
SEQEND
  8
0
  6
CONTINUOUS
 62
     9
  0
ARC
  8
0
  6
CONTINUOUS
 62
     9
 10
633.10563863551
 20
310.732438077988
 40
29.55304068733805
 50
335.437821874881
 51
354.1006742795623
  0
POLYLINE
  8
0
  6
CONTINUOUS
 62
     9
 66
     1
  0
VERTEX
  8
0
  6
CONTINUOUS
 62
     9
 10
659.984445495293
 20
298.4478153462171
  0
VERTEX
  8
0
  6
CONTINUOUS
 62
     9
 10
658.0776578491634
 20
294.3320889125438
  0
VERTEX
  8
0
  6
CONTINUOUS
 62
     9
 10
655.9780980522895
 20
290.2206876397216
  0
VERTEX
  8
0
  6
CONTINUOUS
 62
     9
 10
653.8889274550565
 20
286.1085802652784
  0
VERTEX
  8
0
  6
CONTINUOUS
 62
     9
 10
651.8623096619972
 20
281.9922214912914
  0
VERTEX
  8
0
  6
CONTINUOUS
 62
     9
 10
644.414883964201
 20
266.8615309833061
  0
SEQEND
  8
0
  6
CONTINUOUS
 62
     9
  0
ARC
  8
0
  6
CONTINUOUS
 62
     9
 10
606.8943613644899
 20
310.732438077988
 40
29.55304068733805
 50
185.8993257204376
 51
204.562178125119
  0
POLYLINE
  8
0
  6
CONTINUOUS
 62
     9
 66
     1
  0
VERTEX
  8
0
  6
CONTINUOUS
 62
     9
 10
577.1180941231504
 20
316.3790493816409
  0
VERTEX
  8
0
  6
CONTINUOUS
 62
     9
 10
577.2130388962132
 20
312.0340611127711
  0
VERTEX
  8
0
  6
CONTINUOUS
 62
     9
 10
577.4978327900343
 20
307.6949520058105
  0
SEQEND
  8
0
  6
CONTINUOUS
 62
     9
  0
LINE
  8
0
  6
CONTINUOUS
 62
     9
 10
577.1180941231628
 20
346.4613283854839
 11
577.1180941231504
 21
316.3790493816409
  0
LINE
  8
0
  6
CONTINUOUS
 62
     7
 10
584.1407021680172
 20
346.4469082979654
 11
577.1152140327517
 21
346.4613342994058
  0
POLYLINE
  8
0
  6
CONTINUOUS
 62
     9
 66
     1
  0
VERTEX
  8
0
  6
CONTINUOUS
 62
     9
 10
580.015554504707
 20
298.4478153462171
  0
VERTEX
  8
0
  6
CONTINUOUS
 62
     9
 10
581.9223421508366
 20
294.3320889125438
  0
VERTEX
  8
0
  6
CONTINUOUS
 62
     9
 10
584.0219019477104
 20
290.2206876397216
  0
VERTEX
  8
0
  6
CONTINUOUS
 62
     9
 10
586.1110725449435
 20
286.1085802652784
  0
VERTEX
  8
0
  6
CONTINUOUS
 62
     9
 10
588.1376903380028
 20
281.9922214912914
  0
VERTEX
  8
0
  6
CONTINUOUS
 62
     9
 10
595.5851160357989
 20
266.8615309833061
  0
SEQEND
  8
0
  6
CONTINUOUS
 62
     9
  0
POLYLINE
  8
0
  6
CONTINUOUS
 62
     9
 66
     1
  0
VERTEX
  8
0
  6
CONTINUOUS
 62
     9
 10
654.7196885042838
 20
346.4459918314733
  0
VERTEX
  8
0
  6
CONTINUOUS
 62
     9
 10
654.7196885042837
 20
314.0662796116374
  0
VERTEX
  8
0
  6
CONTINUOUS
 62
     9
 10
654.7168199879984
 20
310.3363275749981
  0
SEQEND
  8
0
  6
CONTINUOUS
 62
     9
  0
ARC
  8
0
  6
CONTINUOUS
 62
     9
 10
635.300030526749
 20
310.6699649706759
 40
19.41965568423609
 50
335.3121520423082
 51
359.01558732577
  0
POLYLINE
  8
0
  6
CONTINUOUS
 62
     9
 66
     1
  0
VERTEX
  8
0
  6
CONTINUOUS
 62
     9
 10
652.9446672246428
 20
302.5588723997814
  0
VERTEX
  8
0
  6
CONTINUOUS
 62
     9
 10
651.2308463868014
 20
299.0792319585819
  0
VERTEX
  8
0
  6
CONTINUOUS
 62
     9
 10
635.3621936308795
 20
267.0292436338138
  0
SEQEND
  8
0
  6
CONTINUOUS
 62
     9
  0
LINE
  8
0
  6
CONTINUOUS
 62
     7
 10
654.7307783473226
 20
346.4460561268985
 11
654.7196885042838
 21
346.4459918314733
  0
LINE
  8
0
  6
CONTINUOUS
 62
     7
 10
655.8592970780711
 20
346.4469079944218
 11
654.7307783473226
 21
346.4460561268985
  0
LINE
  8
0
  6
CONTINUOUS
 62
     9
 10
604.6378063691204
 20
265.5293007492176
 11
603.743692180895
 21
265.5284888022164
  0
LINE
  8
0
  6
CONTINUOUS
 62
     9
 10
604.6378063691204
 20
265.5293007492176
 11
604.6378063691204
 21
267.0292436338138
  0
LINE
  8
0
  6
CONTINUOUS
 62
     9
 10
635.3621936308796
 20
265.5293007492176
 11
636.256307819105
 21
265.5284888022164
  0
LINE
  8
0
  6
CONTINUOUS
 62
     9
 10
635.3621936308796
 20
265.5293007492176
 11
635.3621936308796
 21
267.0292436338138
  0
LINE
  8
0
  6
CONTINUOUS
 62
     7
 10
584.1407029219289
 20
346.4469079944218
 11
585.2692216526774
 21
346.4460561268985
  0
LINE
  8
0
  6
CONTINUOUS
 62
     7
 10
585.2692216526774
 20
346.4460561268985
 11
585.2803114957161
 21
346.4459918314733
  0
POLYLINE
  8
0
  6
CONTINUOUS
 62
     9
 66
     1
  0
VERTEX
  8
0
  6
CONTINUOUS
 62
     9
 10
585.2803114957161
 20
346.4459918314733
  0
VERTEX
  8
0
  6
CONTINUOUS
 62
     9
 10
585.2803114957162
 20
314.0662796116374
  0
VERTEX
  8
0
  6
CONTINUOUS
 62
     9
 10
585.2831800120015
 20
310.3363275749981
  0
SEQEND
  8
0
  6
CONTINUOUS
 62
     9
  0
ARC
  8
0
  6
CONTINUOUS
 62
     9
 10
604.6999694732506
 20
310.6699649706759
 40
19.41965568423565
 50
180.9844126742299
 51
204.6878479576921
  0
POLYLINE
  8
0
  6
CONTINUOUS
 62
     9
 66
     1
  0
VERTEX
  8
0
  6
CONTINUOUS
 62
     9
 10
587.0553327753571
 20
302.5588723997814
  0
VERTEX
  8
0
  6
CONTINUOUS
 62
     9
 10
588.7691536131986
 20
299.0792319585819
  0
VERTEX
  8
0
  6
CONTINUOUS
 62
     9
 10
604.6378063691205
 20
267.0292436338138
  0
SEQEND
  8
0
  6
CONTINUOUS
 62
     9
  0
LINE
  8
0
  6
CONTINUOUS
 62
     9
 10
654.6620913643153
 20
349.4099617250107
 11
654.7307783473226
 21
346.4460561268985
  0
LINE
  8
0
  6
CONTINUOUS
 62
     9
 10
585.3379086356847
 20
349.4099617250108
 11
585.2692216526774
 21
346.4460561268985
  0
LINE
  8
0
  6
CONTINUOUS
 62
     7
 10
654.7196885042838
 20
346.4459918314733
 11
585.2803114957161
 21
346.4459918314733
  0
LINE
  8
0
  6
CONTINUOUS
 62
     9
 10
635.3621936308796
 20
265.5293007492176
 11
604.6378063691204
 21
265.5293007492176
  0
LINE
  8
0
  6
CONTINUOUS
 62
     9
 10
577.7087045136537
 20
349.467925794813
 11
577.1123339423407
 21
346.4613402133278
  0
LINE
  8
0
  6
CONTINUOUS
 62
     9
 10
662.2912954863526
 20
349.4679257948139
 11
662.8874928517125
 21
346.4622134262661
  0
POLYLINE
  8
0
  6
CONTINUOUS
 62
     9
 66
     1
  0
VERTEX
  8
0
  6
CONTINUOUS
 62
     9
 10
644.1069967057356
 20
265.5140289781108
  0
VERTEX
  8
0
  6
CONTINUOUS
 62
     9
 10
644.2023661297727
 20
265.5908271058092
  0
VERTEX
  8
0
  6
CONTINUOUS
 62
     9
 10
644.2471306716718
 20
265.6820784261031
  0
SEQEND
  8
0
  6
CONTINUOUS
 62
     9
  0
ARC
  8
0
  6
CONTINUOUS
 62
     9
 10
640.5884438752115
 20
266.8041075879085
 40
3.826870590251865
 50
342.9505127321525
 51
0.859763073851468
  0
LINE
  8
0
  6
CONTINUOUS
 62
     9
 10
636.256307819105
 20
265.5284888022164
 11
644.1069967057356
 21
265.5140289781108
  0
POLYLINE
  8
0
  6
CONTINUOUS
 62
     9
 66
     1
  0
VERTEX
  8
0
  6
CONTINUOUS
 62
     9
 10
595.8930032942644
 20
265.5140289781108
  0
VERTEX
  8
0
  6
CONTINUOUS
 62
     9
 10
595.7976338702293
 20
265.5908271058094
  0
VERTEX
  8
0
  6
CONTINUOUS
 62
     9
 10
595.7528693283313
 20
265.6820784261037
  0
SEQEND
  8
0
  6
CONTINUOUS
 62
     9
  0
ARC
  8
0
  6
CONTINUOUS
 62
     9
 10
599.4115561248824
 20
266.8041075879088
 40
3.826870590338609
 50
179.1402369261182
 51
197.0494872674448
  0
LINE
  8
0
  6
CONTINUOUS
 62
     9
 10
654.6620913643146
 20
349.8157198307872
 11
654.6620913643146
 21
349.4099617250107
  0
LINE
  8
0
  6
CONTINUOUS
 62
     9
 10
655.6726524248302
 20
349.8198365702946
 11
654.6620913643146
 21
349.8157198307872
  0
LINE
  8
0
  6
CONTINUOUS
 62
     9
 10
584.3273475751698
 20
349.8198365702946
 11
585.3379086356854
 21
349.8157198307873
  0
LINE
  8
0
  6
CONTINUOUS
 62
     9
 10
585.3379086356854
 20
349.8157198307873
 11
585.3379086356854
 21
349.4099617250108
  0
LINE
  8
0
  6
CONTINUOUS
 62
     9
 10
585.3379086356854
 20
349.8157198307873
 11
654.6620913643146
 21
349.8157198307872
  0
LINE
  8
0
  6
CONTINUOUS
 62
     9
 10
662.1790028619854
 20
349.873574371048
 11
655.6726524248302
 21
349.8198365702946
  0
LINE
  8
0
  6
CONTINUOUS
 62
     9
 10
662.1790028619854
 20
349.8735743710479
 11
662.2912954863446
 21
349.4679257948129
  0
LINE
  8
0
  6
CONTINUOUS
 62
     9
 10
577.8209971380146
 20
349.873574371048
 11
584.3273475751698
 21
349.8198365702946
  0
LINE
  8
0
  6
CONTINUOUS
 62
     9
 10
577.8209971380146
 20
349.873574371048
 11
577.7087045136554
 21
349.4679257948129
  0
LINE
  8
0
  6
CONTINUOUS
 62
     9
 10
577.6094936884639
 20
351.9898660867663
 11
577.8209971380146
 21
349.8735743710479
  0
LINE
  8
0
  6
CONTINUOUS
 62
     7
 10
579.0
 20
351.9898660867663
 11
577.6094936884639
 21
351.9898660867663
  0
LINE
  8
0
  6
CONTINUOUS
 62
     7
 10
579.0
 20
351.9898660867663
 11
579.5132399473149
 21
349.9361242032098
  0
LINE
  8
0
  6
CONTINUOUS
 62
     7
 10
579.8987012419643
 20
349.9192803336018
 11
579.5132399473149
 21
349.9361242032098
  0
LINE
  8
0
  6
CONTINUOUS
 62
     7
 10
585.0249744376011
 20
349.8771595325156
 11
579.8987012419648
 21
349.9192803336018
  0
LINE
  8
0
  6
CONTINUOUS
 62
     7
 10
585.0249744376011
 20
349.8771595325156
 11
654.975025562399
 21
349.8771595325155
  0
LINE
  8
0
  6
CONTINUOUS
 62
     7
 10
654.9750255623989
 20
349.8771595325155
 11
660.1012987580352
 21
349.9192803336018
  0
LINE
  8
0
  6
CONTINUOUS
 62
     7
 10
660.1012987580357
 20
349.9192803336018
 11
660.486760052685
 21
349.9361242032098
  0
LINE
  8
0
  6
CONTINUOUS
 62
     7
 10
661.0
 20
351.9898660867663
 11
660.486760052685
 21
349.9361242032098
  0
LINE
  8
0
  6
CONTINUOUS
 62
     7
 10
661.0
 20
351.9898660867663
 11
662.390506311536
 21
351.9898660867663
  0
LINE
  8
0
  6
CONTINUOUS
 62
     9
 10
662.3905063115361
 20
351.9898660867663
 11
662.1790028619854
 21
349.8735743710479
  0
ARC
  8
0
  6
CONTINUOUS
 62
     7
 10
604.0489699264308
 20
-456.0039234072068
 40
721.5260394744869
 50
89.54335363291267
 51
91.46795594862192
  0
LINE
  8
0
  6
CONTINUOUS
 62
     7
 10
585.749634185346
 20
264.9898660867663
 11
581.6864116101195
 21
264.9898660867663
  0
LINE
  8
0
  6
CONTINUOUS
 62
     7
 10
654.2503658146538
 20
264.9898660867663
 11
658.3135883898804
 21
264.9898660867663
  0
ARC
  8
0
  6
CONTINUOUS
 62
     7
 10
635.9510300735691
 20
-456.0039234072087
 40
721.5260394744888
 50
88.53204405137807
 51
90.45664636708734
  0
LINE
  8
0
  6
CONTINUOUS
 62
     7
 10
609.799459043485
 20
265.4992002968098
 11
630.2005409565149
 21
265.4992002968098
  0
LINE
  8
0
  6
CONTINUOUS
 62
     7
 10
662.8847824524639
 20
346.4646517109912
 11
663.2673050295258
 21
346.4646517109912
  0
LINE
  8
0
  6
CONTINUOUS
 62
     7
 10
577.115217547536
 20
346.4646517109912
 11
576.7326949704742
 21
346.4646517109912
  0
LINE
  8
0
  6
CONTINUOUS
 62
     7
 10
663.4194842985983
 20
307.640551717722
 11
663.8
 21
316.3557941301252
  0
LINE
  8
0
  6
CONTINUOUS
 62
     7
 10
576.1999999999999
 20
316.3557941301253
 11
576.5805157014016
 21
307.640551717722
  0
LINE
  8
0
  6
CONTINUOUS
 62
     7
 10
663.4194842985981
 20
307.6405517177219
 11
662.9798592334959
 21
302.6156142299973
  0
LINE
  8
0
  6
CONTINUOUS
 62
     9
 10
662.9798592334959
 20
302.6156142299973
 11
662.9148372746394
 21
302.5741906737104
  0
LINE
  8
0
  6
CONTINUOUS
 62
     9
 10
662.9148372746394
 20
302.5741906737104
 11
662.7668733748202
 21
301.0318392512198
  0
LINE
  8
0
  6
CONTINUOUS
 62
     9
 10
662.7668733748202
 20
301.0318392512198
 11
660.9085800291099
 21
279.7914491158775
  0
LINE
  8
0
  6
CONTINUOUS
 62
     9
 10
660.9085800291099
 20
279.7914491158775
 11
660.7518015757718
 21
277.8505795029126
  0
LINE
  8
0
  6
CONTINUOUS
 62
     9
 10
660.7518015757718
 20
277.8505795029126
 11
660.8102472579302
 21
277.8168358725854
  0
LINE
  8
0
  6
CONTINUOUS
 62
     7
 10
660.8102472579302
 20
277.8168358725854
 11
659.8078235389556
 21
266.3590803351765
  0
LINE
  8
0
  6
CONTINUOUS
 62
     9
 10
579.2481984242282
 20
277.8505795029126
 11
579.1897527420697
 21
277.8168358725854
  0
LINE
  8
0
  6
CONTINUOUS
 62
     9
 10
579.0914199708901
 20
279.7914491158775
 11
579.2481984242282
 21
277.8505795029126
  0
LINE
  8
0
  6
CONTINUOUS
 62
     9
 10
577.2331266251798
 20
301.0318392512198
 11
579.0914199708901
 21
279.7914491158775
  0
LINE
  8
0
  6
CONTINUOUS
 62
     9
 10
577.0851627253605
 20
302.5741906737104
 11
577.2331266251798
 21
301.0318392512198
  0
LINE
  8
0
  6
CONTINUOUS
 62
     9
 10
577.0201407665041
 20
302.6156142299973
 11
577.0851627253605
 21
302.5741906737104
  0
LINE
  8
0
  6
CONTINUOUS
 62
     7
 10
576.5805157014017
 20
307.6405517177219
 11
577.0201407665041
 21
302.6156142299973
  0
LINE
  8
0
  6
CONTINUOUS
 62
     7
 10
579.1897527420697
 20
277.8168358725854
 11
580.1921764610444
 21
266.3590803351765
  0
LINE
  8
0
  6
CONTINUOUS
 62
     7
 10
576.7326734158833
 20
346.4570784342758
 11
576.2
 21
346.9897518501592
  0
LINE
  8
0
  6
CONTINUOUS
 62
     7
 10
576.2
 20
346.9897518501592
 11
577.1192652873422
 21
351.5877590295026
  0
LINE
  8
0
  6
CONTINUOUS
 62
     7
 10
663.8
 20
346.9897518501592
 11
662.880734712658
 21
351.5877590295026
  0
LINE
  8
0
  6
CONTINUOUS
 62
     7
 10
663.2673265841166
 20
346.4570784342758
 11
663.8
 21
346.9897518501592
  0
LINE
  8
0
  6
CONTINUOUS
 62
     7
 10
663.8
 20
346.9897518501592
 11
663.8
 21
316.3557941301254
  0
LINE
  8
0
  6
CONTINUOUS
 62
     7
 10
576.2
 20
346.9897518501592
 11
576.2
 21
316.3557941301254
  0
POLYLINE
  8
0
  6
CONTINUOUS
 62
     7
 66
     1
  0
VERTEX
  8
0
  6
CONTINUOUS
 62
     7
 10
662.880734712658
 20
351.5877590295026
  0
VERTEX
  8
0
  6
CONTINUOUS
 62
     7
 10
662.852212844037
 20
351.6814984888956
  0
VERTEX
  8
0
  6
CONTINUOUS
 62
     7
 10
662.8059766127191
 20
351.7678748375897
  0
VERTEX
  8
0
  6
CONTINUOUS
 62
     7
 10
662.7437997370616
 20
351.843574498527
  0
VERTEX
  8
0
  6
CONTINUOUS
 62
     7
 10
662.6680674518173
 20
351.9056934746814
  0
VERTEX
  8
0
  6
CONTINUOUS
 62
     7
 10
662.5816850055486
 20
351.9518487524462
  0
VERTEX
  8
0
  6
CONTINUOUS
 62
     7
 10
662.4879662092293
 20
351.9802697190111
  0
VERTEX
  8
0
  6
CONTINUOUS
 62
     7
 10
662.3905063115361
 20
351.9898660867663
  0
SEQEND
  8
0
  6
CONTINUOUS
 62
     7
  0
POLYLINE
  8
0
  6
CONTINUOUS
 62
     7
 66
     1
  0
VERTEX
  8
0
  6
CONTINUOUS
 62
     7
 10
577.609493688464
 20
351.9898660867663
  0
VERTEX
  8
0
  6
CONTINUOUS
 62
     7
 10
577.5120337907708
 20
351.9802697190111
  0
VERTEX
  8
0
  6
CONTINUOUS
 62
     7
 10
577.4183149944515
 20
351.9518487524462
  0
VERTEX
  8
0
  6
CONTINUOUS
 62
     7
 10
577.3319325481829
 20
351.9056934746814
  0
VERTEX
  8
0
  6
CONTINUOUS
 62
     7
 10
577.2562002629385
 20
351.8435744985271
  0
VERTEX
  8
0
  6
CONTINUOUS
 62
     7
 10
577.194023387281
 20
351.7678748375897
  0
VERTEX
  8
0
  6
CONTINUOUS
 62
     7
 10
577.1477871559631
 20
351.6814984888956
  0
VERTEX
  8
0
  6
CONTINUOUS
 62
     7
 10
577.1192652873422
 20
351.5877590295026
  0
SEQEND
  8
0
  6
CONTINUOUS
 62
     7
  0
LINE
  8
0
  6
CONTINUOUS
 62
     9
 10
609.799459043485
 20
265.4992002968098
 11
611.6810733752242
 21
260.1078677267038
  0
LINE
  8
0
  6
CONTINUOUS
 62
     7
 10
588.705215770571
 20
260.259946822533
 11
585.5650156413095
 21
265.2853175174893
  0
LINE
  8
0
  6
CONTINUOUS
 62
     9
 10
630.2005409565149
 20
265.4992002968098
 11
628.3189266247758
 21
260.1078677267038
  0
LINE
  8
0
  6
CONTINUOUS
 62
     7
 10
651.294784229429
 20
260.259946822533
 11
654.4349843586905
 21
265.2853175174893
  0
LINE
  8
0
  6
CONTINUOUS
 62
     9
 10
611.6810733752242
 20
259.7898660867663
 11
611.6810733752242
 21
260.1078677267038
  0
LINE
  8
0
  6
CONTINUOUS
 62
     7
 10
611.6810733752242
 20
259.7898660867663
 11
589.5532638667273
 21
259.7898660867663
  0
ARC
  8
0
  6
CONTINUOUS
 62
     7
 10
589.5532638667273
 20
260.7898660867663
 40
0.9999999999999527
 50
212.0000000000001
 51
269.9999999999996
  0
LINE
  8
0
  6
CONTINUOUS
 62
     7
 10
628.3189266247757
 20
259.7898660867663
 11
650.4467361332727
 21
259.7898660867663
  0
LINE
  8
0
  6
CONTINUOUS
 62
     9
 10
628.3189266247757
 20
259.7898660867663
 11
628.3189266247757
 21
260.1078677267038
  0
ARC
  8
0
  6
CONTINUOUS
 62
     7
 10
650.4467361332727
 20
260.7898660867663
 40
0.9999999999999527
 50
270.0000000000005
 51
327.9999999999998
  0
LINE
  8
0
  6
CONTINUOUS
 62
     7
 10
628.3189266247757
 20
259.7898660867663
 11
611.6810733752242
 21
259.7898660867663
  0
LINE
  8
0
  6
CONTINUOUS
 62
     7
 10
622.0
 20
259.7898660867663
 11
623.0
 21
257.8541313558706
  0
LINE
  8
0
  6
CONTINUOUS
 62
     7
 10
617.0
 20
257.8541313558706
 11
623.0
 21
257.8541313558706
  0
LINE
  8
0
  6
CONTINUOUS
 62
     7
 10
618.0
 20
259.7898660867663
 11
617.0
 21
257.8541313558706
  0
LINE
  8
0
  6
CONTINUOUS
 62
     9
 10
627.6842924682909
 20
257.4101026945606
 11
627.6842924682909
 21
259.7898660867662
  0
LINE
  8
0
  6
CONTINUOUS
 62
     7
 10
648.7568526973288
 20
259.7898660867663
 11
649.0125490486698
 21
256.8672434173138
  0
POLYLINE
  8
0
  6
CONTINUOUS
 62
     9
 66
     1
  0
VERTEX
  8
0
  6
CONTINUOUS
 62
     9
 10
648.9297206455132
 20
256.5464601913372
  0
VERTEX
  8
0
  6
CONTINUOUS
 62
     9
 10
648.9815357114742
 20
256.6462146216113
  0
VERTEX
  8
0
  6
CONTINUOUS
 62
     9
 10
649.0096207956555
 20
256.7549843619673
  0
VERTEX
  8
0
  6
CONTINUOUS
 62
     9
 10
649.0125490486696
 20
256.8672434173138
  0
SEQEND
  8
0
  6
CONTINUOUS
 62
     9
  0
ARC
  8
0
  6
CONTINUOUS
 62
     9
 10
635.3920559365679
 20
46.89724401090994
 40
210.2679526880656
 50
86.39178582329168
 51
92.09870629206223
  0
POLYLINE
  8
0
  6
CONTINUOUS
 62
     9
 66
     1
  0
VERTEX
  8
0
  6
CONTINUOUS
 62
     9
 10
648.6249752512227
 20
256.7483859521499
  0
VERTEX
  8
0
  6
CONTINUOUS
 62
     9
 10
648.783332525408
 20
256.6905480845516
  0
VERTEX
  8
0
  6
CONTINUOUS
 62
     9
 10
648.9067056192807
 20
256.5992258578546
  0
VERTEX
  8
0
  6
CONTINUOUS
 62
     9
 10
648.9297206455133
 20
256.5464601913371
  0
SEQEND
  8
0
  6
CONTINUOUS
 62
     9
  0
POLYLINE
  8
0
  6
CONTINUOUS
 62
     9
 66
     1
  0
VERTEX
  8
0
  6
CONTINUOUS
 62
     9
 10
627.6918028787696
 20
257.024153354934
  0
VERTEX
  8
0
  6
CONTINUOUS
 62
     9
 10
627.6902358919563
 20
257.1077916898243
  0
VERTEX
  8
0
  6
CONTINUOUS
 62
     9
 10
627.6884066927984
 20
257.2028448296035
  0
VERTEX
  8
0
  6
CONTINUOUS
 62
     9
 10
627.6863959820212
 20
257.305119213785
  0
VERTEX
  8
0
  6
CONTINUOUS
 62
     9
 10
627.6842924682909
 20
257.4101026945607
  0
SEQEND
  8
0
  6
CONTINUOUS
 62
     9
  0
ARC
  8
0
  6
CONTINUOUS
 62
     9
 10
604.6079236234071
 20
46.89324478774615
 40
210.271949977209
 50
87.90132804906834
 51
93.6081311256493
  0
POLYLINE
  8
0
  6
CONTINUOUS
 62
     9
 66
     1
  0
VERTEX
  8
0
  6
CONTINUOUS
 62
     9
 10
591.375056933009
 20
256.7483952758198
  0
VERTEX
  8
0
  6
CONTINUOUS
 62
     9
 10
591.2167124932445
 20
256.6905693683507
  0
VERTEX
  8
0
  6
CONTINUOUS
 62
     9
 10
591.0933005764924
 20
256.5992344595934
  0
VERTEX
  8
0
  6
CONTINUOUS
 62
     9
 10
591.0702793544867
 20
256.5464601913371
  0
SEQEND
  8
0
  6
CONTINUOUS
 62
     9
  0
POLYLINE
  8
0
  6
CONTINUOUS
 62
     9
 66
     1
  0
VERTEX
  8
0
  6
CONTINUOUS
 62
     9
 10
590.9874509513303
 20
256.8672434173138
  0
VERTEX
  8
0
  6
CONTINUOUS
 62
     9
 10
590.9903792043444
 20
256.7549843619673
  0
VERTEX
  8
0
  6
CONTINUOUS
 62
     9
 10
591.0184642885257
 20
256.6462146216113
  0
VERTEX
  8
0
  6
CONTINUOUS
 62
     9
 10
591.0702793544867
 20
256.5464601913372
  0
SEQEND
  8
0
  6
CONTINUOUS
 62
     9
  0
POLYLINE
  8
0
  6
CONTINUOUS
 62
     9
 66
     1
  0
VERTEX
  8
0
  6
CONTINUOUS
 62
     9
 10
612.315707531709
 20
257.4101026945607
  0
VERTEX
  8
0
  6
CONTINUOUS
 62
     9
 10
612.3136040179787
 20
257.305119213785
  0
VERTEX
  8
0
  6
CONTINUOUS
 62
     9
 10
612.3115933072015
 20
257.2028448296035
  0
VERTEX
  8
0
  6
CONTINUOUS
 62
     9
 10
612.3097641080436
 20
257.1077916898243
  0
VERTEX
  8
0
  6
CONTINUOUS
 62
     9
 10
612.3081971212303
 20
257.024153354934
  0
SEQEND
  8
0
  6
CONTINUOUS
 62
     9
  0
LINE
  8
0
  6
CONTINUOUS
 62
     9
 10
612.315707531709
 20
257.4101026945606
 11
612.315707531709
 21
259.7898660867663
  0
LINE
  8
0
  6
CONTINUOUS
 62
     7
 10
591.2431473026712
 20
259.7898660867663
 11
590.9874509513302
 21
256.8672434173138
  0
LINE
  8
0
  6
CONTINUOUS
 62
     9
 10
591.0702793544867
 20
256.5464601913371
 11
591.0561801008845
 21
256.4976174283234
  0
LINE
  8
0
  6
CONTINUOUS
 62
     9
 10
612.7583898553627
 20
257.0210654369306
 11
612.3081971212305
 21
257.0241533549453
  0
LINE
  8
0
  6
CONTINUOUS
 62
     9
 10
612.7583898553627
 20
257.0210654369306
 11
614.1241243558309
 21
253.1078677267038
  0
LINE
  8
0
  6
CONTINUOUS
 62
     7
 10
593.0793012339362
 20
253.259946822533
 11
591.0561797512812
 21
256.4976179876706
  0
LINE
  8
0
  6
CONTINUOUS
 62
     9
 10
627.2416101446373
 20
257.0210654369306
 11
625.8758756441691
 21
253.1078677267038
  0
LINE
  8
0
  6
CONTINUOUS
 62
     9
 10
627.2416101446373
 20
257.0210654369306
 11
627.6918028787694
 21
257.0241533549453
  0
LINE
  8
0
  6
CONTINUOUS
 62
     9
 10
648.9297206455133
 20
256.5464601913371
 11
648.9438198991155
 21
256.4976174283234
  0
LINE
  8
0
  6
CONTINUOUS
 62
     7
 10
646.9206987660638
 20
253.259946822533
 11
648.9438202487188
 21
256.4976179876705
  0
LINE
  8
0
  6
CONTINUOUS
 62
     9
 10
627.2416101446373
 20
257.0210654369306
 11
612.7583898553627
 21
257.0210654369306
  0
LINE
  8
0
  6
CONTINUOUS
 62
     9
 10
614.1241243558309
 20
252.7898660867663
 11
614.1241243558309
 21
253.1078677267038
  0
LINE
  8
0
  6
CONTINUOUS
 62
     7
 10
614.1241243558309
 20
252.7898660867663
 11
593.9273493300926
 21
252.7898660867663
  0
ARC
  8
0
  6
CONTINUOUS
 62
     7
 10
593.9273493300926
 20
253.7898660867663
 40
0.9999999999999527
 50
211.9999999999999
 51
269.9999999999998
  0
LINE
  8
0
  6
CONTINUOUS
 62
     7
 10
625.8758756441691
 20
252.7898660867663
 11
646.0726506699074
 21
252.7898660867663
  0
LINE
  8
0
  6
CONTINUOUS
 62
     9
 10
625.8758756441691
 20
252.7898660867663
 11
625.8758756441691
 21
253.1078677267038
  0
ARC
  8
0
  6
CONTINUOUS
 62
     7
 10
646.0726506699074
 20
253.7898660867663
 40
0.9999999999999527
 50
270.0000000000002
 51
327.9999999999999
  0
LINE
  8
0
  6
CONTINUOUS
 62
     7
 10
625.8758756441691
 20
252.7898660867663
 11
614.1241243558309
 21
252.7898660867663
  0
LINE
  8
0
  6
CONTINUOUS
 62
     7
 10
622.0
 20
252.7898660867662
 11
623.0
 21
250.8541313558706
  0
LINE
  8
0
  6
CONTINUOUS
 62
     7
 10
617.0
 20
250.8541313558706
 11
623.0
 21
250.8541313558706
  0
LINE
  8
0
  6
CONTINUOUS
 62
     7
 10
618.0
 20
252.7898660867663
 11
617.0
 21
250.8541313558706
  0
ARC
  8
0
  6
CONTINUOUS
 62
     9
 10
632.2491197797505
 20
75.18648166694547
 40
174.978034044697
 50
86.0587085887517
 51
92.29261246240378
  0
POLYLINE
  8
0
  6
CONTINUOUS
 62
     9
 66
     1
  0
VERTEX
  8
0
  6
CONTINUOUS
 62
     9
 10
644.2761081163508
 20
249.7506932044151
  0
VERTEX
  8
0
  6
CONTINUOUS
 62
     9
 10
644.4200307716142
 20
249.6935559568323
  0
VERTEX
  8
0
  6
CONTINUOUS
 62
     9
 10
644.5326352770815
 20
249.6030669300648
  0
VERTEX
  8
0
  6
CONTINUOUS
 62
     9
 10
644.5542233117046
 20
249.5510347058974
  0
SEQEND
  8
0
  6
CONTINUOUS
 62
     9
  0
POLYLINE
  8
0
  6
CONTINUOUS
 62
     9
 66
     1
  0
VERTEX
  8
0
  6
CONTINUOUS
 62
     9
 10
625.2494806200212
 20
250.0244565173323
  0
VERTEX
  8
0
  6
CONTINUOUS
 62
     9
 10
625.2477619362173
 20
250.1081089825014
  0
VERTEX
  8
0
  6
CONTINUOUS
 62
     9
 10
625.2457553111562
 20
250.2031921496245
  0
VERTEX
  8
0
  6
CONTINUOUS
 62
     9
 10
625.2435493568621
 20
250.3055071715589
  0
VERTEX
  8
0
  6
CONTINUOUS
 62
     9
 10
625.2412414876842
 20
250.4105358443943
  0
SEQEND
  8
0
  6
CONTINUOUS
 62
     9
  0
POLYLINE
  8
0
  6
CONTINUOUS
 62
     9
 66
     1
  0
VERTEX
  8
0
  6
CONTINUOUS
 62
     9
 10
644.5542233117047
 20
249.5510347058974
  0
VERTEX
  8
0
  6
CONTINUOUS
 62
     9
 10
644.6065569587857
 20
249.6510561789709
  0
VERTEX
  8
0
  6
CONTINUOUS
 62
     9
 10
644.6349566275051
 20
249.760221638205
  0
VERTEX
  8
0
  6
CONTINUOUS
 62
     9
 10
644.637965849325
 20
249.8729325655914
  0
SEQEND
  8
0
  6
CONTINUOUS
 62
     9
  0
LINE
  8
0
  6
CONTINUOUS
 62
     9
 10
625.2412414876842
 20
250.4105358443948
 11
625.2412414876842
 21
252.7898660867662
  0
LINE
  8
0
  6
CONTINUOUS
 62
     7
 10
644.3827672339635
 20
252.7898660867663
 11
644.637965849325
 21
249.8729325655914
  0
POLYLINE
  8
0
  6
CONTINUOUS
 62
     9
 66
     1
  0
VERTEX
  8
0
  6
CONTINUOUS
 62
     9
 10
614.7587585123157
 20
250.4105358443943
  0
VERTEX
  8
0
  6
CONTINUOUS
 62
     9
 10
614.7564506431378
 20
250.3055071715589
  0
VERTEX
  8
0
  6
CONTINUOUS
 62
     9
 10
614.7542446888436
 20
250.2031921496245
  0
VERTEX
  8
0
  6
CONTINUOUS
 62
     9
 10
614.7522380637826
 20
250.1081089825014
  0
VERTEX
  8
0
  6
CONTINUOUS
 62
     9
 10
614.7505193799786
 20
250.0244565173323
  0
SEQEND
  8
0
  6
CONTINUOUS
 62
     9
  0
ARC
  8
0
  6
CONTINUOUS
 62
     9
 10
607.7508616408404
 20
75.18316482580394
 40
174.981348974179
 50
87.70742490462263
 51
93.94120089660055
  0
POLYLINE
  8
0
  6
CONTINUOUS
 62
     9
 66
     1
  0
VERTEX
  8
0
  6
CONTINUOUS
 62
     9
 10
595.7239212330143
 20
249.7507024530788
  0
VERTEX
  8
0
  6
CONTINUOUS
 62
     9
 10
595.5800103159888
 20
249.6935772063922
  0
VERTEX
  8
0
  6
CONTINUOUS
 62
     9
 10
595.4673704550629
 20
249.6030754862028
  0
VERTEX
  8
0
  6
CONTINUOUS
 62
     9
 10
595.4457766882954
 20
249.5510347058974
  0
SEQEND
  8
0
  6
CONTINUOUS
 62
     9
  0
POLYLINE
  8
0
  6
CONTINUOUS
 62
     9
 66
     1
  0
VERTEX
  8
0
  6
CONTINUOUS
 62
     9
 10
595.362034150675
 20
249.8729325655914
  0
VERTEX
  8
0
  6
CONTINUOUS
 62
     9
 10
595.3650433724949
 20
249.760221638205
  0
VERTEX
  8
0
  6
CONTINUOUS
 62
     9
 10
595.3934430412143
 20
249.6510561789709
  0
VERTEX
  8
0
  6
CONTINUOUS
 62
     9
 10
595.4457766882953
 20
249.5510347058974
  0
SEQEND
  8
0
  6
CONTINUOUS
 62
     9
  0
LINE
  8
0
  6
CONTINUOUS
 62
     9
 10
614.7587585123157
 20
250.4105358443948
 11
614.7587585123157
 21
252.7898660867662
  0
LINE
  8
0
  6
CONTINUOUS
 62
     7
 10
595.6172327660365
 20
252.7898660867663
 11
595.3620341506748
 21
249.8729325655914
  0
LINE
  8
0
  6
CONTINUOUS
 62
     9
 10
595.4457766882954
 20
249.5510347058974
 11
595.4302655983053
 21
249.4976173738364
  0
LINE
  8
0
  6
CONTINUOUS
 62
     9
 10
615.2014408359693
 20
250.0210654369306
 11
614.7505193799785
 21
250.0244565173216
  0
LINE
  8
0
  6
CONTINUOUS
 62
     9
 10
615.2014408359693
 20
250.0210654369306
 11
616.5671753364376
 21
246.1078677267038
  0
LINE
  8
0
  6
CONTINUOUS
 62
     7
 10
597.4533866973015
 20
246.2599468225331
 11
595.4302652146465
 21
249.4976179876706
  0
LINE
  8
0
  6
CONTINUOUS
 62
     9
 10
624.7985591640306
 20
250.0210654369306
 11
623.4328246635624
 21
246.1078677267038
  0
LINE
  8
0
  6
CONTINUOUS
 62
     9
 10
624.7985591640306
 20
250.0210654369306
 11
625.2494806200215
 21
250.0244565173216
  0
LINE
  8
0
  6
CONTINUOUS
 62
     9
 10
644.5542233117046
 20
249.5510347058974
 11
644.5697344016947
 21
249.4976173738364
  0
LINE
  8
0
  6
CONTINUOUS
 62
     7
 10
642.5466133026985
 20
246.259946822533
 11
644.5697347853535
 21
249.4976179876706
  0
LINE
  8
0
  6
CONTINUOUS
 62
     9
 10
624.7985591640306
 20
250.0210654369306
 11
615.2014408359693
 21
250.0210654369306
  0
POLYLINE
  8
0
  6
CONTINUOUS
 62
     7
 66
     1
  0
VERTEX
  8
0
  6
CONTINUOUS
 62
     7
 10
658.3135883898805
 20
264.9898660867663
  0
VERTEX
  8
0
  6
CONTINUOUS
 62
     7
 10
658.5901529067986
 20
265.0155821660929
  0
VERTEX
  8
0
  6
CONTINUOUS
 62
     7
 10
658.8572313224083
 20
265.0918486819994
  0
VERTEX
  8
0
  6
CONTINUOUS
 62
     7
 10
659.1056663724406
 20
265.2160506996941
  0
VERTEX
  8
0
  6
CONTINUOUS
 62
     7
 10
659.3269400139766
 20
265.3839297294141
  0
VERTEX
  8
0
  6
CONTINUOUS
 62
     7
 10
659.5134654818829
 20
265.5897297364127
  0
VERTEX
  8
0
  6
CONTINUOUS
 62
     7
 10
659.6588474147129
 20
265.826394496972
  0
VERTEX
  8
0
  6
CONTINUOUS
 62
     7
 10
659.7581011311853
 20
266.0858095337366
  0
VERTEX
  8
0
  6
CONTINUOUS
 62
     7
 10
659.8078235389556
 20
266.3590803351765
  0
SEQEND
  8
0
  6
CONTINUOUS
 62
     7
  0
POLYLINE
  8
0
  6
CONTINUOUS
 62
     7
 66
     1
  0
VERTEX
  8
0
  6
CONTINUOUS
 62
     7
 10
580.1921764610444
 20
266.3590803351765
  0
VERTEX
  8
0
  6
CONTINUOUS
 62
     7
 10
580.2418988688147
 20
266.0858095337366
  0
VERTEX
  8
0
  6
CONTINUOUS
 62
     7
 10
580.3411525852871
 20
265.826394496972
  0
VERTEX
  8
0
  6
CONTINUOUS
 62
     7
 10
580.4865345181171
 20
265.5897297364127
  0
VERTEX
  8
0
  6
CONTINUOUS
 62
     7
 10
580.6730599860234
 20
265.3839297294141
  0
VERTEX
  8
0
  6
CONTINUOUS
 62
     7
 10
580.8943336275594
 20
265.2160506996941
  0
VERTEX
  8
0
  6
CONTINUOUS
 62
     7
 10
581.1427686775917
 20
265.0918486819994
  0
VERTEX
  8
0
  6
CONTINUOUS
 62
     7
 10
581.4098470932014
 20
265.0155821660929
  0
VERTEX
  8
0
  6
CONTINUOUS
 62
     7
 10
581.6864116101195
 20
264.9898660867663
  0
SEQEND
  8
0
  6
CONTINUOUS
 62
     7
  0
LINE
  8
0
  6
CONTINUOUS
 62
     7
 10
623.4328246635624
 20
245.7898660867662
 11
641.698565206542
 21
245.7898660867662
  0
LINE
  8
0
  6
CONTINUOUS
 62
     9
 10
623.4328246635624
 20
245.7898660867662
 11
623.4328246635624
 21
246.1078677267037
  0
ARC
  8
0
  6
CONTINUOUS
 62
     7
 10
641.698565206542
 20
246.7898660867662
 40
1.000000000000032
 50
269.9999999999992
 51
327.9999999999997
  0
LINE
  8
0
  6
CONTINUOUS
 62
     9
 10
616.5671753364376
 20
245.7898660867662
 11
616.5671753364376
 21
246.1078677267037
  0
LINE
  8
0
  6
CONTINUOUS
 62
     7
 10
616.5671753364376
 20
245.7898660867662
 11
598.3014347934579
 21
245.7898660867662
  0
ARC
  8
0
  6
CONTINUOUS
 62
     7
 10
598.3014347934579
 20
246.7898660867662
 40
1.000000000000032
 50
212.0000000000003
 51
270.0000000000007
  0
LINE
  8
0
  6
CONTINUOUS
 62
     7
 10
623.4328246635624
 20
245.7898660867662
 11
616.5671753364376
 21
245.7898660867662
  0
LINE
  8
0
  6
CONTINUOUS
 62
     7
 10
622.0
 20
245.7898660867662
 11
623.0
 21
243.8541313558706
  0
LINE
  8
0
  6
CONTINUOUS
 62
     7
 10
623.0
 20
243.8541313558706
 11
622.7981905070775
 21
243.8541313558706
  0
LINE
  8
0
  6
CONTINUOUS
 62
     7
 10
617.2018094929225
 20
243.8541313558706
 11
622.7981905070775
 21
243.8541313558706
  0
LINE
  8
0
  6
CONTINUOUS
 62
     7
 10
617.0
 20
243.8541313558706
 11
617.2018094929225
 21
243.8541313558706
  0
LINE
  8
0
  6
CONTINUOUS
 62
     7
 10
618.0
 20
245.7898660867662
 11
617.0
 21
243.8541313558706
  0
LINE
  8
0
  6
CONTINUOUS
 62
     9
 10
617.2018094929225
 20
244.244781000345
 11
617.2018094929224
 21
245.7898660867663
  0
LINE
  8
0
  6
CONTINUOUS
 62
     9
 10
617.2018094929225
 20
243.4110621771313
 11
617.2018094929225
 21
243.8541313558706
  0
LINE
  8
0
  6
CONTINUOUS
 62
     7
 10
599.9913182294017
 20
245.7898660867662
 11
599.7367197350338
 21
242.8797919799361
  0
POLYLINE
  8
0
  6
CONTINUOUS
 62
     9
 66
     1
  0
VERTEX
  8
0
  6
CONTINUOUS
 62
     9
 10
617.2018094929225
 20
243.4110621771313
  0
VERTEX
  8
0
  6
CONTINUOUS
 62
     9
 10
617.1992532883554
 20
243.305978719135
  0
VERTEX
  8
0
  6
CONTINUOUS
 62
     9
 10
617.1968100954556
 20
243.2036144679563
  0
VERTEX
  8
0
  6
CONTINUOUS
 62
     9
 10
617.194587929562
 20
243.1084950217557
  0
VERTEX
  8
0
  6
CONTINUOUS
 62
     9
 10
617.1926850342485
 20
243.0248256805847
  0
SEQEND
  8
0
  6
CONTINUOUS
 62
     9
  0
ARC
  8
0
  6
CONTINUOUS
 62
     9
 10
610.7589798555698
 20
115.2925227325915
 40
127.8942288718228
 50
87.11652506754318
 51
94.8135340007342
  0
POLYLINE
  8
0
  6
CONTINUOUS
 62
     9
 66
     1
  0
VERTEX
  8
0
  6
CONTINUOUS
 62
     9
 10
600.0269625960752
 20
242.7356770574123
  0
VERTEX
  8
0
  6
CONTINUOUS
 62
     9
 10
599.9347632203542
 20
242.691260656911
  0
VERTEX
  8
0
  6
CONTINUOUS
 62
     9
 10
599.8377861563501
 20
242.6009145413011
  0
VERTEX
  8
0
  6
CONTINUOUS
 62
     9
 10
599.8215871759928
 20
242.5565564976419
  0
SEQEND
  8
0
  6
CONTINUOUS
 62
     9
  0
ARC
  8
0
  6
CONTINUOUS
 62
     9
 10
629.24135832121
 20
115.3224412939396
 40
127.864365215366
 50
85.18545929331412
 51
92.88430068700023
  0
POLYLINE
  8
0
  6
CONTINUOUS
 62
     9
 66
     1
  0
VERTEX
  8
0
  6
CONTINUOUS
 62
     9
 10
639.9731083191663
 20
242.7356487487002
  0
VERTEX
  8
0
  6
CONTINUOUS
 62
     9
 10
640.0652899572116
 20
242.6912290709362
  0
VERTEX
  8
0
  6
CONTINUOUS
 62
     9
 10
640.1622245563321
 20
242.6008954247114
  0
VERTEX
  8
0
  6
CONTINUOUS
 62
     9
 10
640.1784128240071
 20
242.5565564976419
  0
SEQEND
  8
0
  6
CONTINUOUS
 62
     9
  0
POLYLINE
  8
0
  6
CONTINUOUS
 62
     9
 66
     1
  0
VERTEX
  8
0
  6
CONTINUOUS
 62
     9
 10
622.8073149657521
 20
243.0248256805588
  0
VERTEX
  8
0
  6
CONTINUOUS
 62
     9
 10
622.8054120704385
 20
243.1084950217329
  0
VERTEX
  8
0
  6
CONTINUOUS
 62
     9
 10
622.8031899045448
 20
243.2036144679395
  0
VERTEX
  8
0
  6
CONTINUOUS
 62
     9
 10
622.8007467116447
 20
243.3059787191262
  0
VERTEX
  8
0
  6
CONTINUOUS
 62
     9
 10
622.7981905070775
 20
243.4110621771313
  0
SEQEND
  8
0
  6
CONTINUOUS
 62
     9
  0
LINE
  8
0
  6
CONTINUOUS
 62
     9
 10
622.7981905070775
 20
243.4110621771313
 11
622.7981905070775
 21
243.8541313558706
  0
LINE
  8
0
  6
CONTINUOUS
 62
     9
 10
622.7981905070774
 20
244.244781000345
 11
622.7981905070774
 21
245.7898660867662
  0
LINE
  8
0
  6
CONTINUOUS
 62
     7
 10
640.0086817705982
 20
245.7898660867662
 11
640.2632802649662
 21
242.8797919799361
  0
LINE
  8
0
  6
CONTINUOUS
 62
     9
 10
622.355508183424
 20
243.0210654369306
 11
621.0911894897696
 21
239.3984513671322
  0
LINE
  8
0
  6
CONTINUOUS
 62
     9
 10
622.355508183424
 20
243.0210654369306
 11
622.807314965752
 21
243.0248256805617
  0
LINE
  8
0
  6
CONTINUOUS
 62
     9
 10
640.1784128240071
 20
242.5565564976419
 11
640.1956488969236
 21
242.4976173075894
  0
LINE
  8
0
  6
CONTINUOUS
 62
     7
 10
638.2645048554458
 20
239.4071408172963
 11
640.1956493219881
 21
242.4976179876706
  0
LINE
  8
0
  6
CONTINUOUS
 62
     9
 10
599.8215871759928
 20
242.5565564976419
 11
599.8043511030763
 21
242.4976173075894
  0
LINE
  8
0
  6
CONTINUOUS
 62
     9
 10
617.644491816576
 20
243.0210654369306
 11
617.1926850342478
 21
243.0248256805617
  0
LINE
  8
0
  6
CONTINUOUS
 62
     9
 10
617.644491816576
 20
243.0210654369306
 11
618.9088105102304
 21
239.3984513671322
  0
LINE
  8
0
  6
CONTINUOUS
 62
     7
 10
601.7354951445542
 20
239.4071408172963
 11
599.8043506780118
 21
242.4976179876706
  0
LINE
  8
0
  6
CONTINUOUS
 62
     9
 10
622.355508183424
 20
243.0210654369306
 11
617.644491816576
 21
243.0210654369306
  0
LINE
  8
0
  6
CONTINUOUS
 62
     9
 10
621.0911894897696
 20
239.0804878041305
 11
621.0911894897696
 21
239.3984513671322
  0
LINE
  8
0
  6
CONTINUOUS
 62
     9
 10
618.9088105102304
 20
239.0804878041305
 11
618.9088105102304
 21
239.3984513671322
  0
POLYLINE
  8
0
  6
CONTINUOUS
 62
     7
 66
     1
  0
VERTEX
  8
0
  6
CONTINUOUS
 62
     7
 10
618.25
 20
239.0429452526983
  0
VERTEX
  8
0
  6
CONTINUOUS
 62
     7
 10
615.9089161358065
 20
239.0409330408876
  0
VERTEX
  8
0
  6
CONTINUOUS
 62
     7
 10
613.6577988116189
 20
239.0349737336269
  0
VERTEX
  8
0
  6
CONTINUOUS
 62
     7
 10
611.5831572037648
 20
239.0252963437524
  0
VERTEX
  8
0
  6
CONTINUOUS
 62
     7
 10
609.7647186257615
 20
239.0122727679295
  0
VERTEX
  8
0
  6
CONTINUOUS
 62
     7
 10
608.2723646523696
 20
238.9964034948737
  0
VERTEX
  8
0
  6
CONTINUOUS
 62
     7
 10
607.1634456098647
 20
238.9782983718488
  0
VERTEX
  8
0
  6
CONTINUOUS
 62
     7
 10
606.4805766351612
 20
238.9586531685791
  0
VERTEX
  8
0
  6
CONTINUOUS
 62
     7
 10
606.25
 20
238.9382228392092
  0
SEQEND
  8
0
  6
CONTINUOUS
 62
     7
  0
LINE
  8
0
  6
CONTINUOUS
 62
     7
 10
606.2499999999999
 20
238.7898660867663
 11
606.2499999999999
 21
238.9382228392092
  0
LINE
  8
0
  6
CONTINUOUS
 62
     7
 10
606.2499999999999
 20
238.7898660867663
 11
602.6755440499334
 21
238.7898660867663
  0
LINE
  8
0
  6
CONTINUOUS
 62
     7
 10
633.75
 20
238.7898660867663
 11
637.3244559500666
 21
238.7898660867663
  0
LINE
  8
0
  6
CONTINUOUS
 62
     7
 10
633.75
 20
238.7898660867663
 11
633.75
 21
238.9382228392092
  0
POLYLINE
  8
0
  6
CONTINUOUS
 62
     7
 66
     1
  0
VERTEX
  8
0
  6
CONTINUOUS
 62
     7
 10
633.75
 20
238.9382228392092
  0
VERTEX
  8
0
  6
CONTINUOUS
 62
     7
 10
633.5194233648388
 20
238.9586531685791
  0
VERTEX
  8
0
  6
CONTINUOUS
 62
     7
 10
632.8365543901355
 20
238.9782983718488
  0
VERTEX
  8
0
  6
CONTINUOUS
 62
     7
 10
631.7276353476306
 20
238.9964034948737
  0
VERTEX
  8
0
  6
CONTINUOUS
 62
     7
 10
630.2352813742386
 20
239.0122727679295
  0
VERTEX
  8
0
  6
CONTINUOUS
 62
     7
 10
628.4168427962353
 20
239.0252963437524
  0
VERTEX
  8
0
  6
CONTINUOUS
 62
     7
 10
626.3422011883811
 20
239.0349737336269
  0
VERTEX
  8
0
  6
CONTINUOUS
 62
     7
 10
624.0910838641936
 20
239.0409330408876
  0
VERTEX
  8
0
  6
CONTINUOUS
 62
     7
 10
621.75
 20
239.0429452526983
  0
SEQEND
  8
0
  6
CONTINUOUS
 62
     7
  0
LINE
  8
0
  6
CONTINUOUS
 62
     7
 10
618.25
 20
239.0429452526983
 11
621.75
 21
239.0429452526983
  0
LINE
  8
0
  6
CONTINUOUS
 62
     7
 10
649.0178935496864
 20
256.806155491161
 11
649.0125490486698
 21
256.8672434173138
  0
ARC
  8
0
  6
CONTINUOUS
 62
     7
 10
648.5197962006405
 20
256.7625776197872
 40
0.5000000000000853
 50
328.0000000000001
 51
4.999999999999715
  0
ARC
  8
0
  6
CONTINUOUS
 62
     7
 10
591.4802037993594
 20
256.7625776197872
 40
0.4999999999999618
 50
175.0000000000002
 51
212.0
  0
LINE
  8
0
  6
CONTINUOUS
 62
     7
 10
590.9821064503136
 20
256.806155491161
 11
590.9874509513302
 21
256.8672434173138
  0
LINE
  8
0
  6
CONTINUOUS
 62
     7
 10
644.6438080863211
 20
249.806155491161
 11
644.637965849325
 21
249.8729325655914
  0
ARC
  8
0
  6
CONTINUOUS
 62
     7
 10
644.1457107372752
 20
249.7625776197872
 40
0.5000000000000627
 50
328.0000000000016
 51
5.000000000002558
  0
LINE
  8
0
  6
CONTINUOUS
 62
     7
 10
595.3561919136788
 20
249.8061554911611
 11
595.3620341506748
 21
249.8729325655914
  0
ARC
  8
0
  6
CONTINUOUS
 62
     7
 10
595.8542892627247
 20
249.7625776197872
 40
0.5000000000000627
 50
174.9999999999975
 51
177.9999999999975
  0
ARC
  8
0
  6
CONTINUOUS
 62
     7
 10
595.8542892627247
 20
249.7625776197872
 40
0.500000000000035
 50
177.9999999999975
 51
211.9999999999983
  0
LINE
  8
0
  6
CONTINUOUS
 62
     7
 10
640.2697226229558
 20
242.806155491161
 11
640.2632802649662
 21
242.8797919799361
  0
ARC
  8
0
  6
CONTINUOUS
 62
     7
 10
639.77162527391
 20
242.7625776197872
 40
0.4999999999999498
 50
328.0000000000006
 51
5.000000000000568
  0
LINE
  8
0
  6
CONTINUOUS
 62
     7
 10
599.7302773770441
 20
242.806155491161
 11
599.7367197350338
 21
242.8797919799361
  0
ARC
  8
0
  6
CONTINUOUS
 62
     7
 10
600.22837472609
 20
242.7625776197872
 40
0.5000000000000604
 50
174.9999999999994
 51
211.9999999999995
  0
POLYLINE
  8
0
  6
CONTINUOUS
 62
     7
 66
     1
  0
VERTEX
  8
0
  6
CONTINUOUS
 62
     7
 10
637.3244559500666
 20
238.7898660867663
  0
VERTEX
  8
0
  6
CONTINUOUS
 62
     7
 10
637.525542494138
 20
238.8102925718027
  0
VERTEX
  8
0
  6
CONTINUOUS
 62
     7
 10
637.7184163124452
 20
238.8707375761046
  0
VERTEX
  8
0
  6
CONTINUOUS
 62
     7
 10
637.8951982366872
 20
238.9687318357458
  0
VERTEX
  8
0
  6
CONTINUOUS
 62
     7
 10
638.0486664751974
 20
239.1002721466054
  0
VERTEX
  8
0
  6
CONTINUOUS
 62
     7
 10
638.1725516333494
 20
239.2599849009188
  0
SEQEND
  8
0
  6
CONTINUOUS
 62
     7
  0
LINE
  8
0
  6
CONTINUOUS
 62
     7
 10
638.1725516333494
 20
239.2599849009188
 11
638.2645048554458
 21
239.4071408172963
  0
POLYLINE
  8
0
  6
CONTINUOUS
 62
     7
 66
     1
  0
VERTEX
  8
0
  6
CONTINUOUS
 62
     7
 10
601.8274483666506
 20
239.2599849009188
  0
VERTEX
  8
0
  6
CONTINUOUS
 62
     7
 10
601.9513335248026
 20
239.1002721466054
  0
VERTEX
  8
0
  6
CONTINUOUS
 62
     7
 10
602.1048017633128
 20
238.9687318357458
  0
VERTEX
  8
0
  6
CONTINUOUS
 62
     7
 10
602.2815836875548
 20
238.8707375761046
  0
VERTEX
  8
0
  6
CONTINUOUS
 62
     7
 10
602.474457505862
 20
238.8102925718027
  0
VERTEX
  8
0
  6
CONTINUOUS
 62
     7
 10
602.6755440499335
 20
238.7898660867663
  0
SEQEND
  8
0
  6
CONTINUOUS
 62
     7
  0
LINE
  8
0
  6
CONTINUOUS
 62
     7
 10
601.8274483666506
 20
239.2599849009188
 11
601.7354951445542
 21
239.4071408172963
  0
ARC
  8
0
  6
CONTINUOUS
 62
     7
 10
669.25
 20
292.4898660867663
 40
4.749999999999976
 50
270.0
 51
0.0
  0
ARC
  8
0
  6
CONTINUOUS
 62
     7
 10
669.25
 20
292.4898660867663
 40
4.750000000000032
 50
0.0
 51
270.0
  0
ARC
  8
0
  6
CONTINUOUS
 62
     7
 10
570.75
 20
292.4898660867663
 40
4.750000000000032
 50
270.0
 51
90.0
  0
ARC
  8
0
  6
CONTINUOUS
 62
     7
 10
570.75
 20
292.4898660867663
 40
4.749999999999976
 50
90.0
 51
270.0
  0
LINE
  8
0
  6
CONTINUOUS
 62
     7
 10
673.2650350544574
 20
286.7558017767433
 11
661.0215483427963
 21
278.1828200872679
  0
ARC
  8
0
  6
CONTINUOUS
 62
     7
 10
669.25
 20
292.4898660867663
 40
7.000000000000019
 50
305.0
 51
70.0
  0
LINE
  8
0
  6
CONTINUOUS
 62
     7
 10
663.3069340563976
 20
302.1022095978501
 11
671.6441410032796
 21
299.0677144322676
  0
POLYLINE
  8
0
  6
CONTINUOUS
 62
     7
 66
     1
  0
VERTEX
  8
0
  6
CONTINUOUS
 62
     7
 10
661.0215483427963
 20
278.1828200872679
  0
VERTEX
  8
0
  6
CONTINUOUS
 62
     7
 10
660.9397007610955
 20
278.1110417994331
  0
VERTEX
  8
0
  6
CONTINUOUS
 62
     7
 10
660.8753292506665
 20
278.0232502430148
  0
VERTEX
  8
0
  6
CONTINUOUS
 62
     7
 10
660.831485287785
 20
277.9236071014942
  0
VERTEX
  8
0
  6
CONTINUOUS
 62
     7
 10
660.8102472579302
 20
277.8168358725853
  0
SEQEND
  8
0
  6
CONTINUOUS
 62
     7
  0
POLYLINE
  8
0
  6
CONTINUOUS
 62
     7
 66
     1
  0
VERTEX
  8
0
  6
CONTINUOUS
 62
     7
 10
662.9798592334959
 20
302.6156142299972
  0
VERTEX
  8
0
  6
CONTINUOUS
 62
     7
 10
662.9804409726913
 20
302.5222549910022
  0
VERTEX
  8
0
  6
CONTINUOUS
 62
     7
 10
662.9983688211277
 20
302.4306322840314
  0
VERTEX
  8
0
  6
CONTINUOUS
 62
     7
 10
663.0330177431986
 20
302.3439404385334
  0
VERTEX
  8
0
  6
CONTINUOUS
 62
     7
 10
663.0831797406274
 20
302.26520187465
  0
VERTEX
  8
0
  6
CONTINUOUS
 62
     7
 10
663.1471059680581
 20
302.1971617297132
  0
VERTEX
  8
0
  6
CONTINUOUS
 62
     7
 10
663.2225677047121
 20
302.1421921519145
  0
VERTEX
  8
0
  6
CONTINUOUS
 62
     7
 10
663.3069340563976
 20
302.1022095978502
  0
SEQEND
  8
0
  6
CONTINUOUS
 62
     7
  0
POLYLINE
  8
0
  6
CONTINUOUS
 62
     7
 66
     1
  0
VERTEX
  8
0
  6
CONTINUOUS
 62
     7
 10
579.1897527420697
 20
277.8168358725853
  0
VERTEX
  8
0
  6
CONTINUOUS
 62
     7
 10
579.168514712215
 20
277.9236071014942
  0
VERTEX
  8
0
  6
CONTINUOUS
 62
     7
 10
579.1246707493335
 20
278.0232502430147
  0
VERTEX
  8
0
  6
CONTINUOUS
 62
     7
 10
579.0602992389045
 20
278.1110417994331
  0
VERTEX
  8
0
  6
CONTINUOUS
 62
     7
 10
578.9784516572035
 20
278.1828200872679
  0
SEQEND
  8
0
  6
CONTINUOUS
 62
     7
  0
LINE
  8
0
  6
CONTINUOUS
 62
     7
 10
566.7349649455426
 20
286.7558017767433
 11
578.9784516572037
 21
278.1828200872679
  0
LINE
  8
0
  6
CONTINUOUS
 62
     7
 10
576.6930659436024
 20
302.1022095978501
 11
568.3558589967204
 21
299.0677144322676
  0
ARC
  8
0
  6
CONTINUOUS
 62
     7
 10
570.75
 20
292.4898660867663
 40
6.999999999999966
 50
110.0
 51
235.0
  0
POLYLINE
  8
0
  6
CONTINUOUS
 62
     7
 66
     1
  0
VERTEX
  8
0
  6
CONTINUOUS
 62
     7
 10
576.6930659436024
 20
302.1022095978502
  0
VERTEX
  8
0
  6
CONTINUOUS
 62
     7
 10
576.7774322952879
 20
302.1421921519145
  0
VERTEX
  8
0
  6
CONTINUOUS
 62
     7
 10
576.8528940319419
 20
302.1971617297132
  0
VERTEX
  8
0
  6
CONTINUOUS
 62
     7
 10
576.9168202593726
 20
302.26520187465
  0
VERTEX
  8
0
  6
CONTINUOUS
 62
     7
 10
576.9669822568014
 20
302.3439404385334
  0
VERTEX
  8
0
  6
CONTINUOUS
 62
     7
 10
577.0016311788723
 20
302.4306322840314
  0
VERTEX
  8
0
  6
CONTINUOUS
 62
     7
 10
577.0195590273087
 20
302.5222549910022
  0
VERTEX
  8
0
  6
CONTINUOUS
 62
     7
 10
577.0201407665041
 20
302.6156142299972
  0
SEQEND
  8
0
  6
CONTINUOUS
 62
     7
  0
LINE
  8
0
  6
CONTINUOUS
 62
     7
 10
648.9600637611426
 20
257.4671529988752
 11
650.4114559830443
 21
259.7898660867663
  0
LINE
  8
0
  6
CONTINUOUS
 62
     7
 10
640.211892834412
 20
243.4671529988752
 11
641.6632850563137
 21
245.7898660867662
  0
LINE
  8
0
  6
CONTINUOUS
 62
     7
 10
644.5859782977773
 20
250.4671529988752
 11
646.037370519679
 21
252.7898660867663
  0
LINE
  8
0
  6
CONTINUOUS
 62
     7
 10
599.788107165588
 20
243.4671529988752
 11
598.3367149436863
 21
245.7898660867663
  0
LINE
  8
0
  6
CONTINUOUS
 62
     7
 10
591.0399362388574
 20
257.4671529988752
 11
589.5885440169556
 21
259.7898660867663
  0
LINE
  8
0
  6
CONTINUOUS
 62
     7
 10
595.4140217022227
 20
250.4671529988752
 11
593.962629480321
 21
252.7898660867663
  0
CIRCLE
  8
0
  6
CONTINUOUS
 62
     7
 10
570.75
 20
292.4898660867663
 40
2.499999999999947
  0
CIRCLE
  8
0
  6
CONTINUOUS
 62
     7
 10
669.25
 20
292.4898660867663
 40
2.500000000000058
  0
ENDBLK
  8
0
  0
BLOCK
  8
0
  2
D_FRAME_DRAWING_17
 70
     0
 10
0.0
 20
0.0
  0
LINE
  8
0
  6
CONTINUOUS
 62
     7
 10
0.0
 20
0.0
 11
210.0
 21
0.0
  0
LINE
  8
0
  6
CONTINUOUS
 62
     7
 10
210.0
 20
0.0
 11
210.0
 21
297.0
  0
LINE
  8
0
  6
CONTINUOUS
 62
     7
 10
210.0
 20
297.0
 11
0.0
 21
297.0
  0
LINE
  8
0
  6
CONTINUOUS
 62
     7
 10
0.0
 20
297.0
 11
0.0
 21
0.0
  0
ENDBLK
  8
0
  0
BLOCK
  8
0
  2
D_FRAME_VIEW_2030
 70
     0
 10
0.0
 20
0.0
  0
ARC
  8
0
  6
CONTINUOUS
 62
     7
 10
618.25
 20
122.4409106396753
 40
12.0
 50
90.0
 51
180.0
  0
LINE
  8
0
  6
CONTINUOUS
 62
     7
 10
606.2499999999999
 20
105.4409106396753
 11
606.2499999999999
 21
122.4409106396753
  0
LINE
  8
0
  6
CONTINUOUS
 62
     7
 10
606.2499999999999
 20
105.4409106396753
 11
602.6755440499334
 21
105.4409106396753
  0
LINE
  8
0
  6
CONTINUOUS
 62
     7
 10
633.75
 20
105.4409106396753
 11
637.3244559500666
 21
105.4409106396753
  0
LINE
  8
0
  6
CONTINUOUS
 62
     7
 10
633.75
 20
105.4409106396753
 11
633.75
 21
122.4409106396753
  0
ARC
  8
0
  6
CONTINUOUS
 62
     7
 10
621.75
 20
122.4409106396753
 40
12.0
 50
0.0
 51
90.0
  0
LINE
  8
0
  6
CONTINUOUS
 62
     7
 10
618.25
 20
134.4409106396753
 11
621.75
 21
134.4409106396753
  0
LINE
  8
0
  6
CONTINUOUS
 62
     7
 10
637.3244559500666
 20
105.4409106396753
 11
638.1725516333494
 21
105.4409106396753
  0
LINE
  8
0
  6
CONTINUOUS
 62
     7
 10
602.6755440499334
 20
105.4409106396753
 11
601.8274483666506
 21
105.4409106396753
  0
LINE
  8
0
  6
CONTINUOUS
 62
     7
 10
638.1725516333494
 20
105.4409106396753
 11
640.1956493219881
 21
105.4409106396753
  0
LINE
  8
0
  6
CONTINUOUS
 62
     7
 10
601.8274483666506
 20
105.4409106396753
 11
599.8043506780118
 21
105.4409106396753
  0
LINE
  8
0
  6
CONTINUOUS
 62
     7
 10
622.8012456053792
 20
142.9706590809899
 11
622.7981905070775
 21
142.975576705074
  0
LINE
  8
0
  6
CONTINUOUS
 62
     7
 10
640.263280264966
 20
125.7290034777121
 11
640.2611263165604
 21
125.7397924071142
  0
LINE
  8
0
  6
CONTINUOUS
 62
     7
 10
617.2018094929225
 20
142.975576705074
 11
617.1987543946084
 21
142.9706590809043
  0
LINE
  8
0
  6
CONTINUOUS
 62
     7
 10
599.7388736834395
 20
125.7397924071141
 11
599.7367197350338
 21
125.7290034777121
  0
LINE
  8
0
  6
CONTINUOUS
 62
     7
 10
640.2697226229558
 20
124.3326796143377
 11
640.2632802649662
 21
125.7290034777121
  0
LINE
  8
0
  6
CONTINUOUS
 62
     7
 10
599.7302773770441
 20
124.3326796143377
 11
599.7367197350338
 21
125.7290034777121
  0
LINE
  8
0
  6
CONTINUOUS
 62
     7
 10
640.1956493219881
 20
105.4409106396753
 11
640.27162527391
 21
105.4409106396753
  0
LINE
  8
0
  6
CONTINUOUS
 62
     7
 10
599.8043506780118
 20
105.4409106396753
 11
599.72837472609
 21
105.4409106396753
  0
LINE
  8
0
  6
CONTINUOUS
 62
     7
 10
617.2018094929225
 20
142.9755767050741
 11
617.644491816576
 21
142.9760508664035
  0
LINE
  8
0
  6
CONTINUOUS
 62
     7
 10
622.7981905070775
 20
142.9755767050741
 11
622.355508183424
 21
142.9760508664035
  0
LINE
  8
0
  6
CONTINUOUS
 62
     7
 10
641.6632850563137
 20
109.4409106396753
 11
641.6632850563137
 21
105.4409106396753
  0
LINE
  8
0
  6
CONTINUOUS
 62
     7
 10
640.27162527391
 20
110.3997553691726
 11
641.6632850563137
 21
109.4409106396753
  0
LINE
  8
0
  6
CONTINUOUS
 62
     7
 10
640.27162527391
 20
105.4409106396753
 11
641.6632850563137
 21
105.4409106396753
  0
LINE
  8
0
  6
CONTINUOUS
 62
     7
 10
598.3367149436863
 20
109.4409106396753
 11
598.3367149436863
 21
105.4409106396753
  0
LINE
  8
0
  6
CONTINUOUS
 62
     7
 10
599.72837472609
 20
110.3997553691726
 11
598.3367149436863
 21
109.4409106396753
  0
LINE
  8
0
  6
CONTINUOUS
 62
     7
 10
599.72837472609
 20
105.4409106396753
 11
598.3367149436863
 21
105.4409106396753
  0
LINE
  8
0
  6
CONTINUOUS
 62
     7
 10
618.0
 20
144.7419150140975
 11
622.0
 21
144.7419150140975
  0
LINE
  8
0
  6
CONTINUOUS
 62
     7
 10
618.0
 20
144.7419150140975
 11
617.0
 21
142.9368131747767
  0
LINE
  8
0
  6
CONTINUOUS
 62
     7
 10
622.0
 20
144.7419150140975
 11
623.0
 21
142.9368131747767
  0
LINE
  8
0
  6
CONTINUOUS
 62
     7
 10
598.3367149436863
 20
105.4409106396753
 11
598.3014347934579
 21
105.4409106396753
  0
LINE
  8
0
  6
CONTINUOUS
 62
     7
 10
641.6632850563137
 20
105.4409106396753
 11
641.698565206542
 21
105.4409106396753
  0
LINE
  8
0
  6
CONTINUOUS
 62
     7
 10
641.698565206542
 20
105.4409106396753
 11
642.5466133026985
 21
105.4409106396753
  0
LINE
  8
0
  6
CONTINUOUS
 62
     7
 10
598.3014347934579
 20
105.4409106396753
 11
597.4533866973015
 21
105.4409106396753
  0
LINE
  8
0
  6
CONTINUOUS
 62
     7
 10
642.5466133026985
 20
105.4409106396753
 11
644.5697347853535
 21
105.4409106396753
  0
LINE
  8
0
  6
CONTINUOUS
 62
     7
 10
597.4533866973015
 20
105.4409106396753
 11
595.4302652146465
 21
105.4409106396753
  0
LINE
  8
0
  6
CONTINUOUS
 62
     7
 10
614.7587585123157
 20
149.5032283561854
 11
614.7559999483293
 21
149.4983213766399
  0
LINE
  8
0
  6
CONTINUOUS
 62
     7
 10
595.3641165241913
 20
130.335353687684
 11
595.362034150675
 21
130.3255745979171
  0
LINE
  8
0
  6
CONTINUOUS
 62
     7
 10
625.2440000517232
 20
149.4983213762352
 11
625.2412414876842
 21
149.5032283561854
  0
LINE
  8
0
  6
CONTINUOUS
 62
     7
 10
644.637965849325
 20
130.3255745979171
 11
644.6358834758848
 21
130.3353536876292
  0
LINE
  8
0
  6
CONTINUOUS
 62
     7
 10
644.6438080863211
 20
128.9292507345428
 11
644.637965849325
 21
130.3255745979171
  0
LINE
  8
0
  6
CONTINUOUS
 62
     7
 10
595.3561919136788
 20
128.9292507345428
 11
595.3620341506748
 21
130.3255745979171
  0
LINE
  8
0
  6
CONTINUOUS
 62
     7
 10
644.5697347853535
 20
105.4409106396753
 11
644.6457107372753
 21
105.4409106396753
  0
LINE
  8
0
  6
CONTINUOUS
 62
     7
 10
595.4302652146465
 20
105.4409106396753
 11
595.3542892627247
 21
105.4409106396753
  0
LINE
  8
0
  6
CONTINUOUS
 62
     7
 10
625.2412414876842
 20
149.5032283561854
 11
624.7985591640306
 21
149.5036564693672
  0
LINE
  8
0
  6
CONTINUOUS
 62
     7
 10
614.7587585123157
 20
149.5032283561854
 11
615.2014408359694
 21
149.5036564693672
  0
LINE
  8
0
  6
CONTINUOUS
 62
     7
 10
644.6457107372753
 20
110.3997553691726
 11
646.037370519679
 21
109.4409106396753
  0
LINE
  8
0
  6
CONTINUOUS
 62
     7
 10
646.037370519679
 20
109.4409106396753
 11
646.037370519679
 21
105.4409106396753
  0
LINE
  8
0
  6
CONTINUOUS
 62
     7
 10
644.6457107372753
 20
105.4409106396753
 11
646.037370519679
 21
105.4409106396753
  0
LINE
  8
0
  6
CONTINUOUS
 62
     7
 10
593.962629480321
 20
109.4409106396753
 11
593.962629480321
 21
105.4409106396753
  0
LINE
  8
0
  6
CONTINUOUS
 62
     7
 10
595.3542892627247
 20
110.3997553691726
 11
593.962629480321
 21
109.4409106396753
  0
LINE
  8
0
  6
CONTINUOUS
 62
     7
 10
595.3542892627247
 20
105.4409106396753
 11
593.962629480321
 21
105.4409106396753
  0
LINE
  8
0
  6
CONTINUOUS
 62
     7
 10
618.0
 20
151.2695206170611
 11
622.0
 21
151.2695206170611
  0
LINE
  8
0
  6
CONTINUOUS
 62
     7
 10
622.0
 20
151.2695206170611
 11
622.9772088523291
 21
149.5055591203213
  0
LINE
  8
0
  6
CONTINUOUS
 62
     7
 10
618.0
 20
151.2695206170611
 11
617.0227911476709
 21
149.5055591203213
  0
LINE
  8
0
  6
CONTINUOUS
 62
     7
 10
593.962629480321
 20
105.4409106396753
 11
593.9273493300926
 21
105.4409106396753
  0
LINE
  8
0
  6
CONTINUOUS
 62
     7
 10
646.037370519679
 20
105.4409106396753
 11
646.0726506699074
 21
105.4409106396753
  0
LINE
  8
0
  6
CONTINUOUS
 62
     7
 10
646.0726506699074
 20
105.4409106396753
 11
646.9206987660638
 21
105.4409106396753
  0
LINE
  8
0
  6
CONTINUOUS
 62
     7
 10
593.9273493300926
 20
105.4409106396753
 11
593.0793012339362
 21
105.4409106396753
  0
LINE
  8
0
  6
CONTINUOUS
 62
     7
 10
646.9206987660638
 20
105.4409106396753
 11
648.9438202487188
 21
105.4409106396753
  0
LINE
  8
0
  6
CONTINUOUS
 62
     7
 10
593.0793012339362
 20
105.4409106396753
 11
591.0561797512812
 21
105.4409106396753
  0
LINE
  8
0
  6
CONTINUOUS
 62
     7
 10
590.9894757405968
 20
134.9310879996298
 11
590.9874509513302
 21
134.9221457181222
  0
LINE
  8
0
  6
CONTINUOUS
 62
     7
 10
612.315707531709
 20
156.0308718548491
 11
612.313193028999
 21
156.0259735158159
  0
LINE
  8
0
  6
CONTINUOUS
 62
     7
 10
649.0125490486697
 20
134.9221457181222
 11
649.0105242595129
 21
134.9310879995568
  0
LINE
  8
0
  6
CONTINUOUS
 62
     7
 10
627.6868069710489
 20
156.0259735154108
 11
627.6842924682909
 21
156.0308718548491
  0
LINE
  8
0
  6
CONTINUOUS
 62
     7
 10
649.0178935496864
 20
133.5258218547478
 11
649.0125490486698
 21
134.9221457181222
  0
LINE
  8
0
  6
CONTINUOUS
 62
     7
 10
590.9821064503136
 20
133.5258218547478
 11
590.9874509513302
 21
134.9221457181222
  0
LINE
  8
0
  6
CONTINUOUS
 62
     7
 10
648.9438202487188
 20
105.4409106396753
 11
649.0197962006405
 21
105.4409106396753
  0
LINE
  8
0
  6
CONTINUOUS
 62
     7
 10
591.0561797512812
 20
105.4409106396753
 11
590.9802037993594
 21
105.4409106396753
  0
LINE
  8
0
  6
CONTINUOUS
 62
     7
 10
612.315707531709
 20
156.0308718548491
 11
612.7583898553627
 21
156.0312620723308
  0
LINE
  8
0
  6
CONTINUOUS
 62
     7
 10
627.6842924682909
 20
156.0308718548491
 11
627.2416101446373
 21
156.0312620723308
  0
LINE
  8
0
  6
CONTINUOUS
 62
     7
 10
649.0197962006405
 20
110.3997553691726
 11
650.4114559830443
 21
109.4409106396753
  0
LINE
  8
0
  6
CONTINUOUS
 62
     7
 10
650.4114559830443
 20
109.4409106396753
 11
650.4114559830443
 21
105.4409106396753
  0
LINE
  8
0
  6
CONTINUOUS
 62
     7
 10
649.0197962006405
 20
105.4409106396753
 11
650.4114559830443
 21
105.4409106396753
  0
LINE
  8
0
  6
CONTINUOUS
 62
     7
 10
589.5885440169556
 20
109.4409106396753
 11
589.5885440169556
 21
105.4409106396753
  0
LINE
  8
0
  6
CONTINUOUS
 62
     7
 10
590.9802037993594
 20
110.3997553691726
 11
589.5885440169556
 21
109.4409106396753
  0
LINE
  8
0
  6
CONTINUOUS
 62
     7
 10
590.9802037993594
 20
105.4409106396753
 11
589.5885440169556
 21
105.4409106396753
  0
LINE
  8
0
  6
CONTINUOUS
 62
     7
 10
618.0
 20
157.7971262200248
 11
622.0
 21
157.7971262200248
  0
LINE
  8
0
  6
CONTINUOUS
 62
     7
 10
618.0
 20
157.7971262200248
 11
617.0227911476709
 21
156.0331647232849
  0
LINE
  8
0
  6
CONTINUOUS
 62
     7
 10
622.0
 20
157.7971262200248
 11
622.9772088523291
 21
156.0331647232849
  0
ARC
  8
0
  6
CONTINUOUS
 62
     7
 10
609.8553710206651
 20
139.513567457298
 40
24.29132712305216
 50
90.13187929704745
 51
180.5124946343561
  0
ARC
  8
0
  6
CONTINUOUS
 62
     7
 10
630.1446289793348
 20
139.5135674572979
 40
24.29132712305219
 50
359.487505365644
 51
89.86812070295281
  0
LINE
  8
0
  6
CONTINUOUS
 62
     7
 10
589.5885440169556
 20
105.4409106396753
 11
589.5532638667273
 21
105.4409106396753
  0
LINE
  8
0
  6
CONTINUOUS
 62
     7
 10
650.4114559830443
 20
105.4409106396753
 11
650.4467361332727
 21
105.4409106396753
  0
LINE
  8
0
  6
CONTINUOUS
 62
     7
 10
650.4467361332727
 20
105.4409106396753
 11
651.294784229429
 21
105.4409106396753
  0
LINE
  8
0
  6
CONTINUOUS
 62
     7
 10
589.5532638667273
 20
105.4409106396753
 11
588.705215770571
 21
105.4409106396753
  0
LINE
  8
0
  6
CONTINUOUS
 62
     7
 10
609.799459043485
 20
163.8048302332415
 11
630.2005409565149
 21
163.8048302332415
  0
LINE
  8
0
  6
CONTINUOUS
 62
     7
 10
654.2503658146538
 20
105.4409106396753
 11
654.4349843586905
 21
139.2962912650055
  0
LINE
  8
0
  6
CONTINUOUS
 62
     7
 10
651.294784229429
 20
105.4409106396753
 11
654.2503658146538
 21
105.4409106396753
  0
LINE
  8
0
  6
CONTINUOUS
 62
     7
 10
585.749634185346
 20
105.4409106396753
 11
585.5650156413095
 21
139.2962912650055
  0
LINE
  8
0
  6
CONTINUOUS
 62
     7
 10
588.705215770571
 20
105.4409106396753
 11
585.749634185346
 21
105.4409106396753
  0
LINE
  8
0
  6
CONTINUOUS
 62
     7
 10
585.749634185346
 20
105.4409106396753
 11
581.6864116101195
 21
105.4409106396753
  0
LINE
  8
0
  6
CONTINUOUS
 62
     7
 10
654.2503658146538
 20
105.4409106396753
 11
658.3135883898804
 21
105.4409106396753
  0
LINE
  8
0
  6
CONTINUOUS
 62
     7
 10
658.3135883898804
 20
105.4409106396753
 11
659.8078235389556
 21
105.4409106396753
  0
LINE
  8
0
  6
CONTINUOUS
 62
     7
 10
581.6864116101195
 20
105.4409106396753
 11
580.1921764610444
 21
105.4409106396753
  0
LINE
  8
0
  6
CONTINUOUS
 62
     7
 10
604.6378063691205
 20
168.7409106396753
 11
635.3621936308795
 21
168.7409106396753
  0
LINE
  8
0
  6
CONTINUOUS
 62
     7
 10
660.8102472579302
 20
105.4409106396753
 11
659.8078235389556
 21
105.4409106396753
  0
LINE
  8
0
  6
CONTINUOUS
 62
     7
 10
579.1897527420697
 20
105.4409106396753
 11
580.1921764610444
 21
105.4409106396753
  0
LINE
  8
0
  6
CONTINUOUS
 62
     7
 10
654.6830183371912
 20
168.7409106396753
 11
654.5662487670365
 21
168.7409106396753
  0
LINE
  8
0
  6
CONTINUOUS
 62
     7
 10
654.5662487670365
 20
168.7409106396753
 11
654.3693689387648
 21
168.7409106396753
  0
LINE
  8
0
  6
CONTINUOUS
 62
     7
 10
654.3693689387648
 20
168.7409106396753
 11
654.2501863426219
 21
168.7409106396753
  0
LINE
  8
0
  6
CONTINUOUS
 62
     7
 10
654.2501863426219
 20
168.7409106396753
 11
654.2088788782673
 21
168.7409106396753
  0
LINE
  8
0
  6
CONTINUOUS
 62
     7
 10
654.2088788782673
 20
168.7409106396753
 11
653.8582633957591
 21
168.7409106396753
  0
LINE
  8
0
  6
CONTINUOUS
 62
     7
 10
653.3321315013977
 20
168.7409106396753
 11
653.2365111784792
 21
168.7409106396753
  0
LINE
  8
0
  6
CONTINUOUS
 62
     7
 10
653.2365111784792
 20
168.7409106396753
 11
652.9972145094483
 21
168.7409106396753
  0
LINE
  8
0
  6
CONTINUOUS
 62
     7
 10
652.9972145094483
 20
168.7409106396753
 11
652.9446672246428
 21
168.7409106396753
  0
LINE
  8
0
  6
CONTINUOUS
 62
     7
 10
653.8582633957591
 20
168.7409106396753
 11
653.4576537547686
 21
168.7409106396753
  0
LINE
  8
0
  6
CONTINUOUS
 62
     7
 10
653.4576537547686
 20
168.7409106396753
 11
653.3536592616317
 21
168.7409106396753
  0
LINE
  8
0
  6
CONTINUOUS
 62
     7
 10
653.3536592616317
 20
168.7409106396753
 11
653.3321315013977
 21
168.7409106396753
  0
LINE
  8
0
  6
CONTINUOUS
 62
     7
 10
652.9446672246428
 20
168.7409106396753
 11
651.2776289664848
 21
168.7409106396753
  0
LINE
  8
0
  6
CONTINUOUS
 62
     7
 10
646.0229559897625
 20
168.7409106396753
 11
635.3621936308796
 21
168.7409106396753
  0
LINE
  8
0
  6
CONTINUOUS
 62
     7
 10
651.2776289664848
 20
168.7409106396753
 11
646.1895218038379
 21
168.7409106396753
  0
POLYLINE
  8
0
  6
CONTINUOUS
 62
     7
 10
0.0
 20
0.0
 30
0.0
 66
     1
 70
     8
  0
VERTEX
  8
0
  6
CONTINUOUS
 62
     7
 10
585.2803114957162
 20
168.7409106396753
 30
0.0
 70
    32
  0
VERTEX
  8
0
  6
CONTINUOUS
 62
     7
 10
585.2803114957162
 20
168.7409106396753
 30
0.0
 70
    32
  0
VERTEX
  8
0
  6
CONTINUOUS
 62
     7
 10
585.2803114957162
 20
168.7409106396753
 30
0.0
 70
    32
  0
SEQEND
  8
0
  6
CONTINUOUS
 62
     7
  0
LINE
  8
0
  6
CONTINUOUS
 62
     7
 10
585.2803114957162
 20
168.7409106396753
 11
604.6378063691204
 21
168.7409106396753
  0
LINE
  8
0
  6
CONTINUOUS
 62
     7
 10
655.8592978319826
 20
168.609311149797
 11
662.8847859672481
 21
166.9562551179698
  0
LINE
  8
0
  6
CONTINUOUS
 62
     7
 10
584.1407021680172
 20
168.609311149797
 11
577.1152140327517
 21
166.9562551179699
  0
LINE
  8
0
  6
CONTINUOUS
 62
     7
 10
661.0215483427963
 20
105.4409106396753
 11
660.8102472579302
 21
105.4409106396753
  0
LINE
  8
0
  6
CONTINUOUS
 62
     7
 10
578.9784516572037
 20
105.4409106396753
 11
579.1897527420697
 21
105.4409106396753
  0
LINE
  8
0
  6
CONTINUOUS
 62
     7
 10
673.2650350544574
 20
105.4409106396753
 11
661.0215483427963
 21
105.4409106396753
  0
LINE
  8
0
  6
CONTINUOUS
 62
     7
 10
566.7349649455426
 20
105.4409106396753
 11
578.9784516572037
 21
105.4409106396753
  0
LINE
  8
0
  6
CONTINUOUS
 62
     7
 10
672.6563980971459
 20
113.4409106396753
 11
661.406658412135
 21
113.4409106396753
  0
LINE
  8
0
  6
CONTINUOUS
 62
     7
 10
567.3436019028541
 20
113.4409106396753
 11
578.593341587865
 21
113.4409106396753
  0
LINE
  8
0
  6
CONTINUOUS
 62
     7
 10
676.25
 20
105.4409106396753
 11
673.2650350544574
 21
105.4409106396753
  0
LINE
  8
0
  6
CONTINUOUS
 62
     7
 10
563.75
 20
105.4409106396753
 11
566.7349649455426
 21
105.4409106396753
  0
LINE
  8
0
  6
CONTINUOUS
 62
     7
 10
675.1888738470789
 20
113.4409106396753
 11
672.6563980971459
 21
113.4409106396753
  0
LINE
  8
0
  6
CONTINUOUS
 62
     7
 10
564.811126152921
 20
113.4409106396753
 11
567.3436019028541
 21
113.4409106396753
  0
POLYLINE
  8
0
  6
CONTINUOUS
 62
     7
 66
     1
  0
VERTEX
  8
0
  6
CONTINUOUS
 62
     7
 10
662.8819058768496
 20
166.956932786299
  0
VERTEX
  8
0
  6
CONTINUOUS
 62
     7
 10
662.9034123941453
 20
166.951365425915
  0
VERTEX
  8
0
  6
CONTINUOUS
 62
     7
 10
662.9249553753633
 20
166.9447470763148
  0
VERTEX
  8
0
  6
CONTINUOUS
 62
     7
 10
662.9464630160983
 20
166.9370555394617
  0
VERTEX
  8
0
  6
CONTINUOUS
 62
     7
 10
662.9678597962961
 20
166.9282747901596
  0
VERTEX
  8
0
  6
CONTINUOUS
 62
     7
 10
662.9890671092143
 20
166.918395574397
  0
VERTEX
  8
0
  6
CONTINUOUS
 62
     7
 10
663.0100039933828
 20
166.9074159348765
  0
VERTEX
  8
0
  6
CONTINUOUS
 62
     7
 10
663.0305879583373
 20
166.8953416443352
  0
VERTEX
  8
0
  6
CONTINUOUS
 62
     7
 10
663.0507358908778
 20
166.882186528491
  0
VERTEX
  8
0
  6
CONTINUOUS
 62
     7
 10
663.0703650247624
 20
166.8679726625907
  0
VERTEX
  8
0
  6
CONTINUOUS
 62
     7
 10
663.0893939532746
 20
166.8527304285687
  0
VERTEX
  8
0
  6
CONTINUOUS
 62
     7
 10
663.1077436612563
 20
166.8364984236729
  0
VERTEX
  8
0
  6
CONTINUOUS
 62
     7
 10
663.125338551169
 20
166.8193232159408
  0
VERTEX
  8
0
  6
CONTINUOUS
 62
     7
 10
663.142107436708
 20
166.8012589469016
  0
VERTEX
  8
0
  6
CONTINUOUS
 62
     7
 10
663.1579844775738
 20
166.7823667871123
  0
VERTEX
  8
0
  6
CONTINUOUS
 62
     7
 10
663.1729100302338
 20
166.7627142553174
  0
VERTEX
  8
0
  6
CONTINUOUS
 62
     7
 10
663.1868313918839
 20
166.7423744168728
  0
VERTEX
  8
0
  6
CONTINUOUS
 62
     7
 10
663.1997034182176
 20
166.7214249813259
  0
VERTEX
  8
0
  6
CONTINUOUS
 62
     7
 10
663.2114889998809
 20
166.6999473224495
  0
VERTEX
  8
0
  6
CONTINUOUS
 62
     7
 10
663.2221593873788
 20
166.6780254464132
  0
VERTEX
  8
0
  6
CONTINUOUS
 62
     7
 10
663.2316943594642
 20
166.6557449350137
  0
VERTEX
  8
0
  6
CONTINUOUS
 62
     7
 10
663.2400822353576
 20
166.6331918909502
  0
VERTEX
  8
0
  6
CONTINUOUS
 62
     7
 10
663.247319736271
 20
166.6104519110503
  0
VERTEX
  8
0
  6
CONTINUOUS
 62
     7
 10
663.2534117063491
 20
166.5876091112381
  0
VERTEX
  8
0
  6
CONTINUOUS
 62
     7
 10
663.2583707071078
 20
166.5647452240628
  0
VERTEX
  8
0
  6
CONTINUOUS
 62
     7
 10
663.2622165025766
 20
166.5419387859728
  0
VERTEX
  8
0
  6
CONTINUOUS
 62
     7
 10
663.2649754545431
 20
166.5192644274771
  0
VERTEX
  8
0
  6
CONTINUOUS
 62
     7
 10
663.266679848539
 20
166.4967922751036
  0
VERTEX
  8
0
  6
CONTINUOUS
 62
     7
 10
663.2673671715189
 20
166.4745874698814
  0
SEQEND
  8
0
  6
CONTINUOUS
 62
     7
  0
POLYLINE
  8
0
  6
CONTINUOUS
 62
     7
 66
     1
  0
VERTEX
  8
0
  6
CONTINUOUS
 62
     7
 10
577.1180941231504
 20
166.956932786299
  0
VERTEX
  8
0
  6
CONTINUOUS
 62
     7
 10
577.0965876058547
 20
166.951365425915
  0
VERTEX
  8
0
  6
CONTINUOUS
 62
     7
 10
577.0750446246367
 20
166.9447470763148
  0
VERTEX
  8
0
  6
CONTINUOUS
 62
     7
 10
577.0535369839017
 20
166.9370555394617
  0
VERTEX
  8
0
  6
CONTINUOUS
 62
     7
 10
577.0321402037039
 20
166.9282747901596
  0
VERTEX
  8
0
  6
CONTINUOUS
 62
     7
 10
577.0109328907857
 20
166.918395574397
  0
VERTEX
  8
0
  6
CONTINUOUS
 62
     7
 10
576.9899960066172
 20
166.9074159348765
  0
VERTEX
  8
0
  6
CONTINUOUS
 62
     7
 10
576.9694120416627
 20
166.8953416443352
  0
VERTEX
  8
0
  6
CONTINUOUS
 62
     7
 10
576.9492641091222
 20
166.882186528491
  0
VERTEX
  8
0
  6
CONTINUOUS
 62
     7
 10
576.9296349752375
 20
166.8679726625907
  0
VERTEX
  8
0
  6
CONTINUOUS
 62
     7
 10
576.9106060467254
 20
166.8527304285687
  0
VERTEX
  8
0
  6
CONTINUOUS
 62
     7
 10
576.8922563387437
 20
166.8364984236729
  0
VERTEX
  8
0
  6
CONTINUOUS
 62
     7
 10
576.874661448831
 20
166.8193232159408
  0
VERTEX
  8
0
  6
CONTINUOUS
 62
     7
 10
576.857892563292
 20
166.8012589469016
  0
VERTEX
  8
0
  6
CONTINUOUS
 62
     7
 10
576.8420155224263
 20
166.7823667871123
  0
VERTEX
  8
0
  6
CONTINUOUS
 62
     7
 10
576.8270899697661
 20
166.7627142553174
  0
VERTEX
  8
0
  6
CONTINUOUS
 62
     7
 10
576.8131686081161
 20
166.7423744168728
  0
VERTEX
  8
0
  6
CONTINUOUS
 62
     7
 10
576.8002965817823
 20
166.7214249813259
  0
VERTEX
  8
0
  6
CONTINUOUS
 62
     7
 10
576.7885110001192
 20
166.6999473224495
  0
VERTEX
  8
0
  6
CONTINUOUS
 62
     7
 10
576.7778406126212
 20
166.6780254464132
  0
VERTEX
  8
0
  6
CONTINUOUS
 62
     7
 10
576.7683056405358
 20
166.6557449350137
  0
VERTEX
  8
0
  6
CONTINUOUS
 62
     7
 10
576.7599177646424
 20
166.6331918909502
  0
VERTEX
  8
0
  6
CONTINUOUS
 62
     7
 10
576.7526802637291
 20
166.6104519110503
  0
VERTEX
  8
0
  6
CONTINUOUS
 62
     7
 10
576.7465882936509
 20
166.5876091112382
  0
VERTEX
  8
0
  6
CONTINUOUS
 62
     7
 10
576.7416292928922
 20
166.5647452240628
  0
VERTEX
  8
0
  6
CONTINUOUS
 62
     7
 10
576.7377834974233
 20
166.5419387859728
  0
VERTEX
  8
0
  6
CONTINUOUS
 62
     7
 10
576.7350245454569
 20
166.5192644274772
  0
VERTEX
  8
0
  6
CONTINUOUS
 62
     7
 10
576.733320151461
 20
166.4967922751036
  0
VERTEX
  8
0
  6
CONTINUOUS
 62
     7
 10
576.7326328284811
 20
166.4745874698814
  0
SEQEND
  8
0
  6
CONTINUOUS
 62
     7
  0
LINE
  8
0
  6
CONTINUOUS
 62
     7
 10
663.7301850576739
 20
113.4409106396753
 11
663.2673671715189
 21
166.4745874698814
  0
LINE
  8
0
  6
CONTINUOUS
 62
     7
 10
576.2698149423261
 20
113.4409106396753
 11
576.7326328284811
 21
166.4745874698814
  0
ARC
  8
0
  6
CONTINUOUS
 62
     7
 10
622.7744357994966
 20
125.4820904753957
 40
17.48858924746277
 50
0.844308788572606
 51
89.9121662390386
  0
ARC
  8
0
  6
CONTINUOUS
 62
     7
 10
617.2255642005033
 20
125.4820904753957
 40
17.48858924746274
 50
90.08783376096139
 51
179.1556912114274
  0
LINE
  8
0
  6
CONTINUOUS
 62
     7
 10
640.27162527391
 20
105.4409106396753
 11
640.27162527391
 21
124.3326796143377
  0
LINE
  8
0
  6
CONTINUOUS
 62
     7
 10
599.72837472609
 20
124.3326796143377
 11
599.72837472609
 21
105.4409106396753
  0
LINE
  8
0
  6
CONTINUOUS
 62
     7
 10
622.355508183424
 20
142.9779535173576
 11
617.644491816576
 21
142.9779535173577
  0
ARC
  8
0
  6
CONTINUOUS
 62
     7
 10
614.7797884627486
 20
130.080998117484
 40
19.41733792394144
 50
90.07019402613126
 51
179.249437838267
  0
ARC
  8
0
  6
CONTINUOUS
 62
     7
 10
625.2179718107526
 20
130.0787316358166
 40
19.41960727667114
 50
0.7571620730682885
 51
89.92320606253344
  0
LINE
  8
0
  6
CONTINUOUS
 62
     7
 10
644.6457107372753
 20
105.4409106396754
 11
644.6457107372753
 21
128.9292507345428
  0
LINE
  8
0
  6
CONTINUOUS
 62
     7
 10
595.3542892627247
 20
128.9292507345428
 11
595.3542892627247
 21
105.4409106396754
  0
LINE
  8
0
  6
CONTINUOUS
 62
     7
 10
624.7985591640306
 20
149.5055591203213
 11
615.2014408359693
 21
149.5055591203213
  0
ARC
  8
0
  6
CONTINUOUS
 62
     7
 10
612.3329313661083
 20
134.6810627706673
 40
21.34491996504238
 50
90.05298323619417
 51
179.328846389133
  0
ARC
  8
0
  6
CONTINUOUS
 62
     7
 10
627.6598371100421
 20
134.6737528011829
 40
21.35223784090937
 50
0.6905402589586097
 51
89.92763011571418
  0
LINE
  8
0
  6
CONTINUOUS
 62
     7
 10
649.0197962006405
 20
105.4409106396753
 11
649.0197962006405
 21
133.5258218547478
  0
LINE
  8
0
  6
CONTINUOUS
 62
     7
 10
590.9802037993594
 20
133.5258218547478
 11
590.9802037993594
 21
105.4409106396753
  0
LINE
  8
0
  6
CONTINUOUS
 62
     7
 10
627.2416101446373
 20
156.0331647232849
 11
612.7583898553627
 21
156.0331647232849
  0
ARC
  8
0
  6
CONTINUOUS
 62
     7
 10
654.7196885042837
 20
163.7409106396753
 40
5.000000000000025
 50
76.75948008481285
 51
89.99999999999996
  0
ARC
  8
0
  6
CONTINUOUS
 62
     7
 10
585.2803114957162
 20
163.7409106396753
 40
5.000000000000004
 50
90.0
 51
103.2405199151872
  0
LINE
  8
0
  6
CONTINUOUS
 62
     7
 10
676.25
 20
105.4409106396753
 11
676.1888357701431
 21
112.4496371751737
  0
LINE
  8
0
  6
CONTINUOUS
 62
     7
 10
563.8111642298569
 20
112.4496371751737
 11
563.75
 21
105.4409106396753
  0
ARC
  8
0
  6
CONTINUOUS
 62
     7
 10
675.1888738470789
 20
112.4409106396753
 40
1.000000000000003
 50
0.4999999999999818
 51
90.0
  0
ARC
  8
0
  6
CONTINUOUS
 62
     7
 10
564.811126152921
 20
112.4409106396753
 40
1.000000000000001
 50
90.0
 51
179.5
  0
LINE
  8
0
  6
CONTINUOUS
 62
     7
 10
663.1076537580155
 20
113.4665249350685
 11
663.0979013956086
 21
113.4699762649165
  0
LINE
  8
0
  6
CONTINUOUS
 62
     7
 10
663.0979013956086
 20
113.4699762649165
 11
662.8327208517977
 21
113.7120703819442
  0
LINE
  8
0
  6
CONTINUOUS
 62
     7
 10
577.1672791482023
 20
113.7120703819442
 11
576.9020986043914
 21
113.4699762649165
  0
LINE
  8
0
  6
CONTINUOUS
 62
     7
 10
576.9020986043914
 20
113.4699762649165
 11
576.883631355839
 21
113.463636841731
  0
ENDBLK
  8
0
  0
ENDSEC
  0
SECTION
  2
ENTITIES
  0
TEXT
  8
0
  6
CONTINUOUS
 62
     7
 10
783.846392397149
 20
280.5424534200326
 40
8.0
  1
MIDC-80
  0
LINE
  8
0
  6
CENTER
 62
     1
 10
662.5000000000001
 20
292.4898660867663
 11
675.9999999999999
 21
292.4898660867663
  0
LINE
  8
0
  6
CENTER
 62
     1
 10
563.9999999999999
 20
292.4898660867663
 11
577.5
 21
292.4898660867663
  0
LINE
  8
0
  6
CENTER
 62
     1
 10
669.25
 20
285.7398660867663
 11
669.25
 21
299.2398660867662
  0
LINE
  8
0
  6
CENTER
 62
     1
 10
570.75
 20
285.7398660867663
 11
570.75
 21
299.2398660867663
  0
INSERT
  8
0
  6
CENTER
 62
     7
  2
D_FRAME_VIEW_2936
 10
0.0
 20
0.0
 30
0.0
  0
INSERT
  8
0
  6
CENTER
 62
     7
  2
D_FRAME_VIEW_2756
 10
0.0
 20
0.0
 30
0.0
  0
INSERT
  8
0
 62
     7
  2
D_FRAME_DRAWING_17
 10
0.0
 20
0.0
 30
0.0
  0
INSERT
  8
0
  6
CENTER
 62
     7
  2
D_FRAME_VIEW_2030
 10
0.0
 20
0.0
 30
0.0
  0
LINE
  8
0
  6
CENTER
 62
     1
 10
620.0
 20
235.7898660867663
 11
620.0
 21
354.9898660867663
  0
LINE
  8
0
  6
CENTER
 62
     1
 10
620.0
 20
102.4409106396753
 11
620.0
 21
171.7409106396753
  0
ENDSEC
  0
EOF
