  0
SECTION
  2
HEADER
  9
$ACADVER
  1
AC1014
  9
$ACADMAINTVER
 70
     9
  9
$DWGCODEPAGE
  3
ANSI_932
  9
$INSBASE
 10
0.0
 20
0.0
 30
0.0
  9
$EXTMIN
 10
537.4
 20
129.3443291234213
 30
0.0
  9
$EXTMAX
 10
697.4999875
 20
330.4999875
 30
0.0
  9
$LIMMIN
 10
0.0
 20
0.0
  9
$LIMMAX
 10
12.0
 20
9.0
  9
$ORTHOMODE
 70
     0
  9
$REGENMODE
 70
     1
  9
$FILLMODE
 70
     1
  9
$QTEXTMODE
 70
     0
  9
$MIRRTEXT
 70
     1
  9
$DRAGMODE
 70
     2
  9
$LTSCALE
 40
1.0
  9
$OSMODE
 70
    37
  9
$ATTMODE
 70
     1
  9
$TEXTSIZE
 40
0.2
  9
$TRACEWID
 40
0.05
  9
$TEXTSTYLE
  7
STANDARD
  9
$CLAYER
  8
0
  9
$CELTYPE
  6
BYLAYER
  9
$CECOLOR
 62
   256
  9
$CELTSCALE
 40
1.0
  9
$DELOBJ
 70
     1
  9
$DISPSILH
 70
     0
  9
$DIMSCALE
 40
1.0
  9
$DIMASZ
 40
3.0
  9
$DIMEXO
 40
0.0625
  9
$DIMDLI
 40
0.38
  9
$DIMRND
 40
0.0
  9
$DIMDLE
 40
0.0
  9
$DIMEXE
 40
1.5
  9
$DIMTP
 40
0.0
  9
$DIMTM
 40
0.0
  9
$DIMTXT
 40
3.0
  9
$DIMCEN
 40
0.09
  9
$DIMTSZ
 40
0.0
  9
$DIMTOL
 70
     0
  9
$DIMLIM
 70
     0
  9
$DIMTIH
 70
     1
  9
$DIMTOH
 70
     1
  9
$DIMSE1
 70
     0
  9
$DIMSE2
 70
     0
  9
$DIMTAD
 70
     1
  9
$DIMZIN
 70
     0
  9
$DIMBLK
  1

  9
$DIMASO
 70
     1
  9
$DIMSHO
 70
     1
  9
$DIMPOST
  1

  9
$DIMAPOST
  1

  9
$DIMALT
 70
     0
  9
$DIMALTD
 70
     2
  9
$DIMALTF
 40
25.4
  9
$DIMLFAC
 40
1.0
  9
$DIMTOFL
 70
     0
  9
$DIMTVP
 40
0.0
  9
$DIMTIX
 70
     0
  9
$DIMSOXD
 70
     0
  9
$DIMSAH
 70
     0
  9
$DIMBLK1
  1

  9
$DIMBLK2
  1

  9
$DIMSTYLE
  2
STANDARD
  9
$DIMCLRD
 70
     0
  9
$DIMCLRE
 70
     0
  9
$DIMCLRT
 70
     0
  9
$DIMTFAC
 40
1.0
  9
$DIMGAP
 40
1.5
  9
$DIMJUST
 70
     0
  9
$DIMSD1
 70
     0
  9
$DIMSD2
 70
     0
  9
$DIMTOLJ
 70
     1
  9
$DIMTZIN
 70
     0
  9
$DIMALTZ
 70
     0
  9
$DIMALTTZ
 70
     0
  9
$DIMFIT
 70
     3
  9
$DIMUPT
 70
     0
  9
$DIMUNIT
 70
     2
  9
$DIMDEC
 70
     2
  9
$DIMTDEC
 70
     4
  9
$DIMALTU
 70
     2
  9
$DIMALTTD
 70
     2
  9
$DIMTXSTY
  7
ＭＳ_ゴシック
  9
$DIMAUNIT
 70
     0
  9
$LUNITS
 70
     2
  9
$LUPREC
 70
     4
  9
$SKETCHINC
 40
0.1
  9
$FILLETRAD
 40
0.5
  9
$AUNITS
 70
     0
  9
$AUPREC
 70
     0
  9
$MENU
  1
.
  9
$ELEVATION
 40
0.0
  9
$PELEVATION
 40
0.0
  9
$THICKNESS
 40
0.0
  9
$LIMCHECK
 70
     0
  9
$CHAMFERA
 40
0.0
  9
$CHAMFERB
 40
0.0
  9
$CHAMFERC
 40
0.0
  9
$CHAMFERD
 40
0.0
  9
$SKPOLY
 70
     0
  9
$TDCREATE
 40
2459230.557513681
  9
$TDUPDATE
 40
2459230.557513877
  9
$TDINDWG
 40
0.0000000116
  9
$TDUSRTIMER
 40
0.0000000116
  9
$USRTIMER
 70
     1
  9
$ANGBASE
 50
0.0
  9
$ANGDIR
 70
     0
  9
$PDMODE
 70
     0
  9
$PDSIZE
 40
0.0
  9
$PLINEWID
 40
0.0
  9
$COORDS
 70
     1
  9
$SPLFRAME
 70
     0
  9
$SPLINETYPE
 70
     6
  9
$SPLINESEGS
 70
     8
  9
$ATTDIA
 70
     0
  9
$ATTREQ
 70
     1
  9
$HANDLING
 70
     1
  9
$HANDSEED
  5
1F4
  9
$SURFTAB1
 70
     6
  9
$SURFTAB2
 70
     6
  9
$SURFTYPE
 70
     6
  9
$SURFU
 70
     6
  9
$SURFV
 70
     6
  9
$UCSNAME
  2

  9
$UCSORG
 10
0.0
 20
0.0
 30
0.0
  9
$UCSXDIR
 10
1.0
 20
0.0
 30
0.0
  9
$UCSYDIR
 10
0.0
 20
1.0
 30
0.0
  9
$PUCSNAME
  2

  9
$PUCSORG
 10
0.0
 20
0.0
 30
0.0
  9
$PUCSXDIR
 10
1.0
 20
0.0
 30
0.0
  9
$PUCSYDIR
 10
0.0
 20
1.0
 30
0.0
  9
$USERI1
 70
     0
  9
$USERI2
 70
     0
  9
$USERI3
 70
     0
  9
$USERI4
 70
     0
  9
$USERI5
 70
     0
  9
$USERR1
 40
0.0
  9
$USERR2
 40
0.0
  9
$USERR3
 40
0.0
  9
$USERR4
 40
0.0
  9
$USERR5
 40
0.0
  9
$WORLDVIEW
 70
     1
  9
$SHADEDGE
 70
     3
  9
$SHADEDIF
 70
    70
  9
$TILEMODE
 70
     1
  9
$MAXACTVP
 70
    64
  9
$PINSBASE
 10
0.0
 20
0.0
 30
0.0
  9
$PLIMCHECK
 70
     0
  9
$PEXTMIN
 10
1.000000000000000E+20
 20
1.000000000000000E+20
 30
1.000000000000000E+20
  9
$PEXTMAX
 10
-1.000000000000000E+20
 20
-1.000000000000000E+20
 30
-1.000000000000000E+20
  9
$PLIMMIN
 10
0.0
 20
0.0
  9
$PLIMMAX
 10
12.0
 20
9.0
  9
$UNITMODE
 70
     0
  9
$VISRETAIN
 70
     1
  9
$PLINEGEN
 70
     0
  9
$PSLTSCALE
 70
     1
  9
$TREEDEPTH
 70
  3020
  9
$PICKSTYLE
 70
     1
  9
$CMLSTYLE
  2
STANDARD
  9
$CMLJUST
 70
     0
  9
$CMLSCALE
 40
1.0
  9
$PROXYGRAPHICS
 70
     1
  9
$MEASUREMENT
 70
     1
  0
ENDSEC
  0
SECTION
  2
CLASSES
  0
CLASS
  1
ACDBDICTIONARYWDFLT
  2
AcDbDictionaryWithDefault
  3
ObjectDBX Classes
 90
        0
280
     0
281
     0
  0
CLASS
  1
VISUALSTYLE
  2
AcDbVisualStyle
  3
ObjectDBX Classes
 90
     4095
280
     0
281
     0
  0
CLASS
  1
MATERIAL
  2
AcDbMaterial
  3
ObjectDBX Classes
 90
     1153
280
     0
281
     0
  0
CLASS
  1
SCALE
  2
AcDbScale
  3
ObjectDBX Classes
 90
     1153
280
     0
281
     0
  0
CLASS
  1
TABLESTYLE
  2
AcDbTableStyle
  3
ObjectDBX Classes
 90
     4095
280
     0
281
     0
  0
CLASS
  1
MLEADERSTYLE
  2
AcDbMLeaderStyle
  3
ACDB_MLEADERSTYLE_CLASS
 90
     4095
280
     0
281
     0
  0
CLASS
  1
SUN
  2
AcDbSun
  3
SCENEOE
 90
     1153
280
     0
281
     0
  0
CLASS
  1
DICTIONARYVAR
  2
AcDbDictionaryVar
  3
ObjectDBX Classes
 90
        0
280
     0
281
     0
  0
CLASS
  1
XRECORD
  2
AcDbXrecord
  3
ObjectDBX Classes
 90
        0
280
     0
281
     0
  0
CLASS
  1
LWPOLYLINE
  2
AcDbPolyline
  3
ObjectDBX Classes
 90
        0
280
     0
281
     1
  0
CLASS
  1
HATCH
  2
AcDbHatch
  3
ObjectDBX Classes
 90
        0
280
     0
281
     1
  0
CLASS
  1
ACDBPLACEHOLDER
  2
AcDbPlaceHolder
  3
ObjectDBX Classes
 90
        0
280
     0
281
     0
  0
CLASS
  1
LAYOUT
  2
AcDbLayout
  3
ObjectDBX Classes
 90
        0
280
     0
281
     0
  0
ENDSEC
  0
SECTION
  2
TABLES
  0
TABLE
  2
VPORT
  5
8
102
{ACAD_XDICTIONARY
360
1E9
102
}
330
0
100
AcDbSymbolTable
 70
     1
  0
VPORT
  5
29
330
8
100
AcDbSymbolTableRecord
100
AcDbViewportTableRecord
  2
*ACTIVE
 70
     0
 10
0.0
 20
0.0
 11
1.0
 21
1.0
 12
617.44999375
 22
229.9221583117106
 13
0.0
 23
0.0
 14
0.5
 24
0.5
 15
0.5
 25
0.5
 16
0.0
 26
0.0
 36
1.0
 17
0.0
 27
0.0
 37
0.0
 40
201.1556583765787
 41
1.6
 42
50.0
 43
0.0
 44
0.0
 50
0.0
 51
0.0
 71
     0
 72
   100
 73
     1
 74
     3
 75
     0
 76
     0
 77
     0
 78
     0
  0
ENDTAB
  0
TABLE
  2
LTYPE
  5
5
330
0
100
AcDbSymbolTable
 70
     2
  0
LTYPE
  5
14
330
5
100
AcDbSymbolTableRecord
100
AcDbLinetypeTableRecord
  2
BYBLOCK
 70
     0
  3

 72
    65
 73
     0
 40
0.0
  0
LTYPE
  5
15
330
5
100
AcDbSymbolTableRecord
100
AcDbLinetypeTableRecord
  2
BYLAYER
 70
     0
  3

 72
    65
 73
     0
 40
0.0
  0
LTYPE
  5
16
330
5
100
AcDbSymbolTableRecord
100
AcDbLinetypeTableRecord
  2
CONTINUOUS
 70
     0
  3
Solid line
 72
    65
 73
     0
 40
0.0
  0
LTYPE
  5
71
330
5
100
AcDbSymbolTableRecord
100
AcDbLinetypeTableRecord
  2
CENTER
 70
     0
  3

 72
    65
 73
     0
 40
0.0
  0
ENDTAB
  0
TABLE
  2
LAYER
  5
2
330
0
100
AcDbSymbolTable
 70
     1
  0
LAYER
  5
10
330
2
100
AcDbSymbolTableRecord
100
AcDbLayerTableRecord
  2
0
 70
     0
 62
     7
  6
CONTINUOUS
  0
ENDTAB
  0
TABLE
  2
STYLE
  5
3
330
0
100
AcDbSymbolTable
 70
     2
  0
STYLE
  5
11
330
3
100
AcDbSymbolTableRecord
100
AcDbTextStyleTableRecord
  2
STANDARD
 70
     0
 40
0.0
 41
1.0
 50
0.0
 71
     0
 42
0.2
  3
txt
  4

  0
STYLE
  5
6E
330
3
100
AcDbSymbolTableRecord
100
AcDbTextStyleTableRecord
  2
ＭＳ_ゴシック
 70
     0
 40
0.0
 41
1.0
 50
0.0
 71
     0
 42
0.2
  3
ＭＳ ゴシック.shx
  4

  0
ENDTAB
  0
TABLE
  2
VIEW
  5
6
330
0
100
AcDbSymbolTable
 70
     0
  0
ENDTAB
  0
TABLE
  2
UCS
  5
7
330
0
100
AcDbSymbolTable
 70
     0
  0
ENDTAB
  0
TABLE
  2
APPID
  5
9
330
0
100
AcDbSymbolTable
 70
     2
  0
APPID
  5
12
330
9
100
AcDbSymbolTableRecord
100
AcDbRegAppTableRecord
  2
ACAD
 70
     0
  0
APPID
  5
1F3
330
9
100
AcDbSymbolTableRecord
100
AcDbRegAppTableRecord
  2
ACAD_MLEADERVER
 70
     0
  0
ENDTAB
  0
TABLE
  2
DIMSTYLE
  5
A
330
0
100
AcDbSymbolTable
 70
     1
  0
DIMSTYLE
105
27
330
A
100
AcDbSymbolTableRecord
100
AcDbDimStyleTableRecord
  2
STANDARD
 70
     0
  3

  4

  5

  6

  7

 40
1.0
 41
0.18
 42
0.0625
 43
0.38
 44
0.18
 45
0.0
 46
0.0
 47
0.0
 48
0.0
140
0.18
141
0.09
142
0.0
143
25.4
144
1.0
145
0.0
146
1.0
147
0.09
 71
     0
 72
     0
 73
     1
 74
     1
 75
     0
 76
     0
 77
     0
 78
     0
170
     0
171
     2
172
     0
173
     0
174
     0
175
     0
176
     0
177
     0
178
     0
270
     2
271
     4
272
     4
273
     2
274
     2
340
11
275
     0
280
     0
281
     0
282
     0
283
     1
284
     0
285
     0
286
     0
287
     3
288
     0
  0
ENDTAB
  0
TABLE
  2
BLOCK_RECORD
  5
1
330
0
100
AcDbSymbolTable
 70
     0
  0
BLOCK_RECORD
  5
1F
330
1
100
AcDbSymbolTableRecord
100
AcDbBlockTableRecord
  2
*MODEL_SPACE
  0
BLOCK_RECORD
  5
1B
330
1
100
AcDbSymbolTableRecord
100
AcDbBlockTableRecord
  2
*PAPER_SPACE
  0
ENDTAB
  0
ENDSEC
  0
SECTION
  2
BLOCKS
  0
BLOCK
  5
20
330
1F
100
AcDbEntity
  8
0
100
AcDbBlockBegin
  2
*MODEL_SPACE
 70
     0
 10
0.0
 20
0.0
 30
0.0
  3
*MODEL_SPACE
  1

  0
ENDBLK
  5
21
330
1F
100
AcDbEntity
  8
0
100
AcDbBlockEnd
  0
BLOCK
  5
1C
330
1B
100
AcDbEntity
 67
     1
  8
0
100
AcDbBlockBegin
  2
*PAPER_SPACE
 70
     0
 10
0.0
 20
0.0
 30
0.0
  3
*PAPER_SPACE
  1

  0
ENDBLK
  5
1D
330
1B
100
AcDbEntity
 67
     1
  8
0
100
AcDbBlockEnd
  0
ENDSEC
  0
SECTION
  2
ENTITIES
  0
MTEXT
  5
6F
330
1F
100
AcDbEntity
  8
0
 62
     1
100
AcDbMText
 10
595.2560335125672
 20
132.371601850694
 30
0.0
 40
3.0
 41
0.0
 71
     1
 72
     1
  1
{\fＭＳ ゴシック;MIDCJ-40_}
  0
LINE
  5
70
330
1F
100
AcDbEntity
  8
0
  6
CENTER
 62
     1
100
AcDbLine
 10
560.0
 20
136.9499325198065
 30
0.0
 11
560.0
 21
212.9499325198066
 31
0.0
  0
LINE
  5
72
330
1F
100
AcDbEntity
  8
0
  6
CENTER
 62
     1
100
AcDbLine
 10
560.0
 20
244.4999875
 30
0.0
 11
560.0
 21
330.4999875
 31
0.0
  0
LINE
  5
73
330
1F
100
AcDbEntity
  8
0
  6
CONTINUOUS
 62
     7
100
AcDbLine
 10
697.4999875
 20
151.9499325198065
 30
0.0
 11
697.4999875
 21
208.5361602362509
 31
0.0
  0
LINE
  5
74
330
1F
100
AcDbEntity
  8
0
  6
CONTINUOUS
 62
     7
100
AcDbLine
 10
661.4999875000001
 20
151.9499325198066
 30
0.0
 11
661.4999875000001
 21
152.9499325198065
 31
0.0
  0
LINE
  5
75
330
1F
100
AcDbEntity
  8
0
  6
CONTINUOUS
 62
     7
100
AcDbLine
 10
663.4999875000001
 20
152.9499325198065
 30
0.0
 11
661.4999875000001
 21
152.9499325198065
 31
0.0
  0
LINE
  5
76
330
1F
100
AcDbEntity
  8
0
  6
CONTINUOUS
 62
     7
100
AcDbLine
 10
663.4999875000001
 20
152.9499325198065
 30
0.0
 11
663.3571303571429
 21
153.9499325198065
 31
0.0
  0
LINE
  5
77
330
1F
100
AcDbEntity
  8
0
  6
CONTINUOUS
 62
     7
100
AcDbLine
 10
663.3571303571429
 20
153.9499325198065
 30
0.0
 11
663.2142732142858
 21
154.9499325198065
 31
0.0
  0
LINE
  5
78
330
1F
100
AcDbEntity
  8
0
  6
CONTINUOUS
 62
     7
100
AcDbLine
 10
663.2142732142858
 20
154.9499325198065
 30
0.0
 11
663.0714160714286
 21
155.9499325198065
 31
0.0
  0
LINE
  5
79
330
1F
100
AcDbEntity
  8
0
  6
CONTINUOUS
 62
     7
100
AcDbLine
 10
663.0714160714286
 20
155.9499325198065
 30
0.0
 11
662.9285589285715
 21
156.9499325198065
 31
0.0
  0
LINE
  5
7A
330
1F
100
AcDbEntity
  8
0
  6
CONTINUOUS
 62
     7
100
AcDbLine
 10
662.9285589285715
 20
156.9499325198065
 30
0.0
 11
662.7857017857143
 21
157.9499325198065
 31
0.0
  0
LINE
  5
7B
330
1F
100
AcDbEntity
  8
0
  6
CONTINUOUS
 62
     7
100
AcDbLine
 10
662.7857017857143
 20
157.9499325198065
 30
0.0
 11
662.7452956839322
 21
158.2327752322812
 31
0.0
  0
ARC
  5
7C
330
1F
100
AcDbEntity
  8
0
  6
CONTINUOUS
 62
     7
100
AcDbCircle
 10
660.7653966966099
 20
157.9499325198065
 30
0.0
 40
2.0
100
AcDbArc
 50
8.13010235415623
 51
29.99999999999995
  0
ARC
  5
7D
330
1F
100
AcDbEntity
  8
0
  6
CONTINUOUS
 62
     7
100
AcDbCircle
 10
660.7653966966099
 20
157.9499325198065
 30
0.0
 40
2.0
100
AcDbArc
 50
29.99999999999991
 51
90.00000000000001
  0
LINE
  5
7E
330
1F
100
AcDbEntity
  8
0
  6
CONTINUOUS
 62
     7
100
AcDbLine
 10
654.2345783033901
 20
159.9499325198065
 30
0.0
 11
660.7653966966099
 21
159.9499325198065
 31
0.0
  0
ARC
  5
7F
330
1F
100
AcDbEntity
  8
0
  6
CONTINUOUS
 62
     7
100
AcDbCircle
 10
654.2345783033901
 20
157.9499325198065
 30
0.0
 40
2.0
100
AcDbArc
 50
90.0
 51
150.0000000000001
  0
ARC
  5
80
330
1F
100
AcDbEntity
  8
0
  6
CONTINUOUS
 62
     7
100
AcDbCircle
 10
654.2345783033901
 20
157.9499325198065
 30
0.0
 40
2.0
100
AcDbArc
 50
150.0000000000001
 51
171.8698976458433
  0
LINE
  5
81
330
1F
100
AcDbEntity
  8
0
  6
CONTINUOUS
 62
     7
100
AcDbLine
 10
652.2546793160678
 20
158.2327752322812
 30
0.0
 11
652.2142732142858
 21
157.9499325198065
 31
0.0
  0
LINE
  5
82
330
1F
100
AcDbEntity
  8
0
  6
CONTINUOUS
 62
     7
100
AcDbLine
 10
652.2142732142858
 20
157.9499325198065
 30
0.0
 11
652.0714160714285
 21
156.9499325198065
 31
0.0
  0
LINE
  5
83
330
1F
100
AcDbEntity
  8
0
  6
CONTINUOUS
 62
     7
100
AcDbLine
 10
652.0714160714285
 20
156.9499325198065
 30
0.0
 11
651.9285589285714
 21
155.9499325198065
 31
0.0
  0
LINE
  5
84
330
1F
100
AcDbEntity
  8
0
  6
CONTINUOUS
 62
     7
100
AcDbLine
 10
651.9285589285714
 20
155.9499325198065
 30
0.0
 11
651.7857017857143
 21
154.9499325198065
 31
0.0
  0
LINE
  5
85
330
1F
100
AcDbEntity
  8
0
  6
CONTINUOUS
 62
     7
100
AcDbLine
 10
651.7857017857143
 20
154.9499325198065
 30
0.0
 11
651.6428446428571
 21
153.9499325198065
 31
0.0
  0
LINE
  5
86
330
1F
100
AcDbEntity
  8
0
  6
CONTINUOUS
 62
     7
100
AcDbLine
 10
651.6428446428571
 20
153.9499325198065
 30
0.0
 11
651.4999875
 21
152.9499325198065
 31
0.0
  0
LINE
  5
87
330
1F
100
AcDbEntity
  8
0
  6
CONTINUOUS
 62
     7
100
AcDbLine
 10
651.4999875
 20
152.9499325198065
 30
0.0
 11
653.4999875000001
 21
152.9499325198065
 31
0.0
  0
LINE
  5
88
330
1F
100
AcDbEntity
  8
0
  6
CONTINUOUS
 62
     7
100
AcDbLine
 10
653.4999875000001
 20
151.9499325198066
 30
0.0
 11
653.4999875000001
 21
152.9499325198065
 31
0.0
  0
LINE
  5
89
330
1F
100
AcDbEntity
  8
0
  6
CONTINUOUS
 62
     7
100
AcDbLine
 10
621.8354934771196
 20
171.1361602362508
 30
0.0
 11
621.5005966266015
 21
151.9499325198066
 31
0.0
  0
LINE
  5
8A
330
1F
100
AcDbEntity
  8
0
  6
CONTINUOUS
 62
     7
100
AcDbLine
 10
621.5005966266015
 20
151.9499325198066
 30
0.0
 11
653.4999875000001
 21
151.9499325198066
 31
0.0
  0
LINE
  5
8B
330
1F
100
AcDbEntity
  8
0
  6
CONTINUOUS
 62
     7
100
AcDbLine
 10
661.4999875000001
 20
151.9499325198066
 30
0.0
 11
697.4999875
 21
151.9499325198065
 31
0.0
  0
ELLIPSE
  5
8C
330
1F
100
AcDbEntity
  8
0
  6
CONTINUOUS
 62
     7
100
AcDbEllipse
 10
618.9777630805504
 20
171.1274340330322
 30
0.0
 11
2.857743120611838
 21
0.01057631537444269
 31
0.0
210
0.0
220
0.0
230
1.0
 40
0.174924094972876
 41
6.279484391232665
 42
6.29207070620912
  0
LINE
  5
8D
330
1F
100
AcDbEntity
  8
0
  6
CONTINUOUS
 62
     7
100
AcDbLine
 10
621.5005966266015
 20
151.9499325198066
 30
0.0
 11
617.9137147983686
 21
151.9499325198066
 31
0.0
  0
LINE
  5
8E
330
1F
100
AcDbEntity
  8
0
  6
CONTINUOUS
 62
     7
100
AcDbLine
 10
653.4999875000001
 20
152.9499325198065
 30
0.0
 11
653.4999875000001
 21
153.9499325198065
 31
0.0
  0
LINE
  5
8F
330
1F
100
AcDbEntity
  8
0
  6
CONTINUOUS
 62
     7
100
AcDbLine
 10
661.4999875000001
 20
152.9499325198065
 30
0.0
 11
661.4999875000001
 21
153.9499325198065
 31
0.0
  0
LINE
  5
90
330
1F
100
AcDbEntity
  8
0
  6
CONTINUOUS
 62
     7
100
AcDbLine
 10
651.6428446428571
 20
153.9499325198065
 30
0.0
 11
663.3571303571429
 21
153.9499325198065
 31
0.0
  0
LINE
  5
91
330
1F
100
AcDbEntity
  8
0
  6
CONTINUOUS
 62
     7
100
AcDbLine
 10
651.7857017857143
 20
154.9499325198065
 30
0.0
 11
663.2142732142858
 21
154.9499325198065
 31
0.0
  0
LINE
  5
92
330
1F
100
AcDbEntity
  8
0
  6
CONTINUOUS
 62
     7
100
AcDbLine
 10
651.9285589285714
 20
155.9499325198065
 30
0.0
 11
663.0714160714286
 21
155.9499325198065
 31
0.0
  0
LINE
  5
93
330
1F
100
AcDbEntity
  8
0
  6
CONTINUOUS
 62
     7
100
AcDbLine
 10
652.0714160714285
 20
156.9499325198065
 30
0.0
 11
662.9285589285715
 21
156.9499325198065
 31
0.0
  0
LINE
  5
94
330
1F
100
AcDbEntity
  8
0
  6
CONTINUOUS
 62
     7
100
AcDbLine
 10
652.2142732142858
 20
157.9499325198065
 30
0.0
 11
662.7857017857143
 21
157.9499325198065
 31
0.0
  0
LINE
  5
95
330
1F
100
AcDbEntity
  8
0
  6
CONTINUOUS
 62
     7
100
AcDbLine
 10
652.5025274958213
 20
158.9499325198065
 30
0.0
 11
662.4974475041787
 21
158.9499325198065
 31
0.0
  0
LINE
  5
96
330
1F
100
AcDbEntity
  8
0
  6
CONTINUOUS
 62
     7
100
AcDbLine
 10
621.8353769538058
 20
171.1424515779589
 30
0.0
 11
621.843029346761
 21
171.6189315005871
 31
0.0
  0
LINE
  5
97
330
1F
100
AcDbEntity
  8
0
  6
CONTINUOUS
 62
     7
100
AcDbLine
 10
621.843029346761
 20
171.6189315005871
 30
0.0
 11
621.8433509342689
 21
171.6202088593301
 31
0.0
  0
LINE
  5
98
330
1F
100
AcDbEntity
  8
0
  6
CONTINUOUS
 62
     7
100
AcDbLine
 10
617.4999875
 20
151.9499325198066
 30
0.0
 11
617.8257105461466
 21
170.6105933358037
 31
0.0
  0
LINE
  5
99
330
1F
100
AcDbEntity
  8
0
  6
CONTINUOUS
 62
     7
100
AcDbLine
 10
617.9137147983686
 20
151.9499325198066
 30
0.0
 11
617.4999875
 21
151.9499325198066
 31
0.0
  0
LINE
  5
9A
330
1F
100
AcDbEntity
  8
0
  6
CONTINUOUS
 62
     7
100
AcDbLine
 10
621.8583181623669
 20
172.4776807827854
 30
0.0
 11
621.8433509342689
 21
171.6202088593301
 31
0.0
  0
ELLIPSE
  5
9B
330
1F
100
AcDbEntity
  8
0
  6
CONTINUOUS
 62
     7
100
AcDbEllipse
 10
593.1965231952321
 20
167.5499325198065
 30
0.0
 11
-28.66145130858455
 21
-4.932282514876379
 31
0.0
210
0.0
220
0.0
230
1.0
 40
0.0286138808852715
 41
3.136152813507555
 42
3.137677735295739
  0
LINE
  5
9C
330
1F
100
AcDbEntity
  8
0
  6
CONTINUOUS
 62
     7
100
AcDbLine
 10
697.4999875
 20
209.0202088593301
 30
0.0
 11
697.4999875
 21
208.5361602362509
 31
0.0
  0
LINE
  5
9D
330
1F
100
AcDbEntity
  8
0
  6
CONTINUOUS
 62
     7
100
AcDbLine
 10
697.4999875
 20
209.8776807827854
 30
0.0
 11
697.4999875
 21
209.0202088593301
 31
0.0
  0
LINE
  5
9E
330
1F
100
AcDbEntity
  8
0
  6
CONTINUOUS
 62
     7
100
AcDbLine
 10
617.8257105461466
 20
170.6105933358038
 30
0.0
 11
617.8390236044645
 21
171.3732979360172
 31
0.0
  0
ARC
  5
9F
330
1F
100
AcDbEntity
  8
0
  6
CONTINUOUS
 62
     7
100
AcDbCircle
 10
633.3030042560522
 20
174.5504820141978
 30
0.0
 40
2.000549501857981
100
AcDbArc
 50
270.0049502565931
 51
304.9170946720252
  0
LINE
  5
A0
330
1F
100
AcDbEntity
  8
0
  6
CONTINUOUS
 62
     7
100
AcDbLine
 10
621.8583073808453
 20
172.4789665608068
 30
0.0
 11
621.8595286708238
 21
172.5499267341887
 31
0.0
  0
LINE
  5
A1
330
1F
100
AcDbEntity
  8
0
  6
CONTINUOUS
 62
     7
100
AcDbLine
 10
621.8595618375214
 20
172.5499325198065
 30
0.0
 11
633.3031771000808
 21
172.5499325198065
 31
0.0
  0
LINE
  5
A2
330
1F
100
AcDbEntity
  8
0
  6
CONTINUOUS
 62
     7
100
AcDbLine
 10
634.4480998799315
 20
172.9100691632494
 30
0.0
 11
685.9525253602063
 21
208.8695225894779
 31
0.0
  0
LINE
  5
A3
330
1F
100
AcDbEntity
  8
0
  6
CONTINUOUS
 62
     7
100
AcDbLine
 10
618.254139462804
 20
171.9210005666189
 30
0.0
 11
621.8595286708238
 21
172.5499267341887
 31
0.0
  0
ARC
  5
A4
330
1F
100
AcDbEntity
  8
0
  6
CONTINUOUS
 62
     7
100
AcDbCircle
 10
-618.3400622526536
 20
171.4284386170283
 30
0.0
 40
0.5000000000000476
210
0.0
220
0.0
230
-1.0
100
AcDbArc
 50
1.000000000001037
 51
80.10485767540924
  0
LINE
  5
A5
330
1F
100
AcDbEntity
  8
0
  6
CONTINUOUS
 62
     7
100
AcDbLine
 10
617.8390236044644
 20
171.3732979360172
 30
0.0
 11
617.8401384050754
 21
171.437164820247
 31
0.0
  0
ARC
  5
A6
330
1F
100
AcDbEntity
  8
0
  6
CONTINUOUS
 62
     7
100
AcDbCircle
 10
-689.3872936997585
 20
203.9499325198072
 30
0.0
 40
5.999999999999351
210
0.0
220
0.0
230
-1.0
100
AcDbArc
 50
55.07795507137858
 51
90.00000000000212
  0
LINE
  5
A7
330
1F
100
AcDbEntity
  8
0
  6
CONTINUOUS
 62
     7
100
AcDbLine
 10
689.3872936997587
 20
209.9499325198066
 30
0.0
 11
697.4999875
 21
209.9499325198066
 31
0.0
  0
LINE
  5
A8
330
1F
100
AcDbEntity
  8
0
  6
CONTINUOUS
 62
     7
100
AcDbLine
 10
697.4999875
 20
209.9499325198066
 30
0.0
 11
697.4999875
 21
209.8776807827854
 31
0.0
  0
LINE
  5
A9
330
1F
100
AcDbEntity
  8
0
  6
CONTINUOUS
 62
     7
100
AcDbLine
 10
697.4999875
 20
139.9499325198066
 30
0.0
 11
697.4999875
 21
151.9499325198066
 31
0.0
  0
LINE
  5
AA
330
1F
100
AcDbEntity
  8
0
  6
CONTINUOUS
 62
     7
100
AcDbLine
 10
621.7100574057401
 20
139.9499325198066
 30
0.0
 11
697.4999875
 21
139.9499325198066
 31
0.0
  0
LINE
  5
AB
330
1F
100
AcDbEntity
  8
0
  6
CONTINUOUS
 62
     7
100
AcDbLine
 10
621.5005966266015
 20
151.9499325198066
 30
0.0
 11
621.7100574057401
 21
139.9499325198066
 31
0.0
  0
LINE
  5
AC
330
1F
100
AcDbEntity
  8
0
  6
CONTINUOUS
 62
     7
100
AcDbLine
 10
697.4999875
 20
151.9499325198066
 30
0.0
 11
661.4999875000001
 21
151.9499325198066
 31
0.0
  0
LINE
  5
AD
330
1F
100
AcDbEntity
  8
0
  6
CONTINUOUS
 62
     7
100
AcDbLine
 10
661.4999875000001
 20
151.9499325198066
 30
0.0
 11
653.4999875000001
 21
151.9499325198066
 31
0.0
  0
LINE
  5
AE
330
1F
100
AcDbEntity
  8
0
  6
CONTINUOUS
 62
     7
100
AcDbLine
 10
653.4999875000001
 20
151.9499325198066
 30
0.0
 11
621.5005966266015
 21
151.9499325198066
 31
0.0
  0
LINE
  5
AF
330
1F
100
AcDbEntity
  8
0
  6
CONTINUOUS
 62
     7
100
AcDbLine
 10
621.7100574057401
 20
139.9499325198066
 30
0.0
 11
618.1231755775071
 21
139.9499325198066
 31
0.0
  0
LINE
  5
B0
330
1F
100
AcDbEntity
  8
0
  6
CONTINUOUS
 62
     7
100
AcDbLine
 10
617.9137147983686
 20
151.9499325198066
 30
0.0
 11
621.5005966266015
 21
151.9499325198066
 31
0.0
  0
LINE
  5
B1
330
1F
100
AcDbEntity
  8
0
  6
CONTINUOUS
 62
     7
100
AcDbLine
 10
617.7094482791387
 20
139.9499325198066
 30
0.0
 11
617.4999875
 21
151.9499325198066
 31
0.0
  0
LINE
  5
B2
330
1F
100
AcDbEntity
  8
0
  6
CONTINUOUS
 62
     7
100
AcDbLine
 10
618.1231755775071
 20
139.9499325198066
 30
0.0
 11
617.7094482791387
 21
139.9499325198066
 31
0.0
  0
LINE
  5
B3
330
1F
100
AcDbEntity
  8
0
  6
CONTINUOUS
 62
     7
100
AcDbLine
 10
617.4999875
 20
151.9499325198066
 30
0.0
 11
617.9137147983686
 21
151.9499325198066
 31
0.0
  0
LINE
  5
B4
330
1F
100
AcDbEntity
  8
0
  6
CONTINUOUS
 62
     7
100
AcDbLine
 10
581.9722956800592
 20
151.9499325198065
 30
0.0
 11
581.4798569582175
 21
151.9499325198065
 31
0.0
  0
LINE
  5
B5
330
1F
100
AcDbEntity
  8
0
  6
CONTINUOUS
 62
     7
100
AcDbLine
 10
580.2452857243878
 20
169.6784325179457
 30
0.0
 11
580.4
 21
151.9499325198065
 31
0.0
  0
LINE
  5
B6
330
1F
100
AcDbEntity
  8
0
  6
CONTINUOUS
 62
     7
100
AcDbLine
 10
576.6
 20
170.3499325198066
 30
0.0
 11
580.2452857243878
 21
169.6784325179457
 31
0.0
  0
LINE
  5
B7
330
1F
100
AcDbEntity
  8
0
  6
CONTINUOUS
 62
     7
100
AcDbLine
 10
576.6
 20
170.3499325198066
 30
0.0
 11
543.4
 21
170.3499325198066
 31
0.0
  0
LINE
  5
B8
330
1F
100
AcDbEntity
  8
0
  6
CONTINUOUS
 62
     7
100
AcDbLine
 10
539.7547142756123
 20
169.6784325179457
 30
0.0
 11
543.4000000000001
 21
170.3499325198065
 31
0.0
  0
LINE
  5
B9
330
1F
100
AcDbEntity
  8
0
  6
CONTINUOUS
 62
     7
100
AcDbLine
 10
539.7547142756123
 20
169.6784325179457
 30
0.0
 11
539.6
 21
151.9499325198065
 31
0.0
  0
LINE
  5
BA
330
1F
100
AcDbEntity
  8
0
  6
CONTINUOUS
 62
     7
100
AcDbLine
 10
538.5201430417825
 20
151.9499325198065
 30
0.0
 11
539.5999999999999
 21
151.9499325198065
 31
0.0
  0
LINE
  5
BB
330
1F
100
AcDbEntity
  8
0
  6
CONTINUOUS
 62
     7
100
AcDbLine
 10
580.4
 20
151.9499325198065
 30
0.0
 11
581.4798569582175
 21
151.9499325198065
 31
0.0
  0
LINE
  5
BC
330
1F
100
AcDbEntity
  8
0
  6
CONTINUOUS
 62
     7
100
AcDbLine
 10
538.5201430417825
 20
151.9499325198065
 30
0.0
 11
538.0277043199408
 21
151.9499325198065
 31
0.0
  0
LINE
  5
BD
330
1F
100
AcDbEntity
  8
0
  6
CONTINUOUS
 62
     7
100
AcDbLine
 10
537.4000000000001
 20
151.9499325198065
 30
0.0
 11
537.7348968505182
 21
171.1361602362508
 31
0.0
  0
LINE
  5
BE
330
1F
100
AcDbEntity
  8
0
  6
CONTINUOUS
 62
     7
100
AcDbLine
 10
537.7350462756372
 20
171.1424515779589
 30
0.0
 11
537.7348968505181
 21
171.1361602362508
 31
0.0
  0
LINE
  5
BF
330
1F
100
AcDbEntity
  8
0
  6
CONTINUOUS
 62
     7
100
AcDbLine
 10
538.0277043199409
 20
151.9499325198065
 30
0.0
 11
537.4000000000001
 21
151.9499325198065
 31
0.0
  0
LINE
  5
C0
330
1F
100
AcDbEntity
  8
0
  6
CONTINUOUS
 62
     7
100
AcDbLine
 10
582.265103149482
 20
171.1361602362508
 30
0.0
 11
582.264953724363
 21
171.1424515779588
 31
0.0
  0
LINE
  5
C1
330
1F
100
AcDbEntity
  8
0
  6
CONTINUOUS
 62
     7
100
AcDbLine
 10
582.265103149482
 20
171.1361602362508
 30
0.0
 11
582.6000000000001
 21
151.9499325198065
 31
0.0
  0
LINE
  5
C2
330
1F
100
AcDbEntity
  8
0
  6
CONTINUOUS
 62
     7
100
AcDbLine
 10
582.6
 20
151.9499325198065
 30
0.0
 11
581.9722956800592
 21
151.9499325198065
 31
0.0
  0
LWPOLYLINE
  5
C3
330
1F
100
AcDbEntity
  8
0
  6
CONTINUOUS
 62
     7
100
AcDbPolyline
 90
       29
 70
     0
 43
0.0
 10
582.264953724363
 20
171.1424515779588
 10
582.2635802868664
 20
171.1672165653014
 10
582.2609591195672
 20
171.1919625362653
 10
582.2571083368721
 20
171.2165990777001
 10
582.2520460531874
 20
171.2410357764551
 10
582.2457903829202
 20
171.2651822193798
 10
582.2383594404769
 20
171.2889479933236
 10
582.2297713402638
 20
171.3122426851358
 10
582.2204025866647
 20
171.3342182682087
 10
582.2099537050526
 20
171.3557807161598
 10
582.1984676639784
 20
171.3768591110813
 10
582.1859874319931
 20
171.3973825350656
 10
582.1725559776473
 20
171.417280070205
 10
582.1582162694921
 20
171.4364807985918
 10
582.143011276078
 20
171.4549138023182
 10
582.1268805507126
 20
171.4726296632406
 10
582.109864042493
 20
171.4895921527743
 10
582.0920266730263
 20
171.5057485573358
 10
582.0734333639198
 20
171.5210461633415
 10
582.0541490367806
 20
171.5354322572079
 10
582.0342386132155
 20
171.5488541253513
 10
582.0137670148322
 20
171.5612590541882
 10
581.9927225411966
 20
171.5726441365819
 10
581.97109708357
 20
171.5830263291876
 10
581.94896894485
 20
171.5923781335822
 10
581.9264164279339
 20
171.6006720513425
 10
581.903517835719
 20
171.6078805840456
 10
581.8803514711025
 20
171.6139762332681
 10
581.856995636982
 20
171.618931500587
  0
LWPOLYLINE
  5
C4
330
1F
100
AcDbEntity
  8
0
  6
CONTINUOUS
 62
     7
100
AcDbPolyline
 90
       29
 70
     0
 43
0.0
 10
538.1430043630181
 20
171.618931500587
 10
538.1187952559294
 20
171.6137715275391
 10
538.0947896558224
 20
171.6073845603156
 10
538.0710746451156
 20
171.5998018045451
 10
538.0477373062272
 20
171.5910544658564
 10
538.0248647215756
 20
171.581173749878
 10
538.0025439735791
 20
171.5701908622387
 10
537.9808621446563
 20
171.5581370085671
 10
537.9606000207815
 20
171.5455141195653
 10
537.9409087093385
 20
171.5318869566717
 10
537.9218519601113
 20
171.5173085928324
 10
537.9034935228839
 20
171.5018321009932
 10
537.8858971474405
 20
171.4855105541003
 10
537.869126583565
 20
171.4683970250997
 10
537.8532455810418
 20
171.4505445869373
 10
537.838213753269
 20
171.4318856122661
 10
537.8240609495261
 20
171.4124648243597
 10
537.8108296082276
 20
171.3923542377362
 10
537.7985621677872
 20
171.3716258669133
 10
537.7873010666195
 20
171.3503517264089
 10
537.7770887431385
 20
171.3286038307409
 10
537.7679676357586
 20
171.3064541944272
 10
537.7599426687285
 20
171.2838914460428
 10
537.7529987709376
 20
171.2609046143103
 10
537.7471516839591
 20
171.2375749098735
 10
537.7424171493667
 20
171.2139835433762
 10
537.7388109087332
 20
171.1902117254622
 10
537.7363487036323
 20
171.1663406667752
 10
537.7350462756372
 20
171.1424515779589
  0
ARC
  5
C5
330
1F
100
AcDbEntity
  8
0
  6
CONTINUOUS
 62
     7
100
AcDbCircle
 10
576.013876815368
 20
167.5499325198065
 30
0.0
 40
5.000000000000001
100
AcDbArc
 50
80.24783274915427
 51
80.33520433170567
  0
LINE
  5
C6
330
1F
100
AcDbEntity
  8
0
  6
CONTINUOUS
 62
     7
100
AcDbLine
 10
576.8608107305639
 20
172.4776807827853
 30
0.0
 11
581.8498726934233
 21
171.6202088593301
 31
0.0
  0
LINE
  5
C7
330
1F
100
AcDbEntity
  8
0
  6
CONTINUOUS
 62
     7
100
AcDbLine
 10
581.856995636982
 20
171.618931500587
 30
0.0
 11
581.8498726934233
 21
171.6202088593301
 31
0.0
  0
LINE
  5
C8
330
1F
100
AcDbEntity
  8
0
  6
CONTINUOUS
 62
     7
100
AcDbLine
 10
538.1501273065767
 20
171.6202088593301
 30
0.0
 11
538.1430043630181
 21
171.618931500587
 31
0.0
  0
LINE
  5
C9
330
1F
100
AcDbEntity
  8
0
  6
CONTINUOUS
 62
     7
100
AcDbLine
 10
538.1501273065767
 20
171.6202088593301
 30
0.0
 11
543.1391892694362
 21
172.4776807827854
 31
0.0
  0
ARC
  5
CA
330
1F
100
AcDbEntity
  8
0
  6
CONTINUOUS
 62
     7
100
AcDbCircle
 10
543.9861231846321
 20
167.5499325198065
 30
0.0
 40
5.0
100
AcDbArc
 50
99.66479566829453
 51
99.75216725084593
  0
LINE
  5
CB
330
1F
100
AcDbEntity
  8
0
  6
CONTINUOUS
 62
     7
100
AcDbLine
 10
543.146704681941
 20
172.4789665608068
 30
0.0
 11
543.9785168619701
 21
172.5499267341888
 31
0.0
  0
LINE
  5
CC
330
1F
100
AcDbEntity
  8
0
  6
CONTINUOUS
 62
     7
100
AcDbLine
 10
576.8532953180592
 20
172.4789665608068
 30
0.0
 11
576.02148313803
 21
172.5499267341888
 31
0.0
  0
ARC
  5
CD
330
1F
100
AcDbEntity
  8
0
  6
CONTINUOUS
 62
     7
100
AcDbCircle
 10
543.9861231846321
 20
167.5499325198065
 30
0.0
 40
5.000000000000002
100
AcDbArc
 50
90.00000000000004
 51
90.08716207084898
  0
LINE
  5
CE
330
1F
100
AcDbEntity
  8
0
  6
CONTINUOUS
 62
     7
100
AcDbLine
 10
543.9861231846321
 20
172.5499325198065
 30
0.0
 11
576.013876815368
 21
172.5499325198065
 31
0.0
  0
ARC
  5
CF
330
1F
100
AcDbEntity
  8
0
  6
CONTINUOUS
 62
     7
100
AcDbCircle
 10
576.013876815368
 20
167.5499325198065
 30
0.0
 40
5.000000000000002
100
AcDbArc
 50
89.91283792915122
 51
90.0
  0
LINE
  5
D0
330
1F
100
AcDbEntity
  8
0
  6
CONTINUOUS
 62
     7
100
AcDbLine
 10
582.2540451109359
 20
171.7696748402633
 30
0.0
 11
582.2646779195444
 21
171.1605216430595
 31
0.0
  0
LINE
  5
D1
330
1F
100
AcDbEntity
  8
0
  6
CONTINUOUS
 62
     7
100
AcDbLine
 10
537.7353052104279
 20
171.1595551598142
 30
0.0
 11
537.745954889064
 21
171.7696748402633
 31
0.0
  0
LINE
  5
D2
330
1F
100
AcDbEntity
  8
0
  6
CONTINUOUS
 62
     7
100
AcDbLine
 10
581.6263798579673
 20
207.7285930997943
 30
0.0
 11
582.2540451236313
 21
171.7696741129487
 31
0.0
  0
LINE
  5
D3
330
1F
100
AcDbEntity
  8
0
  6
CONTINUOUS
 62
     7
100
AcDbLine
 10
537.7459548763688
 20
171.7696741129487
 30
0.0
 11
538.3736201420328
 21
207.7285930997943
 31
0.0
  0
LINE
  5
D4
330
1F
100
AcDbEntity
  8
0
  6
CONTINUOUS
 62
     7
100
AcDbLine
 10
541.757934614385
 20
170.0474467908775
 30
0.0
 11
541.5669890277718
 21
148.1672497727199
 31
0.0
  0
LINE
  5
D5
330
1F
100
AcDbEntity
  8
0
  6
CONTINUOUS
 62
     7
100
AcDbLine
 10
578.4330109722282
 20
148.1672497727199
 30
0.0
 11
578.242065385615
 21
170.0474467908775
 31
0.0
  0
LINE
  5
D6
330
1F
100
AcDbEntity
  8
0
  6
CONTINUOUS
 62
     7
100
AcDbLine
 10
543.7920086977515
 20
209.8776807827854
 30
0.0
 11
544.6389426129474
 21
209.9499325198066
 31
0.0
  0
LINE
  5
D7
330
1F
100
AcDbEntity
  8
0
  6
CONTINUOUS
 62
     7
100
AcDbLine
 10
576.2083097611926
 20
209.8776260385346
 30
0.0
 11
575.361003402898
 21
209.9499325195151
 31
0.0
  0
LINE
  5
D8
330
1F
100
AcDbEntity
  8
0
  6
CONTINUOUS
 62
     7
100
AcDbLine
 10
544.6389696050247
 20
209.9499325198066
 30
0.0
 11
575.3610303949753
 21
209.9499325198066
 31
0.0
  0
LINE
  5
D9
330
1F
100
AcDbEntity
  8
0
  6
CONTINUOUS
 62
     7
100
AcDbLine
 10
576.2081505326532
 20
209.8776534157969
 30
0.0
 11
581.1970532651079
 21
209.0202088593301
 31
0.0
  0
LINE
  5
DA
330
1F
100
AcDbEntity
  8
0
  6
CONTINUOUS
 62
     7
100
AcDbLine
 10
538.802946734892
 20
209.0202088593301
 30
0.0
 11
543.7918494673467
 21
209.8776534157969
 31
0.0
  0
LWPOLYLINE
  5
DB
330
1F
100
AcDbEntity
  8
0
  6
CONTINUOUS
 62
     7
100
AcDbPolyline
 90
       27
 70
     0
 43
0.0
 10
538.8029469058648
 20
209.0202088887152
 10
538.7787181963571
 20
209.0154258497189
 10
538.7547552162
 20
209.0094522906097
 10
538.7311164262297
 20
209.0023027846693
 10
538.7078594963785
 20
208.9939947740563
 10
538.6850411649806
 20
208.9845485272534
 10
538.6627171003515
 20
208.9739870896201
 10
538.6409417649783
 20
208.9623362271702
 10
538.6197682826504
 20
208.9496243637126
 10
538.5992483088587
 20
208.9358825115072
 10
538.5794319047734
 20
208.9211441956069
 10
538.5603674151143
 20
208.9054453720686
 10
538.5421013502073
 20
208.8888243402337
 10
538.524678272516
 20
208.8713216492917
 10
538.5081406879262
 20
208.8529799993554
 10
538.4925289420472
 20
208.8338441372882
 10
538.4778811217828
 20
208.8139607475382
 10
538.4642329624139
 20
208.7933783382456
 10
538.4516177604174
 20
208.7721471229004
 10
538.4400662922351
 20
208.7503188978402
 10
538.4296067391903
 20
208.7279469158862
 10
538.4202646187359
 20
208.705085756426
 10
538.4120627222017
 20
208.6817911922599
 10
538.4050210591911
 20
208.6581200535359
 10
538.3991568087656
 20
208.634130089105
 10
538.3944842775342
 20
208.6098798256355
 10
538.3925985832609
 20
208.5976755489247
  0
LINE
  5
DC
330
1F
100
AcDbEntity
  8
0
  6
CONTINUOUS
 62
     7
100
AcDbLine
 10
538.3925985832609
 20
208.5976755489247
 30
0.0
 11
538.3877162950631
 21
208.5361611659897
 31
0.0
  0
LINE
  5
DD
330
1F
100
AcDbEntity
  8
0
  6
CONTINUOUS
 62
     7
100
AcDbLine
 10
538.3736201283739
 20
207.7285923172774
 30
0.0
 11
538.3877162950621
 21
208.5361611659897
 31
0.0
  0
LWPOLYLINE
  5
DE
330
1F
100
AcDbEntity
  8
0
  6
CONTINUOUS
 62
     7
100
AcDbPolyline
 90
       25
 70
     0
 43
0.0
 10
581.6122837049371
 20
208.5361611659897
 10
581.6112429654978
 20
208.5608355390894
 10
581.6089851352496
 20
208.5854284248294
 10
581.6055157224658
 20
208.6098798256355
 10
581.6008431912345
 20
208.634130089105
 10
581.594978940809
 20
208.6581200535359
 10
581.5879372777985
 20
208.6817911922599
 10
581.5797353812642
 20
208.705085756426
 10
581.57039326081
 20
208.7279469158862
 10
581.559933707765
 20
208.7503188978402
 10
581.5483822395826
 20
208.7721471229004
 10
581.5357670375861
 20
208.7933783382456
 10
581.5221188782173
 20
208.8139607475382
 10
581.5074710579529
 20
208.8338441372882
 10
581.4918593120738
 20
208.8529799993554
 10
581.475321727484
 20
208.8713216492917
 10
581.4578986497928
 20
208.8888243402337
 10
581.4396325848858
 20
208.9054453720686
 10
581.4205680952267
 20
208.9211441956069
 10
581.4007516911413
 20
208.9358825115072
 10
581.3802317173496
 20
208.9496243637126
 10
581.3590582350218
 20
208.9623362271702
 10
581.3372828996486
 20
208.9739870896201
 10
581.3149588350195
 20
208.9845485272534
 10
581.2949013154239
 20
208.9929215430823
  0
LINE
  5
DF
330
1F
100
AcDbEntity
  8
0
  6
CONTINUOUS
 62
     7
100
AcDbLine
 10
581.2949013154239
 20
208.9929215430823
 30
0.0
 11
581.1970530941353
 21
209.0202088887152
 31
0.0
  0
LINE
  5
E0
330
1F
100
AcDbEntity
  8
0
  6
CONTINUOUS
 62
     7
100
AcDbLine
 10
581.612283704938
 20
208.5361611659897
 30
0.0
 11
581.6263798716262
 21
207.7285923172774
 31
0.0
  0
LINE
  5
E1
330
1F
100
AcDbEntity
  8
0
  6
CONTINUOUS
 62
     7
100
AcDbLine
 10
538.7296038209212
 20
139.9499325198066
 30
0.0
 11
538.2371650990793
 21
139.9499325198066
 31
0.0
  0
LINE
  5
E2
330
1F
100
AcDbEntity
  8
0
  6
CONTINUOUS
 62
     7
100
AcDbLine
 10
538.0277043199409
 20
151.9499325198065
 30
0.0
 11
538.5201430417826
 21
151.9499325198065
 31
0.0
  0
LINE
  5
E3
330
1F
100
AcDbEntity
  8
0
  6
CONTINUOUS
 62
     7
100
AcDbLine
 10
539.6
 20
151.9499325198065
 30
0.0
 11
539.7047224134892
 21
139.9499325198065
 31
0.0
  0
LINE
  5
E4
330
1F
100
AcDbEntity
  8
0
  6
CONTINUOUS
 62
     7
100
AcDbLine
 10
538.7296038209212
 20
139.9499325198066
 30
0.0
 11
539.7047224134891
 21
139.9499325198066
 31
0.0
  0
LINE
  5
E5
330
1F
100
AcDbEntity
  8
0
  6
CONTINUOUS
 62
     7
100
AcDbLine
 10
538.5201430417825
 20
151.9499325198065
 30
0.0
 11
539.5999999999999
 21
151.9499325198065
 31
0.0
  0
LINE
  5
E6
330
1F
100
AcDbEntity
  8
0
  6
CONTINUOUS
 62
     7
100
AcDbLine
 10
580.4
 20
151.9499325198065
 30
0.0
 11
580.2952775865109
 21
139.9499325198065
 31
0.0
  0
LINE
  5
E7
330
1F
100
AcDbEntity
  8
0
  6
CONTINUOUS
 62
     7
100
AcDbLine
 10
580.4
 20
151.9499325198065
 30
0.0
 11
581.4798569582175
 21
151.9499325198065
 31
0.0
  0
LINE
  5
E8
330
1F
100
AcDbEntity
  8
0
  6
CONTINUOUS
 62
     7
100
AcDbLine
 10
580.2952775865109
 20
139.9499325198066
 30
0.0
 11
581.2703961790788
 21
139.9499325198066
 31
0.0
  0
LINE
  5
E9
330
1F
100
AcDbEntity
  8
0
  6
CONTINUOUS
 62
     7
100
AcDbLine
 10
581.7628349009207
 20
139.9499325198066
 30
0.0
 11
581.2703961790788
 21
139.9499325198066
 31
0.0
  0
LINE
  5
EA
330
1F
100
AcDbEntity
  8
0
  6
CONTINUOUS
 62
     7
100
AcDbLine
 10
581.4798569582175
 20
151.9499325198065
 30
0.0
 11
581.9722956800593
 21
151.9499325198065
 31
0.0
  0
LINE
  5
EB
330
1F
100
AcDbEntity
  8
0
  6
CONTINUOUS
 62
     7
100
AcDbLine
 10
537.6094607791387
 20
139.9499325198066
 30
0.0
 11
537.4
 21
151.9499325198066
 31
0.0
  0
LINE
  5
EC
330
1F
100
AcDbEntity
  8
0
  6
CONTINUOUS
 62
     7
100
AcDbLine
 10
538.2371650990793
 20
139.9499325198066
 30
0.0
 11
537.6094607791387
 21
139.9499325198066
 31
0.0
  0
LINE
  5
ED
330
1F
100
AcDbEntity
  8
0
  6
CONTINUOUS
 62
     7
100
AcDbLine
 10
537.4000000000001
 20
151.9499325198065
 30
0.0
 11
538.0277043199409
 21
151.9499325198065
 31
0.0
  0
LINE
  5
EE
330
1F
100
AcDbEntity
  8
0
  6
CONTINUOUS
 62
     7
100
AcDbLine
 10
582.6
 20
151.9499325198065
 30
0.0
 11
582.3905392208613
 21
139.9499325198065
 31
0.0
  0
LINE
  5
EF
330
1F
100
AcDbEntity
  8
0
  6
CONTINUOUS
 62
     7
100
AcDbLine
 10
582.3905392208615
 20
139.9499325198066
 30
0.0
 11
581.7628349009207
 21
139.9499325198066
 31
0.0
  0
LINE
  5
F0
330
1F
100
AcDbEntity
  8
0
  6
CONTINUOUS
 62
     7
100
AcDbLine
 10
581.9722956800592
 20
151.9499325198065
 30
0.0
 11
582.6
 21
151.9499325198065
 31
0.0
  0
LINE
  5
F1
330
1F
100
AcDbEntity
  8
0
  6
CONTINUOUS
 62
     7
100
AcDbLine
 10
560.0
 20
143.4499325198066
 30
0.0
 11
560.0
 21
141.9499325198066
 31
0.0
  0
LINE
  5
F2
330
1F
100
AcDbEntity
  8
0
  6
CONTINUOUS
 62
     7
100
AcDbLine
 10
559.25
 20
141.9499325198066
 30
0.0
 11
560.0
 21
141.9499325198066
 31
0.0
  0
LINE
  5
F3
330
1F
100
AcDbEntity
  8
0
  6
CONTINUOUS
 62
     7
100
AcDbLine
 10
559.25
 20
142.4499325198066
 30
0.0
 11
559.25
 21
141.9499325198066
 31
0.0
  0
LWPOLYLINE
  5
F4
330
1F
100
AcDbEntity
  8
0
  6
CONTINUOUS
 62
     7
100
AcDbPolyline
 90
        7
 70
     0
 43
0.0
 10
559.8273502691898
 20
143.4499325198066
 10
559.6999068109345
 20
143.425095793975
 10
559.6071245423374
 20
143.3742919382062
 10
559.5275711229915
 20
143.304466356607
 10
559.4571505104127
 20
143.2171345603769
 10
559.3940458737901
 20
143.1107970314747
 42
0.1135245646651476
 10
559.2500000000001
 20
142.4499325198066
  0
LINE
  5
F5
330
1F
100
AcDbEntity
  8
0
  6
CONTINUOUS
 62
     7
100
AcDbLine
 10
560.0
 20
143.4499325198066
 30
0.0
 11
559.8273502691898
 21
143.4499325198066
 31
0.0
  0
LINE
  5
F6
330
1F
100
AcDbEntity
  8
0
  6
CONTINUOUS
 62
     7
100
AcDbLine
 10
554.6337641402034
 20
143.4499325198066
 30
0.0
 11
559.8273502691897
 21
143.4499325198066
 31
0.0
  0
LINE
  5
F7
330
1F
100
AcDbEntity
  8
0
  6
CONTINUOUS
 62
     7
100
AcDbLine
 10
554.607560250562
 20
141.9499325198066
 30
0.0
 11
552.6048155585661
 21
141.9499325198066
 31
0.0
  0
LINE
  5
F8
330
1F
100
AcDbEntity
  8
0
  6
CONTINUOUS
 62
     7
100
AcDbLine
 10
552.6048155585661
 20
141.9499325198066
 30
0.0
 11
552.6337622594311
 21
142.5022684756713
 31
0.0
  0
LINE
  5
F9
330
1F
100
AcDbEntity
  8
0
  6
CONTINUOUS
 62
     7
100
AcDbLine
 10
559.25
 20
141.9499325198066
 30
0.0
 11
554.6075602505618
 21
141.9499325198066
 31
0.0
  0
LINE
  5
FA
330
1F
100
AcDbEntity
  8
0
  6
CONTINUOUS
 62
     7
100
AcDbLine
 10
567.395184441434
 20
141.9499325198066
 30
0.0
 11
565.3924397494382
 21
141.9499325198066
 31
0.0
  0
LINE
  5
FB
330
1F
100
AcDbEntity
  8
0
  6
CONTINUOUS
 62
     7
100
AcDbLine
 10
567.3662377405491
 20
142.5022684760495
 30
0.0
 11
567.3266021843762
 21
142.5016108465312
 31
0.0
  0
LINE
  5
FC
330
1F
100
AcDbEntity
  8
0
  6
CONTINUOUS
 62
     7
100
AcDbLine
 10
567.3662377405491
 20
142.5022684760495
 30
0.0
 11
567.3951844414339
 21
141.9499325198065
 31
0.0
  0
LINE
  5
FD
330
1F
100
AcDbEntity
  8
0
  6
CONTINUOUS
 62
     7
100
AcDbLine
 10
565.392439749438
 20
141.9499325198066
 30
0.0
 11
560.7500000000001
 21
141.9499325198066
 31
0.0
  0
LINE
  5
FE
330
1F
100
AcDbEntity
  8
0
  6
CONTINUOUS
 62
     7
100
AcDbLine
 10
560.7500000000001
 20
142.4499325198066
 30
0.0
 11
560.7500000000001
 21
141.9499325198066
 31
0.0
  0
LWPOLYLINE
  5
FF
330
1F
100
AcDbEntity
  8
0
  6
CONTINUOUS
 62
     7
100
AcDbPolyline
 90
        8
 70
     0
 43
0.0
 10
560.7500000000001
 20
142.4499325198066
 42
0.1101044299853829
 10
560.6154529820576
 20
143.0916254921361
 10
560.5556656158525
 20
143.1981914985462
 10
560.4835242084246
 20
143.2925863484463
 10
560.4014600006234
 20
143.3680461211879
 10
560.3080592508999
 20
143.422036686948
 10
560.2069257105477
 20
143.4481655342115
 10
560.1726497308103
 20
143.4499325198066
  0
LINE
  5
100
330
1F
100
AcDbEntity
  8
0
  6
CONTINUOUS
 62
     7
100
AcDbLine
 10
560.1726497308103
 20
143.4499325198066
 30
0.0
 11
565.3662358597965
 21
143.4499325198066
 31
0.0
  0
LINE
  5
101
330
1F
100
AcDbEntity
  8
0
  6
CONTINUOUS
 62
     7
100
AcDbLine
 10
560.0
 20
141.9499325198066
 30
0.0
 11
560.7500000000001
 21
141.9499325198066
 31
0.0
  0
LINE
  5
102
330
1F
100
AcDbEntity
  8
0
  6
CONTINUOUS
 62
     7
100
AcDbLine
 10
560.1726497308103
 20
143.4499325198066
 30
0.0
 11
560.0
 21
143.4499325198066
 31
0.0
  0
LINE
  5
103
330
1F
100
AcDbEntity
  8
0
  6
CONTINUOUS
 62
     7
100
AcDbLine
 10
552.6733978156238
 20
142.5016108465316
 30
0.0
 11
552.633762259451
 21
142.5022684760495
 31
0.0
  0
LINE
  5
104
330
1F
100
AcDbEntity
  8
0
  6
CONTINUOUS
 62
     7
100
AcDbLine
 10
553.6323917942055
 20
143.4499325198066
 30
0.0
 11
554.6337641402034
 21
143.4499325198066
 31
0.0
  0
LINE
  5
105
330
1F
100
AcDbEntity
  8
0
  6
CONTINUOUS
 62
     7
100
AcDbLine
 10
553.6323917942055
 20
143.4499325198066
 30
0.0
 11
553.2751569685058
 21
143.383947123176
 31
0.0
  0
LINE
  5
106
330
1F
100
AcDbEntity
  8
0
  6
CONTINUOUS
 62
     7
100
AcDbLine
 10
566.7248430679829
 20
143.3839471092201
 30
0.0
 11
566.3676082057946
 21
143.4499325198066
 31
0.0
  0
LINE
  5
107
330
1F
100
AcDbEntity
  8
0
  6
CONTINUOUS
 62
     7
100
AcDbLine
 10
565.3662358597966
 20
143.4499325198066
 30
0.0
 11
566.3676082057946
 21
143.4499325198066
 31
0.0
  0
LINE
  5
108
330
1F
100
AcDbEntity
  8
0
  6
CONTINUOUS
 62
     7
100
AcDbLine
 10
540.6916701901887
 20
141.4499325198066
 30
0.0
 11
539.691632111803
 21
141.4499325198066
 31
0.0
  0
LINE
  5
109
330
1F
100
AcDbEntity
  8
0
  6
CONTINUOUS
 62
     7
100
AcDbLine
 10
539.7047224134891
 20
139.9499325198066
 30
0.0
 11
540.7047604918748
 21
139.9499325198066
 31
0.0
  0
LINE
  5
10A
330
1F
100
AcDbEntity
  8
0
  6
CONTINUOUS
 62
     7
100
AcDbLine
 10
580.308367888197
 20
141.4499325198066
 30
0.0
 11
579.3083298098113
 21
141.4499325198066
 31
0.0
  0
LINE
  5
10B
330
1F
100
AcDbEntity
  8
0
  6
CONTINUOUS
 62
     7
100
AcDbLine
 10
579.2952395081252
 20
139.9499325198066
 30
0.0
 11
580.295277586511
 21
139.9499325198066
 31
0.0
  0
LINE
  5
10C
330
1F
100
AcDbEntity
  8
0
  6
CONTINUOUS
 62
     7
100
AcDbLine
 10
558.4213883310755
 20
141.4499325198066
 30
0.0
 11
558.395184441434
 21
141.9499325198066
 31
0.0
  0
LINE
  5
10D
330
1F
100
AcDbEntity
  8
0
  6
CONTINUOUS
 62
     7
100
AcDbLine
 10
552.6048155585661
 20
141.9499325198066
 30
0.0
 11
552.5786116689246
 21
141.4499325198066
 31
0.0
  0
LINE
  5
10E
330
1F
100
AcDbEntity
  8
0
  6
CONTINUOUS
 62
     7
100
AcDbLine
 10
561.6048155585661
 20
141.9499325198066
 30
0.0
 11
561.5786116689246
 21
141.4499325198066
 31
0.0
  0
LINE
  5
10F
330
1F
100
AcDbEntity
  8
0
  6
CONTINUOUS
 62
     7
100
AcDbLine
 10
567.4213883310755
 20
141.4499325198066
 30
0.0
 11
567.395184441434
 21
141.9499325198066
 31
0.0
  0
LINE
  5
110
330
1F
100
AcDbEntity
  8
0
  6
CONTINUOUS
 62
     7
100
AcDbLine
 10
550.4986276540021
 20
139.9499325198066
 30
0.0
 11
550.4200159850776
 21
141.4499325198066
 31
0.0
  0
LINE
  5
111
330
1F
100
AcDbEntity
  8
0
  6
CONTINUOUS
 62
     7
100
AcDbLine
 10
551.4213883310755
 20
141.4499325198066
 30
0.0
 11
551.5
 21
139.9499325198066
 31
0.0
  0
LINE
  5
112
330
1F
100
AcDbEntity
  8
0
  6
CONTINUOUS
 62
     7
100
AcDbLine
 10
550.4200159850776
 20
141.4499325198066
 30
0.0
 11
551.4213883310756
 21
141.4499325198066
 31
0.0
  0
LINE
  5
113
330
1F
100
AcDbEntity
  8
0
  6
CONTINUOUS
 62
     7
100
AcDbLine
 10
551.5000000000001
 20
139.9499325198066
 30
0.0
 11
550.4986276540021
 21
139.9499325198066
 31
0.0
  0
LINE
  5
114
330
1F
100
AcDbEntity
  8
0
  6
CONTINUOUS
 62
     7
100
AcDbLine
 10
569.5799840149225
 20
141.4499325198066
 30
0.0
 11
569.501372345998
 21
139.9499325198066
 31
0.0
  0
LINE
  5
115
330
1F
100
AcDbEntity
  8
0
  6
CONTINUOUS
 62
     7
100
AcDbLine
 10
579.3083298098114
 20
141.4499325198066
 30
0.0
 11
569.5799840149226
 21
141.4499325198066
 31
0.0
  0
LINE
  5
116
330
1F
100
AcDbEntity
  8
0
  6
CONTINUOUS
 62
     7
100
AcDbLine
 10
579.2952395081252
 20
139.9499325198066
 30
0.0
 11
569.501372345998
 21
139.9499325198066
 31
0.0
  0
LINE
  5
117
330
1F
100
AcDbEntity
  8
0
  6
CONTINUOUS
 62
     7
100
AcDbLine
 10
568.5
 20
139.9499325198066
 30
0.0
 11
568.5786116689245
 21
141.4499325198066
 31
0.0
  0
LINE
  5
118
330
1F
100
AcDbEntity
  8
0
  6
CONTINUOUS
 62
     7
100
AcDbLine
 10
568.5786116689246
 20
141.4499325198066
 30
0.0
 11
569.5799840149226
 21
141.4499325198066
 31
0.0
  0
LINE
  5
119
330
1F
100
AcDbEntity
  8
0
  6
CONTINUOUS
 62
     7
100
AcDbLine
 10
569.501372345998
 20
139.9499325198066
 30
0.0
 11
568.5
 21
139.9499325198066
 31
0.0
  0
LINE
  5
11A
330
1F
100
AcDbEntity
  8
0
  6
CONTINUOUS
 62
     7
100
AcDbLine
 10
550.4200159850776
 20
141.4499325198066
 30
0.0
 11
540.6916701901888
 21
141.4499325198066
 31
0.0
  0
LINE
  5
11B
330
1F
100
AcDbEntity
  8
0
  6
CONTINUOUS
 62
     7
100
AcDbLine
 10
550.4986276540021
 20
139.9499325198066
 30
0.0
 11
540.7047604918748
 21
139.9499325198066
 31
0.0
  0
LINE
  5
11C
330
1F
100
AcDbEntity
  8
0
  6
CONTINUOUS
 62
     7
100
AcDbLine
 10
561.5733708909963
 20
141.3499325198065
 30
0.0
 11
561.5786116689246
 21
141.4499325198065
 31
0.0
  0
LINE
  5
11D
330
1F
100
AcDbEntity
  8
0
  6
CONTINUOUS
 62
     7
100
AcDbLine
 10
567.4213883310755
 20
141.4499325198066
 30
0.0
 11
567.4266291090038
 21
141.3499325198066
 31
0.0
  0
LINE
  5
11E
330
1F
100
AcDbEntity
  8
0
  6
CONTINUOUS
 62
     7
100
AcDbLine
 10
567.5
 20
139.9499325198066
 30
0.0
 11
561.5
 21
139.9499325198066
 31
0.0
  0
LINE
  5
11F
330
1F
100
AcDbEntity
  8
0
  6
CONTINUOUS
 62
     7
100
AcDbLine
 10
561.5
 20
139.9499325198066
 30
0.0
 11
561.5733708909962
 21
141.3499325198065
 31
0.0
  0
LINE
  5
120
330
1F
100
AcDbEntity
  8
0
  6
CONTINUOUS
 62
     7
100
AcDbLine
 10
567.4266291090038
 20
141.3499325198065
 30
0.0
 11
567.5
 21
139.9499325198065
 31
0.0
  0
LINE
  5
121
330
1F
100
AcDbEntity
  8
0
  6
CONTINUOUS
 62
     7
100
AcDbLine
 10
558.4213883310755
 20
141.4499325198066
 30
0.0
 11
558.4266291090038
 21
141.3499325198065
 31
0.0
  0
LINE
  5
122
330
1F
100
AcDbEntity
  8
0
  6
CONTINUOUS
 62
     7
100
AcDbLine
 10
552.5786116689246
 20
141.4499325198066
 30
0.0
 11
552.5733708909963
 21
141.3499325198066
 31
0.0
  0
LINE
  5
123
330
1F
100
AcDbEntity
  8
0
  6
CONTINUOUS
 62
     7
100
AcDbLine
 10
558.5000000000001
 20
139.9499325198066
 30
0.0
 11
552.5000000000001
 21
139.9499325198066
 31
0.0
  0
LINE
  5
124
330
1F
100
AcDbEntity
  8
0
  6
CONTINUOUS
 62
     7
100
AcDbLine
 10
558.4266291090038
 20
141.3499325198065
 30
0.0
 11
558.5
 21
139.9499325198065
 31
0.0
  0
LINE
  5
125
330
1F
100
AcDbEntity
  8
0
  6
CONTINUOUS
 62
     7
100
AcDbLine
 10
552.5
 20
139.9499325198066
 30
0.0
 11
552.5733708909962
 21
141.3499325198065
 31
0.0
  0
LINE
  5
126
330
1F
100
AcDbEntity
  8
0
  6
CONTINUOUS
 62
     7
100
AcDbLine
 10
540.5431992040386
 20
158.4586590553049
 30
0.0
 11
540.6916321118031
 21
141.4499325198066
 31
0.0
  0
LINE
  5
127
330
1F
100
AcDbEntity
  8
0
  6
CONTINUOUS
 62
     7
100
AcDbLine
 10
579.308367888197
 20
141.4499325198066
 30
0.0
 11
579.4568007959615
 21
158.4586590553049
 31
0.0
  0
LINE
  5
128
330
1F
100
AcDbEntity
  8
0
  6
CONTINUOUS
 62
     7
100
AcDbLine
 10
540.5405269077813
 20
158.7648738761674
 30
0.0
 11
540.5431992040386
 21
158.4586590553049
 31
0.0
  0
LINE
  5
129
330
1F
100
AcDbEntity
  8
0
  6
CONTINUOUS
 62
     7
100
AcDbLine
 10
540.538873847804
 20
158.9542957875557
 30
0.0
 11
540.5405269077813
 21
158.7648738761674
 31
0.0
  0
ARC
  5
12A
330
1F
100
AcDbEntity
  8
0
  6
CONTINUOUS
 62
     7
100
AcDbCircle
 10
540.0388928862718
 20
158.9499325198065
 30
0.0
 40
0.5000000000000014
100
AcDbArc
 50
0.5000000000000812
 51
82.40090221761781
  0
LINE
  5
12B
330
1F
100
AcDbEntity
  8
0
  6
CONTINUOUS
 62
     7
100
AcDbLine
 10
539.6654515084307
 20
159.4499325198065
 30
0.0
 11
540.0388928862718
 21
159.4499325198065
 31
0.0
  0
LINE
  5
12C
330
1F
100
AcDbEntity
  8
0
  6
CONTINUOUS
 62
     7
100
AcDbLine
 10
579.9611071137283
 20
159.4499325198065
 30
0.0
 11
579.9610928406687
 21
159.4466614585363
 31
0.0
  0
LINE
  5
12D
330
1F
100
AcDbEntity
  8
0
  6
CONTINUOUS
 62
     7
100
AcDbLine
 10
579.9611071137283
 20
159.4499325198065
 30
0.0
 11
580.3345484915694
 21
159.4499325198065
 31
0.0
  0
ELLIPSE
  5
12E
330
1F
100
AcDbEntity
  8
0
  6
CONTINUOUS
 62
     7
100
AcDbEllipse
 10
579.9567817574937
 20
158.4542957875557
 30
0.0
 11
0.4999809615320871
 21
-0.004363267749188091
 31
0.0
210
0.0
220
0.0
230
1.0
 40
0.0087262032439458
 41
2.945251533075945
 42
3.141592653589932
  0
LINE
  5
12F
330
1F
100
AcDbEntity
  8
0
  6
CONTINUOUS
 62
     7
100
AcDbLine
 10
551.9220745040744
 20
141.4499325198066
 30
0.0
 11
551.4213883310756
 21
141.4499325198066
 31
0.0
  0
LINE
  5
130
330
1F
100
AcDbEntity
  8
0
  6
CONTINUOUS
 62
     7
100
AcDbLine
 10
551.5000000000001
 20
139.9499325198066
 30
0.0
 11
552.000686172999
 21
139.9499325198066
 31
0.0
  0
LINE
  5
131
330
1F
100
AcDbEntity
  8
0
  6
CONTINUOUS
 62
     7
100
AcDbLine
 10
568.5786116689246
 20
141.4499325198066
 30
0.0
 11
568.0779254959257
 21
141.4499325198066
 31
0.0
  0
LINE
  5
132
330
1F
100
AcDbEntity
  8
0
  6
CONTINUOUS
 62
     7
100
AcDbLine
 10
567.9993138270011
 20
139.9499325198066
 30
0.0
 11
568.5
 21
139.9499325198066
 31
0.0
  0
LINE
  5
133
330
1F
100
AcDbEntity
  8
0
  6
CONTINUOUS
 62
     7
100
AcDbLine
 10
568.0779254959256
 20
141.4499325198066
 30
0.0
 11
567.4213883310755
 21
141.4499325198066
 31
0.0
  0
LINE
  5
134
330
1F
100
AcDbEntity
  8
0
  6
CONTINUOUS
 62
     7
100
AcDbLine
 10
567.9993138270011
 20
139.9499325198066
 30
0.0
 11
567.5
 21
139.9499325198066
 31
0.0
  0
LINE
  5
135
330
1F
100
AcDbEntity
  8
0
  6
CONTINUOUS
 62
     7
100
AcDbLine
 10
552.5786116689246
 20
141.4499325198066
 30
0.0
 11
551.9220745040744
 21
141.4499325198066
 31
0.0
  0
LINE
  5
136
330
1F
100
AcDbEntity
  8
0
  6
CONTINUOUS
 62
     7
100
AcDbLine
 10
552.5000000000001
 20
139.9499325198066
 30
0.0
 11
552.000686172999
 21
139.9499325198066
 31
0.0
  0
LINE
  5
137
330
1F
100
AcDbEntity
  8
0
  6
CONTINUOUS
 62
     7
100
AcDbLine
 10
560.7500000000001
 20
141.4499325198066
 30
0.0
 11
560.7500000000001
 21
139.9499325198065
 31
0.0
  0
LINE
  5
138
330
1F
100
AcDbEntity
  8
0
  6
CONTINUOUS
 62
     7
100
AcDbLine
 10
561.5947084215254
 20
141.7570768564126
 30
0.0
 11
561.5579637944318
 21
141.4499325198066
 31
0.0
  0
LINE
  5
139
330
1F
100
AcDbEntity
  8
0
  6
CONTINUOUS
 62
     7
100
AcDbLine
 10
561.5579637944318
 20
141.4499325198066
 30
0.0
 11
561.5100907607188
 21
141.4499325198066
 31
0.0
  0
LINE
  5
13A
330
1F
100
AcDbEntity
  8
0
  6
CONTINUOUS
 62
     7
100
AcDbLine
 10
561.5100907607189
 20
141.4499325198066
 30
0.0
 11
560.7500000000001
 21
141.4499325198066
 31
0.0
  0
LINE
  5
13B
330
1F
100
AcDbEntity
  8
0
  6
CONTINUOUS
 62
     7
100
AcDbLine
 10
561.5
 20
139.9499325198066
 30
0.0
 11
561.4858017260228
 21
139.9499325198066
 31
0.0
  0
LINE
  5
13C
330
1F
100
AcDbEntity
  8
0
  6
CONTINUOUS
 62
     7
100
AcDbLine
 10
561.4858017260228
 20
139.9499325198066
 30
0.0
 11
560.75
 21
139.9499325198065
 31
0.0
  0
LINE
  5
13D
330
1F
100
AcDbEntity
  8
0
  6
CONTINUOUS
 62
     7
100
AcDbLine
 10
559.25
 20
141.4499325198066
 30
0.0
 11
559.25
 21
139.9499325198065
 31
0.0
  0
LINE
  5
13E
330
1F
100
AcDbEntity
  8
0
  6
CONTINUOUS
 62
     7
100
AcDbLine
 10
559.25
 20
141.4499325198066
 30
0.0
 11
558.4710682524382
 21
141.4499325198066
 31
0.0
  0
LINE
  5
13F
330
1F
100
AcDbEntity
  8
0
  6
CONTINUOUS
 62
     7
100
AcDbLine
 10
558.4710682524382
 20
141.4499325198066
 30
0.0
 11
558.4420362055682
 21
141.4499325198066
 31
0.0
  0
LINE
  5
140
330
1F
100
AcDbEntity
  8
0
  6
CONTINUOUS
 62
     7
100
AcDbLine
 10
559.25
 20
139.9499325198065
 30
0.0
 11
558.5079987388749
 21
139.9499325198066
 31
0.0
  0
LINE
  5
141
330
1F
100
AcDbEntity
  8
0
  6
CONTINUOUS
 62
     7
100
AcDbLine
 10
558.5079987388749
 20
139.9499325198066
 30
0.0
 11
558.5000000000001
 21
139.9499325198066
 31
0.0
  0
LINE
  5
142
330
1F
100
AcDbEntity
  8
0
  6
CONTINUOUS
 62
     7
100
AcDbLine
 10
560.0
 20
141.4499325198066
 30
0.0
 11
560.0
 21
139.9499325198066
 31
0.0
  0
LINE
  5
143
330
1F
100
AcDbEntity
  8
0
  6
CONTINUOUS
 62
     7
100
AcDbLine
 10
560.0
 20
141.4499325198066
 30
0.0
 11
559.25
 21
141.4499325198066
 31
0.0
  0
LINE
  5
144
330
1F
100
AcDbEntity
  8
0
  6
CONTINUOUS
 62
     7
100
AcDbLine
 10
560.0
 20
139.9499325198066
 30
0.0
 11
559.25
 21
139.9499325198065
 31
0.0
  0
LINE
  5
145
330
1F
100
AcDbEntity
  8
0
  6
CONTINUOUS
 62
     7
100
AcDbLine
 10
560.7500000000001
 20
141.4499325198066
 30
0.0
 11
560.0
 21
141.4499325198066
 31
0.0
  0
LINE
  5
146
330
1F
100
AcDbEntity
  8
0
  6
CONTINUOUS
 62
     7
100
AcDbLine
 10
560.7500000000001
 20
139.9499325198065
 30
0.0
 11
560.0
 21
139.9499325198066
 31
0.0
  0
LINE
  5
147
330
1F
100
AcDbEntity
  8
0
  6
CONTINUOUS
 62
     7
100
AcDbLine
 10
577.2485667025612
 20
141.4499325198066
 30
0.0
 11
578.9542918781651
 21
151.1235806974735
 31
0.0
  0
LINE
  5
148
330
1F
100
AcDbEntity
  8
0
  6
CONTINUOUS
 62
     7
100
AcDbLine
 10
541.0457081218349
 20
151.1235806974735
 30
0.0
 11
542.7514332974389
 21
141.4499325198065
 31
0.0
  0
ARC
  5
149
330
1F
100
AcDbEntity
  8
0
  6
CONTINUOUS
 62
     7
100
AcDbCircle
 10
-540.0609003688228
 20
150.9499325198065
 30
0.0
 40
1.000000000000001
210
0.0
220
0.0
230
-1.0
100
AcDbArc
 50
122.7166005241259
 51
170.0000000000001
  0
LWPOLYLINE
  5
14A
330
1F
100
AcDbEntity
  8
0
  6
CONTINUOUS
 62
     7
100
AcDbPolyline
 90
       21
 70
     0
 43
0.0
 10
-578.9542918781651
 20
151.1235806974735
 10
-578.9622932586722
 20
151.164057041133
 10
-578.971957511843
 20
151.2041688685249
 10
-578.9832681856738
 20
151.2438478950195
 10
-578.9962060253653
 20
151.2830265727688
 10
-579.0107490061024
 20
151.3216382056965
 10
-579.0268723705474
 20
151.359617063039
 10
-579.0445486709863
 20
151.396898491242
 10
-579.0637478160544
 20
151.4334190240245
 10
-579.0844371219625
 20
151.4691164904206
 10
-579.1065813681366
 20
151.503930120617
 10
-579.1301428571755
 20
151.5378006494043
 10
-579.1550814790257
 20
151.5706704170682
 10
-579.1813547792624
 20
151.6024834675466
 10
-579.2089180313625
 20
151.6331856436866
 10
-579.237724312845
 20
151.6627246794395
 10
-579.2677245851498
 20
151.6910502888363
 10
-579.2988677771189
 20
151.718114251592
 10
-579.3311008719372
 20
151.7438704951942
 10
-579.364368997387
 20
151.7682751733344
 10
-579.398615519259
 20
151.7912867405506
210
0.0
220
0.0
230
-1.0
  0
ARC
  5
14B
330
1F
100
AcDbEntity
  8
0
  6
CONTINUOUS
 62
     7
100
AcDbCircle
 10
-557.0
 20
142.9499325198066
 30
0.0
 40
0.9999999999999978
210
0.0
220
0.0
230
-1.0
100
AcDbArc
 50
30.00000000000031
 51
90.0
  0
LINE
  5
14C
330
1F
100
AcDbEntity
  8
0
  6
CONTINUOUS
 62
     7
100
AcDbLine
 10
557.0
 20
143.9499325198066
 30
0.0
 11
563.0
 21
143.9499325198066
 31
0.0
  0
ARC
  5
14D
330
1F
100
AcDbEntity
  8
0
  6
CONTINUOUS
 62
     7
100
AcDbCircle
 10
-563.0
 20
142.9499325198066
 30
0.0
 40
0.9999999999999974
210
0.0
220
0.0
230
-1.0
100
AcDbArc
 50
90.0
 51
149.9999999999996
  0
LWPOLYLINE
  5
14E
330
1F
100
AcDbEntity
  8
0
  6
CONTINUOUS
 62
     7
100
AcDbPolyline
 90
       26
 70
     0
 43
0.0
 10
553.2751581679215
 20
143.3839475819185
 10
553.2369571004649
 20
143.3684106882291
 10
553.1992319174199
 20
143.351176319447
 10
553.1620984407613
 20
143.3322548658312
 10
553.1256724467635
 20
143.3116660893569
 10
553.0900686197476
 20
143.28943923616
 10
553.0553994844082
 20
143.2656130241096
 10
553.0217743362639
 20
143.2402355010848
 10
552.9840042968224
 20
143.2087443767205
 10
552.9479554787008
 20
143.1753253280839
 10
552.9137735579919
 20
143.1400987261084
 10
552.8815905281541
 20
143.1031983746665
 10
552.8515231118043
 20
143.064769824281
 10
552.8236714646763
 20
143.0249684816587
 10
552.798118201294
 20
142.9839575660162
 10
552.7749277604403
 20
142.9419059674001
 10
552.7541461165428
 20
142.8989860639317
 10
552.73580083133
 20
142.855371554124
 10
552.7199014291314
 20
142.8112353572945
 10
552.7064400695496
 20
142.7667476299234
 10
552.6953924833215
 20
142.7220739389898
 10
552.6867191312786
 20
142.6773736253504
 10
552.680366542533
 20
142.6327983815931
 10
552.6762687863335
 20
142.5884910600127
 10
552.6743490323101
 20
142.544584717857
 10
552.6745211558148
 20
142.5012018991492
  0
LWPOLYLINE
  5
14F
330
1F
100
AcDbEntity
  8
0
  6
CONTINUOUS
 62
     7
100
AcDbPolyline
 90
       26
 70
     0
 43
0.0
 10
567.3254788441851
 20
142.5012018991498
 10
567.3256509676899
 20
142.5445847178572
 10
567.3237312136666
 20
142.5884910600125
 10
567.3196334574673
 20
142.6327983815925
 10
567.3132808687218
 20
142.6773736253494
 10
567.3046075166791
 20
142.7220739389884
 10
567.293559930451
 20
142.7667476299216
 10
567.2800985708694
 20
142.8112353572924
 10
567.2641991686711
 20
142.8553715541215
 10
567.2458538834587
 20
142.898986063929
 10
567.2250722395615
 20
142.941905967397
 10
567.2018817987081
 20
142.9839575660129
 10
567.1763285353263
 20
143.0249684816552
 10
567.1484768881987
 20
143.0647698242772
 10
567.1184094718492
 20
143.1031983746626
 10
567.0862264420118
 20
143.1400987261044
 10
567.0520445213035
 20
143.1753253280798
 10
567.0159957031823
 20
143.2087443767165
 10
566.9782256637413
 20
143.2402355010808
 10
566.9446005155974
 20
143.2656130241057
 10
566.9099313802584
 20
143.2894392361561
 10
566.8743275532429
 20
143.3116660893532
 10
566.8379015592454
 20
143.3322548658276
 10
566.8007680825873
 20
143.3511763194437
 10
566.7630428995425
 20
143.3684106882259
 10
566.7248418320862
 20
143.3839475819155
  0
LWPOLYLINE
  5
150
330
1F
100
AcDbEntity
  8
0
  6
CONTINUOUS
 62
     7
100
AcDbPolyline
 90
       53
 70
     0
 43
0.0
 10
540.5405268523516
 20
158.7648801906439
 10
540.5404616388121
 20
158.7722564992879
 10
540.5403480213595
 20
158.7844844232413
 10
540.5402309547903
 20
158.7961283308665
 10
540.5401104570759
 20
158.8072382983003
 10
540.539989161292
 20
158.8178913742665
 10
540.539834850382
 20
158.831565554171
 10
540.5397022785016
 20
158.8449201652876
 10
540.5396020958225
 20
158.8583273467498
 10
540.5395303116544
 20
158.872212398564
 10
540.5394537070719
 20
158.887041409279
 10
540.5392919855366
 20
158.9032930042635
 10
540.5391154035009
 20
158.9131274070459
 10
540.538840154463
 20
158.9235097346533
 10
540.5384326584353
 20
158.9344496924948
 10
540.5378561695825
 20
158.9459521163583
 10
540.5370711721018
 20
158.9580171056142
 10
540.5360357812245
 20
158.9706401213567
 10
540.5344343055976
 20
158.9862209807388
 10
540.5323495847229
 20
159.0025411485415
 10
540.5297051359765
 20
159.0195690423537
 10
540.5264234524814
 20
159.0372645298776
 10
540.5223472587846
 20
159.0559173949299
 10
540.5174493618098
 20
159.0751517657362
 10
540.511651277767
 20
159.0948986734071
 10
540.5048779179571
 20
159.1150806104307
 10
540.4970587385296
 20
159.1356118643659
 10
540.4882984240421
 20
159.1560260797159
 10
540.4784116291161
 20
159.176591718025
 10
540.4673505460535
 20
159.1972072590783
 10
540.4550755641366
 20
159.2177657254127
 10
540.4428371986249
 20
159.2363118452795
 10
540.4295542689609
 20
159.2546319600106
 10
540.4152179223719
 20
159.2726374845552
 10
540.3998267621465
 20
159.290238520918
 10
540.3833871245155
 20
159.3073445574214
 10
540.3659132781322
 20
159.323865203651
 10
540.3474275407403
 20
159.3397109533092
 10
540.3279603086224
 20
159.3547939662864
 10
540.30754999557
 20
159.3690288604855
 10
540.2862428793866
 20
159.3823335033215
 10
540.267840552452
 20
159.3926536112062
 10
540.248887812517
 20
159.4022306986159
 10
540.2294230710213
 20
159.4110246795328
 10
540.2094878836259
 20
159.4189983517746
 10
540.1891267237891
 20
159.4261176601156
 10
540.1683867302364
 20
159.432351939979
 10
540.1473174303354
 20
159.4376741391118
 10
540.1259704416752
 20
159.44206101486
 10
540.1043991544285
 20
159.4454933048984
 10
540.082658397308
 20
159.4479558695425
 10
540.0608040901437
 20
159.4494378040706
 10
540.0388928862718
 20
159.4499325198065
  0
LWPOLYLINE
  5
151
330
1F
100
AcDbEntity
  8
0
  6
CONTINUOUS
 62
     7
100
AcDbPolyline
 90
        9
 70
     0
 43
0.0
 10
579.9610928407768
 20
159.4466614833368
 10
579.8599406570086
 20
159.4361505593312
 10
579.7483523486185
 20
159.3981799155313
 10
579.6506793004153
 20
159.3358225675736
 10
579.5714565771984
 20
159.2532447770876
 10
579.519302692778
 20
159.1663341930245
 10
579.4862576711954
 20
159.0674746767091
 10
579.4712619788527
 20
158.9610480006641
 42
0.0012564110336208
 10
579.466414289123
 20
158.4594263501976
  0
LINE
  5
152
330
1F
100
AcDbEntity
  8
0
  6
CONTINUOUS
 62
     7
100
AcDbLine
 10
543.7920086977515
 20
327.4999875
 30
0.0
 11
544.6389426129474
 21
327.4999875
 31
0.0
  0
LINE
  5
153
330
1F
100
AcDbEntity
  8
0
  6
CONTINUOUS
 62
     7
100
AcDbLine
 10
544.6389426129474
 20
327.4999875
 30
0.0
 11
575.3610573870527
 21
327.4999875
 31
0.0
  0
LINE
  5
154
330
1F
100
AcDbEntity
  8
0
  6
CONTINUOUS
 62
     7
100
AcDbLine
 10
575.3610573870527
 20
327.4999875
 30
0.0
 11
576.2079913022486
 21
327.4999875
 31
0.0
  0
LINE
  5
155
330
1F
100
AcDbEntity
  8
0
  6
CONTINUOUS
 62
     7
100
AcDbLine
 10
576.2079913022486
 20
327.4999875
 30
0.0
 11
581.197053265108
 21
327.4999875
 31
0.0
  0
LINE
  5
156
330
1F
100
AcDbEntity
  8
0
  6
CONTINUOUS
 62
     7
100
AcDbLine
 10
538.802946734892
 20
327.4999875
 30
0.0
 11
543.7920086977515
 21
327.4999875
 31
0.0
  0
LINE
  5
157
330
1F
100
AcDbEntity
  8
0
  6
CONTINUOUS
 62
     7
100
AcDbLine
 10
581.197053265108
 20
327.4999875
 30
0.0
 11
581.6122837211666
 21
327.4999875
 31
0.0
  0
LINE
  5
158
330
1F
100
AcDbEntity
  8
0
  6
CONTINUOUS
 62
     7
100
AcDbLine
 10
538.3877162788335
 20
327.4999875
 30
0.0
 11
538.802946734892
 21
327.4999875
 31
0.0
  0
LINE
  5
159
330
1F
100
AcDbEntity
  8
0
  6
CONTINUOUS
 62
     7
100
AcDbLine
 10
582.6
 20
291.4999875
 30
0.0
 11
582.6
 21
327.4999875
 31
0.0
  0
LINE
  5
15A
330
1F
100
AcDbEntity
  8
0
  6
CONTINUOUS
 62
     7
100
AcDbLine
 10
582.6
 20
291.4999875
 30
0.0
 11
582.5825449350718
 21
291.4999875
 31
0.0
  0
LINE
  5
15B
330
1F
100
AcDbEntity
  8
0
  6
CONTINUOUS
 62
     7
100
AcDbLine
 10
582.5825449350718
 20
293.4999875
 30
0.0
 11
582.5825449350718
 21
291.4999875
 31
0.0
  0
LINE
  5
15C
330
1F
100
AcDbEntity
  8
0
  6
CONTINUOUS
 62
     7
100
AcDbLine
 10
582.5825449350718
 20
293.4999875
 30
0.0
 11
582.5650898701437
 21
293.3571303571429
 31
0.0
  0
LINE
  5
15D
330
1F
100
AcDbEntity
  8
0
  6
CONTINUOUS
 62
     7
100
AcDbLine
 10
582.5650898701437
 20
293.3571303571429
 30
0.0
 11
582.5476348052155
 21
293.2142732142857
 31
0.0
  0
LINE
  5
15E
330
1F
100
AcDbEntity
  8
0
  6
CONTINUOUS
 62
     7
100
AcDbLine
 10
582.5476348052155
 20
293.2142732142857
 30
0.0
 11
582.5301797402872
 21
293.0714160714286
 31
0.0
  0
LINE
  5
15F
330
1F
100
AcDbEntity
  8
0
  6
CONTINUOUS
 62
     7
100
AcDbLine
 10
582.5301797402872
 20
293.0714160714286
 30
0.0
 11
582.512724675359
 21
292.9285589285714
 31
0.0
  0
LINE
  5
160
330
1F
100
AcDbEntity
  8
0
  6
CONTINUOUS
 62
     7
100
AcDbLine
 10
582.512724675359
 20
292.9285589285714
 30
0.0
 11
582.4952696104307
 21
292.7857017857143
 31
0.0
  0
LINE
  5
161
330
1F
100
AcDbEntity
  8
0
  6
CONTINUOUS
 62
     7
100
AcDbLine
 10
582.4952696104307
 20
292.7857017857143
 30
0.0
 11
582.4903325725201
 21
292.7452956839322
 31
0.0
  0
LINE
  5
162
330
1F
100
AcDbEntity
  8
0
  6
CONTINUOUS
 62
     7
100
AcDbLine
 10
582.4903325725201
 20
292.7452956839322
 30
0.0
 11
582.4778145455025
 21
292.4974475041788
 31
0.0
  0
LINE
  5
163
330
1F
100
AcDbEntity
  8
0
  6
CONTINUOUS
 62
     7
100
AcDbLine
 10
582.4778145455025
 20
292.4974475041788
 30
0.0
 11
582.4603594805743
 21
290.7653966966099
 31
0.0
  0
LINE
  5
164
330
1F
100
AcDbEntity
  8
0
  6
CONTINUOUS
 62
     7
100
AcDbLine
 10
582.4603594805743
 20
284.2345783033902
 30
0.0
 11
582.4603594805743
 21
290.7653966966099
 31
0.0
  0
LINE
  5
165
330
1F
100
AcDbEntity
  8
0
  6
CONTINUOUS
 62
     7
100
AcDbLine
 10
582.4603594805743
 20
284.2345783033902
 30
0.0
 11
582.4778145455025
 21
282.5025274958213
 31
0.0
  0
LINE
  5
166
330
1F
100
AcDbEntity
  8
0
  6
CONTINUOUS
 62
     7
100
AcDbLine
 10
582.4778145455025
 20
282.5025274958213
 30
0.0
 11
582.4903325725201
 21
282.2546793160678
 31
0.0
  0
LINE
  5
167
330
1F
100
AcDbEntity
  8
0
  6
CONTINUOUS
 62
     7
100
AcDbLine
 10
582.4903325725201
 20
282.2546793160678
 30
0.0
 11
582.4952696104307
 21
282.2142732142857
 31
0.0
  0
LINE
  5
168
330
1F
100
AcDbEntity
  8
0
  6
CONTINUOUS
 62
     7
100
AcDbLine
 10
582.4952696104307
 20
282.2142732142857
 30
0.0
 11
582.512724675359
 21
282.0714160714286
 31
0.0
  0
LINE
  5
169
330
1F
100
AcDbEntity
  8
0
  6
CONTINUOUS
 62
     7
100
AcDbLine
 10
582.512724675359
 20
282.0714160714286
 30
0.0
 11
582.5301797402872
 21
281.9285589285714
 31
0.0
  0
LINE
  5
16A
330
1F
100
AcDbEntity
  8
0
  6
CONTINUOUS
 62
     7
100
AcDbLine
 10
582.5301797402872
 20
281.9285589285714
 30
0.0
 11
582.5476348052155
 21
281.7857017857143
 31
0.0
  0
LINE
  5
16B
330
1F
100
AcDbEntity
  8
0
  6
CONTINUOUS
 62
     7
100
AcDbLine
 10
582.5476348052155
 20
281.7857017857143
 30
0.0
 11
582.5650898701437
 21
281.6428446428571
 31
0.0
  0
LINE
  5
16C
330
1F
100
AcDbEntity
  8
0
  6
CONTINUOUS
 62
     7
100
AcDbLine
 10
582.5650898701437
 20
281.6428446428571
 30
0.0
 11
582.5825449350718
 21
281.4999875
 31
0.0
  0
LINE
  5
16D
330
1F
100
AcDbEntity
  8
0
  6
CONTINUOUS
 62
     7
100
AcDbLine
 10
582.5825449350718
 20
281.4999875
 30
0.0
 11
582.5825449350718
 21
283.4999875
 31
0.0
  0
LINE
  5
16E
330
1F
100
AcDbEntity
  8
0
  6
CONTINUOUS
 62
     7
100
AcDbLine
 10
582.6
 20
283.4999875
 30
0.0
 11
582.5825449350718
 21
283.4999875
 31
0.0
  0
LINE
  5
16F
330
1F
100
AcDbEntity
  8
0
  6
CONTINUOUS
 62
     7
100
AcDbLine
 10
582.6
 20
251.5005966266015
 30
0.0
 11
582.6
 21
283.4999875
 31
0.0
  0
LINE
  5
170
330
1F
100
AcDbEntity
  8
0
  6
CONTINUOUS
 62
     7
100
AcDbLine
 10
582.265103149482
 20
251.8354934771196
 30
0.0
 11
582.6
 21
251.5005966266015
 31
0.0
  0
LINE
  5
171
330
1F
100
AcDbEntity
  8
0
  6
CONTINUOUS
 62
     7
100
AcDbLine
 10
582.6
 20
327.4999875
 30
0.0
 11
581.6122837211666
 21
327.4999875
 31
0.0
  0
LINE
  5
172
330
1F
100
AcDbEntity
  8
0
  6
CONTINUOUS
 62
     7
100
AcDbLine
 10
537.4000000000001
 20
251.5005966266015
 30
0.0
 11
537.4000000000001
 21
283.4999875
 31
0.0
  0
LINE
  5
173
330
1F
100
AcDbEntity
  8
0
  6
CONTINUOUS
 62
     7
100
AcDbLine
 10
537.4000000000001
 20
283.4999875
 30
0.0
 11
537.4174550649282
 21
283.4999875
 31
0.0
  0
LINE
  5
174
330
1F
100
AcDbEntity
  8
0
  6
CONTINUOUS
 62
     7
100
AcDbLine
 10
537.4174550649282
 20
283.4999875
 30
0.0
 11
537.4174550649282
 21
281.4999875
 31
0.0
  0
LINE
  5
175
330
1F
100
AcDbEntity
  8
0
  6
CONTINUOUS
 62
     7
100
AcDbLine
 10
537.4349101298565
 20
281.6428446428571
 30
0.0
 11
537.4174550649282
 21
281.4999875
 31
0.0
  0
LINE
  5
176
330
1F
100
AcDbEntity
  8
0
  6
CONTINUOUS
 62
     7
100
AcDbLine
 10
537.4523651947846
 20
281.7857017857143
 30
0.0
 11
537.4349101298565
 21
281.6428446428571
 31
0.0
  0
LINE
  5
177
330
1F
100
AcDbEntity
  8
0
  6
CONTINUOUS
 62
     7
100
AcDbLine
 10
537.469820259713
 20
281.9285589285714
 30
0.0
 11
537.4523651947846
 21
281.7857017857143
 31
0.0
  0
LINE
  5
178
330
1F
100
AcDbEntity
  8
0
  6
CONTINUOUS
 62
     7
100
AcDbLine
 10
537.4872753246411
 20
282.0714160714286
 30
0.0
 11
537.469820259713
 21
281.9285589285714
 31
0.0
  0
LINE
  5
179
330
1F
100
AcDbEntity
  8
0
  6
CONTINUOUS
 62
     7
100
AcDbLine
 10
537.5047303895693
 20
282.2142732142857
 30
0.0
 11
537.4872753246411
 21
282.0714160714286
 31
0.0
  0
LINE
  5
17A
330
1F
100
AcDbEntity
  8
0
  6
CONTINUOUS
 62
     7
100
AcDbLine
 10
537.50966742748
 20
282.2546793160678
 30
0.0
 11
537.5047303895693
 21
282.2142732142857
 31
0.0
  0
LINE
  5
17B
330
1F
100
AcDbEntity
  8
0
  6
CONTINUOUS
 62
     7
100
AcDbLine
 10
537.5221854544976
 20
282.5025274958213
 30
0.0
 11
537.50966742748
 21
282.2546793160678
 31
0.0
  0
LINE
  5
17C
330
1F
100
AcDbEntity
  8
0
  6
CONTINUOUS
 62
     7
100
AcDbLine
 10
537.5396405194258
 20
284.2345783033902
 30
0.0
 11
537.5221854544976
 21
282.5025274958213
 31
0.0
  0
LINE
  5
17D
330
1F
100
AcDbEntity
  8
0
  6
CONTINUOUS
 62
     7
100
AcDbLine
 10
537.5396405194258
 20
284.2345783033902
 30
0.0
 11
537.5396405194258
 21
290.7653966966099
 31
0.0
  0
LINE
  5
17E
330
1F
100
AcDbEntity
  8
0
  6
CONTINUOUS
 62
     7
100
AcDbLine
 10
537.5221854544976
 20
292.4974475041788
 30
0.0
 11
537.5396405194258
 21
290.7653966966099
 31
0.0
  0
LINE
  5
17F
330
1F
100
AcDbEntity
  8
0
  6
CONTINUOUS
 62
     7
100
AcDbLine
 10
537.50966742748
 20
292.7452956839322
 30
0.0
 11
537.5221854544976
 21
292.4974475041788
 31
0.0
  0
LINE
  5
180
330
1F
100
AcDbEntity
  8
0
  6
CONTINUOUS
 62
     7
100
AcDbLine
 10
537.5047303895693
 20
292.7857017857143
 30
0.0
 11
537.50966742748
 21
292.7452956839322
 31
0.0
  0
LINE
  5
181
330
1F
100
AcDbEntity
  8
0
  6
CONTINUOUS
 62
     7
100
AcDbLine
 10
537.4872753246411
 20
292.9285589285714
 30
0.0
 11
537.5047303895693
 21
292.7857017857143
 31
0.0
  0
LINE
  5
182
330
1F
100
AcDbEntity
  8
0
  6
CONTINUOUS
 62
     7
100
AcDbLine
 10
537.469820259713
 20
293.0714160714286
 30
0.0
 11
537.4872753246411
 21
292.9285589285714
 31
0.0
  0
LINE
  5
183
330
1F
100
AcDbEntity
  8
0
  6
CONTINUOUS
 62
     7
100
AcDbLine
 10
537.4523651947846
 20
293.2142732142857
 30
0.0
 11
537.469820259713
 21
293.0714160714286
 31
0.0
  0
LINE
  5
184
330
1F
100
AcDbEntity
  8
0
  6
CONTINUOUS
 62
     7
100
AcDbLine
 10
537.4349101298565
 20
293.3571303571429
 30
0.0
 11
537.4523651947846
 21
293.2142732142857
 31
0.0
  0
LINE
  5
185
330
1F
100
AcDbEntity
  8
0
  6
CONTINUOUS
 62
     7
100
AcDbLine
 10
537.4174550649282
 20
293.4999875
 30
0.0
 11
537.4349101298565
 21
293.3571303571429
 31
0.0
  0
LINE
  5
186
330
1F
100
AcDbEntity
  8
0
  6
CONTINUOUS
 62
     7
100
AcDbLine
 10
537.4174550649282
 20
291.4999875
 30
0.0
 11
537.4174550649282
 21
293.4999875
 31
0.0
  0
LINE
  5
187
330
1F
100
AcDbEntity
  8
0
  6
CONTINUOUS
 62
     7
100
AcDbLine
 10
537.4000000000001
 20
291.4999875
 30
0.0
 11
537.4174550649282
 21
291.4999875
 31
0.0
  0
LINE
  5
188
330
1F
100
AcDbEntity
  8
0
  6
CONTINUOUS
 62
     7
100
AcDbLine
 10
537.4000000000001
 20
291.4999875
 30
0.0
 11
537.4000000000001
 21
327.4999875
 31
0.0
  0
LINE
  5
189
330
1F
100
AcDbEntity
  8
0
  6
CONTINUOUS
 62
     7
100
AcDbLine
 10
537.4000000000001
 20
251.5005966266015
 30
0.0
 11
537.7348968505181
 21
251.8354934771196
 31
0.0
  0
LINE
  5
18A
330
1F
100
AcDbEntity
  8
0
  6
CONTINUOUS
 62
     7
100
AcDbLine
 10
537.4000000000001
 20
327.4999875
 30
0.0
 11
538.3877162788335
 21
327.4999875
 31
0.0
  0
ELLIPSE
  5
18B
330
1F
100
AcDbEntity
  8
0
  6
CONTINUOUS
 62
     7
100
AcDbEllipse
 10
576.013876815368
 20
223.1965231952321
 30
0.0
 11
-0.8700809847201681
 21
-28.66140903563674
 31
0.0
210
0.0
220
0.0
230
1.0
 40
0.1717889705201585
 41
3.14629185994592
 42
3.147816781734128
  0
LINE
  5
18C
330
1F
100
AcDbEntity
  8
0
  6
CONTINUOUS
 62
     7
100
AcDbLine
 10
576.8532953180592
 20
251.8583073808454
 30
0.0
 11
576.02148313803
 21
251.8595286708238
 31
0.0
  0
ELLIPSE
  5
18D
330
1F
100
AcDbEntity
  8
0
  6
CONTINUOUS
 62
     7
100
AcDbEllipse
 10
576.013876815368
 20
223.1965057116257
 30
0.0
 11
0.0
 21
-28.6630561258956
 31
0.0
210
0.0
220
0.0
230
1.0
 40
0.1744405752840416
 41
3.140071388470627
 42
3.141592653589793
  0
LINE
  5
18E
330
1F
100
AcDbEntity
  8
0
  6
CONTINUOUS
 62
     7
100
AcDbLine
 10
543.9861231846321
 20
251.8595618375213
 30
0.0
 11
576.013876815368
 21
251.8595618375213
 31
0.0
  0
LINE
  5
18F
330
1F
100
AcDbEntity
  8
0
  6
CONTINUOUS
 62
     7
100
AcDbLine
 10
543.146704681941
 20
251.8583073808454
 30
0.0
 11
543.9785168619701
 21
251.8595286708238
 31
0.0
  0
ELLIPSE
  5
190
330
1F
100
AcDbEntity
  8
0
  6
CONTINUOUS
 62
     7
100
AcDbEllipse
 10
543.9861231846321
 20
223.1965231952321
 30
0.0
 11
-0.870080984720177
 21
28.66140903563678
 31
0.0
210
0.0
220
0.0
230
1.0
 40
0.1717889705201582
 41
6.276961179035254
 42
6.278486100823452
  0
ELLIPSE
  5
191
330
1F
100
AcDbEntity
  8
0
  6
CONTINUOUS
 62
     7
100
AcDbEllipse
 10
543.9861231846321
 20
223.1965057116257
 30
0.0
 11
0.0
 21
28.6630561258956
 31
0.0
210
0.0
220
0.0
230
1.0
 40
0.1744405752840416
 41
0.0
 42
0.0015212651191709
  0
LINE
  5
192
330
1F
100
AcDbEntity
  8
0
  6
CONTINUOUS
 62
     7
100
AcDbLine
 10
576.8608107305639
 20
251.8583181623669
 30
0.0
 11
581.8498726934233
 21
251.8433509342689
 31
0.0
  0
LINE
  5
193
330
1F
100
AcDbEntity
  8
0
  6
CONTINUOUS
 62
     7
100
AcDbLine
 10
538.1501273065767
 20
251.8433509342689
 30
0.0
 11
543.1391892694362
 21
251.8583181623669
 31
0.0
  0
ELLIPSE
  5
194
330
1F
100
AcDbEntity
  8
0
  6
CONTINUOUS
 62
     7
100
AcDbEllipse
 10
538.2348206980963
 20
248.9771714375554
 30
0.0
 11
0.08700809847201765
 21
-2.866140903563677
 31
0.0
210
0.0
220
0.0
230
1.0
 40
0.1717889705201582
 41
3.136893447233662
 42
3.151366717003541
  0
ELLIPSE
  5
195
330
1F
100
AcDbEntity
  8
0
  6
CONTINUOUS
 62
     7
100
AcDbEllipse
 10
581.7651793019037
 20
248.9771714375554
 30
0.0
 11
0.08700809847201675
 21
2.866140903563672
 31
0.0
210
0.0
220
0.0
230
1.0
 40
0.1717889705201585
 41
6.273411243765857
 42
6.287884513535718
  0
LINE
  5
196
330
1F
100
AcDbEntity
  8
0
  6
CONTINUOUS
 62
     7
100
AcDbLine
 10
538.1430043630181
 20
251.8430293467611
 30
0.0
 11
537.7350462756372
 21
251.8353769538059
 31
0.0
  0
LINE
  5
197
330
1F
100
AcDbEntity
  8
0
  6
CONTINUOUS
 62
     7
100
AcDbLine
 10
537.7350462756372
 20
251.8353769538059
 30
0.0
 11
537.7348968505181
 21
251.8354934771196
 31
0.0
  0
LINE
  5
198
330
1F
100
AcDbEntity
  8
0
  6
CONTINUOUS
 62
     7
100
AcDbLine
 10
582.265103149482
 20
251.8354934771196
 30
0.0
 11
582.264953724363
 21
251.8353769538059
 31
0.0
  0
LINE
  5
199
330
1F
100
AcDbEntity
  8
0
  6
CONTINUOUS
 62
     7
100
AcDbLine
 10
582.264953724363
 20
251.8353769538059
 30
0.0
 11
581.856995636982
 21
251.8430293467611
 31
0.0
  0
LINE
  5
19A
330
1F
100
AcDbEntity
  8
0
  6
CONTINUOUS
 62
     7
100
AcDbLine
 10
580.4
 20
247.4999875
 30
0.0
 11
581.4798569582175
 21
247.4999875
 31
0.0
  0
LINE
  5
19B
330
1F
100
AcDbEntity
  8
0
  6
CONTINUOUS
 62
     7
100
AcDbLine
 10
576.6
 20
247.8211606946792
 30
0.0
 11
580.2452857243878
 21
247.8094396185475
 31
0.0
  0
LINE
  5
19C
330
1F
100
AcDbEntity
  8
0
  6
CONTINUOUS
 62
     7
100
AcDbLine
 10
576.6
 20
247.8211606946792
 30
0.0
 11
543.4000000000001
 21
247.8211606946792
 31
0.0
  0
LINE
  5
19D
330
1F
100
AcDbEntity
  8
0
  6
CONTINUOUS
 62
     7
100
AcDbLine
 10
539.7547142756123
 20
247.8094396185475
 30
0.0
 11
543.4000000000001
 21
247.8211606946792
 31
0.0
  0
LINE
  5
19E
330
1F
100
AcDbEntity
  8
0
  6
CONTINUOUS
 62
     7
100
AcDbLine
 10
538.5201430417825
 20
247.4999875
 30
0.0
 11
539.6
 21
247.4999875
 31
0.0
  0
LINE
  5
19F
330
1F
100
AcDbEntity
  8
0
  6
CONTINUOUS
 62
     7
100
AcDbLine
 10
539.7547142756123
 20
247.8094396185475
 30
0.0
 11
539.6
 21
247.4999875
 31
0.0
  0
LINE
  5
1A0
330
1F
100
AcDbEntity
  8
0
  6
CONTINUOUS
 62
     7
100
AcDbLine
 10
580.2452857243878
 20
247.8094396185475
 30
0.0
 11
580.4
 21
247.4999875
 31
0.0
  0
LINE
  5
1A1
330
1F
100
AcDbEntity
  8
0
  6
CONTINUOUS
 62
     7
100
AcDbLine
 10
538.0277043199409
 20
247.9137147983685
 30
0.0
 11
537.4000000000001
 21
251.5005966266015
 31
0.0
  0
LINE
  5
1A2
330
1F
100
AcDbEntity
  8
0
  6
CONTINUOUS
 62
     7
100
AcDbLine
 10
582.6
 20
251.5005966266015
 30
0.0
 11
581.9722956800592
 21
247.9137147983685
 31
0.0
  0
ELLIPSE
  5
1A3
330
1F
100
AcDbEntity
  8
0
  6
CONTINUOUS
 62
     7
100
AcDbEllipse
 10
538.5202953582263
 20
248.000063664022
 30
0.0
 11
0.3536610945847896
 21
0.3536610945847896
 31
0.0
210
0.0
220
0.0
230
-1.0
 40
0.9996954598818473
 41
2.356346783439929
 42
3.753601915476344
  0
ELLIPSE
  5
1A4
330
1F
100
AcDbEntity
  8
0
  6
CONTINUOUS
 62
     7
100
AcDbEllipse
 10
581.4797046417738
 20
248.000063664022
 30
0.0
 11
0.3536610945847896
 21
-0.3536610945847896
 31
0.0
210
0.0
220
0.0
230
-1.0
 40
0.9996954598819258
 41
5.671176045293032
 42
7.068431177329443
  0
LINE
  5
1A5
330
1F
100
AcDbEntity
  8
0
  6
CONTINUOUS
 62
     7
100
AcDbLine
 10
537.5221854544976
 20
282.5025274958213
 30
0.0
 11
537.5221854544976
 21
292.4974475041787
 31
0.0
  0
LINE
  5
1A6
330
1F
100
AcDbEntity
  8
0
  6
CONTINUOUS
 62
     7
100
AcDbLine
 10
582.4778145455025
 20
282.5025274958213
 30
0.0
 11
582.4778145455025
 21
292.4974475041788
 31
0.0
  0
LINE
  5
1A7
330
1F
100
AcDbEntity
  8
0
  6
CONTINUOUS
 62
     7
100
AcDbLine
 10
582.4952696104307
 20
282.2142732142857
 30
0.0
 11
582.4952696104307
 21
292.7857017857143
 31
0.0
  0
LINE
  5
1A8
330
1F
100
AcDbEntity
  8
0
  6
CONTINUOUS
 62
     7
100
AcDbLine
 10
537.5047303895693
 20
282.2142732142857
 30
0.0
 11
537.5047303895693
 21
292.7857017857143
 31
0.0
  0
LINE
  5
1A9
330
1F
100
AcDbEntity
  8
0
  6
CONTINUOUS
 62
     7
100
AcDbLine
 10
582.512724675359
 20
282.0714160714286
 30
0.0
 11
582.512724675359
 21
292.9285589285714
 31
0.0
  0
LINE
  5
1AA
330
1F
100
AcDbEntity
  8
0
  6
CONTINUOUS
 62
     7
100
AcDbLine
 10
537.4872753246411
 20
282.0714160714286
 30
0.0
 11
537.4872753246411
 21
292.9285589285714
 31
0.0
  0
LINE
  5
1AB
330
1F
100
AcDbEntity
  8
0
  6
CONTINUOUS
 62
     7
100
AcDbLine
 10
582.5301797402872
 20
281.9285589285714
 30
0.0
 11
582.5301797402872
 21
293.0714160714286
 31
0.0
  0
LINE
  5
1AC
330
1F
100
AcDbEntity
  8
0
  6
CONTINUOUS
 62
     7
100
AcDbLine
 10
537.469820259713
 20
281.9285589285714
 30
0.0
 11
537.469820259713
 21
293.0714160714286
 31
0.0
  0
LINE
  5
1AD
330
1F
100
AcDbEntity
  8
0
  6
CONTINUOUS
 62
     7
100
AcDbLine
 10
537.4523651947846
 20
281.7857017857143
 30
0.0
 11
537.4523651947846
 21
293.2142732142857
 31
0.0
  0
LINE
  5
1AE
330
1F
100
AcDbEntity
  8
0
  6
CONTINUOUS
 62
     7
100
AcDbLine
 10
582.5476348052155
 20
281.7857017857143
 30
0.0
 11
582.5476348052155
 21
293.2142732142857
 31
0.0
  0
LINE
  5
1AF
330
1F
100
AcDbEntity
  8
0
  6
CONTINUOUS
 62
     7
100
AcDbLine
 10
537.4349101298565
 20
281.6428446428571
 30
0.0
 11
537.4349101298565
 21
293.3571303571429
 31
0.0
  0
LINE
  5
1B0
330
1F
100
AcDbEntity
  8
0
  6
CONTINUOUS
 62
     7
100
AcDbLine
 10
582.5650898701437
 20
281.6428446428571
 30
0.0
 11
582.5650898701437
 21
293.3571303571429
 31
0.0
  0
LINE
  5
1B1
330
1F
100
AcDbEntity
  8
0
  6
CONTINUOUS
 62
     7
100
AcDbLine
 10
582.5825449350718
 20
283.4999875
 30
0.0
 11
582.5650898701437
 21
283.4999875
 31
0.0
  0
LINE
  5
1B2
330
1F
100
AcDbEntity
  8
0
  6
CONTINUOUS
 62
     7
100
AcDbLine
 10
537.4349101298565
 20
283.4999875
 30
0.0
 11
537.4174550649282
 21
283.4999875
 31
0.0
  0
LINE
  5
1B3
330
1F
100
AcDbEntity
  8
0
  6
CONTINUOUS
 62
     7
100
AcDbLine
 10
537.4349101298565
 20
291.4999875
 30
0.0
 11
537.4174550649282
 21
291.4999875
 31
0.0
  0
LINE
  5
1B4
330
1F
100
AcDbEntity
  8
0
  6
CONTINUOUS
 62
     7
100
AcDbLine
 10
582.5825449350718
 20
291.4999875
 30
0.0
 11
582.5650898701437
 21
291.4999875
 31
0.0
  0
LINE
  5
1B5
330
1F
100
AcDbEntity
  8
0
  6
CONTINUOUS
 62
     7
100
AcDbLine
 10
538.5201430417825
 20
247.4999875
 30
0.0
 11
539.6
 21
247.4999875
 31
0.0
  0
ELLIPSE
  5
1B6
330
1F
100
AcDbEntity
  8
0
  6
CONTINUOUS
 62
     7
100
AcDbEllipse
 10
538.5202953582263
 20
248.000063664022
 30
0.0
 11
-0.3536610945847896
 21
-0.3536610945847896
 31
0.0
210
0.0
220
0.0
230
1.0
 40
0.9996954598819258
 41
5.671176045293053
 42
7.068431177329457
  0
LINE
  5
1B7
330
1F
100
AcDbEntity
  8
0
  6
CONTINUOUS
 62
     7
100
AcDbLine
 10
537.4000000000001
 20
251.5005966266015
 30
0.0
 11
538.0277043199409
 21
247.9137147983685
 31
0.0
  0
LINE
  5
1B8
330
1F
100
AcDbEntity
  8
0
  6
CONTINUOUS
 62
     7
100
AcDbLine
 10
537.4000000000001
 20
327.4999875
 30
0.0
 11
537.4000000000001
 21
291.4999875
 31
0.0
  0
LINE
  5
1B9
330
1F
100
AcDbEntity
  8
0
  6
CONTINUOUS
 62
     7
100
AcDbLine
 10
537.4000000000001
 20
291.4999875
 30
0.0
 11
537.4000000000001
 21
283.4999875
 31
0.0
  0
LINE
  5
1BA
330
1F
100
AcDbEntity
  8
0
  6
CONTINUOUS
 62
     7
100
AcDbLine
 10
537.4000000000001
 20
283.4999875
 30
0.0
 11
537.4000000000001
 21
251.5005966266015
 31
0.0
  0
LINE
  5
1BB
330
1F
100
AcDbEntity
  8
0
  6
CONTINUOUS
 62
     7
100
AcDbLine
 10
582.6
 20
327.4999875
 30
0.0
 11
582.6
 21
291.4999875
 31
0.0
  0
LINE
  5
1BC
330
1F
100
AcDbEntity
  8
0
  6
CONTINUOUS
 62
     7
100
AcDbLine
 10
582.6
 20
291.4999875
 30
0.0
 11
582.6
 21
283.4999875
 31
0.0
  0
LINE
  5
1BD
330
1F
100
AcDbEntity
  8
0
  6
CONTINUOUS
 62
     7
100
AcDbLine
 10
582.6
 20
283.4999875
 30
0.0
 11
582.6
 21
251.5005966266016
 31
0.0
  0
LINE
  5
1BE
330
1F
100
AcDbEntity
  8
0
  6
CONTINUOUS
 62
     7
100
AcDbLine
 10
581.9722956800592
 20
247.9137147983686
 30
0.0
 11
582.6
 21
251.5005966266016
 31
0.0
  0
ELLIPSE
  5
1BF
330
1F
100
AcDbEntity
  8
0
  6
CONTINUOUS
 62
     7
100
AcDbEllipse
 10
581.4797046417738
 20
248.000063664022
 30
0.0
 11
-0.3536610945847898
 21
0.3536610945847897
 31
0.0
210
0.0
220
0.0
230
1.0
 40
0.999695459881847
 41
2.356346783439937
 42
3.753601915476354
  0
LINE
  5
1C0
330
1F
100
AcDbEntity
  8
0
  6
CONTINUOUS
 62
     7
100
AcDbLine
 10
580.4
 20
247.4999875
 30
0.0
 11
581.4798569582175
 21
247.4999875
 31
0.0
  0
ENDSEC
  0
SECTION
  2
OBJECTS
  0
DICTIONARY
  5
C
330
0
100
AcDbDictionary
  3
ACAD_GROUP
350
D
  3
ACAD_LAYOUT
350
1A
  3
ACAD_MATERIAL
350
43
  3
ACAD_MLEADERSTYLE
350
6B
  3
ACAD_MLINESTYLE
350
17
  3
ACAD_PLOTSETTINGS
350
19
  3
ACAD_SCALELIST
350
47
  3
ACAD_VISUALSTYLE
350
2A
  3
ACDBHEADERROUNDTRIPXREC
350
1C1
  3
ACDBVARIABLEDICTIONARY
350
1E2
  0
DICTIONARY
  5
1E9
330
8
100
AcDbDictionary
280
     1
  3
ACAD_XREC_ROUNDTRIP
360
1EA
  0
DICTIONARY
  5
D
102
{ACAD_REACTORS
330
C
102
}
330
C
100
AcDbDictionary
  0
DICTIONARY
  5
1A
102
{ACAD_REACTORS
330
C
102
}
330
C
100
AcDbDictionary
  0
DICTIONARY
  5
43
102
{ACAD_REACTORS
330
C
102
}
330
C
100
AcDbDictionary
  3
BYBLOCK
350
45
  3
BYLAYER
350
44
  3
GLOBAL
350
46
  0
DICTIONARY
  5
6B
102
{ACAD_REACTORS
330
C
102
}
330
C
100
AcDbDictionary
  3
STANDARD
350
6C
  0
DICTIONARY
  5
17
102
{ACAD_REACTORS
330
C
102
}
330
C
100
AcDbDictionary
  3
STANDARD
350
18
  0
DICTIONARY
  5
19
102
{ACAD_REACTORS
330
C
102
}
330
C
100
AcDbDictionary
  0
DICTIONARY
  5
47
102
{ACAD_REACTORS
330
C
102
}
330
C
100
AcDbDictionary
  3
A0
350
48
  3
A1
350
49
  3
A2
350
4A
  3
A3
350
4B
  3
A4
350
4C
  3
A5
350
4D
  3
A6
350
4E
  3
A7
350
4F
  3
A8
350
50
  3
A9
350
51
  3
B0
350
52
  3
B1
350
53
  3
B2
350
54
  3
B3
350
55
  3
B4
350
56
  3
B5
350
57
  3
B6
350
58
  3
B7
350
59
  3
B8
350
5A
  3
B9
350
5B
  3
C0
350
5C
  3
C1
350
5D
  3
C2
350
5E
  3
C3
350
5F
  3
C4
350
60
  3
C5
350
61
  3
C6
350
62
  3
C7
350
63
  3
C8
350
64
  3
C9
350
65
  3
D0
350
66
  3
D1
350
67
  3
D2
350
68
  0
DICTIONARY
  5
2A
102
{ACAD_REACTORS
330
C
102
}
330
C
100
AcDbDictionary
  3
2DWIREFRAME
350
2F
  3
BASIC
350
32
  3
BRIGHTEN
350
36
  3
COLORCHANGE
350
3A
  3
CONCEPTUAL
350
34
  3
DIM
350
35
  3
EDGECOLOROFF
350
3D
  3
FACEPATTERN
350
39
  3
FLAT
350
2B
  3
FLATWITHEDGES
350
2C
  3
GOURAUD
350
2D
  3
GOURAUDWITHEDGES
350
2E
  3
HIDDEN
350
31
  3
JITTEROFF
350
3B
  3
LINEPATTERN
350
38
  3
OVERHANGOFF
350
3C
  3
REALISTIC
350
33
  3
SHADED
350
42
  3
SHADED_WITH_EDGES
350
41
  3
SHADES_OF_GRAY
350
3E
  3
SKETCHY
350
3F
  3
THICKEN
350
37
  3
WIREFRAME
350
30
  3
X-RAY
350
40
  0
DICTIONARY
  5
1C1
102
{ACAD_REACTORS
330
C
102
}
330
C
100
AcDbDictionary
  3
CEPSNID
350
1CB
  3
CEPSNTYPE
350
1CA
  3
DIMSTYLEDATA
350
1E1
  3
FINGERPRINTGUID
350
1CC
  3
HYPERLINKBASE
350
1C4
  3
INSUNITS
350
1C9
  3
LAYOUTDICT
350
1C6
  3
LWETCUNION
350
1C8
  3
PLOTSETDICT
350
1C7
  3
PSVPSCALE
350
1CE
  3
PUCSBASE
350
1D1
  3
PUCSORGBACK
350
1D7
  3
PUCSORGBOTTOM
350
1D3
  3
PUCSORGFRONT
350
1D6
  3
PUCSORGLEFT
350
1D4
  3
PUCSORGRIGHT
350
1D5
  3
PUCSORGTOP
350
1D2
  3
PUCSORTHOREF
350
1CF
  3
PUCSORTHOVIEW
350
1D0
  3
STYLESHEET
350
1C5
  3
TSTACKALIGN
350
1C2
  3
TSTACKSIZE
350
1C3
  3
UCSBASE
350
1DA
  3
UCSORGBACK
350
1E0
  3
UCSORGBOTTOM
350
1DC
  3
UCSORGFRONT
350
1DF
  3
UCSORGLEFT
350
1DD
  3
UCSORGRIGHT
350
1DE
  3
UCSORGTOP
350
1DB
  3
UCSORTHOREF
350
1D8
  3
UCSORTHOVIEW
350
1D9
  3
VERSIONGUID
350
1CD
  0
DICTIONARY
  5
1E2
102
{ACAD_REACTORS
330
C
102
}
330
C
100
AcDbDictionary
  3
CANNOSCALE
350
1EB
  3
CMLEADERSTYLE
350
1E4
  3
CTABLESTYLE
350
1E3
  3
DIMASSOC
350
1E7
  3
HIDETEXT
350
1E8
  3
MSLTSCALE
350
1EC
  0
XRECORD
  5
1EA
102
{ACAD_REACTORS
330
1E9
102
}
330
1E9
100
AcDbXrecord
102
VTR_0.000_0.000_1.000_1.000_VISUALSTYLE
340
2F
102
VTR_0.000_0.000_1.000_1.000_GRIDDISPLAY
 70
     3
102
VTR_0.000_0.000_1.000_1.000_GRIDMAJOR
 70
     5
102
VTR_0.000_0.000_1.000_1.000_DEFAULTLIGHTING
280
     1
102
VTR_0.000_0.000_1.000_1.000_DEFAULTLIGHTINGTYPE
 70
     1
102
VTR_0.000_0.000_1.000_1.000_BRIGHTNESS
141
0.0
102
VTR_0.000_0.000_1.000_1.000_CONTRAST
142
0.0
  0
MATERIAL
  5
45
102
{ACAD_REACTORS
330
43
102
}
102
{ACAD_XDICTIONARY
360
1EF
102
}
330
43
100
AcDbMaterial
  1
BYBLOCK
  0
MATERIAL
  5
44
102
{ACAD_REACTORS
330
43
102
}
102
{ACAD_XDICTIONARY
360
1ED
102
}
330
43
100
AcDbMaterial
  1
BYLAYER
  0
MATERIAL
  5
46
102
{ACAD_REACTORS
330
43
102
}
102
{ACAD_XDICTIONARY
360
1F1
102
}
330
43
100
AcDbMaterial
  1
GLOBAL
  0
ACAD_PROXY_OBJECT
  5
6C
102
{ACAD_REACTORS
330
6B
102
}
330
6B
100
AcDbProxyObject
 90
      499
 91
      505
 93
      610
310
40901902A4063FBFFFFFE056BD1B81E855B9FC0AD7A3703D0AD73F4214DD185B99185C9900AD7A3703D0AC73F90141901A02B5E8DC0F42B1CFC02B5E8DC0F42B1CFE5764000000000000300FC0
340
14
340
0
340
11
340
0
 94
        0
1001
ACAD_MLEADERVER
1070
     2
  0
MLINESTYLE
  5
18
102
{ACAD_REACTORS
330
17
102
}
330
17
100
AcDbMlineStyle
  2
Standard
 70
     0
  3

 62
   256
 51
90.0
 52
90.0
 71
     2
 49
0.5
 62
   256
  6
BYLAYER
 49
-0.5
 62
   256
  6
BYLAYER
  0
ACAD_PROXY_OBJECT
  5
48
102
{ACAD_REACTORS
330
47
102
}
330
47
100
AcDbProxyObject
 90
      499
 91
      503
 93
       41
310
903313A31580
  0
ACAD_PROXY_OBJECT
  5
49
102
{ACAD_REACTORS
330
47
102
}
330
47
100
AcDbProxyObject
 90
      499
 91
      503
 93
      105
310
903313A324000000000000004000
  0
ACAD_PROXY_OBJECT
  5
4A
102
{ACAD_REACTORS
330
47
102
}
330
47
100
AcDbProxyObject
 90
      499
 91
      503
 93
      105
310
903313A344000000000000104000
  0
ACAD_PROXY_OBJECT
  5
4B
102
{ACAD_REACTORS
330
47
102
}
330
47
100
AcDbProxyObject
 90
      499
 91
      503
 93
      105
310
903313A354000000000000144000
  0
ACAD_PROXY_OBJECT
  5
4C
102
{ACAD_REACTORS
330
47
102
}
330
47
100
AcDbProxyObject
 90
      499
 91
      503
 93
      105
310
903313A384000000000000204000
  0
ACAD_PROXY_OBJECT
  5
4D
102
{ACAD_REACTORS
330
47
102
}
330
47
100
AcDbProxyObject
 90
      499
 91
      503
 93
      113
310
904313A31304000000000000244000
  0
ACAD_PROXY_OBJECT
  5
4E
102
{ACAD_REACTORS
330
47
102
}
330
47
100
AcDbProxyObject
 90
      499
 91
      503
 93
      113
310
904313A31364000000000000304000
  0
ACAD_PROXY_OBJECT
  5
4F
102
{ACAD_REACTORS
330
47
102
}
330
47
100
AcDbProxyObject
 90
      499
 91
      503
 93
      113
310
904313A32304000000000000344000
  0
ACAD_PROXY_OBJECT
  5
50
102
{ACAD_REACTORS
330
47
102
}
330
47
100
AcDbProxyObject
 90
      499
 91
      503
 93
      113
310
904313A333040000000000003E4000
  0
ACAD_PROXY_OBJECT
  5
51
102
{ACAD_REACTORS
330
47
102
}
330
47
100
AcDbProxyObject
 90
      499
 91
      503
 93
      113
310
904313A34304000000000000444000
  0
ACAD_PROXY_OBJECT
  5
52
102
{ACAD_REACTORS
330
47
102
}
330
47
100
AcDbProxyObject
 90
      499
 91
      503
 93
      113
310
904313A35304000000000000494000
  0
ACAD_PROXY_OBJECT
  5
53
102
{ACAD_REACTORS
330
47
102
}
330
47
100
AcDbProxyObject
 90
      499
 91
      503
 93
      121
310
905313A3130304000000000000594000
  0
ACAD_PROXY_OBJECT
  5
54
102
{ACAD_REACTORS
330
47
102
}
330
47
100
AcDbProxyObject
 90
      499
 91
      503
 93
      105
310
903323A310000000000000010100
  0
ACAD_PROXY_OBJECT
  5
55
102
{ACAD_REACTORS
330
47
102
}
330
47
100
AcDbProxyObject
 90
      499
 91
      503
 93
      105
310
903343A310000000000000410100
  0
ACAD_PROXY_OBJECT
  5
56
102
{ACAD_REACTORS
330
47
102
}
330
47
100
AcDbProxyObject
 90
      499
 91
      503
 93
      105
310
903383A310000000000000810100
  0
ACAD_PROXY_OBJECT
  5
57
102
{ACAD_REACTORS
330
47
102
}
330
47
100
AcDbProxyObject
 90
      499
 91
      503
 93
      113
310
90431303A310000000000000910100
  0
ACAD_PROXY_OBJECT
  5
58
102
{ACAD_REACTORS
330
47
102
}
330
47
100
AcDbProxyObject
 90
      499
 91
      503
 93
      121
310
9053130303A310000000000001650100
  0
ACAD_PROXY_OBJECT
  5
59
102
{ACAD_REACTORS
330
47
102
}
330
47
100
AcDbProxyObject
 90
      499
 91
      503
 93
      257
310
90E312F31323822203D2031272D3022000000000000200FC000000000000284000
  0
ACAD_PROXY_OBJECT
  5
5A
102
{ACAD_REACTORS
330
47
102
}
330
47
100
AcDbProxyObject
 90
      499
 91
      503
 93
      249
310
90D312F363422203D2031272D3022000000000000240FC000000000000284000
  0
ACAD_PROXY_OBJECT
  5
5B
102
{ACAD_REACTORS
330
47
102
}
330
47
100
AcDbProxyObject
 90
      499
 91
      503
 93
      249
310
90D312F333222203D2031272D3022000000000000280FC000000000000284000
  0
ACAD_PROXY_OBJECT
  5
5C
102
{ACAD_REACTORS
330
47
102
}
330
47
100
AcDbProxyObject
 90
      499
 91
      503
 93
      249
310
90D312F313622203D2031272D30220000000000002C0FC000000000000284000
  0
ACAD_PROXY_OBJECT
  5
5D
102
{ACAD_REACTORS
330
47
102
}
330
47
100
AcDbProxyObject
 90
      499
 91
      503
 93
      249
310
90D332F333222203D2031272D30220000000000002E0FC000000000000284000
  0
ACAD_PROXY_OBJECT
  5
5E
102
{ACAD_REACTORS
330
47
102
}
330
47
100
AcDbProxyObject
 90
      499
 91
      503
 93
      241
310
90C312F3822203D2031272D3022000000000000300FC000000000000284000
  0
ACAD_PROXY_OBJECT
  5
5F
102
{ACAD_REACTORS
330
47
102
}
330
47
100
AcDbProxyObject
 90
      499
 91
      503
 93
      249
310
90D332F313622203D2031272D3022000000000000320FC000000000000284000
  0
ACAD_PROXY_OBJECT
  5
60
102
{ACAD_REACTORS
330
47
102
}
330
47
100
AcDbProxyObject
 90
      499
 91
      503
 93
      241
310
90C312F3422203D2031272D3022000000000000340FC000000000000284000
  0
ACAD_PROXY_OBJECT
  5
61
102
{ACAD_REACTORS
330
47
102
}
330
47
100
AcDbProxyObject
 90
      499
 91
      503
 93
      241
310
90C332F3822203D2031272D3022000000000000360FC000000000000284000
  0
ACAD_PROXY_OBJECT
  5
62
102
{ACAD_REACTORS
330
47
102
}
330
47
100
AcDbProxyObject
 90
      499
 91
      503
 93
      241
310
90C312F3222203D2031272D3022000000000000380FC000000000000284000
  0
ACAD_PROXY_OBJECT
  5
63
102
{ACAD_REACTORS
330
47
102
}
330
47
100
AcDbProxyObject
 90
      499
 91
      503
 93
      241
310
90C332F3422203D2031272D30220000000000003A0FC000000000000284000
  0
ACAD_PROXY_OBJECT
  5
64
102
{ACAD_REACTORS
330
47
102
}
330
47
100
AcDbProxyObject
 90
      499
 91
      503
 93
      161
310
90A3122203D2031272D30224000000000000284000
  0
ACAD_PROXY_OBJECT
  5
65
102
{ACAD_REACTORS
330
47
102
}
330
47
100
AcDbProxyObject
 90
      499
 91
      503
 93
      257
310
90E312D312F3222203D2031272D30220000000000003E0FC000000000000284000
  0
ACAD_PROXY_OBJECT
  5
66
102
{ACAD_REACTORS
330
47
102
}
330
47
100
AcDbProxyObject
 90
      499
 91
      503
 93
      225
310
90A3322203D2031272D302200000000000002100000000000000284000
  0
ACAD_PROXY_OBJECT
  5
67
102
{ACAD_REACTORS
330
47
102
}
330
47
100
AcDbProxyObject
 90
      499
 91
      503
 93
      225
310
90A3622203D2031272D302200000000000006100000000000000284000
  0
ACAD_PROXY_OBJECT
  5
68
102
{ACAD_REACTORS
330
47
102
}
330
47
100
AcDbProxyObject
 90
      499
 91
      503
 93
      249
310
90D31272D3022203D2031272D30220000000000000A100000000000000284000
  0
ACAD_PROXY_OBJECT
  5
2F
102
{ACAD_REACTORS
330
2A
102
}
330
2A
100
AcDbProxyObject
 90
      499
 91
      501
 93
      436
310
42CC9915DA5C99599C985B595049028333333333333E33F0000000000000F90107901411070040501600405405064090741402480A0340
1001
ACAD
1000
AcDbSavedByObjectVersion
1070
     0
  0
ACAD_PROXY_OBJECT
  5
32
102
{ACAD_REACTORS
330
2A
102
}
330
2A
100
AcDbProxyObject
 90
      499
 91
      501
 93
      388
310
4150985CDA58D07406404333333333333E33F0000000000000F90107A41107004050150841D405064090741402480A0350
1001
ACAD
1000
AcDbSavedByObjectVersion
1070
     0
  0
ACAD_PROXY_OBJECT
  5
36
102
{ACAD_REACTORS
330
2A
102
}
330
2A
100
AcDbProxyObject
 90
      499
 91
      501
 93
      428
310
42109C9A59DA1D195B90C409028333333333333E33F0000000000000F9010790141107004050150841D405064090741402480A029950
1001
ACAD
1000
AcDbSavedByObjectVersion
1070
     0
  0
ACAD_PROXY_OBJECT
  5
3A
102
{ACAD_REACTORS
330
2A
102
}
330
2A
100
AcDbProxyObject
 90
      499
 91
      501
 93
      452
310
42D0DBDB1BDC90DA185B99D95104090240C333333333333E33F0000000000000F90108901411070040501508421405064090741402480A0350
1001
ACAD
1000
AcDbSavedByObjectVersion
1070
     0
  0
ACAD_PROXY_OBJECT
  5
34
102
{ACAD_REACTORS
330
2A
102
}
330
2A
100
AcDbProxyObject
 90
      499
 91
      501
 93
      500
310
4290DBDB98D95C1D1D585B10940D028333333333333E33F0000000000000F90107902409070040501000000000018199010841D405064090740C02480A0340
1001
ACAD
1000
AcDbSavedByObjectVersion
1070
     0
  0
ACAD_PROXY_OBJECT
  5
35
102
{ACAD_REACTORS
330
2A
102
}
330
2A
100
AcDbProxyObject
 90
      499
 91
      501
 93
      412
310
40D11A5B50B409028333333333333E33F0000000000000F9010790141107004050150841D405064090741402480A02677FFFFFD0
1001
ACAD
1000
AcDbSavedByObjectVersion
1070
     0
  0
ACAD_PROXY_OBJECT
  5
3D
102
{ACAD_REACTORS
330
2A
102
}
330
2A
100
AcDbProxyObject
 90
      499
 91
      501
 93
      452
310
43115919D950DBDB1BDC93D999916409028333333333333E33F0000000000000F9010790141107004050150841D405064090741402480A0350
1001
ACAD
1000
AcDbSavedByObjectVersion
1070
     0
  0
ACAD_PROXY_OBJECT
  5
39
102
{ACAD_REACTORS
330
2A
102
}
330
2A
100
AcDbProxyObject
 90
      499
 91
      501
 93
      444
310
42D19858D95C185D1D195C9B90F409028333333333333E33F0000000000000F9010790141107004050150841D405064090741402480A0350
1001
ACAD
1000
AcDbSavedByObjectVersion
1070
     0
  0
ACAD_PROXY_OBJECT
  5
2B
102
{ACAD_REACTORS
330
2A
102
}
330
2A
100
AcDbProxyObject
 90
      499
 91
      501
 93
      380
310
41119B185D240901404333333333333E33F0000000000000F9010740A907004050150841D405064090741402480A1B50
1001
ACAD
1000
AcDbSavedByObjectVersion
1070
     0
  0
ACAD_PROXY_OBJECT
  5
2C
102
{ACAD_REACTORS
330
2A
102
}
330
2A
100
AcDbProxyObject
 90
      499
 91
      501
 93
      468
310
43519B185D15DA5D1A115919D95CD0140901404333333333333E33F0000000000000F90107409019070040501600405405064090741402480A1B50
1001
ACAD
1000
AcDbSavedByObjectVersion
1070
     0
  0
ACAD_PROXY_OBJECT
  5
2D
102
{ACAD_REACTORS
330
2A
102
}
330
2A
100
AcDbProxyObject
 90
      499
 91
      501
 93
      404
310
41D1DBDD5C985D5910240902404333333333333E33F0000000000000F9010740A9070040501641D405064090741402480A1B50
1001
ACAD
1000
AcDbSavedByObjectVersion
1070
     0
  0
ACAD_PROXY_OBJECT
  5
2E
102
{ACAD_REACTORS
330
2A
102
}
330
2A
100
AcDbProxyObject
 90
      499
 91
      501
 93
      492
310
4411DBDD5C985D5915DA5D1A115919D95CD0340902404333333333333E33F0000000000000F90107409019070040501600405405064090741402480A1B50
1001
ACAD
1000
AcDbSavedByObjectVersion
1070
     0
  0
ACAD_PROXY_OBJECT
  5
31
102
{ACAD_REACTORS
330
2A
102
}
330
2A
100
AcDbProxyObject
 90
      499
 91
      501
 93
      476
310
41921A5919195B90640502408333333333333E33F0000000000000F901079024090700405020000000000001110200405405064090740C02480A0340
1001
ACAD
1000
AcDbSavedByObjectVersion
1070
     0
  0
ACAD_PROXY_OBJECT
  5
3B
102
{ACAD_REACTORS
330
2A
102
}
330
2A
100
AcDbProxyObject
 90
      499
 91
      501
 93
      428
310
42529A5D1D195C93D999914409028333333333333E33F0000000000000F9010790141107004050150A41D405064090741402480A0350
1001
ACAD
1000
AcDbSavedByObjectVersion
1070
     0
  0
ACAD_PROXY_OBJECT
  5
38
102
{ACAD_REACTORS
330
2A
102
}
330
2A
100
AcDbProxyObject
 90
      499
 91
      501
 93
      444
310
42D31A5B995C185D1D195C9B90E409028333333333333E33F0000000000000F9010790141107004050750841D405064090741402483A0350
1001
ACAD
1000
AcDbSavedByObjectVersion
1070
     0
  0
ACAD_PROXY_OBJECT
  5
3C
102
{ACAD_REACTORS
330
2A
102
}
330
2A
100
AcDbProxyObject
 90
      499
 91
      501
 93
      444
310
42D3DD995C9A185B99D3D999915409028333333333333E33F0000000000000F9010790141107004050150941D405064090741402480A0350
1001
ACAD
1000
AcDbSavedByObjectVersion
1070
     0
  0
ACAD_PROXY_OBJECT
  5
33
102
{ACAD_REACTORS
330
2A
102
}
330
2A
100
AcDbProxyObject
 90
      499
 91
      501
 93
      428
310
425499585B1A5CDD1A58D08409038333333333333E33F0000000000000F9010740A907004050150800405405064090740C02480A1B40
1001
ACAD
1000
AcDbSavedByObjectVersion
1070
     0
  0
ACAD_PROXY_OBJECT
  5
42
102
{ACAD_REACTORS
330
2A
102
}
330
2A
100
AcDbProxyObject
 90
      499
 91
      501
 93
      420
310
4194DA1859195911B40902404333333333333E33F0000000000000F9010740A41107004050150800405405064090840C02480A0B40
1001
ACAD
1000
AcDbSavedByObjectVersion
1070
     0
  0
ACAD_PROXY_OBJECT
  5
41
102
{ACAD_REACTORS
330
2A
102
}
330
2A
100
AcDbProxyObject
 90
      499
 91
      501
 93
      516
310
4454DA18591959081DDA5D1A08195919D95CD1A40902404333333333333E33F0000000000000F901074090142907004050250800405405064090740C02480A0B40
1001
ACAD
1000
AcDbSavedByObjectVersion
1070
     0
  0
ACAD_PROXY_OBJECT
  5
3E
102
{ACAD_REACTORS
330
2A
102
}
330
2A
100
AcDbProxyObject
 90
      499
 91
      501
 93
      532
310
4394DA1859195CC81BD98811DC985E5174090240C333333333333E33F0000000000000F901079024090741D01000000000000111010841D405064090740C02480A0340
1001
ACAD
1000
AcDbSavedByObjectVersion
1070
     0
  0
ACAD_PROXY_OBJECT
  5
3F
102
{ACAD_REACTORS
330
2A
102
}
330
2A
100
AcDbProxyObject
 90
      499
 91
      501
 93
      476
310
41D4DAD95D18DA1E51840502408333333333333E33F0000000000000F901079024090741D01000000000000111010B41D405064090741802480A0340
1001
ACAD
1000
AcDbSavedByObjectVersion
1070
     0
  0
ACAD_PROXY_OBJECT
  5
37
102
{ACAD_REACTORS
330
2A
102
}
330
2A
100
AcDbProxyObject
 90
      499
 91
      501
 93
      412
310
41D51A1A58DAD95B90D409028333333333333E33F0000000000000F9010790141107004050150C41D405064090741402480A0350
1001
ACAD
1000
AcDbSavedByObjectVersion
1070
     0
  0
ACAD_PROXY_OBJECT
  5
30
102
{ACAD_REACTORS
330
2A
102
}
330
2A
100
AcDbProxyObject
 90
      499
 91
      501
 93
      420
310
4255DA5C99599C985B595059028333333333333E33F0000000000000F90107901411070040501600405405064090740C02480A0340
1001
ACAD
1000
AcDbSavedByObjectVersion
1070
     0
  0
ACAD_PROXY_OBJECT
  5
40
102
{ACAD_REACTORS
330
2A
102
}
330
2A
100
AcDbProxyObject
 90
      499
 91
      501
 93
      404
310
41560B54985E51940902404000000000000E03F0000000000000F9010740501907004050150841D405064090740C02480A1B40
1001
ACAD
1000
AcDbSavedByObjectVersion
1070
     0
  0
XRECORD
  5
1CB
102
{ACAD_REACTORS
330
1C1
102
}
330
1C1
100
AcDbXrecord
340
0
  0
XRECORD
  5
1CA
102
{ACAD_REACTORS
330
1C1
102
}
330
1C1
100
AcDbXrecord
 90
        0
  0
XRECORD
  5
1E1
102
{ACAD_REACTORS
330
1C1
102
}
330
1C1
100
AcDbXrecord
1000
DSTYLE
1002
{
1070
   179
 70
     2
1070
   171
 70
     2
1070
   143
 40
25.4
1070
   274
 70
     2
1070
    41
 40
3.0
1070
   141
 40
0.09
1070
    43
 40
0.38
1070
   278
 70
    46
1070
    44
 40
1.5
1070
    42
 40
0.0625
1070
   147
 40
1.5
1070
   272
 70
     4
1070
    73
 70
     1
1070
   172
 70
     0
1070
    74
 70
     1
1070
   283
 70
     1
1070
   340
340
6E
1070
   140
 40
3.0
1070
   284
 70
     0
1070
    78
 70
     0
1002
}
  0
XRECORD
  5
1CC
102
{ACAD_REACTORS
330
1C1
102
}
330
1C1
100
AcDbXrecord
  1
{94F9F0D4-3866-4194-BE86-090C03A9A80A}
  0
XRECORD
  5
1C4
102
{ACAD_REACTORS
330
1C1
102
}
330
1C1
100
AcDbXrecord
  1

  0
XRECORD
  5
1C9
102
{ACAD_REACTORS
330
1C1
102
}
330
1C1
100
AcDbXrecord
 90
        4
  0
XRECORD
  5
1C6
102
{ACAD_REACTORS
330
1C1
102
}
330
1C1
100
AcDbXrecord
340
1A
  0
XRECORD
  5
1C8
102
{ACAD_REACTORS
330
1C1
102
}
330
1C1
100
AcDbXrecord
 90
    10269
  0
XRECORD
  5
1C7
102
{ACAD_REACTORS
330
1C1
102
}
330
1C1
100
AcDbXrecord
340
19
  0
XRECORD
  5
1CE
102
{ACAD_REACTORS
330
1C1
102
}
330
1C1
100
AcDbXrecord
 40
0.0
  0
XRECORD
  5
1D1
102
{ACAD_REACTORS
330
1C1
102
}
330
1C1
100
AcDbXrecord
340
0
  0
XRECORD
  5
1D7
102
{ACAD_REACTORS
330
1C1
102
}
330
1C1
100
AcDbXrecord
 10
0.0
 20
0.0
 30
0.0
  0
XRECORD
  5
1D3
102
{ACAD_REACTORS
330
1C1
102
}
330
1C1
100
AcDbXrecord
 10
0.0
 20
0.0
 30
0.0
  0
XRECORD
  5
1D6
102
{ACAD_REACTORS
330
1C1
102
}
330
1C1
100
AcDbXrecord
 10
0.0
 20
0.0
 30
0.0
  0
XRECORD
  5
1D4
102
{ACAD_REACTORS
330
1C1
102
}
330
1C1
100
AcDbXrecord
 10
0.0
 20
0.0
 30
0.0
  0
XRECORD
  5
1D5
102
{ACAD_REACTORS
330
1C1
102
}
330
1C1
100
AcDbXrecord
 10
0.0
 20
0.0
 30
0.0
  0
XRECORD
  5
1D2
102
{ACAD_REACTORS
330
1C1
102
}
330
1C1
100
AcDbXrecord
 10
0.0
 20
0.0
 30
0.0
  0
XRECORD
  5
1CF
102
{ACAD_REACTORS
330
1C1
102
}
330
1C1
100
AcDbXrecord
340
0
  0
XRECORD
  5
1D0
102
{ACAD_REACTORS
330
1C1
102
}
330
1C1
100
AcDbXrecord
 70
     0
  0
XRECORD
  5
1C5
102
{ACAD_REACTORS
330
1C1
102
}
330
1C1
100
AcDbXrecord
  1

  0
XRECORD
  5
1C2
102
{ACAD_REACTORS
330
1C1
102
}
330
1C1
100
AcDbXrecord
 90
        1
  0
XRECORD
  5
1C3
102
{ACAD_REACTORS
330
1C1
102
}
330
1C1
100
AcDbXrecord
 90
       70
  0
XRECORD
  5
1DA
102
{ACAD_REACTORS
330
1C1
102
}
330
1C1
100
AcDbXrecord
340
0
  0
XRECORD
  5
1E0
102
{ACAD_REACTORS
330
1C1
102
}
330
1C1
100
AcDbXrecord
 10
0.0
 20
0.0
 30
0.0
  0
XRECORD
  5
1DC
102
{ACAD_REACTORS
330
1C1
102
}
330
1C1
100
AcDbXrecord
 10
0.0
 20
0.0
 30
0.0
  0
XRECORD
  5
1DF
102
{ACAD_REACTORS
330
1C1
102
}
330
1C1
100
AcDbXrecord
 10
0.0
 20
0.0
 30
0.0
  0
XRECORD
  5
1DD
102
{ACAD_REACTORS
330
1C1
102
}
330
1C1
100
AcDbXrecord
 10
0.0
 20
0.0
 30
0.0
  0
XRECORD
  5
1DE
102
{ACAD_REACTORS
330
1C1
102
}
330
1C1
100
AcDbXrecord
 10
0.0
 20
0.0
 30
0.0
  0
XRECORD
  5
1DB
102
{ACAD_REACTORS
330
1C1
102
}
330
1C1
100
AcDbXrecord
 10
0.0
 20
0.0
 30
0.0
  0
XRECORD
  5
1D8
102
{ACAD_REACTORS
330
1C1
102
}
330
1C1
100
AcDbXrecord
340
0
  0
XRECORD
  5
1D9
102
{ACAD_REACTORS
330
1C1
102
}
330
1C1
100
AcDbXrecord
 70
     0
  0
XRECORD
  5
1CD
102
{ACAD_REACTORS
330
1C1
102
}
330
1C1
100
AcDbXrecord
  1
{FAEB1C32-E019-11D5-929B-00C0DF256EC4}
  0
DICTIONARYVAR
  5
1EB
102
{ACAD_REACTORS
330
1E2
102
}
330
1E2
100
DictionaryVariables
280
     0
  1
1:1
  0
DICTIONARYVAR
  5
1E4
102
{ACAD_REACTORS
330
1E2
102
}
330
1E2
100
DictionaryVariables
280
     0
  1
Standard
  0
DICTIONARYVAR
  5
1E3
102
{ACAD_REACTORS
330
1E2
102
}
330
1E2
100
DictionaryVariables
280
     0
  1
Standard
  0
DICTIONARYVAR
  5
1E7
102
{ACAD_REACTORS
330
1E2
102
}
330
1E2
100
DictionaryVariables
280
     0
  1
2
  0
DICTIONARYVAR
  5
1E8
102
{ACAD_REACTORS
330
1E2
102
}
330
1E2
100
DictionaryVariables
280
     0
  1
1
  0
DICTIONARYVAR
  5
1EC
102
{ACAD_REACTORS
330
1E2
102
}
330
1E2
100
DictionaryVariables
280
     0
  1
1
  0
DICTIONARY
  5
1EF
330
45
100
AcDbDictionary
280
     1
  3
ACAD_XREC_ROUNDTRIP
360
1F0
  0
DICTIONARY
  5
1ED
330
44
100
AcDbDictionary
280
     1
  3
ACAD_XREC_ROUNDTRIP
360
1EE
  0
DICTIONARY
  5
1F1
330
46
100
AcDbDictionary
280
     1
  3
ACAD_XREC_ROUNDTRIP
360
1F2
  0
XRECORD
  5
1F0
102
{ACAD_REACTORS
330
1EF
102
}
330
1EF
100
AcDbXrecord
102
MATERIAL
148
0.0
149
0.0
149
0.0
 93
        0
 94
      127
282
     0
 72
     1
 77
     1
171
     1
175
     1
179
     1
273
     0
  0
XRECORD
  5
1EE
102
{ACAD_REACTORS
330
1ED
102
}
330
1ED
100
AcDbXrecord
102
MATERIAL
148
0.0
149
0.0
149
0.0
 93
        0
 94
      127
282
     0
 72
     1
 77
     1
171
     1
175
     1
179
     1
273
     0
  0
XRECORD
  5
1F2
102
{ACAD_REACTORS
330
1F1
102
}
330
1F1
100
AcDbXrecord
102
MATERIAL
148
0.0
149
0.0
149
0.0
 93
        0
 94
      127
282
     0
 72
     1
 77
     1
171
     1
175
     1
179
     1
273
     0
  0
ENDSEC
  0
EOF
