  0
SECTION
  2
HEADER
  9
$ACADVER
  1
AC1014
  9
$ACADMAINTVER
 70
     9
  9
$DWGCODEPAGE
  3
ANSI_932
  9
$INSBASE
 10
0.0
 20
0.0
 30
0.0
  9
$EXTMIN
 10
537.0
 20
94.34432912342128
 30
0.0
  9
$EXTMAX
 10
712.4999875
 20
302.9999875
 30
0.0
  9
$LIMMIN
 10
0.0
 20
0.0
  9
$LIMMAX
 10
12.0
 20
9.0
  9
$ORTHOMODE
 70
     0
  9
$REGENMODE
 70
     1
  9
$FILLMODE
 70
     1
  9
$QTEXTMODE
 70
     0
  9
$MIRRTEXT
 70
     1
  9
$DRAGMODE
 70
     2
  9
$LTSCALE
 40
1.0
  9
$OSMODE
 70
    37
  9
$ATTMODE
 70
     1
  9
$TEXTSIZE
 40
0.2
  9
$TRACEWID
 40
0.05
  9
$TEXTSTYLE
  7
STANDARD
  9
$CLAYER
  8
0
  9
$CELTYPE
  6
BYLAYER
  9
$CECOLOR
 62
   256
  9
$CELTSCALE
 40
1.0
  9
$DELOBJ
 70
     1
  9
$DISPSILH
 70
     0
  9
$DIMSCALE
 40
1.0
  9
$DIMASZ
 40
3.0
  9
$DIMEXO
 40
0.0625
  9
$DIMDLI
 40
0.38
  9
$DIMRND
 40
0.0
  9
$DIMDLE
 40
0.0
  9
$DIMEXE
 40
1.5
  9
$DIMTP
 40
0.0
  9
$DIMTM
 40
0.0
  9
$DIMTXT
 40
3.0
  9
$DIMCEN
 40
0.09
  9
$DIMTSZ
 40
0.0
  9
$DIMTOL
 70
     0
  9
$DIMLIM
 70
     0
  9
$DIMTIH
 70
     1
  9
$DIMTOH
 70
     1
  9
$DIMSE1
 70
     0
  9
$DIMSE2
 70
     0
  9
$DIMTAD
 70
     1
  9
$DIMZIN
 70
     0
  9
$DIMBLK
  1

  9
$DIMASO
 70
     1
  9
$DIMSHO
 70
     1
  9
$DIMPOST
  1

  9
$DIMAPOST
  1

  9
$DIMALT
 70
     0
  9
$DIMALTD
 70
     2
  9
$DIMALTF
 40
25.4
  9
$DIMLFAC
 40
1.0
  9
$DIMTOFL
 70
     0
  9
$DIMTVP
 40
0.0
  9
$DIMTIX
 70
     0
  9
$DIMSOXD
 70
     0
  9
$DIMSAH
 70
     0
  9
$DIMBLK1
  1

  9
$DIMBLK2
  1

  9
$DIMSTYLE
  2
STANDARD
  9
$DIMCLRD
 70
     0
  9
$DIMCLRE
 70
     0
  9
$DIMCLRT
 70
     0
  9
$DIMTFAC
 40
1.0
  9
$DIMGAP
 40
1.5
  9
$DIMJUST
 70
     0
  9
$DIMSD1
 70
     0
  9
$DIMSD2
 70
     0
  9
$DIMTOLJ
 70
     1
  9
$DIMTZIN
 70
     0
  9
$DIMALTZ
 70
     0
  9
$DIMALTTZ
 70
     0
  9
$DIMFIT
 70
     3
  9
$DIMUPT
 70
     0
  9
$DIMUNIT
 70
     2
  9
$DIMDEC
 70
     2
  9
$DIMTDEC
 70
     4
  9
$DIMALTU
 70
     2
  9
$DIMALTTD
 70
     2
  9
$DIMTXSTY
  7
ＭＳ_ゴシック
  9
$DIMAUNIT
 70
     0
  9
$LUNITS
 70
     2
  9
$LUPREC
 70
     4
  9
$SKETCHINC
 40
0.1
  9
$FILLETRAD
 40
0.5
  9
$AUNITS
 70
     0
  9
$AUPREC
 70
     0
  9
$MENU
  1
.
  9
$ELEVATION
 40
0.0
  9
$PELEVATION
 40
0.0
  9
$THICKNESS
 40
0.0
  9
$LIMCHECK
 70
     0
  9
$CHAMFERA
 40
0.0
  9
$CHAMFERB
 40
0.0
  9
$CHAMFERC
 40
0.0
  9
$CHAMFERD
 40
0.0
  9
$SKPOLY
 70
     0
  9
$TDCREATE
 40
2459230.558424063
  9
$TDUPDATE
 40
2459230.558424248
  9
$TDINDWG
 40
0.0000000116
  9
$TDUSRTIMER
 40
0.0000000116
  9
$USRTIMER
 70
     1
  9
$ANGBASE
 50
0.0
  9
$ANGDIR
 70
     0
  9
$PDMODE
 70
     0
  9
$PDSIZE
 40
0.0
  9
$PLINEWID
 40
0.0
  9
$COORDS
 70
     1
  9
$SPLFRAME
 70
     0
  9
$SPLINETYPE
 70
     6
  9
$SPLINESEGS
 70
     8
  9
$ATTDIA
 70
     0
  9
$ATTREQ
 70
     1
  9
$HANDLING
 70
     1
  9
$HANDSEED
  5
1FA
  9
$SURFTAB1
 70
     6
  9
$SURFTAB2
 70
     6
  9
$SURFTYPE
 70
     6
  9
$SURFU
 70
     6
  9
$SURFV
 70
     6
  9
$UCSNAME
  2

  9
$UCSORG
 10
0.0
 20
0.0
 30
0.0
  9
$UCSXDIR
 10
1.0
 20
0.0
 30
0.0
  9
$UCSYDIR
 10
0.0
 20
1.0
 30
0.0
  9
$PUCSNAME
  2

  9
$PUCSORG
 10
0.0
 20
0.0
 30
0.0
  9
$PUCSXDIR
 10
1.0
 20
0.0
 30
0.0
  9
$PUCSYDIR
 10
0.0
 20
1.0
 30
0.0
  9
$USERI1
 70
     0
  9
$USERI2
 70
     0
  9
$USERI3
 70
     0
  9
$USERI4
 70
     0
  9
$USERI5
 70
     0
  9
$USERR1
 40
0.0
  9
$USERR2
 40
0.0
  9
$USERR3
 40
0.0
  9
$USERR4
 40
0.0
  9
$USERR5
 40
0.0
  9
$WORLDVIEW
 70
     1
  9
$SHADEDGE
 70
     3
  9
$SHADEDIF
 70
    70
  9
$TILEMODE
 70
     1
  9
$MAXACTVP
 70
    64
  9
$PINSBASE
 10
0.0
 20
0.0
 30
0.0
  9
$PLIMCHECK
 70
     0
  9
$PEXTMIN
 10
1.000000000000000E+20
 20
1.000000000000000E+20
 30
1.000000000000000E+20
  9
$PEXTMAX
 10
-1.000000000000000E+20
 20
-1.000000000000000E+20
 30
-1.000000000000000E+20
  9
$PLIMMIN
 10
0.0
 20
0.0
  9
$PLIMMAX
 10
12.0
 20
9.0
  9
$UNITMODE
 70
     0
  9
$VISRETAIN
 70
     1
  9
$PLINEGEN
 70
     0
  9
$PSLTSCALE
 70
     1
  9
$TREEDEPTH
 70
  3020
  9
$PICKSTYLE
 70
     1
  9
$CMLSTYLE
  2
STANDARD
  9
$CMLJUST
 70
     0
  9
$CMLSCALE
 40
1.0
  9
$PROXYGRAPHICS
 70
     1
  9
$MEASUREMENT
 70
     1
  0
ENDSEC
  0
SECTION
  2
CLASSES
  0
CLASS
  1
ACDBDICTIONARYWDFLT
  2
AcDbDictionaryWithDefault
  3
ObjectDBX Classes
 90
        0
280
     0
281
     0
  0
CLASS
  1
VISUALSTYLE
  2
AcDbVisualStyle
  3
ObjectDBX Classes
 90
     4095
280
     0
281
     0
  0
CLASS
  1
MATERIAL
  2
AcDbMaterial
  3
ObjectDBX Classes
 90
     1153
280
     0
281
     0
  0
CLASS
  1
SCALE
  2
AcDbScale
  3
ObjectDBX Classes
 90
     1153
280
     0
281
     0
  0
CLASS
  1
TABLESTYLE
  2
AcDbTableStyle
  3
ObjectDBX Classes
 90
     4095
280
     0
281
     0
  0
CLASS
  1
MLEADERSTYLE
  2
AcDbMLeaderStyle
  3
ACDB_MLEADERSTYLE_CLASS
 90
     4095
280
     0
281
     0
  0
CLASS
  1
SUN
  2
AcDbSun
  3
SCENEOE
 90
     1153
280
     0
281
     0
  0
CLASS
  1
DICTIONARYVAR
  2
AcDbDictionaryVar
  3
ObjectDBX Classes
 90
        0
280
     0
281
     0
  0
CLASS
  1
XRECORD
  2
AcDbXrecord
  3
ObjectDBX Classes
 90
        0
280
     0
281
     0
  0
CLASS
  1
LWPOLYLINE
  2
AcDbPolyline
  3
ObjectDBX Classes
 90
        0
280
     0
281
     1
  0
CLASS
  1
HATCH
  2
AcDbHatch
  3
ObjectDBX Classes
 90
        0
280
     0
281
     1
  0
CLASS
  1
ACDBPLACEHOLDER
  2
AcDbPlaceHolder
  3
ObjectDBX Classes
 90
        0
280
     0
281
     0
  0
CLASS
  1
LAYOUT
  2
AcDbLayout
  3
ObjectDBX Classes
 90
        0
280
     0
281
     0
  0
ENDSEC
  0
SECTION
  2
TABLES
  0
TABLE
  2
VPORT
  5
8
102
{ACAD_XDICTIONARY
360
1EF
102
}
330
0
100
AcDbSymbolTable
 70
     1
  0
VPORT
  5
29
330
8
100
AcDbSymbolTableRecord
100
AcDbViewportTableRecord
  2
*ACTIVE
 70
     0
 10
0.0
 20
0.0
 11
1.0
 21
1.0
 12
624.7499937499999
 22
198.6721583117106
 13
0.0
 23
0.0
 14
0.5
 24
0.5
 15
0.5
 25
0.5
 16
0.0
 26
0.0
 36
1.0
 17
0.0
 27
0.0
 37
0.0
 40
208.6556583765787
 41
1.6
 42
50.0
 43
0.0
 44
0.0
 50
0.0
 51
0.0
 71
     0
 72
   100
 73
     1
 74
     3
 75
     0
 76
     0
 77
     0
 78
     0
  0
ENDTAB
  0
TABLE
  2
LTYPE
  5
5
330
0
100
AcDbSymbolTable
 70
     2
  0
LTYPE
  5
14
330
5
100
AcDbSymbolTableRecord
100
AcDbLinetypeTableRecord
  2
BYBLOCK
 70
     0
  3

 72
    65
 73
     0
 40
0.0
  0
LTYPE
  5
15
330
5
100
AcDbSymbolTableRecord
100
AcDbLinetypeTableRecord
  2
BYLAYER
 70
     0
  3

 72
    65
 73
     0
 40
0.0
  0
LTYPE
  5
16
330
5
100
AcDbSymbolTableRecord
100
AcDbLinetypeTableRecord
  2
CONTINUOUS
 70
     0
  3
Solid line
 72
    65
 73
     0
 40
0.0
  0
LTYPE
  5
1C5
330
5
100
AcDbSymbolTableRecord
100
AcDbLinetypeTableRecord
  2
CENTER
 70
     0
  3

 72
    65
 73
     0
 40
0.0
  0
ENDTAB
  0
TABLE
  2
LAYER
  5
2
330
0
100
AcDbSymbolTable
 70
     1
  0
LAYER
  5
10
330
2
100
AcDbSymbolTableRecord
100
AcDbLayerTableRecord
  2
0
 70
     0
 62
     7
  6
CONTINUOUS
  0
ENDTAB
  0
TABLE
  2
STYLE
  5
3
330
0
100
AcDbSymbolTable
 70
     2
  0
STYLE
  5
11
330
3
100
AcDbSymbolTableRecord
100
AcDbTextStyleTableRecord
  2
STANDARD
 70
     0
 40
0.0
 41
1.0
 50
0.0
 71
     0
 42
0.2
  3
txt
  4

  0
STYLE
  5
6E
330
3
100
AcDbSymbolTableRecord
100
AcDbTextStyleTableRecord
  2
ＭＳ_ゴシック
 70
     0
 40
0.0
 41
1.0
 50
0.0
 71
     0
 42
0.2
  3
ＭＳ ゴシック.shx
  4

  0
ENDTAB
  0
TABLE
  2
VIEW
  5
6
330
0
100
AcDbSymbolTable
 70
     0
  0
ENDTAB
  0
TABLE
  2
UCS
  5
7
330
0
100
AcDbSymbolTable
 70
     0
  0
ENDTAB
  0
TABLE
  2
APPID
  5
9
330
0
100
AcDbSymbolTable
 70
     2
  0
APPID
  5
12
330
9
100
AcDbSymbolTableRecord
100
AcDbRegAppTableRecord
  2
ACAD
 70
     0
  0
APPID
  5
1F9
330
9
100
AcDbSymbolTableRecord
100
AcDbRegAppTableRecord
  2
ACAD_MLEADERVER
 70
     0
  0
ENDTAB
  0
TABLE
  2
DIMSTYLE
  5
A
330
0
100
AcDbSymbolTable
 70
     1
  0
DIMSTYLE
105
27
330
A
100
AcDbSymbolTableRecord
100
AcDbDimStyleTableRecord
  2
STANDARD
 70
     0
  3

  4

  5

  6

  7

 40
1.0
 41
0.18
 42
0.0625
 43
0.38
 44
0.18
 45
0.0
 46
0.0
 47
0.0
 48
0.0
140
0.18
141
0.09
142
0.0
143
25.4
144
1.0
145
0.0
146
1.0
147
0.09
 71
     0
 72
     0
 73
     1
 74
     1
 75
     0
 76
     0
 77
     0
 78
     0
170
     0
171
     2
172
     0
173
     0
174
     0
175
     0
176
     0
177
     0
178
     0
270
     2
271
     4
272
     4
273
     2
274
     2
340
11
275
     0
280
     0
281
     0
282
     0
283
     1
284
     0
285
     0
286
     0
287
     3
288
     0
  0
ENDTAB
  0
TABLE
  2
BLOCK_RECORD
  5
1
330
0
100
AcDbSymbolTable
 70
     0
  0
BLOCK_RECORD
  5
1F
330
1
100
AcDbSymbolTableRecord
100
AcDbBlockTableRecord
  2
*MODEL_SPACE
  0
BLOCK_RECORD
  5
1B
330
1
100
AcDbSymbolTableRecord
100
AcDbBlockTableRecord
  2
*PAPER_SPACE
  0
ENDTAB
  0
ENDSEC
  0
SECTION
  2
BLOCKS
  0
BLOCK
  5
20
330
1F
100
AcDbEntity
  8
0
100
AcDbBlockBegin
  2
*MODEL_SPACE
 70
     0
 10
0.0
 20
0.0
 30
0.0
  3
*MODEL_SPACE
  1

  0
ENDBLK
  5
21
330
1F
100
AcDbEntity
  8
0
100
AcDbBlockEnd
  0
BLOCK
  5
1C
330
1B
100
AcDbEntity
 67
     1
  8
0
100
AcDbBlockBegin
  2
*PAPER_SPACE
 70
     0
 10
0.0
 20
0.0
 30
0.0
  3
*PAPER_SPACE
  1

  0
ENDBLK
  5
1D
330
1B
100
AcDbEntity
 67
     1
  8
0
100
AcDbBlockEnd
  0
ENDSEC
  0
SECTION
  2
ENTITIES
  0
MTEXT
  5
6F
330
1F
100
AcDbEntity
  8
0
 62
     1
100
AcDbMText
 10
610.2560335125672
 20
97.371601850694
 30
0.0
 40
3.0
 41
0.0
 71
     1
 72
     1
  1
{\fＭＳ ゴシック;MIDCJ-60_}
  0
LINE
  5
70
330
1F
100
AcDbEntity
  8
0
  6
CONTINUOUS
 62
     7
100
AcDbLine
 10
602.0802196290899
 20
139.9499829039675
 30
0.0
 11
601.5900057730344
 21
139.9499829039675
 31
0.0
  0
LINE
  5
71
330
1F
100
AcDbEntity
  8
0
  6
CONTINUOUS
 62
     7
100
AcDbLine
 10
600.3295285417045
 20
159.4840771956266
 30
0.0
 11
600.5
 21
139.9499829039675
 31
0.0
  0
LINE
  5
72
330
1F
100
AcDbEntity
  8
0
  6
CONTINUOUS
 62
     7
100
AcDbLine
 10
595.5
 20
160.4499829039676
 30
0.0
 11
600.3295285417045
 21
159.4840771956266
 31
0.0
  0
LINE
  5
73
330
1F
100
AcDbEntity
  8
0
  6
CONTINUOUS
 62
     7
100
AcDbLine
 10
544.5000000000001
 20
160.4499829039676
 30
0.0
 11
595.5000000000001
 21
160.4499829039676
 31
0.0
  0
LINE
  5
74
330
1F
100
AcDbEntity
  8
0
  6
CONTINUOUS
 62
     7
100
AcDbLine
 10
539.6704714582957
 20
159.4840771956266
 30
0.0
 11
544.5000000000001
 21
160.4499829039676
 31
0.0
  0
LINE
  5
75
330
1F
100
AcDbEntity
  8
0
  6
CONTINUOUS
 62
     7
100
AcDbLine
 10
539.6704714582957
 20
159.4840771956266
 30
0.0
 11
539.5000000000001
 21
139.9499829039675
 31
0.0
  0
LINE
  5
76
330
1F
100
AcDbEntity
  8
0
  6
CONTINUOUS
 62
     7
100
AcDbLine
 10
538.4099942269659
 20
139.9499829039675
 30
0.0
 11
539.5000000000001
 21
139.9499829039675
 31
0.0
  0
LINE
  5
77
330
1F
100
AcDbEntity
  8
0
  6
CONTINUOUS
 62
     7
100
AcDbLine
 10
600.5
 20
139.9499829039675
 30
0.0
 11
601.5900057730342
 21
139.9499829039675
 31
0.0
  0
LINE
  5
78
330
1F
100
AcDbEntity
  8
0
  6
CONTINUOUS
 62
     7
100
AcDbLine
 10
538.4099942269659
 20
139.9499829039675
 30
0.0
 11
537.9197803709103
 21
139.9499829039675
 31
0.0
  0
LINE
  5
79
330
1F
100
AcDbEntity
  8
0
  6
CONTINUOUS
 62
     7
100
AcDbLine
 10
537.0
 20
139.9499829039675
 30
0.0
 11
537.3700007538538
 21
161.1473118956025
 31
0.0
  0
LINE
  5
7A
330
1F
100
AcDbEntity
  8
0
  6
CONTINUOUS
 62
     7
100
AcDbLine
 10
537.3702026880602
 20
161.1552593031503
 30
0.0
 11
537.3700007538539
 21
161.1473118956025
 31
0.0
  0
LINE
  5
7B
330
1F
100
AcDbEntity
  8
0
  6
CONTINUOUS
 62
     7
100
AcDbLine
 10
537.9197803709103
 20
139.9499829039675
 30
0.0
 11
537.0000000000001
 21
139.9499829039675
 31
0.0
  0
LINE
  5
7C
330
1F
100
AcDbEntity
  8
0
  6
CONTINUOUS
 62
     7
100
AcDbLine
 10
602.6299992461463
 20
161.1473118956025
 30
0.0
 11
602.62979731194
 21
161.1552593031503
 31
0.0
  0
LINE
  5
7D
330
1F
100
AcDbEntity
  8
0
  6
CONTINUOUS
 62
     7
100
AcDbLine
 10
602.6299992461462
 20
161.1473118956025
 30
0.0
 11
603.0
 21
139.9499829039675
 31
0.0
  0
LINE
  5
7E
330
1F
100
AcDbEntity
  8
0
  6
CONTINUOUS
 62
     7
100
AcDbLine
 10
603.0000000000001
 20
139.9499829039675
 30
0.0
 11
602.0802196290899
 21
139.9499829039675
 31
0.0
  0
LWPOLYLINE
  5
7F
330
1F
100
AcDbEntity
  8
0
  6
CONTINUOUS
 62
     7
100
AcDbPolyline
 90
       29
 70
     0
 43
0.0
 10
537.7634881738477
 20
161.627125646618
 10
537.7416175950506
 20
161.621832787542
 10
537.71994380366
 20
161.6155334560053
 10
537.6985321043699
 20
161.6082518472118
 10
537.677447801874
 20
161.6000121563655
 10
537.6567562008661
 20
161.5908385786705
 10
537.6365226060401
 20
161.5807553093306
 10
537.6168123220899
 20
161.5697865435498
 10
537.5965630050175
 20
161.5572280030759
 10
537.5768790038915
 20
161.5436668280002
 10
537.5578241508106
 20
161.5291557231432
 10
537.5394622778739
 20
161.5137473933252
 10
537.5218572171807
 20
161.4974945433667
 10
537.5050728008299
 20
161.480449878088
 10
537.4891728609208
 20
161.4626661023097
 10
537.4741083936311
 20
161.444064553208
 10
537.4599190166631
 20
161.4247001194639
 10
537.4466473449338
 20
161.4046447278602
 10
537.4343359933608
 20
161.3839703051798
 10
537.4230275768617
 20
161.3627487782056
 10
537.4127647103539
 20
161.3410520737205
 10
537.4035900087548
 20
161.3189521185074
 10
537.3955085123981
 20
161.2964383367663
 10
537.3885046577702
 20
161.273499190967
 10
537.3825942356567
 20
161.2502157183109
 10
537.3777930368434
 20
161.2266689559997
 10
537.3741168521158
 20
161.2029399412349
 10
537.3715814722594
 20
161.1791097112179
 10
537.3702026880602
 20
161.1552593031503
  0
LWPOLYLINE
  5
80
330
1F
100
AcDbEntity
  8
0
  6
CONTINUOUS
 62
     7
100
AcDbPolyline
 90
       29
 70
     0
 43
0.0
 10
602.6297973119399
 20
161.1552593031503
 10
602.6285277842625
 20
161.1777744692845
 10
602.6262291838291
 20
161.2002711703894
 10
602.6229141289878
 20
161.2226811703957
 10
602.6185952380857
 20
161.2449362332345
 10
602.6132851294706
 20
161.2669681228367
 10
602.6069964214898
 20
161.2887086031332
 10
602.5997417324912
 20
161.3100894380551
 10
602.5910186614888
 20
161.3322846329867
 10
602.5812073826482
 20
161.3541000672077
 10
602.5703486367664
 20
161.3754637253752
 10
602.5584831646396
 20
161.3963035921461
 10
602.5456517070644
 20
161.4165476521776
 10
602.5318950048375
 20
161.4361238901268
 10
602.5172537987554
 20
161.4549602906506
 10
602.5016596609565
 20
161.4731195839852
 10
602.4851599024278
 20
161.4905530079598
 10
602.4678179378711
 20
161.5072060217021
 10
602.4496971819887
 20
161.5230240843397
 10
602.4308610494824
 20
161.5379526550003
 10
602.4113729550539
 20
161.5519371928117
 10
602.3912963134059
 20
161.5649231569016
 10
602.3706201467205
 20
161.5769077215003
 10
602.3493363557703
 20
161.5879086783256
 10
602.3275223345299
 20
161.5978964931136
 10
602.3052554769733
 20
161.6068416316006
 10
602.2826131770753
 20
161.6147145595229
 10
602.2596728288102
 20
161.6214857426166
 10
602.2365118261524
 20
161.627125646618
  0
LINE
  5
81
330
1F
100
AcDbEntity
  8
0
  6
CONTINUOUS
 62
     7
100
AcDbLine
 10
537.7722088767146
 20
161.6289443745166
 30
0.0
 11
537.7634881738477
 21
161.627125646618
 31
0.0
  0
LINE
  5
82
330
1F
100
AcDbEntity
  8
0
  6
CONTINUOUS
 62
     7
100
AcDbLine
 10
537.7722088767146
 20
161.6289443745166
 30
0.0
 11
543.9176442695372
 21
162.8535697252948
 31
0.0
  0
ARC
  5
83
330
1F
100
AcDbEntity
  8
0
  6
CONTINUOUS
 62
     7
100
AcDbCircle
 10
544.8948015167116
 20
157.9499829039676
 30
0.0
 40
5.000000000000004
100
AcDbArc
 50
101.1416630523823
 51
101.26992876352
  0
ARC
  5
84
330
1F
100
AcDbEntity
  8
0
  6
CONTINUOUS
 62
     7
100
AcDbCircle
 10
595.1051984832884
 20
157.9499829039676
 30
0.0
 40
5.000000000000001
100
AcDbArc
 50
78.73007123648001
 51
78.85833694761783
  0
LINE
  5
85
330
1F
100
AcDbEntity
  8
0
  6
CONTINUOUS
 62
     7
100
AcDbLine
 10
596.082355730463
 20
162.8535697252948
 30
0.0
 11
602.2277911232854
 21
161.6289443745166
 31
0.0
  0
LINE
  5
86
330
1F
100
AcDbEntity
  8
0
  6
CONTINUOUS
 62
     7
100
AcDbLine
 10
602.2365118261524
 20
161.627125646618
 30
0.0
 11
602.2277911232854
 21
161.6289443745166
 31
0.0
  0
LINE
  5
87
330
1F
100
AcDbEntity
  8
0
  6
CONTINUOUS
 62
     7
100
AcDbLine
 10
596.0713758324194
 20
162.8557449579227
 30
0.0
 11
595.1163632379894
 21
162.9499704387773
 31
0.0
  0
LINE
  5
88
330
1F
100
AcDbEntity
  8
0
  6
CONTINUOUS
 62
     7
100
AcDbLine
 10
543.9286241675807
 20
162.8557449579227
 30
0.0
 11
544.8836367620107
 21
162.9499704387773
 31
0.0
  0
ARC
  5
89
330
1F
100
AcDbEntity
  8
0
  6
CONTINUOUS
 62
     7
100
AcDbCircle
 10
544.8948015167116
 20
157.9499829039676
 30
0.0
 40
5.000000000000003
100
AcDbArc
 50
90.00000000000004
 51
90.12793877105177
  0
LINE
  5
8A
330
1F
100
AcDbEntity
  8
0
  6
CONTINUOUS
 62
     7
100
AcDbLine
 10
544.8948015167116
 20
162.9499829039676
 30
0.0
 11
595.1051984832884
 21
162.9499829039676
 31
0.0
  0
ARC
  5
8B
330
1F
100
AcDbEntity
  8
0
  6
CONTINUOUS
 62
     7
100
AcDbCircle
 10
595.1051984832884
 20
157.9499829039676
 30
0.0
 40
5.000000000000003
100
AcDbArc
 50
89.87206122894844
 51
90.0
  0
LINE
  5
8C
330
1F
100
AcDbEntity
  8
0
  6
CONTINUOUS
 62
     7
100
AcDbLine
 10
537.3703717180235
 20
161.1685644186546
 30
0.0
 11
537.3782329409545
 21
161.6189335787408
 31
0.0
  0
LINE
  5
8D
330
1F
100
AcDbEntity
  8
0
  6
CONTINUOUS
 62
     7
100
AcDbLine
 10
602.6217670590455
 20
161.6189335787408
 30
0.0
 11
602.6296250899996
 21
161.1687472868926
 31
0.0
  0
LINE
  5
8E
330
1F
100
AcDbEntity
  8
0
  6
CONTINUOUS
 62
     7
100
AcDbLine
 10
602.1672544969563
 20
187.6579408215294
 30
0.0
 11
602.6217670629132
 21
161.6189333571591
 31
0.0
  0
LINE
  5
8F
330
1F
100
AcDbEntity
  8
0
  6
CONTINUOUS
 62
     7
100
AcDbLine
 10
537.3782329370869
 20
161.6189333571591
 30
0.0
 11
537.8327455030438
 21
187.6579408215294
 31
0.0
  0
LINE
  5
90
330
1F
100
AcDbEntity
  8
0
  6
CONTINUOUS
 62
     7
100
AcDbLine
 10
542.1748425213289
 20
159.9849514082333
 30
0.0
 11
541.9292622023682
 21
131.8442341602104
 31
0.0
  0
LINE
  5
91
330
1F
100
AcDbEntity
  8
0
  6
CONTINUOUS
 62
     7
100
AcDbLine
 10
598.070737797632
 20
131.8442341602104
 30
0.0
 11
597.8251574786714
 21
159.9849514082333
 31
0.0
  0
LINE
  5
92
330
1F
100
AcDbEntity
  8
0
  6
CONTINUOUS
 62
     7
100
AcDbLine
 10
540.3000000000001
 20
139.7191068610961
 30
0.0
 11
540.3000000000001
 21
139.9499829039675
 31
0.0
  0
LINE
  5
93
330
1F
100
AcDbEntity
  8
0
  6
CONTINUOUS
 62
     7
100
AcDbLine
 10
540.3000000000001
 20
139.9499829039675
 30
0.0
 11
540.2000000000002
 21
139.9499829039675
 31
0.0
  0
LINE
  5
94
330
1F
100
AcDbEntity
  8
0
  6
CONTINUOUS
 62
     7
100
AcDbLine
 10
599.7000000000002
 20
139.7191068610961
 30
0.0
 11
599.7000000000002
 21
139.9499829039676
 31
0.0
  0
LINE
  5
95
330
1F
100
AcDbEntity
  8
0
  6
CONTINUOUS
 62
     7
100
AcDbLine
 10
599.7000000000002
 20
139.9499829039675
 30
0.0
 11
599.8000000000001
 21
139.9499829039675
 31
0.0
  0
LINE
  5
96
330
1F
100
AcDbEntity
  8
0
  6
CONTINUOUS
 62
     7
100
AcDbLine
 10
544.388931022599
 20
189.8535697252948
 30
0.0
 11
545.3660882697735
 21
189.9499829039676
 31
0.0
  0
LINE
  5
97
330
1F
100
AcDbEntity
  8
0
  6
CONTINUOUS
 62
     7
100
AcDbLine
 10
595.6111491976127
 20
189.853553738812
 30
0.0
 11
594.6338980534007
 21
189.9499829039488
 31
0.0
  0
LINE
  5
98
330
1F
100
AcDbEntity
  8
0
  6
CONTINUOUS
 62
     7
100
AcDbLine
 10
545.3660951081864
 20
189.9499829039676
 30
0.0
 11
594.6339048918138
 21
189.9499829039676
 31
0.0
  0
LINE
  5
99
330
1F
100
AcDbEntity
  8
0
  6
CONTINUOUS
 62
     7
100
AcDbLine
 10
538.2434956297765
 20
188.6289443745166
 30
0.0
 11
544.3888909124242
 21
189.8535617323808
 31
0.0
  0
LINE
  5
9A
330
1F
100
AcDbEntity
  8
0
  6
CONTINUOUS
 62
     7
100
AcDbLine
 10
595.6111090875759
 20
189.8535617323808
 30
0.0
 11
601.7565043702236
 21
188.6289443745166
 31
0.0
  0
LWPOLYLINE
  5
9B
330
1F
100
AcDbEntity
  8
0
  6
CONTINUOUS
 62
     7
100
AcDbPolyline
 90
       26
 70
     0
 43
0.0
 10
602.1587124883179
 20
188.1473121686745
 10
602.1577031562632
 20
188.1715145696207
 10
602.1555228220348
 20
188.1956396832041
 10
602.1521766030946
 20
188.2196308853741
 10
602.1476723533525
 20
188.2434318663836
 10
602.1420206447327
 20
188.2669867629539
 10
602.1352347423596
 20
188.2902402893905
 10
602.1273305734234
 20
188.3131378673451
 10
602.118326689798
 20
188.3356257539158
 10
602.1082442244973
 20
188.3576511677875
 10
602.097106842074
 20
188.3791624131145
 10
602.0849406830771
 20
188.4001090008561
 10
602.0717743026961
 20
188.4204417672793
 10
602.0576386037407
 20
188.4401129893511
 10
602.0425667641077
 20
188.4590764967492
 10
602.0265941589097
 20
188.477287780228
 10
602.009758277446
 20
188.494704096087
 10
601.9920986352115
 20
188.5112845664936
 10
601.9736566811498
 20
188.5269902754284
 10
601.9544757003686
 20
188.5417843600241
 10
601.9346007125448
 20
188.5556320970871
 10
601.9140783662597
 20
188.5685009845958
 10
601.8929568295089
 20
188.5803608179861
 10
601.8712856766484
 20
188.5911837610449
 10
601.8491157720377
 20
188.6009444112443
 10
601.8419300493724
 20
188.6038374803331
  0
LINE
  5
9C
330
1F
100
AcDbEntity
  8
0
  6
CONTINUOUS
 62
     7
100
AcDbLine
 10
601.8419300493724
 20
188.6038374803331
 30
0.0
 11
601.7565043133014
 21
188.6289443858597
 31
0.0
  0
LINE
  5
9D
330
1F
100
AcDbEntity
  8
0
  6
CONTINUOUS
 62
     7
100
AcDbLine
 10
602.1587124883179
 20
188.1473121686745
 30
0.0
 11
602.16406997023
 21
187.8403822354934
 31
0.0
  0
LINE
  5
9E
330
1F
100
AcDbEntity
  8
0
  6
CONTINUOUS
 62
     7
100
AcDbLine
 10
602.16406997023
 20
187.8403822354934
 30
0.0
 11
602.1672545014001
 21
187.6579405669446
 31
0.0
  0
LWPOLYLINE
  5
9F
330
1F
100
AcDbEntity
  8
0
  6
CONTINUOUS
 62
     7
100
AcDbPolyline
 90
       27
 70
     0
 43
0.0
 10
538.2434956866987
 20
188.6289443858597
 10
538.2198609846448
 20
188.6236362956589
 10
538.1965111040258
 20
188.6171897432595
 10
538.1735008493432
 20
188.6096198593634
 10
538.1508842279623
 20
188.6009444112443
 10
538.1287143233516
 20
188.591183761045
 10
538.1070431704911
 20
188.5803608179861
 10
538.0859216337404
 20
188.5685009845958
 10
538.0653992874553
 20
188.5556320970871
 10
538.0455242996316
 20
188.5417843600242
 10
538.0263433188503
 20
188.5269902754284
 10
538.0079013647886
 20
188.5112845664936
 10
537.9902417225541
 20
188.494704096087
 10
537.9734058410904
 20
188.477287780228
 10
537.9574332358924
 20
188.4590764967492
 10
537.9423613962595
 20
188.4401129893511
 10
537.928225697304
 20
188.4204417672793
 10
537.915059316923
 20
188.4001090008561
 10
537.9028931579261
 20
188.3791624131145
 10
537.8917557755028
 20
188.3576511677875
 10
537.8816733102022
 20
188.3356257539158
 10
537.8726694265767
 20
188.3131378673451
 10
537.8647652576406
 20
188.2902402893905
 10
537.8579793552674
 20
188.2669867629539
 10
537.8523276466476
 20
188.2434318663836
 10
537.8478233969056
 20
188.2196308853741
 10
537.8460049787651
 20
188.2076555514946
  0
LINE
  5
A0
330
1F
100
AcDbEntity
  8
0
  6
CONTINUOUS
 62
     7
100
AcDbLine
 10
537.8460049787651
 20
188.2076555514946
 30
0.0
 11
537.8412875116823
 21
188.1473121686745
 31
0.0
  0
LINE
  5
A1
330
1F
100
AcDbEntity
  8
0
  6
CONTINUOUS
 62
     7
100
AcDbLine
 10
537.8327454986
 20
187.6579405669446
 30
0.0
 11
537.8344013278031
 21
187.7528029584552
 31
0.0
  0
LINE
  5
A2
330
1F
100
AcDbEntity
  8
0
  6
CONTINUOUS
 62
     7
100
AcDbLine
 10
537.834401327803
 20
187.7528029584552
 30
0.0
 11
537.8412875116821
 21
188.1473121686745
 31
0.0
  0
LINE
  5
A3
330
1F
100
AcDbEntity
  8
0
  6
CONTINUOUS
 62
     7
100
AcDbLine
 10
538.7590955255303
 20
119.9499829039676
 30
0.0
 11
538.2688816694746
 21
119.9499829039676
 31
0.0
  0
LINE
  5
A4
330
1F
100
AcDbEntity
  8
0
  6
CONTINUOUS
 62
     7
100
AcDbLine
 10
537.9197803709103
 20
139.9499829039675
 30
0.0
 11
538.4099942269659
 21
139.9499829039675
 31
0.0
  0
LINE
  5
A5
330
1F
100
AcDbEntity
  8
0
  6
CONTINUOUS
 62
     7
100
AcDbLine
 10
539.5000000000001
 20
139.9499829039675
 30
0.0
 11
539.6745373558152
 21
119.9499829039675
 31
0.0
  0
LINE
  5
A6
330
1F
100
AcDbEntity
  8
0
  6
CONTINUOUS
 62
     7
100
AcDbLine
 10
538.7590955255303
 20
119.9499829039676
 30
0.0
 11
539.6745373558152
 21
119.9499829039676
 31
0.0
  0
LINE
  5
A7
330
1F
100
AcDbEntity
  8
0
  6
CONTINUOUS
 62
     7
100
AcDbLine
 10
538.4099942269659
 20
139.9499829039675
 30
0.0
 11
539.5000000000001
 21
139.9499829039675
 31
0.0
  0
LINE
  5
A8
330
1F
100
AcDbEntity
  8
0
  6
CONTINUOUS
 62
     7
100
AcDbLine
 10
600.5
 20
139.9499829039675
 30
0.0
 11
601.5900057730342
 21
139.9499829039675
 31
0.0
  0
LINE
  5
A9
330
1F
100
AcDbEntity
  8
0
  6
CONTINUOUS
 62
     7
100
AcDbLine
 10
600.3254626441849
 20
119.9499829039676
 30
0.0
 11
601.2409044744699
 21
119.9499829039676
 31
0.0
  0
LINE
  5
AA
330
1F
100
AcDbEntity
  8
0
  6
CONTINUOUS
 62
     7
100
AcDbLine
 10
600.5
 20
139.9499829039675
 30
0.0
 11
600.3254626441849
 21
119.9499829039675
 31
0.0
  0
LINE
  5
AB
330
1F
100
AcDbEntity
  8
0
  6
CONTINUOUS
 62
     7
100
AcDbLine
 10
601.7311183305255
 20
119.9499829039676
 30
0.0
 11
601.2409044744699
 21
119.9499829039676
 31
0.0
  0
LINE
  5
AC
330
1F
100
AcDbEntity
  8
0
  6
CONTINUOUS
 62
     7
100
AcDbLine
 10
601.5900057730342
 20
139.9499829039675
 30
0.0
 11
602.0802196290898
 21
139.9499829039675
 31
0.0
  0
LINE
  5
AD
330
1F
100
AcDbEntity
  8
0
  6
CONTINUOUS
 62
     7
100
AcDbLine
 10
537.3491012985644
 20
119.9499829039676
 30
0.0
 11
537.0
 21
139.9499829039675
 31
0.0
  0
LINE
  5
AE
330
1F
100
AcDbEntity
  8
0
  6
CONTINUOUS
 62
     7
100
AcDbLine
 10
538.2688816694745
 20
119.9499829039676
 30
0.0
 11
537.3491012985644
 21
119.9499829039676
 31
0.0
  0
LINE
  5
AF
330
1F
100
AcDbEntity
  8
0
  6
CONTINUOUS
 62
     7
100
AcDbLine
 10
537.0
 20
139.9499829039675
 30
0.0
 11
537.9197803709102
 21
139.9499829039675
 31
0.0
  0
LINE
  5
B0
330
1F
100
AcDbEntity
  8
0
  6
CONTINUOUS
 62
     7
100
AcDbLine
 10
603.0000000000001
 20
139.9499829039675
 30
0.0
 11
602.6508987014357
 21
119.9499829039675
 31
0.0
  0
LINE
  5
B1
330
1F
100
AcDbEntity
  8
0
  6
CONTINUOUS
 62
     7
100
AcDbLine
 10
602.6508987014357
 20
119.9499829039676
 30
0.0
 11
601.7311183305255
 21
119.9499829039676
 31
0.0
  0
LINE
  5
B2
330
1F
100
AcDbEntity
  8
0
  6
CONTINUOUS
 62
     7
100
AcDbLine
 10
602.0802196290898
 20
139.9499829039675
 30
0.0
 11
603.0
 21
139.9499829039675
 31
0.0
  0
LINE
  5
B3
330
1F
100
AcDbEntity
  8
0
  6
CONTINUOUS
 62
     7
100
AcDbLine
 10
570.0
 20
124.4499829039676
 30
0.0
 11
570.0
 21
122.9499829039676
 31
0.0
  0
LINE
  5
B4
330
1F
100
AcDbEntity
  8
0
  6
CONTINUOUS
 62
     7
100
AcDbLine
 10
569.25
 20
122.9499829039676
 30
0.0
 11
570.0
 21
122.9499829039676
 31
0.0
  0
LINE
  5
B5
330
1F
100
AcDbEntity
  8
0
  6
CONTINUOUS
 62
     7
100
AcDbLine
 10
569.25
 20
123.4499829039676
 30
0.0
 11
569.25
 21
122.9499829039676
 31
0.0
  0
LWPOLYLINE
  5
B6
330
1F
100
AcDbEntity
  8
0
  6
CONTINUOUS
 62
     7
100
AcDbPolyline
 90
        7
 70
     0
 43
0.0
 10
569.8273502691898
 20
124.4499829039676
 10
569.6999068109345
 20
124.425146178136
 10
569.6071245423375
 20
124.3743423223672
 10
569.5275711229915
 20
124.304516740768
 10
569.4571505104127
 20
124.2171849445379
 10
569.3940458737901
 20
124.1108474156356
 42
0.1135245646651357
 10
569.25
 20
123.4499829039676
  0
LINE
  5
B7
330
1F
100
AcDbEntity
  8
0
  6
CONTINUOUS
 62
     7
100
AcDbLine
 10
570.0
 20
124.4499829039676
 30
0.0
 11
569.8273502691898
 21
124.4499829039676
 31
0.0
  0
LINE
  5
B8
330
1F
100
AcDbEntity
  8
0
  6
CONTINUOUS
 62
     7
100
AcDbLine
 10
562.1861719194866
 20
124.4499829039676
 30
0.0
 11
569.8273502691898
 21
124.4499829039676
 31
0.0
  0
LINE
  5
B9
330
1F
100
AcDbEntity
  8
0
  6
CONTINUOUS
 62
     7
100
AcDbLine
 10
562.159968029845
 20
122.9499829039676
 30
0.0
 11
560.1572233378491
 21
122.9499829039676
 31
0.0
  0
LINE
  5
BA
330
1F
100
AcDbEntity
  8
0
  6
CONTINUOUS
 62
     7
100
AcDbLine
 10
560.1572233378492
 20
122.9499829039676
 30
0.0
 11
560.1861700387147
 21
123.5023188598406
 31
0.0
  0
LINE
  5
BB
330
1F
100
AcDbEntity
  8
0
  6
CONTINUOUS
 62
     7
100
AcDbLine
 10
569.25
 20
122.9499829039676
 30
0.0
 11
562.159968029845
 21
122.9499829039676
 31
0.0
  0
LINE
  5
BC
330
1F
100
AcDbEntity
  8
0
  6
CONTINUOUS
 62
     7
100
AcDbLine
 10
577.8400319701551
 20
122.9499829039676
 30
0.0
 11
570.7500000000001
 21
122.9499829039676
 31
0.0
  0
LINE
  5
BD
330
1F
100
AcDbEntity
  8
0
  6
CONTINUOUS
 62
     7
100
AcDbLine
 10
570.7500000000001
 20
123.4499829039676
 30
0.0
 11
570.7500000000001
 21
122.9499829039676
 31
0.0
  0
LINE
  5
BE
330
1F
100
AcDbEntity
  8
0
  6
CONTINUOUS
 62
     7
100
AcDbLine
 10
579.8427766621509
 20
122.9499829039676
 30
0.0
 11
577.8400319701551
 21
122.9499829039676
 31
0.0
  0
LINE
  5
BF
330
1F
100
AcDbEntity
  8
0
  6
CONTINUOUS
 62
     7
100
AcDbLine
 10
579.813829961266
 20
123.5023188602105
 30
0.0
 11
579.7741944050931
 21
123.5016612306922
 31
0.0
  0
LINE
  5
C0
330
1F
100
AcDbEntity
  8
0
  6
CONTINUOUS
 62
     7
100
AcDbLine
 10
579.813829961266
 20
123.5023188602105
 30
0.0
 11
579.8427766621509
 21
122.9499829039676
 31
0.0
  0
LWPOLYLINE
  5
C1
330
1F
100
AcDbEntity
  8
0
  6
CONTINUOUS
 62
     7
100
AcDbPolyline
 90
        8
 70
     0
 43
0.0
 10
570.7500000000001
 20
123.4499829039676
 42
0.1101044299853642
 10
570.6154529820576
 20
124.0916758762971
 10
570.5556656158525
 20
124.1982418827072
 10
570.4835242084246
 20
124.2926367326073
 10
570.4014600006234
 20
124.3680965053489
 10
570.3080592508999
 20
124.422087071109
 10
570.2069257105478
 20
124.4482159183725
 10
570.1726497308103
 20
124.4499829039676
  0
LINE
  5
C2
330
1F
100
AcDbEntity
  8
0
  6
CONTINUOUS
 62
     7
100
AcDbLine
 10
570.1726497308103
 20
124.4499829039676
 30
0.0
 11
577.8138280805135
 21
124.4499829039676
 31
0.0
  0
LINE
  5
C3
330
1F
100
AcDbEntity
  8
0
  6
CONTINUOUS
 62
     7
100
AcDbLine
 10
570.0
 20
122.9499829039676
 30
0.0
 11
570.7500000000001
 21
122.9499829039676
 31
0.0
  0
LINE
  5
C4
330
1F
100
AcDbEntity
  8
0
  6
CONTINUOUS
 62
     7
100
AcDbLine
 10
570.1726497308103
 20
124.4499829039676
 30
0.0
 11
570.0
 21
124.4499829039676
 31
0.0
  0
LINE
  5
C5
330
1F
100
AcDbEntity
  8
0
  6
CONTINUOUS
 62
     7
100
AcDbLine
 10
560.225805594907
 20
123.5016612306924
 30
0.0
 11
560.1861700387341
 21
123.5023188602105
 31
0.0
  0
LINE
  5
C6
330
1F
100
AcDbEntity
  8
0
  6
CONTINUOUS
 62
     7
100
AcDbLine
 10
561.1847995734886
 20
124.4499829039676
 30
0.0
 11
562.1861719194865
 21
124.4499829039676
 31
0.0
  0
LINE
  5
C7
330
1F
100
AcDbEntity
  8
0
  6
CONTINUOUS
 62
     7
100
AcDbLine
 10
561.1847995734886
 20
124.4499829039676
 30
0.0
 11
560.8275647477939
 21
124.3839975073389
 31
0.0
  0
LINE
  5
C8
330
1F
100
AcDbEntity
  8
0
  6
CONTINUOUS
 62
     7
100
AcDbLine
 10
579.1724352886853
 20
124.3839974933866
 30
0.0
 11
578.8152004265114
 21
124.4499829039676
 31
0.0
  0
LINE
  5
C9
330
1F
100
AcDbEntity
  8
0
  6
CONTINUOUS
 62
     7
100
AcDbLine
 10
577.8138280805135
 20
124.4499829039676
 30
0.0
 11
578.8152004265114
 21
124.4499829039676
 31
0.0
  0
LINE
  5
CA
330
1F
100
AcDbEntity
  8
0
  6
CONTINUOUS
 62
     7
100
AcDbLine
 10
600.3472798136618
 20
122.4499829039676
 30
0.0
 11
599.3472417352759
 21
122.4499829039676
 31
0.0
  0
LINE
  5
CB
330
1F
100
AcDbEntity
  8
0
  6
CONTINUOUS
 62
     7
100
AcDbLine
 10
599.3254245657992
 20
119.9499829039676
 30
0.0
 11
600.325462644185
 21
119.9499829039676
 31
0.0
  0
LINE
  5
CC
330
1F
100
AcDbEntity
  8
0
  6
CONTINUOUS
 62
     7
100
AcDbLine
 10
540.6527582647241
 20
122.4499829039676
 30
0.0
 11
539.6527201863382
 21
122.4499829039676
 31
0.0
  0
LINE
  5
CD
330
1F
100
AcDbEntity
  8
0
  6
CONTINUOUS
 62
     7
100
AcDbLine
 10
539.6745373558152
 20
119.9499829039676
 30
0.0
 11
540.6745754342011
 21
119.9499829039676
 31
0.0
  0
LINE
  5
CE
330
1F
100
AcDbEntity
  8
0
  6
CONTINUOUS
 62
     7
100
AcDbLine
 10
566.8689805517924
 20
122.4499829039676
 30
0.0
 11
566.842776662151
 21
122.9499829039676
 31
0.0
  0
LINE
  5
CF
330
1F
100
AcDbEntity
  8
0
  6
CONTINUOUS
 62
     7
100
AcDbLine
 10
560.1572233378492
 20
122.9499829039676
 30
0.0
 11
560.1310194482078
 21
122.4499829039676
 31
0.0
  0
LINE
  5
D0
330
1F
100
AcDbEntity
  8
0
  6
CONTINUOUS
 62
     7
100
AcDbLine
 10
573.1572233378491
 20
122.9499829039676
 30
0.0
 11
573.1310194482077
 21
122.4499829039676
 31
0.0
  0
LINE
  5
D1
330
1F
100
AcDbEntity
  8
0
  6
CONTINUOUS
 62
     7
100
AcDbLine
 10
579.8689805517924
 20
122.4499829039676
 30
0.0
 11
579.842776662151
 21
122.9499829039676
 31
0.0
  0
LINE
  5
D2
330
1F
100
AcDbEntity
  8
0
  6
CONTINUOUS
 62
     7
100
AcDbLine
 10
557.9986276540021
 20
119.9499829039676
 30
0.0
 11
557.8676082057945
 21
122.4499829039676
 31
0.0
  0
LINE
  5
D3
330
1F
100
AcDbEntity
  8
0
  6
CONTINUOUS
 62
     7
100
AcDbLine
 10
557.8676082057945
 20
122.4499829039676
 30
0.0
 11
540.6527582647241
 21
122.4499829039676
 31
0.0
  0
LINE
  5
D4
330
1F
100
AcDbEntity
  8
0
  6
CONTINUOUS
 62
     7
100
AcDbLine
 10
557.9986276540021
 20
119.9499829039676
 30
0.0
 11
540.674575434201
 21
119.9499829039676
 31
0.0
  0
LINE
  5
D5
330
1F
100
AcDbEntity
  8
0
  6
CONTINUOUS
 62
     7
100
AcDbLine
 10
582.1323917942057
 20
122.4499829039676
 30
0.0
 11
582.001372345998
 21
119.9499829039676
 31
0.0
  0
LINE
  5
D6
330
1F
100
AcDbEntity
  8
0
  6
CONTINUOUS
 62
     7
100
AcDbLine
 10
581.0000000000001
 20
119.9499829039676
 30
0.0
 11
581.1310194482077
 21
122.4499829039676
 31
0.0
  0
LINE
  5
D7
330
1F
100
AcDbEntity
  8
0
  6
CONTINUOUS
 62
     7
100
AcDbLine
 10
581.1310194482077
 20
122.4499829039676
 30
0.0
 11
582.1323917942057
 21
122.4499829039676
 31
0.0
  0
LINE
  5
D8
330
1F
100
AcDbEntity
  8
0
  6
CONTINUOUS
 62
     7
100
AcDbLine
 10
582.001372345998
 20
119.9499829039676
 30
0.0
 11
581.0000000000001
 21
119.9499829039676
 31
0.0
  0
LINE
  5
D9
330
1F
100
AcDbEntity
  8
0
  6
CONTINUOUS
 62
     7
100
AcDbLine
 10
599.347241735276
 20
122.4499829039676
 30
0.0
 11
582.1323917942057
 21
122.4499829039676
 31
0.0
  0
LINE
  5
DA
330
1F
100
AcDbEntity
  8
0
  6
CONTINUOUS
 62
     7
100
AcDbLine
 10
599.3254245657992
 20
119.9499829039676
 30
0.0
 11
582.001372345998
 21
119.9499829039676
 31
0.0
  0
LINE
  5
DB
330
1F
100
AcDbEntity
  8
0
  6
CONTINUOUS
 62
     7
100
AcDbLine
 10
558.8689805517924
 20
122.4499829039676
 30
0.0
 11
559.0
 21
119.9499829039676
 31
0.0
  0
LINE
  5
DC
330
1F
100
AcDbEntity
  8
0
  6
CONTINUOUS
 62
     7
100
AcDbLine
 10
557.8676082057945
 20
122.4499829039676
 30
0.0
 11
558.8689805517924
 21
122.4499829039676
 31
0.0
  0
LINE
  5
DD
330
1F
100
AcDbEntity
  8
0
  6
CONTINUOUS
 62
     7
100
AcDbLine
 10
559.0
 20
119.9499829039676
 30
0.0
 11
557.9986276540021
 21
119.9499829039676
 31
0.0
  0
LINE
  5
DE
330
1F
100
AcDbEntity
  8
0
  6
CONTINUOUS
 62
     7
100
AcDbLine
 10
573.0733708909963
 20
121.3499829039676
 30
0.0
 11
573.1310194482077
 21
122.4499829039676
 31
0.0
  0
LINE
  5
DF
330
1F
100
AcDbEntity
  8
0
  6
CONTINUOUS
 62
     7
100
AcDbLine
 10
579.8689805517924
 20
122.4499829039676
 30
0.0
 11
579.9266291090038
 21
121.3499829039676
 31
0.0
  0
LINE
  5
E0
330
1F
100
AcDbEntity
  8
0
  6
CONTINUOUS
 62
     7
100
AcDbLine
 10
567.0
 20
119.9499829039676
 30
0.0
 11
560.0
 21
119.9499829039676
 31
0.0
  0
LINE
  5
E1
330
1F
100
AcDbEntity
  8
0
  6
CONTINUOUS
 62
     7
100
AcDbLine
 10
566.9266291090038
 20
121.3499829039676
 30
0.0
 11
567.0
 21
119.9499829039676
 31
0.0
  0
LINE
  5
E2
330
1F
100
AcDbEntity
  8
0
  6
CONTINUOUS
 62
     7
100
AcDbLine
 10
560.0
 20
119.9499829039676
 30
0.0
 11
560.0733708909963
 21
121.3499829039675
 31
0.0
  0
LINE
  5
E3
330
1F
100
AcDbEntity
  8
0
  6
CONTINUOUS
 62
     7
100
AcDbLine
 10
580.0000000000001
 20
119.9499829039676
 30
0.0
 11
573.0
 21
119.9499829039676
 31
0.0
  0
LINE
  5
E4
330
1F
100
AcDbEntity
  8
0
  6
CONTINUOUS
 62
     7
100
AcDbLine
 10
573.0
 20
119.9499829039676
 30
0.0
 11
573.0733708909963
 21
121.3499829039675
 31
0.0
  0
LINE
  5
E5
330
1F
100
AcDbEntity
  8
0
  6
CONTINUOUS
 62
     7
100
AcDbLine
 10
579.9266291090038
 20
121.3499829039676
 30
0.0
 11
580.0000000000001
 21
119.9499829039676
 31
0.0
  0
LINE
  5
E6
330
1F
100
AcDbEntity
  8
0
  6
CONTINUOUS
 62
     7
100
AcDbLine
 10
566.8689805517924
 20
122.4499829039676
 30
0.0
 11
566.9266291090038
 21
121.3499829039676
 31
0.0
  0
LINE
  5
E7
330
1F
100
AcDbEntity
  8
0
  6
CONTINUOUS
 62
     7
100
AcDbLine
 10
560.1310194482077
 20
122.4499829039676
 30
0.0
 11
560.0733708909963
 21
121.3499829039676
 31
0.0
  0
LINE
  5
E8
330
1F
100
AcDbEntity
  8
0
  6
CONTINUOUS
 62
     7
100
AcDbLine
 10
540.1431992040385
 20
146.4587094394659
 30
0.0
 11
540.3527201863383
 21
122.4499829039676
 31
0.0
  0
LINE
  5
E9
330
1F
100
AcDbEntity
  8
0
  6
CONTINUOUS
 62
     7
100
AcDbLine
 10
599.6472798136618
 20
122.4499829039676
 30
0.0
 11
599.8568007959616
 21
146.4587094394659
 31
0.0
  0
LINE
  5
EA
330
1F
100
AcDbEntity
  8
0
  6
CONTINUOUS
 62
     7
100
AcDbLine
 10
540.1405269077814
 20
146.7649242603284
 30
0.0
 11
540.1431992040386
 21
146.4587094394659
 31
0.0
  0
LINE
  5
EB
330
1F
100
AcDbEntity
  8
0
  6
CONTINUOUS
 62
     7
100
AcDbLine
 10
540.138873847804
 20
146.9543461717167
 30
0.0
 11
540.1405269077814
 21
146.7649242603284
 31
0.0
  0
ARC
  5
EC
330
1F
100
AcDbEntity
  8
0
  6
CONTINUOUS
 62
     7
100
AcDbCircle
 10
539.6388928862718
 20
146.9499829039675
 30
0.0
 40
0.5000000000000014
100
AcDbArc
 50
0.5000000000000812
 51
82.40090221761781
  0
LINE
  5
ED
330
1F
100
AcDbEntity
  8
0
  6
CONTINUOUS
 62
     7
100
AcDbLine
 10
539.5654515084307
 20
147.4499829039675
 30
0.0
 11
539.6388928862718
 21
147.4499829039675
 31
0.0
  0
ELLIPSE
  5
EE
330
1F
100
AcDbEntity
  8
0
  6
CONTINUOUS
 62
     7
100
AcDbEllipse
 10
600.3567817574936
 20
146.4543461717167
 30
0.0
 11
0.4999809615320871
 21
-0.004363267749188091
 31
0.0
210
0.0
220
0.0
230
1.0
 40
0.0087262032439458
 41
2.945251533075945
 42
3.141592653589932
  0
LINE
  5
EF
330
1F
100
AcDbEntity
  8
0
  6
CONTINUOUS
 62
     7
100
AcDbLine
 10
600.3611071137283
 20
147.4499829039675
 30
0.0
 11
600.3610928406686
 21
147.4467118426973
 31
0.0
  0
LINE
  5
F0
330
1F
100
AcDbEntity
  8
0
  6
CONTINUOUS
 62
     7
100
AcDbLine
 10
600.3611071137283
 20
147.4499829039675
 30
0.0
 11
600.4345484915694
 21
147.4499829039675
 31
0.0
  0
LINE
  5
F1
330
1F
100
AcDbEntity
  8
0
  6
CONTINUOUS
 62
     7
100
AcDbLine
 10
559.3696667247914
 20
122.4499829039676
 30
0.0
 11
558.8689805517924
 21
122.4499829039676
 31
0.0
  0
LINE
  5
F2
330
1F
100
AcDbEntity
  8
0
  6
CONTINUOUS
 62
     7
100
AcDbLine
 10
559.0
 20
119.9499829039676
 30
0.0
 11
559.5006861729989
 21
119.9499829039676
 31
0.0
  0
LINE
  5
F3
330
1F
100
AcDbEntity
  8
0
  6
CONTINUOUS
 62
     7
100
AcDbLine
 10
581.1310194482077
 20
122.4499829039676
 30
0.0
 11
580.6303332752087
 21
122.4499829039676
 31
0.0
  0
LINE
  5
F4
330
1F
100
AcDbEntity
  8
0
  6
CONTINUOUS
 62
     7
100
AcDbLine
 10
580.4993138270012
 20
119.9499829039676
 30
0.0
 11
581.0000000000001
 21
119.9499829039676
 31
0.0
  0
LINE
  5
F5
330
1F
100
AcDbEntity
  8
0
  6
CONTINUOUS
 62
     7
100
AcDbLine
 10
571.9986276540021
 20
119.9499829039676
 30
0.0
 11
573.0
 21
119.9499829039676
 31
0.0
  0
LINE
  5
F6
330
1F
100
AcDbEntity
  8
0
  6
CONTINUOUS
 62
     7
100
AcDbLine
 10
567.8965567874319
 20
122.4499829039676
 30
0.0
 11
566.8689805517924
 21
122.4499829039676
 31
0.0
  0
LINE
  5
F7
330
1F
100
AcDbEntity
  8
0
  6
CONTINUOUS
 62
     7
100
AcDbLine
 10
573.1310194482077
 20
122.4499829039676
 30
0.0
 11
572.1034432125682
 21
122.4499829039676
 31
0.0
  0
LINE
  5
F8
330
1F
100
AcDbEntity
  8
0
  6
CONTINUOUS
 62
     7
100
AcDbLine
 10
567.0
 20
119.9499829039676
 30
0.0
 11
568.001372345998
 21
119.9499829039676
 31
0.0
  0
LINE
  5
F9
330
1F
100
AcDbEntity
  8
0
  6
CONTINUOUS
 62
     7
100
AcDbLine
 10
560.1310194482077
 20
122.4499829039676
 30
0.0
 11
559.3696667247914
 21
122.4499829039676
 31
0.0
  0
LINE
  5
FA
330
1F
100
AcDbEntity
  8
0
  6
CONTINUOUS
 62
     7
100
AcDbLine
 10
560.0
 20
119.9499829039676
 30
0.0
 11
559.5006861729989
 21
119.9499829039676
 31
0.0
  0
LINE
  5
FB
330
1F
100
AcDbEntity
  8
0
  6
CONTINUOUS
 62
     7
100
AcDbLine
 10
580.6303332752087
 20
122.4499829039676
 30
0.0
 11
579.8689805517924
 21
122.4499829039676
 31
0.0
  0
LINE
  5
FC
330
1F
100
AcDbEntity
  8
0
  6
CONTINUOUS
 62
     7
100
AcDbLine
 10
580.4993138270012
 20
119.9499829039676
 30
0.0
 11
580.0000000000001
 21
119.9499829039676
 31
0.0
  0
LINE
  5
FD
330
1F
100
AcDbEntity
  8
0
  6
CONTINUOUS
 62
     7
100
AcDbLine
 10
570.0
 20
122.4499829039676
 30
0.0
 11
570.0
 21
119.9499829039676
 31
0.0
  0
LINE
  5
FE
330
1F
100
AcDbEntity
  8
0
  6
CONTINUOUS
 62
     7
100
AcDbLine
 10
569.25
 20
121.9499829039676
 30
0.0
 11
569.25
 21
119.9499829039676
 31
0.0
  0
LWPOLYLINE
  5
FF
330
1F
100
AcDbEntity
  8
0
  6
CONTINUOUS
 62
     7
100
AcDbPolyline
 90
       33
 70
     0
 43
0.0
 10
569.5386751345949
 20
122.4499829039676
 10
569.5245105171042
 20
122.4493806320701
 10
569.5103800234177
 20
122.4475752673036
 10
569.4963176951323
 20
122.4445711589499
 10
569.4823574096287
 20
122.4403755441692
 10
569.4685327984574
 20
122.4349985305648
 10
569.4548771663176
 20
122.4284530718337
 10
569.4414234108233
 20
122.4207549365591
 10
569.4282039432496
 20
122.4119226702232
 10
569.4152506104522
 20
122.4019775505293
 10
569.4025946181441
 20
122.3909435361417
 10
569.3902664557194
 20
122.3788472089677
 10
569.3782958228011
 20
122.3657177101188
 10
569.3667115576925
 20
122.3515866697079
 10
569.355541567903
 20
122.3364881306489
 10
569.344812762916
 20
122.3204584666451
 10
569.3345509893629
 20
122.3035362945608
 10
569.3247809687548
 20
122.2857623813911
 10
569.3155262379272
 20
122.2671795460494
 10
569.3068090923371
 20
122.2478325562138
 10
569.298650532352
 20
122.2277680204774
 10
569.2910702126572
 20
122.2070342760642
 10
569.2840863949071
 20
122.1856812723806
 10
569.2777159037302
 20
122.1637604506827
 10
569.2719740861978
 20
122.1413246201501
 10
569.2668747748513
 20
122.1184278306637
 10
569.2624302543782
 20
122.0951252425948
 10
569.2586512320178
 20
122.0714729939192
 10
569.2555468117658
 20
122.0475280649756
 10
569.2531244724428
 20
122.0233481411953
 10
569.251390049676
 20
121.9989914741324
 10
569.2503477218421
 20
121.9745167411313
 10
569.25
 20
121.9499829039676
  0
LINE
  5
100
330
1F
100
AcDbEntity
  8
0
  6
CONTINUOUS
 62
     7
100
AcDbLine
 10
570.0
 20
122.4499829039676
 30
0.0
 11
569.5386751345949
 21
122.4499829039676
 31
0.0
  0
LINE
  5
101
330
1F
100
AcDbEntity
  8
0
  6
CONTINUOUS
 62
     7
100
AcDbLine
 10
570.0
 20
119.9499829039676
 30
0.0
 11
569.25
 21
119.9499829039676
 31
0.0
  0
LINE
  5
102
330
1F
100
AcDbEntity
  8
0
  6
CONTINUOUS
 62
     7
100
AcDbLine
 10
569.25
 20
119.9499829039676
 30
0.0
 11
568.0013723459979
 21
119.9499829039676
 31
0.0
  0
LINE
  5
103
330
1F
100
AcDbEntity
  8
0
  6
CONTINUOUS
 62
     7
100
AcDbLine
 10
570.7500000000001
 20
121.9499829039676
 30
0.0
 11
570.7500000000001
 21
119.9499829039676
 31
0.0
  0
LINE
  5
104
330
1F
100
AcDbEntity
  8
0
  6
CONTINUOUS
 62
     7
100
AcDbLine
 10
571.9986276540021
 20
119.9499829039676
 30
0.0
 11
570.7500000000001
 21
119.9499829039676
 31
0.0
  0
LINE
  5
105
330
1F
100
AcDbEntity
  8
0
  6
CONTINUOUS
 62
     7
100
AcDbLine
 10
567.8965567874319
 20
122.4499829039676
 30
0.0
 11
569.5386751345949
 21
122.4499829039676
 31
0.0
  0
LWPOLYLINE
  5
106
330
1F
100
AcDbEntity
  8
0
  6
CONTINUOUS
 62
     7
100
AcDbPolyline
 90
       33
 70
     0
 43
0.0
 10
570.7500000000001
 20
121.9499829039676
 10
570.749652278158
 20
121.9745167411313
 10
570.7486099503241
 20
121.9989914741324
 10
570.7468755275573
 20
122.0233481411953
 10
570.7444531882343
 20
122.0475280649756
 10
570.7413487679823
 20
122.0714729939192
 10
570.737569745622
 20
122.0951252425948
 10
570.7331252251488
 20
122.1184278306637
 10
570.7280259138023
 20
122.1413246201501
 10
570.7222840962698
 20
122.1637604506827
 10
570.715913605093
 20
122.1856812723806
 10
570.7089297873429
 20
122.2070342760642
 10
570.7013494676481
 20
122.2277680204774
 10
570.693190907663
 20
122.2478325562138
 10
570.684473762073
 20
122.2671795460494
 10
570.6752190312453
 20
122.2857623813911
 10
570.6654490106372
 20
122.3035362945608
 10
570.6551872370841
 20
122.3204584666451
 10
570.6444584320972
 20
122.3364881306489
 10
570.6332884423076
 20
122.3515866697079
 10
570.621704177199
 20
122.3657177101188
 10
570.6097335442807
 20
122.3788472089677
 10
570.5974053818561
 20
122.3909435361417
 10
570.5847493895479
 20
122.4019775505293
 10
570.5717960567505
 20
122.4119226702232
 10
570.5585765891768
 20
122.4207549365591
 10
570.5451228336825
 20
122.4284530718337
 10
570.5314672015427
 20
122.4349985305648
 10
570.5176425903715
 20
122.4403755441692
 10
570.5036823048678
 20
122.4445711589499
 10
570.4896199765825
 20
122.4475752673036
 10
570.4754894828959
 20
122.4493806320701
 10
570.4613248654052
 20
122.4499829039676
  0
LINE
  5
107
330
1F
100
AcDbEntity
  8
0
  6
CONTINUOUS
 62
     7
100
AcDbLine
 10
570.4613248654052
 20
122.4499829039676
 30
0.0
 11
570.0
 21
122.4499829039676
 31
0.0
  0
LINE
  5
108
330
1F
100
AcDbEntity
  8
0
  6
CONTINUOUS
 62
     7
100
AcDbLine
 10
570.7500000000001
 20
119.9499829039676
 30
0.0
 11
570.0
 21
119.9499829039676
 31
0.0
  0
LINE
  5
109
330
1F
100
AcDbEntity
  8
0
  6
CONTINUOUS
 62
     7
100
AcDbLine
 10
570.4613248654052
 20
122.4499829039676
 30
0.0
 11
572.1034432125682
 21
122.4499829039676
 31
0.0
  0
LINE
  5
10A
330
1F
100
AcDbEntity
  8
0
  6
CONTINUOUS
 62
     7
100
AcDbLine
 10
540.645708121835
 20
139.1236310816345
 30
0.0
 11
543.5857221623982
 21
122.4499829039675
 31
0.0
  0
LINE
  5
10B
330
1F
100
AcDbEntity
  8
0
  6
CONTINUOUS
 62
     7
100
AcDbLine
 10
596.414277837602
 20
122.4499829039676
 30
0.0
 11
599.3542918781651
 21
139.1236310816345
 31
0.0
  0
ARC
  5
10C
330
1F
100
AcDbEntity
  8
0
  6
CONTINUOUS
 62
     7
100
AcDbCircle
 10
-600.3390996311774
 20
138.9499829039675
 30
0.0
 40
1.000000000000001
210
0.0
220
0.0
230
-1.0
100
AcDbArc
 50
10.00000000000009
 51
57.28339947587382
  0
ARC
  5
10D
330
1F
100
AcDbEntity
  8
0
  6
CONTINUOUS
 62
     7
100
AcDbCircle
 10
-539.6609003688227
 20
138.9499829039675
 30
0.0
 40
1.000000000000001
210
0.0
220
0.0
230
-1.0
100
AcDbArc
 50
122.7166005241259
 51
169.9999999999999
  0
LINE
  5
10E
330
1F
100
AcDbEntity
  8
0
  6
CONTINUOUS
 62
     7
100
AcDbLine
 10
567.0
 20
124.9499829039676
 30
0.0
 11
573.0
 21
124.9499829039676
 31
0.0
  0
ARC
  5
10F
330
1F
100
AcDbEntity
  8
0
  6
CONTINUOUS
 62
     7
100
AcDbCircle
 10
-567.0
 20
123.9499829039676
 30
0.0
 40
1.0
210
0.0
220
0.0
230
-1.0
100
AcDbArc
 50
30.00000000000041
 51
90.0
  0
ARC
  5
110
330
1F
100
AcDbEntity
  8
0
  6
CONTINUOUS
 62
     7
100
AcDbCircle
 10
-573.0
 20
123.9499829039676
 30
0.0
 40
1.000000000000001
210
0.0
220
0.0
230
-1.0
100
AcDbArc
 50
90.0
 51
149.9999999999995
  0
LWPOLYLINE
  5
111
330
1F
100
AcDbEntity
  8
0
  6
CONTINUOUS
 62
     7
100
AcDbPolyline
 90
       26
 70
     0
 43
0.0
 10
560.8275659472096
 20
124.3839979660814
 10
560.7893648797526
 20
124.3684610723922
 10
560.7516396967072
 20
124.3512267036102
 10
560.7145062200485
 20
124.3323052499944
 10
560.6780802260505
 20
124.3117164735202
 10
560.6424763990343
 20
124.2894896203233
 10
560.6078072636947
 20
124.265663408273
 10
560.57418211555
 20
124.2402858852482
 10
560.5364120761083
 20
124.208794760884
 10
560.5003632579862
 20
124.1753757122473
 10
560.4661813372772
 20
124.1401491102718
 10
560.433998307439
 20
124.1032487588297
 10
560.403930891089
 20
124.0648202084442
 10
560.3760792439607
 20
124.0250188658218
 10
560.3505259805783
 20
123.9840079501791
 10
560.3273355397242
 20
123.941956351563
 10
560.3065538958266
 20
123.8990364480944
 10
560.2882086106137
 20
123.8554219382865
 10
560.272309208415
 20
123.8112857414569
 10
560.2588478488329
 20
123.7667980140856
 10
560.2478002626046
 20
123.7221243231518
 10
560.2391269105616
 20
123.6774240095123
 10
560.232774321816
 20
123.6328487657548
 10
560.2286765656165
 20
123.5885414441743
 10
560.2267568115933
 20
123.5446351020185
 10
560.2269289350979
 20
123.5012522833105
  0
LWPOLYLINE
  5
112
330
1F
100
AcDbEntity
  8
0
  6
CONTINUOUS
 62
     7
100
AcDbPolyline
 90
       26
 70
     0
 43
0.0
 10
579.7730710649022
 20
123.5012522833107
 10
579.7732431884068
 20
123.5446351020188
 10
579.7713234343835
 20
123.5885414441747
 10
579.767225678184
 20
123.6328487657553
 10
579.7608730894383
 20
123.6774240095129
 10
579.7521997373954
 20
123.7221243231525
 10
579.741152151167
 20
123.7667980140863
 10
579.7276907915849
 20
123.8112857414578
 10
579.7117913893861
 20
123.8554219382874
 10
579.6934461041731
 20
123.8990364480954
 10
579.6726644602753
 20
123.941956351564
 10
579.6494740194212
 20
123.9840079501802
 10
579.6239207560387
 20
124.025018865823
 10
579.5960691089102
 20
124.0648202084454
 10
579.5660016925601
 20
124.1032487588309
 10
579.5338186627218
 20
124.140149110273
 10
579.4996367420126
 20
124.1753757122485
 10
579.4635879238906
 20
124.2087947608851
 10
579.4258178844486
 20
124.2402858852494
 10
579.392192736304
 20
124.2656634082741
 10
579.3575236009641
 20
124.2894896203244
 10
579.3219197739479
 20
124.3117164735212
 10
579.2854937799498
 20
124.3323052499954
 10
579.248360303291
 20
124.3512267036111
 10
579.2106351202455
 20
124.368461072393
 10
579.1724340527885
 20
124.3839979660821
  0
LWPOLYLINE
  5
113
330
1F
100
AcDbEntity
  8
0
  6
CONTINUOUS
 62
     7
100
AcDbPolyline
 90
       53
 70
     0
 43
0.0
 10
540.1405268523517
 20
146.7649305748049
 10
540.1404616388121
 20
146.7723068834489
 10
540.1403480213596
 20
146.7845348074023
 10
540.1402309547902
 20
146.7961787150275
 10
540.1401104570759
 20
146.8072886824613
 10
540.1399891612921
 20
146.8179417584275
 10
540.139834850382
 20
146.831615938332
 10
540.1397022785015
 20
146.8449705494486
 10
540.1396020958225
 20
146.8583777309108
 10
540.1395303116544
 20
146.872262782725
 10
540.1394537070719
 20
146.88709179344
 10
540.1392919855367
 20
146.9033433884245
 10
540.1391154035008
 20
146.9131777912069
 10
540.1388401544629
 20
146.9235601188143
 10
540.1384326584354
 20
146.9345000766558
 10
540.1378561695824
 20
146.9460025005193
 10
540.1370711721017
 20
146.9580674897752
 10
540.1360357812246
 20
146.9706905055177
 10
540.1344343055977
 20
146.9862713648998
 10
540.1323495847228
 20
147.0025915327025
 10
540.1297051359766
 20
147.0196194265147
 10
540.1264234524813
 20
147.0373149140386
 10
540.1223472587847
 20
147.0559677790909
 10
540.1174493618097
 20
147.0752021498972
 10
540.111651277767
 20
147.0949490575681
 10
540.1048779179571
 20
147.1151309945917
 10
540.0970587385297
 20
147.1356622485269
 10
540.0882984240421
 20
147.1560764638769
 10
540.0784116291161
 20
147.176642102186
 10
540.0673505460534
 20
147.1972576432393
 10
540.0550755641366
 20
147.2178161095737
 10
540.0428371986249
 20
147.2363622294405
 10
540.0295542689611
 20
147.2546823441716
 10
540.0152179223719
 20
147.2726878687162
 10
539.9998267621464
 20
147.290288905079
 10
539.9833871245154
 20
147.3073949415824
 10
539.9659132781321
 20
147.323915587812
 10
539.9474275407404
 20
147.3397613374702
 10
539.9279603086225
 20
147.3548443504474
 10
539.90754999557
 20
147.3690792446465
 10
539.8862428793866
 20
147.3823838874825
 10
539.867840552452
 20
147.3927039953672
 10
539.8488878125171
 20
147.4022810827769
 10
539.8294230710213
 20
147.4110750636938
 10
539.8094878836259
 20
147.4190487359356
 10
539.7891267237891
 20
147.4261680442766
 10
539.7683867302364
 20
147.43240232414
 10
539.7473174303353
 20
147.4377245232728
 10
539.7259704416753
 20
147.442111399021
 10
539.7043991544284
 20
147.4455436890594
 10
539.682658397308
 20
147.4480062537035
 10
539.6608040901439
 20
147.4494881882316
 10
539.6388928862718
 20
147.4499829039675
  0
LWPOLYLINE
  5
114
330
1F
100
AcDbEntity
  8
0
  6
CONTINUOUS
 62
     7
100
AcDbPolyline
 90
        9
 70
     0
 43
0.0
 10
600.3610928407769
 20
147.4467118674978
 10
600.2599406570084
 20
147.4362009434922
 10
600.1483523486185
 20
147.3982302996923
 10
600.0506793004153
 20
147.3358729517346
 10
599.9714565771984
 20
147.2532951612486
 10
599.9193026927779
 20
147.1663845771855
 10
599.8862576711955
 20
147.0675250608701
 10
599.8712619788528
 20
146.961098384825
 42
0.0012564110336208
 10
599.8664142891231
 20
146.4594767343586
  0
LINE
  5
115
330
1F
100
AcDbEntity
  8
0
  6
CONTINUOUS
 62
     7
100
AcDbLine
 10
545.3660882697735
 20
299.9999875
 30
0.0
 11
594.6339117302267
 21
299.9999875
 31
0.0
  0
LINE
  5
116
330
1F
100
AcDbEntity
  8
0
  6
CONTINUOUS
 62
     7
100
AcDbLine
 10
594.6339117302267
 20
299.9999875
 30
0.0
 11
595.6110689774013
 21
299.9999875
 31
0.0
  0
LINE
  5
117
330
1F
100
AcDbEntity
  8
0
  6
CONTINUOUS
 62
     7
100
AcDbLine
 10
544.388931022599
 20
299.9999875
 30
0.0
 11
545.3660882697735
 21
299.9999875
 31
0.0
  0
LINE
  5
118
330
1F
100
AcDbEntity
  8
0
  6
CONTINUOUS
 62
     7
100
AcDbLine
 10
538.2434956297765
 20
299.9999875
 30
0.0
 11
544.388931022599
 21
299.9999875
 31
0.0
  0
LINE
  5
119
330
1F
100
AcDbEntity
  8
0
  6
CONTINUOUS
 62
     7
100
AcDbLine
 10
595.6110689774013
 20
299.9999875
 30
0.0
 11
601.7565043702236
 21
299.9999875
 31
0.0
  0
LINE
  5
11A
330
1F
100
AcDbEntity
  8
0
  6
CONTINUOUS
 62
     7
100
AcDbLine
 10
537.8412875069157
 20
299.9999875
 30
0.0
 11
538.2434956297765
 21
299.9999875
 31
0.0
  0
LINE
  5
11B
330
1F
100
AcDbEntity
  8
0
  6
CONTINUOUS
 62
     7
100
AcDbLine
 10
601.7565043702236
 20
299.9999875
 30
0.0
 11
602.1587124930844
 21
299.9999875
 31
0.0
  0
LINE
  5
11C
330
1F
100
AcDbEntity
  8
0
  6
CONTINUOUS
 62
     7
100
AcDbLine
 10
537.0
 20
225.0007489082519
 30
0.0
 11
537.0
 21
255.9999875
 31
0.0
  0
LINE
  5
11D
330
1F
100
AcDbEntity
  8
0
  6
CONTINUOUS
 62
     7
100
AcDbLine
 10
537.0
 20
255.9999875
 30
0.0
 11
537.0174550649283
 21
255.9999875
 31
0.0
  0
LINE
  5
11E
330
1F
100
AcDbEntity
  8
0
  6
CONTINUOUS
 62
     7
100
AcDbLine
 10
537.0174550649283
 20
255.9999875
 30
0.0
 11
537.0174550649283
 21
253.9999875
 31
0.0
  0
LINE
  5
11F
330
1F
100
AcDbEntity
  8
0
  6
CONTINUOUS
 62
     7
100
AcDbLine
 10
537.0349101298565
 20
254.1428446428571
 30
0.0
 11
537.0174550649283
 21
253.9999875
 31
0.0
  0
LINE
  5
120
330
1F
100
AcDbEntity
  8
0
  6
CONTINUOUS
 62
     7
100
AcDbLine
 10
537.0523651947847
 20
254.2857017857143
 30
0.0
 11
537.0349101298565
 21
254.1428446428571
 31
0.0
  0
LINE
  5
121
330
1F
100
AcDbEntity
  8
0
  6
CONTINUOUS
 62
     7
100
AcDbLine
 10
537.069820259713
 20
254.4285589285714
 30
0.0
 11
537.0523651947847
 21
254.2857017857143
 31
0.0
  0
LINE
  5
122
330
1F
100
AcDbEntity
  8
0
  6
CONTINUOUS
 62
     7
100
AcDbLine
 10
537.0872753246412
 20
254.5714160714286
 30
0.0
 11
537.069820259713
 21
254.4285589285714
 31
0.0
  0
LINE
  5
123
330
1F
100
AcDbEntity
  8
0
  6
CONTINUOUS
 62
     7
100
AcDbLine
 10
537.1047303895693
 20
254.7142732142857
 30
0.0
 11
537.0872753246412
 21
254.5714160714286
 31
0.0
  0
LINE
  5
124
330
1F
100
AcDbEntity
  8
0
  6
CONTINUOUS
 62
     7
100
AcDbLine
 10
537.1096674274801
 20
254.7546793160678
 30
0.0
 11
537.1047303895693
 21
254.7142732142857
 31
0.0
  0
LINE
  5
125
330
1F
100
AcDbEntity
  8
0
  6
CONTINUOUS
 62
     7
100
AcDbLine
 10
537.1221854544976
 20
255.0025274958213
 30
0.0
 11
537.1096674274801
 21
254.7546793160678
 31
0.0
  0
LINE
  5
126
330
1F
100
AcDbEntity
  8
0
  6
CONTINUOUS
 62
     7
100
AcDbLine
 10
537.1396405194257
 20
256.7345783033902
 30
0.0
 11
537.1221854544976
 21
255.0025274958213
 31
0.0
  0
LINE
  5
127
330
1F
100
AcDbEntity
  8
0
  6
CONTINUOUS
 62
     7
100
AcDbLine
 10
537.1396405194257
 20
256.7345783033902
 30
0.0
 11
537.1396405194257
 21
263.2653966966099
 31
0.0
  0
LINE
  5
128
330
1F
100
AcDbEntity
  8
0
  6
CONTINUOUS
 62
     7
100
AcDbLine
 10
537.1221854544976
 20
264.9974475041788
 30
0.0
 11
537.1396405194257
 21
263.2653966966099
 31
0.0
  0
LINE
  5
129
330
1F
100
AcDbEntity
  8
0
  6
CONTINUOUS
 62
     7
100
AcDbLine
 10
537.1096674274801
 20
265.2452956839322
 30
0.0
 11
537.1221854544976
 21
264.9974475041788
 31
0.0
  0
LINE
  5
12A
330
1F
100
AcDbEntity
  8
0
  6
CONTINUOUS
 62
     7
100
AcDbLine
 10
537.1047303895693
 20
265.2857017857143
 30
0.0
 11
537.1096674274801
 21
265.2452956839322
 31
0.0
  0
LINE
  5
12B
330
1F
100
AcDbEntity
  8
0
  6
CONTINUOUS
 62
     7
100
AcDbLine
 10
537.0872753246412
 20
265.4285589285714
 30
0.0
 11
537.1047303895693
 21
265.2857017857143
 31
0.0
  0
LINE
  5
12C
330
1F
100
AcDbEntity
  8
0
  6
CONTINUOUS
 62
     7
100
AcDbLine
 10
537.069820259713
 20
265.5714160714285
 30
0.0
 11
537.0872753246412
 21
265.4285589285714
 31
0.0
  0
LINE
  5
12D
330
1F
100
AcDbEntity
  8
0
  6
CONTINUOUS
 62
     7
100
AcDbLine
 10
537.0523651947847
 20
265.7142732142857
 30
0.0
 11
537.069820259713
 21
265.5714160714285
 31
0.0
  0
LINE
  5
12E
330
1F
100
AcDbEntity
  8
0
  6
CONTINUOUS
 62
     7
100
AcDbLine
 10
537.0349101298565
 20
265.8571303571429
 30
0.0
 11
537.0523651947847
 21
265.7142732142857
 31
0.0
  0
LINE
  5
12F
330
1F
100
AcDbEntity
  8
0
  6
CONTINUOUS
 62
     7
100
AcDbLine
 10
537.0174550649283
 20
265.9999875
 30
0.0
 11
537.0349101298565
 21
265.8571303571429
 31
0.0
  0
LINE
  5
130
330
1F
100
AcDbEntity
  8
0
  6
CONTINUOUS
 62
     7
100
AcDbLine
 10
537.0174550649283
 20
263.9999875
 30
0.0
 11
537.0174550649283
 21
265.9999875
 31
0.0
  0
LINE
  5
131
330
1F
100
AcDbEntity
  8
0
  6
CONTINUOUS
 62
     7
100
AcDbLine
 10
537.0
 20
263.9999875
 30
0.0
 11
537.0174550649283
 21
263.9999875
 31
0.0
  0
LINE
  5
132
330
1F
100
AcDbEntity
  8
0
  6
CONTINUOUS
 62
     7
100
AcDbLine
 10
537.0
 20
225.0007489082519
 30
0.0
 11
537.3700007538539
 21
225.3707496621057
 31
0.0
  0
LINE
  5
133
330
1F
100
AcDbEntity
  8
0
  6
CONTINUOUS
 62
     7
100
AcDbLine
 10
537.0
 20
299.9999875
 30
0.0
 11
537.8412875069157
 21
299.9999875
 31
0.0
  0
LINE
  5
134
330
1F
100
AcDbEntity
  8
0
  6
CONTINUOUS
 62
     7
100
AcDbLine
 10
603.0000000000001
 20
263.9999875
 30
0.0
 11
603.0000000000001
 21
299.9999875
 31
0.0
  0
LINE
  5
135
330
1F
100
AcDbEntity
  8
0
  6
CONTINUOUS
 62
     7
100
AcDbLine
 10
603.0000000000001
 20
263.9999875
 30
0.0
 11
602.9825449350718
 21
263.9999875
 31
0.0
  0
LINE
  5
136
330
1F
100
AcDbEntity
  8
0
  6
CONTINUOUS
 62
     7
100
AcDbLine
 10
602.9825449350718
 20
265.9999875
 30
0.0
 11
602.9825449350718
 21
263.9999875
 31
0.0
  0
LINE
  5
137
330
1F
100
AcDbEntity
  8
0
  6
CONTINUOUS
 62
     7
100
AcDbLine
 10
602.9825449350718
 20
265.9999875
 30
0.0
 11
602.9650898701436
 21
265.8571303571429
 31
0.0
  0
LINE
  5
138
330
1F
100
AcDbEntity
  8
0
  6
CONTINUOUS
 62
     7
100
AcDbLine
 10
602.9650898701436
 20
265.8571303571429
 30
0.0
 11
602.9476348052154
 21
265.7142732142857
 31
0.0
  0
LINE
  5
139
330
1F
100
AcDbEntity
  8
0
  6
CONTINUOUS
 62
     7
100
AcDbLine
 10
602.9476348052154
 20
265.7142732142857
 30
0.0
 11
602.9301797402871
 21
265.5714160714285
 31
0.0
  0
LINE
  5
13A
330
1F
100
AcDbEntity
  8
0
  6
CONTINUOUS
 62
     7
100
AcDbLine
 10
602.9301797402871
 20
265.5714160714285
 30
0.0
 11
602.912724675359
 21
265.4285589285714
 31
0.0
  0
LINE
  5
13B
330
1F
100
AcDbEntity
  8
0
  6
CONTINUOUS
 62
     7
100
AcDbLine
 10
602.912724675359
 20
265.4285589285714
 30
0.0
 11
602.8952696104307
 21
265.2857017857143
 31
0.0
  0
LINE
  5
13C
330
1F
100
AcDbEntity
  8
0
  6
CONTINUOUS
 62
     7
100
AcDbLine
 10
602.8952696104307
 20
265.2857017857143
 30
0.0
 11
602.89033257252
 21
265.2452956839322
 31
0.0
  0
LINE
  5
13D
330
1F
100
AcDbEntity
  8
0
  6
CONTINUOUS
 62
     7
100
AcDbLine
 10
602.89033257252
 20
265.2452956839322
 30
0.0
 11
602.8778145455025
 21
264.9974475041788
 31
0.0
  0
LINE
  5
13E
330
1F
100
AcDbEntity
  8
0
  6
CONTINUOUS
 62
     7
100
AcDbLine
 10
602.8778145455025
 20
264.9974475041788
 30
0.0
 11
602.8603594805744
 21
263.2653966966099
 31
0.0
  0
LINE
  5
13F
330
1F
100
AcDbEntity
  8
0
  6
CONTINUOUS
 62
     7
100
AcDbLine
 10
602.8603594805744
 20
256.7345783033902
 30
0.0
 11
602.8603594805744
 21
263.2653966966099
 31
0.0
  0
LINE
  5
140
330
1F
100
AcDbEntity
  8
0
  6
CONTINUOUS
 62
     7
100
AcDbLine
 10
602.8603594805744
 20
256.7345783033902
 30
0.0
 11
602.8778145455025
 21
255.0025274958213
 31
0.0
  0
LINE
  5
141
330
1F
100
AcDbEntity
  8
0
  6
CONTINUOUS
 62
     7
100
AcDbLine
 10
602.8778145455025
 20
255.0025274958213
 30
0.0
 11
602.89033257252
 21
254.7546793160678
 31
0.0
  0
LINE
  5
142
330
1F
100
AcDbEntity
  8
0
  6
CONTINUOUS
 62
     7
100
AcDbLine
 10
602.89033257252
 20
254.7546793160678
 30
0.0
 11
602.8952696104307
 21
254.7142732142857
 31
0.0
  0
LINE
  5
143
330
1F
100
AcDbEntity
  8
0
  6
CONTINUOUS
 62
     7
100
AcDbLine
 10
602.8952696104307
 20
254.7142732142857
 30
0.0
 11
602.912724675359
 21
254.5714160714286
 31
0.0
  0
LINE
  5
144
330
1F
100
AcDbEntity
  8
0
  6
CONTINUOUS
 62
     7
100
AcDbLine
 10
602.912724675359
 20
254.5714160714286
 30
0.0
 11
602.9301797402871
 21
254.4285589285714
 31
0.0
  0
LINE
  5
145
330
1F
100
AcDbEntity
  8
0
  6
CONTINUOUS
 62
     7
100
AcDbLine
 10
602.9301797402871
 20
254.4285589285714
 30
0.0
 11
602.9476348052154
 21
254.2857017857143
 31
0.0
  0
LINE
  5
146
330
1F
100
AcDbEntity
  8
0
  6
CONTINUOUS
 62
     7
100
AcDbLine
 10
602.9476348052154
 20
254.2857017857143
 30
0.0
 11
602.9650898701436
 21
254.1428446428571
 31
0.0
  0
LINE
  5
147
330
1F
100
AcDbEntity
  8
0
  6
CONTINUOUS
 62
     7
100
AcDbLine
 10
602.9650898701436
 20
254.1428446428571
 30
0.0
 11
602.9825449350718
 21
253.9999875
 31
0.0
  0
LINE
  5
148
330
1F
100
AcDbEntity
  8
0
  6
CONTINUOUS
 62
     7
100
AcDbLine
 10
602.9825449350718
 20
253.9999875
 30
0.0
 11
602.9825449350718
 21
255.9999875
 31
0.0
  0
LINE
  5
149
330
1F
100
AcDbEntity
  8
0
  6
CONTINUOUS
 62
     7
100
AcDbLine
 10
603.0000000000001
 20
255.9999875
 30
0.0
 11
602.9825449350718
 21
255.9999875
 31
0.0
  0
LINE
  5
14A
330
1F
100
AcDbEntity
  8
0
  6
CONTINUOUS
 62
     7
100
AcDbLine
 10
603.0000000000001
 20
225.0007489082519
 30
0.0
 11
603.0000000000001
 21
255.9999875
 31
0.0
  0
LINE
  5
14B
330
1F
100
AcDbEntity
  8
0
  6
CONTINUOUS
 62
     7
100
AcDbLine
 10
602.6299992461462
 20
225.3707496621057
 30
0.0
 11
603.0000000000001
 21
225.0007489082519
 31
0.0
  0
LINE
  5
14C
330
1F
100
AcDbEntity
  8
0
  6
CONTINUOUS
 62
     7
100
AcDbLine
 10
603.0000000000001
 20
299.9999875
 30
0.0
 11
602.1587124930844
 21
299.9999875
 31
0.0
  0
LINE
  5
14D
330
1F
100
AcDbEntity
  8
0
  6
CONTINUOUS
 62
     7
100
AcDbLine
 10
543.9286241675806
 20
225.3997755012402
 30
0.0
 11
544.8836367620107
 21
225.4013914403228
 31
0.0
  0
ELLIPSE
  5
14E
330
1F
100
AcDbEntity
  8
0
  6
CONTINUOUS
 62
     7
100
AcDbEllipse
 10
544.8948015167116
 20
200.3103995594097
 30
0.0
 11
-1.012416052651241
 21
25.08862837165376
 31
0.0
210
0.0
220
0.0
230
1.0
 40
0.1951652596982753
 41
6.27375101603904
 42
6.275989675015805
  0
ELLIPSE
  5
14F
330
1F
100
AcDbEntity
  8
0
  6
CONTINUOUS
 62
     7
100
AcDbEllipse
 10
544.8948015167116
 20
200.3103704676103
 30
0.0
 11
0.0
 21
25.09108352573866
 31
0.0
210
0.0
220
0.0
230
1.0
 40
0.1992739769436803
 41
0.0
 42
0.0022329527958082
  0
LINE
  5
150
330
1F
100
AcDbEntity
  8
0
  6
CONTINUOUS
 62
     7
100
AcDbLine
 10
544.8948015167116
 20
225.401453993349
 30
0.0
 11
595.1051984832884
 21
225.401453993349
 31
0.0
  0
ELLIPSE
  5
151
330
1F
100
AcDbEntity
  8
0
  6
CONTINUOUS
 62
     7
100
AcDbEllipse
 10
595.1051984832884
 20
200.3103995594098
 30
0.0
 11
-1.012416052651243
 21
-25.08862837165363
 31
0.0
210
0.0
220
0.0
230
1.0
 40
0.1951652596982761
 41
3.148788285753567
 42
3.151026944730339
  0
LINE
  5
152
330
1F
100
AcDbEntity
  8
0
  6
CONTINUOUS
 62
     7
100
AcDbLine
 10
596.0713758324194
 20
225.3997755012402
 30
0.0
 11
595.1163632379894
 21
225.4013914403228
 31
0.0
  0
ELLIPSE
  5
153
330
1F
100
AcDbEntity
  8
0
  6
CONTINUOUS
 62
     7
100
AcDbEllipse
 10
595.1051984832884
 20
200.3103704676103
 30
0.0
 11
0.0
 21
-25.09108352573866
 31
0.0
210
0.0
220
0.0
230
1.0
 40
0.1992739769436803
 41
3.139359700793985
 42
3.141592653589793
  0
LINE
  5
154
330
1F
100
AcDbEntity
  8
0
  6
CONTINUOUS
 62
     7
100
AcDbLine
 10
537.7722088767146
 20
225.3784242718445
 30
0.0
 11
543.9176442695372
 21
225.399800186855
 31
0.0
  0
LINE
  5
155
330
1F
100
AcDbEntity
  8
0
  6
CONTINUOUS
 62
     7
100
AcDbLine
 10
596.082355730463
 20
225.399800186855
 30
0.0
 11
602.2277911232854
 21
225.3784242718445
 31
0.0
  0
ELLIPSE
  5
156
330
1F
100
AcDbEntity
  8
0
  6
CONTINUOUS
 62
     7
100
AcDbEllipse
 10
537.869924601432
 20
222.8694842090999
 30
0.0
 11
0.1012416052651239
 21
-2.508862837165373
 31
0.0
210
0.0
220
0.0
230
1.0
 40
0.1951652596982753
 41
3.134397021426018
 42
3.152213926769573
  0
ELLIPSE
  5
157
330
1F
100
AcDbEntity
  8
0
  6
CONTINUOUS
 62
     7
100
AcDbEllipse
 10
602.1300753985681
 20
222.8694842090999
 30
0.0
 11
0.1012416052651242
 21
2.508862837165361
 31
0.0
210
0.0
220
0.0
230
1.0
 40
0.1951652596982761
 41
6.27256403399983
 42
6.290380939343365
  0
LINE
  5
158
330
1F
100
AcDbEntity
  8
0
  6
CONTINUOUS
 62
     7
100
AcDbLine
 10
537.7634881738477
 20
225.37799567324
 30
0.0
 11
537.3702026880602
 21
225.3705723261624
 31
0.0
  0
LINE
  5
159
330
1F
100
AcDbEntity
  8
0
  6
CONTINUOUS
 62
     7
100
AcDbLine
 10
537.3702026880602
 20
225.3705723261624
 30
0.0
 11
537.3700007538539
 21
225.3707496621057
 31
0.0
  0
LINE
  5
15A
330
1F
100
AcDbEntity
  8
0
  6
CONTINUOUS
 62
     7
100
AcDbLine
 10
602.6299992461462
 20
225.3707496621057
 30
0.0
 11
602.6297973119399
 21
225.3705723261624
 31
0.0
  0
LINE
  5
15B
330
1F
100
AcDbEntity
  8
0
  6
CONTINUOUS
 62
     7
100
AcDbLine
 10
602.6297973119399
 20
225.3705723261624
 30
0.0
 11
602.2365118261524
 21
225.37799567324
 31
0.0
  0
LINE
  5
15C
330
1F
100
AcDbEntity
  8
0
  6
CONTINUOUS
 62
     7
100
AcDbLine
 10
600.5
 20
219.9999875
 30
0.0
 11
601.5900057730342
 21
219.9999875
 31
0.0
  0
LINE
  5
15D
330
1F
100
AcDbEntity
  8
0
  6
CONTINUOUS
 62
     7
100
AcDbLine
 10
595.5
 20
220.3578163310285
 30
0.0
 11
600.3295285417045
 21
220.3409563841748
 31
0.0
  0
LINE
  5
15E
330
1F
100
AcDbEntity
  8
0
  6
CONTINUOUS
 62
     7
100
AcDbLine
 10
544.5000000000001
 20
220.3578163310285
 30
0.0
 11
595.5
 21
220.3578163310285
 31
0.0
  0
LINE
  5
15F
330
1F
100
AcDbEntity
  8
0
  6
CONTINUOUS
 62
     7
100
AcDbLine
 10
539.6704714582957
 20
220.3409563841748
 30
0.0
 11
544.5000000000001
 21
220.3578163310285
 31
0.0
  0
LINE
  5
160
330
1F
100
AcDbEntity
  8
0
  6
CONTINUOUS
 62
     7
100
AcDbLine
 10
538.4099942269659
 20
219.9999875
 30
0.0
 11
539.5000000000001
 21
219.9999875
 31
0.0
  0
LINE
  5
161
330
1F
100
AcDbEntity
  8
0
  6
CONTINUOUS
 62
     7
100
AcDbLine
 10
600.3295285417045
 20
220.3409563841748
 30
0.0
 11
600.5
 21
219.9999875
 31
0.0
  0
LINE
  5
162
330
1F
100
AcDbEntity
  8
0
  6
CONTINUOUS
 62
     7
100
AcDbLine
 10
539.6704714582957
 20
220.3409563841748
 30
0.0
 11
539.5000000000001
 21
219.9999875
 31
0.0
  0
LINE
  5
163
330
1F
100
AcDbEntity
  8
0
  6
CONTINUOUS
 62
     7
100
AcDbLine
 10
537.9197803709103
 20
220.4018470537011
 30
0.0
 11
537.0
 21
225.0007489082519
 31
0.0
  0
LINE
  5
164
330
1F
100
AcDbEntity
  8
0
  6
CONTINUOUS
 62
     7
100
AcDbLine
 10
603.0000000000001
 20
225.0007489082519
 30
0.0
 11
602.0802196290898
 21
220.4018470537011
 31
0.0
  0
ELLIPSE
  5
165
330
1F
100
AcDbEntity
  8
0
  6
CONTINUOUS
 62
     7
100
AcDbEllipse
 10
538.4101465434097
 20
220.500063664022
 30
0.0
 11
0.353661094584734
 21
0.3536610945847341
 31
0.0
210
0.0
220
0.0
230
-1.0
 40
0.9996954598818468
 41
2.356346783439936
 42
3.729454686988618
  0
ELLIPSE
  5
166
330
1F
100
AcDbEntity
  8
0
  6
CONTINUOUS
 62
     7
100
AcDbEllipse
 10
601.5898534565905
 20
220.500063664022
 30
0.0
 11
0.3536610945847897
 21
-0.3536610945847898
 31
0.0
210
0.0
220
0.0
230
-1.0
 40
0.9996954598819255
 41
5.695323273780755
 42
7.068431177329443
  0
LINE
  5
167
330
1F
100
AcDbEntity
  8
0
  6
CONTINUOUS
 62
     7
100
AcDbLine
 10
537.1221854544976
 20
255.0025274958213
 30
0.0
 11
537.1221854544976
 21
264.9974475041788
 31
0.0
  0
LINE
  5
168
330
1F
100
AcDbEntity
  8
0
  6
CONTINUOUS
 62
     7
100
AcDbLine
 10
602.8778145455025
 20
255.0025274958213
 30
0.0
 11
602.8778145455025
 21
264.9974475041788
 31
0.0
  0
LINE
  5
169
330
1F
100
AcDbEntity
  8
0
  6
CONTINUOUS
 62
     7
100
AcDbLine
 10
537.1047303895693
 20
254.7142732142857
 30
0.0
 11
537.1047303895693
 21
265.2857017857143
 31
0.0
  0
LINE
  5
16A
330
1F
100
AcDbEntity
  8
0
  6
CONTINUOUS
 62
     7
100
AcDbLine
 10
602.8952696104307
 20
254.7142732142857
 30
0.0
 11
602.8952696104307
 21
265.2857017857143
 31
0.0
  0
LINE
  5
16B
330
1F
100
AcDbEntity
  8
0
  6
CONTINUOUS
 62
     7
100
AcDbLine
 10
537.0872753246412
 20
254.5714160714286
 30
0.0
 11
537.0872753246412
 21
265.4285589285714
 31
0.0
  0
LINE
  5
16C
330
1F
100
AcDbEntity
  8
0
  6
CONTINUOUS
 62
     7
100
AcDbLine
 10
602.912724675359
 20
254.5714160714286
 30
0.0
 11
602.912724675359
 21
265.4285589285714
 31
0.0
  0
LINE
  5
16D
330
1F
100
AcDbEntity
  8
0
  6
CONTINUOUS
 62
     7
100
AcDbLine
 10
602.9301797402871
 20
254.4285589285714
 30
0.0
 11
602.9301797402871
 21
265.5714160714285
 31
0.0
  0
LINE
  5
16E
330
1F
100
AcDbEntity
  8
0
  6
CONTINUOUS
 62
     7
100
AcDbLine
 10
537.069820259713
 20
254.4285589285714
 30
0.0
 11
537.069820259713
 21
265.5714160714285
 31
0.0
  0
LINE
  5
16F
330
1F
100
AcDbEntity
  8
0
  6
CONTINUOUS
 62
     7
100
AcDbLine
 10
602.9476348052154
 20
254.2857017857143
 30
0.0
 11
602.9476348052154
 21
265.7142732142857
 31
0.0
  0
LINE
  5
170
330
1F
100
AcDbEntity
  8
0
  6
CONTINUOUS
 62
     7
100
AcDbLine
 10
537.0523651947847
 20
254.2857017857143
 30
0.0
 11
537.0523651947847
 21
265.7142732142857
 31
0.0
  0
LINE
  5
171
330
1F
100
AcDbEntity
  8
0
  6
CONTINUOUS
 62
     7
100
AcDbLine
 10
602.9650898701436
 20
254.1428446428571
 30
0.0
 11
602.9650898701436
 21
265.8571303571429
 31
0.0
  0
LINE
  5
172
330
1F
100
AcDbEntity
  8
0
  6
CONTINUOUS
 62
     7
100
AcDbLine
 10
537.0349101298565
 20
254.1428446428571
 30
0.0
 11
537.0349101298565
 21
265.8571303571429
 31
0.0
  0
LINE
  5
173
330
1F
100
AcDbEntity
  8
0
  6
CONTINUOUS
 62
     7
100
AcDbLine
 10
537.0349101298565
 20
255.9999875
 30
0.0
 11
537.0174550649283
 21
255.9999875
 31
0.0
  0
LINE
  5
174
330
1F
100
AcDbEntity
  8
0
  6
CONTINUOUS
 62
     7
100
AcDbLine
 10
602.9825449350718
 20
255.9999875
 30
0.0
 11
602.9650898701436
 21
255.9999875
 31
0.0
  0
LINE
  5
175
330
1F
100
AcDbEntity
  8
0
  6
CONTINUOUS
 62
     7
100
AcDbLine
 10
537.0349101298565
 20
263.9999875
 30
0.0
 11
537.0174550649283
 21
263.9999875
 31
0.0
  0
LINE
  5
176
330
1F
100
AcDbEntity
  8
0
  6
CONTINUOUS
 62
     7
100
AcDbLine
 10
602.9825449350718
 20
263.9999875
 30
0.0
 11
602.9650898701436
 21
263.9999875
 31
0.0
  0
LINE
  5
177
330
1F
100
AcDbEntity
  8
0
  6
CONTINUOUS
 62
     7
100
AcDbLine
 10
538.4099942269659
 20
219.9999875
 30
0.0
 11
539.5000000000001
 21
219.9999875
 31
0.0
  0
ELLIPSE
  5
178
330
1F
100
AcDbEntity
  8
0
  6
CONTINUOUS
 62
     7
100
AcDbEllipse
 10
538.4101465434096
 20
220.500063664022
 30
0.0
 11
-0.3536610945847896
 21
-0.3536610945847896
 31
0.0
210
0.0
220
0.0
230
1.0
 40
0.9996954598819258
 41
5.69532327378078
 42
7.068431177329457
  0
LINE
  5
179
330
1F
100
AcDbEntity
  8
0
  6
CONTINUOUS
 62
     7
100
AcDbLine
 10
537.0
 20
225.0007489082519
 30
0.0
 11
537.9197803709103
 21
220.4018470537011
 31
0.0
  0
LINE
  5
17A
330
1F
100
AcDbEntity
  8
0
  6
CONTINUOUS
 62
     7
100
AcDbLine
 10
537.0
 20
299.9999875
 30
0.0
 11
537.0
 21
263.9999875
 31
0.0
  0
LINE
  5
17B
330
1F
100
AcDbEntity
  8
0
  6
CONTINUOUS
 62
     7
100
AcDbLine
 10
537.0
 20
263.9999875
 30
0.0
 11
537.0
 21
255.9999875
 31
0.0
  0
LINE
  5
17C
330
1F
100
AcDbEntity
  8
0
  6
CONTINUOUS
 62
     7
100
AcDbLine
 10
537.0
 20
255.9999875
 30
0.0
 11
537.0
 21
225.0007489082519
 31
0.0
  0
LINE
  5
17D
330
1F
100
AcDbEntity
  8
0
  6
CONTINUOUS
 62
     7
100
AcDbLine
 10
602.0802196290898
 20
220.4018470537011
 30
0.0
 11
603.0000000000001
 21
225.0007489082519
 31
0.0
  0
LINE
  5
17E
330
1F
100
AcDbEntity
  8
0
  6
CONTINUOUS
 62
     7
100
AcDbLine
 10
600.5
 20
219.9999875
 30
0.0
 11
601.5900057730342
 21
219.9999875
 31
0.0
  0
LINE
  5
17F
330
1F
100
AcDbEntity
  8
0
  6
CONTINUOUS
 62
     7
100
AcDbLine
 10
603.0000000000001
 20
299.9999875
 30
0.0
 11
603.0000000000001
 21
263.9999875
 31
0.0
  0
LINE
  5
180
330
1F
100
AcDbEntity
  8
0
  6
CONTINUOUS
 62
     7
100
AcDbLine
 10
603.0000000000001
 20
263.9999875
 30
0.0
 11
603.0000000000001
 21
255.9999875
 31
0.0
  0
LINE
  5
181
330
1F
100
AcDbEntity
  8
0
  6
CONTINUOUS
 62
     7
100
AcDbLine
 10
603.0000000000001
 20
255.9999875
 30
0.0
 11
603.0000000000001
 21
225.0007489082519
 31
0.0
  0
ELLIPSE
  5
182
330
1F
100
AcDbEntity
  8
0
  6
CONTINUOUS
 62
     7
100
AcDbEllipse
 10
601.5898534565904
 20
220.500063664022
 30
0.0
 11
-0.3536610945847896
 21
0.3536610945847896
 31
0.0
210
0.0
220
0.0
230
1.0
 40
0.9996954598816901
 41
2.356346783439922
 42
3.729454686988629
  0
ELLIPSE
  5
183
330
1F
100
AcDbEntity
  8
0
  6
CONTINUOUS
 62
     7
100
AcDbEllipse
 10
635.3702165255521
 20
161.1385856923839
 30
0.0
 11
2.500547412028699
 21
0.01090661224006718
 31
0.0
210
0.0
220
0.0
230
1.0
 40
0.1999086397047851
 41
6.278823644999263
 42
6.294723757665385
  0
LINE
  5
184
330
1F
100
AcDbEntity
  8
0
  6
CONTINUOUS
 62
     7
100
AcDbLine
 10
637.8707496621056
 20
161.1473118956025
 30
0.0
 11
637.5007489082519
 21
139.9499829039675
 31
0.0
  0
LINE
  5
185
330
1F
100
AcDbEntity
  8
0
  6
CONTINUOUS
 62
     7
100
AcDbLine
 10
637.5007489082519
 20
139.9499829039675
 30
0.0
 11
632.9018470537011
 21
139.9499829039675
 31
0.0
  0
LINE
  5
186
330
1F
100
AcDbEntity
  8
0
  6
CONTINUOUS
 62
     7
100
AcDbLine
 10
712.4999875
 20
139.9499829039675
 30
0.0
 11
712.4999875
 21
188.1473118956025
 31
0.0
  0
LINE
  5
187
330
1F
100
AcDbEntity
  8
0
  6
CONTINUOUS
 62
     7
100
AcDbLine
 10
676.4999875000001
 20
139.9499829039675
 30
0.0
 11
712.4999875
 21
139.9499829039675
 31
0.0
  0
LINE
  5
188
330
1F
100
AcDbEntity
  8
0
  6
CONTINUOUS
 62
     7
100
AcDbLine
 10
676.4999875000001
 20
139.9499829039675
 30
0.0
 11
676.4999875000001
 21
140.9499829039675
 31
0.0
  0
LINE
  5
189
330
1F
100
AcDbEntity
  8
0
  6
CONTINUOUS
 62
     7
100
AcDbLine
 10
678.4999875000001
 20
140.9499829039675
 30
0.0
 11
676.4999875000001
 21
140.9499829039675
 31
0.0
  0
LINE
  5
18A
330
1F
100
AcDbEntity
  8
0
  6
CONTINUOUS
 62
     7
100
AcDbLine
 10
678.4999875000001
 20
140.9499829039675
 30
0.0
 11
678.3571303571429
 21
141.9499829039675
 31
0.0
  0
LINE
  5
18B
330
1F
100
AcDbEntity
  8
0
  6
CONTINUOUS
 62
     7
100
AcDbLine
 10
678.3571303571429
 20
141.9499829039675
 30
0.0
 11
678.2142732142858
 21
142.9499829039675
 31
0.0
  0
LINE
  5
18C
330
1F
100
AcDbEntity
  8
0
  6
CONTINUOUS
 62
     7
100
AcDbLine
 10
678.2142732142858
 20
142.9499829039675
 30
0.0
 11
678.0714160714286
 21
143.9499829039675
 31
0.0
  0
LINE
  5
18D
330
1F
100
AcDbEntity
  8
0
  6
CONTINUOUS
 62
     7
100
AcDbLine
 10
678.0714160714286
 20
143.9499829039675
 30
0.0
 11
677.9285589285714
 21
144.9499829039675
 31
0.0
  0
LINE
  5
18E
330
1F
100
AcDbEntity
  8
0
  6
CONTINUOUS
 62
     7
100
AcDbLine
 10
677.9285589285714
 20
144.9499829039675
 30
0.0
 11
677.7857017857143
 21
145.9499829039675
 31
0.0
  0
LINE
  5
18F
330
1F
100
AcDbEntity
  8
0
  6
CONTINUOUS
 62
     7
100
AcDbLine
 10
677.7857017857143
 20
145.9499829039675
 30
0.0
 11
677.7452956839322
 21
146.2328256164422
 31
0.0
  0
ARC
  5
190
330
1F
100
AcDbEntity
  8
0
  6
CONTINUOUS
 62
     7
100
AcDbCircle
 10
675.7653966966099
 20
145.9499829039675
 30
0.0
 40
2.0
100
AcDbArc
 50
8.13010235415668
 51
29.99999999999995
  0
ARC
  5
191
330
1F
100
AcDbEntity
  8
0
  6
CONTINUOUS
 62
     7
100
AcDbCircle
 10
675.7653966966099
 20
145.9499829039675
 30
0.0
 40
2.0
100
AcDbArc
 50
29.99999999999991
 51
90.00000000000001
  0
LINE
  5
192
330
1F
100
AcDbEntity
  8
0
  6
CONTINUOUS
 62
     7
100
AcDbLine
 10
669.2345783033902
 20
147.9499829039675
 30
0.0
 11
675.7653966966099
 21
147.9499829039675
 31
0.0
  0
ARC
  5
193
330
1F
100
AcDbEntity
  8
0
  6
CONTINUOUS
 62
     7
100
AcDbCircle
 10
669.2345783033902
 20
145.9499829039675
 30
0.0
 40
2.0
100
AcDbArc
 50
90.0
 51
150.0000000000001
  0
ARC
  5
194
330
1F
100
AcDbEntity
  8
0
  6
CONTINUOUS
 62
     7
100
AcDbCircle
 10
669.2345783033902
 20
145.9499829039675
 30
0.0
 40
2.0
100
AcDbArc
 50
150.0000000000001
 51
171.8698976458433
  0
LINE
  5
195
330
1F
100
AcDbEntity
  8
0
  6
CONTINUOUS
 62
     7
100
AcDbLine
 10
667.2546793160678
 20
146.2328256164422
 30
0.0
 11
667.2142732142858
 21
145.9499829039675
 31
0.0
  0
LINE
  5
196
330
1F
100
AcDbEntity
  8
0
  6
CONTINUOUS
 62
     7
100
AcDbLine
 10
667.2142732142858
 20
145.9499829039675
 30
0.0
 11
667.0714160714286
 21
144.9499829039676
 31
0.0
  0
LINE
  5
197
330
1F
100
AcDbEntity
  8
0
  6
CONTINUOUS
 62
     7
100
AcDbLine
 10
667.0714160714286
 20
144.9499829039676
 30
0.0
 11
666.9285589285715
 21
143.9499829039675
 31
0.0
  0
LINE
  5
198
330
1F
100
AcDbEntity
  8
0
  6
CONTINUOUS
 62
     7
100
AcDbLine
 10
666.9285589285715
 20
143.9499829039675
 30
0.0
 11
666.7857017857143
 21
142.9499829039676
 31
0.0
  0
LINE
  5
199
330
1F
100
AcDbEntity
  8
0
  6
CONTINUOUS
 62
     7
100
AcDbLine
 10
666.7857017857143
 20
142.9499829039676
 30
0.0
 11
666.6428446428572
 21
141.9499829039675
 31
0.0
  0
LINE
  5
19A
330
1F
100
AcDbEntity
  8
0
  6
CONTINUOUS
 62
     7
100
AcDbLine
 10
666.6428446428572
 20
141.9499829039675
 30
0.0
 11
666.4999875000001
 21
140.9499829039675
 31
0.0
  0
LINE
  5
19B
330
1F
100
AcDbEntity
  8
0
  6
CONTINUOUS
 62
     7
100
AcDbLine
 10
666.4999875000001
 20
140.9499829039675
 30
0.0
 11
668.4999875000001
 21
140.9499829039675
 31
0.0
  0
LINE
  5
19C
330
1F
100
AcDbEntity
  8
0
  6
CONTINUOUS
 62
     7
100
AcDbLine
 10
637.5007489082519
 20
139.9499829039675
 30
0.0
 11
668.4999875000001
 21
139.9499829039675
 31
0.0
  0
LINE
  5
19D
330
1F
100
AcDbEntity
  8
0
  6
CONTINUOUS
 62
     7
100
AcDbLine
 10
668.4999875000001
 20
139.9499829039675
 30
0.0
 11
668.4999875000001
 21
140.9499829039675
 31
0.0
  0
LINE
  5
19E
330
1F
100
AcDbEntity
  8
0
  6
CONTINUOUS
 62
     7
100
AcDbLine
 10
668.4999875000001
 20
140.9499829039675
 30
0.0
 11
668.4999875000001
 21
141.9499829039675
 31
0.0
  0
LINE
  5
19F
330
1F
100
AcDbEntity
  8
0
  6
CONTINUOUS
 62
     7
100
AcDbLine
 10
676.4999875000001
 20
140.9499829039675
 30
0.0
 11
676.4999875000001
 21
141.9499829039675
 31
0.0
  0
LINE
  5
1A0
330
1F
100
AcDbEntity
  8
0
  6
CONTINUOUS
 62
     7
100
AcDbLine
 10
666.6428446428572
 20
141.9499829039675
 30
0.0
 11
678.3571303571429
 21
141.9499829039675
 31
0.0
  0
LINE
  5
1A1
330
1F
100
AcDbEntity
  8
0
  6
CONTINUOUS
 62
     7
100
AcDbLine
 10
666.7857017857143
 20
142.9499829039676
 30
0.0
 11
678.2142732142858
 21
142.9499829039675
 31
0.0
  0
LINE
  5
1A2
330
1F
100
AcDbEntity
  8
0
  6
CONTINUOUS
 62
     7
100
AcDbLine
 10
666.9285589285715
 20
143.9499829039675
 30
0.0
 11
678.0714160714286
 21
143.9499829039675
 31
0.0
  0
LINE
  5
1A3
330
1F
100
AcDbEntity
  8
0
  6
CONTINUOUS
 62
     7
100
AcDbLine
 10
667.0714160714286
 20
144.9499829039676
 30
0.0
 11
677.9285589285714
 21
144.9499829039675
 31
0.0
  0
LINE
  5
1A4
330
1F
100
AcDbEntity
  8
0
  6
CONTINUOUS
 62
     7
100
AcDbLine
 10
667.2142732142858
 20
145.9499829039675
 30
0.0
 11
677.7857017857143
 21
145.9499829039675
 31
0.0
  0
LINE
  5
1A5
330
1F
100
AcDbEntity
  8
0
  6
CONTINUOUS
 62
     7
100
AcDbLine
 10
667.5025274958213
 20
146.9499829039675
 30
0.0
 11
677.4974475041787
 21
146.9499829039675
 31
0.0
  0
LINE
  5
1A6
330
1F
100
AcDbEntity
  8
0
  6
CONTINUOUS
 62
     7
100
AcDbLine
 10
637.8705723261625
 20
161.1552593031503
 30
0.0
 11
637.87799567324
 21
161.627125646618
 31
0.0
  0
LINE
  5
1A7
330
1F
100
AcDbEntity
  8
0
  6
CONTINUOUS
 62
     7
100
AcDbLine
 10
637.87799567324
 20
161.627125646618
 30
0.0
 11
637.8784242718444
 21
161.6289443745166
 31
0.0
  0
LINE
  5
1A8
330
1F
100
AcDbEntity
  8
0
  6
CONTINUOUS
 62
     7
100
AcDbLine
 10
637.899800186855
 20
162.8535697252948
 30
0.0
 11
637.8784242718444
 21
161.6289443745166
 31
0.0
  0
LINE
  5
1A9
330
1F
100
AcDbEntity
  8
0
  6
CONTINUOUS
 62
     7
100
AcDbLine
 10
712.4999875
 20
188.6289443745166
 30
0.0
 11
712.4999875
 21
188.1473118956025
 31
0.0
  0
ELLIPSE
  5
1AA
330
1F
100
AcDbEntity
  8
0
  6
CONTINUOUS
 62
     7
100
AcDbEllipse
 10
612.8103995594098
 20
157.9499829039676
 30
0.0
 11
-25.08873463688795
 21
-4.911244953687628
 31
0.0
210
0.0
220
0.0
230
1.0
 40
0.0373836648344202
 41
3.133594922791594
 42
3.135833581768361
  0
LINE
  5
1AB
330
1F
100
AcDbEntity
  8
0
  6
CONTINUOUS
 62
     7
100
AcDbLine
 10
632.4999875
 20
139.9499829039675
 30
0.0
 11
632.8568863261598
 21
160.3967029607318
 31
0.0
  0
LINE
  5
1AC
330
1F
100
AcDbEntity
  8
0
  6
CONTINUOUS
 62
     7
100
AcDbLine
 10
632.9018470537011
 20
139.9499829039675
 30
0.0
 11
632.4999875
 21
139.9499829039675
 31
0.0
  0
LINE
  5
1AD
330
1F
100
AcDbEntity
  8
0
  6
CONTINUOUS
 62
     7
100
AcDbLine
 10
712.4999875
 20
189.8535697252948
 30
0.0
 11
712.4999875
 21
188.6289443745166
 31
0.0
  0
LINE
  5
1AE
330
1F
100
AcDbEntity
  8
0
  6
CONTINUOUS
 62
     7
100
AcDbLine
 10
632.8568863261598
 20
160.3967029607318
 30
0.0
 11
632.8754888853433
 21
161.4624428625802
 31
0.0
  0
ARC
  5
1AF
330
1F
100
AcDbEntity
  8
0
  6
CONTINUOUS
 62
     7
100
AcDbCircle
 10
651.9944671878328
 20
164.9500513751306
 30
0.0
 40
2.000068471237864
100
AcDbArc
 50
270.0004957688323
 51
298.3685505244467
  0
LINE
  5
1B0
330
1F
100
AcDbEntity
  8
0
  6
CONTINUOUS
 62
     7
100
AcDbLine
 10
637.8997755012402
 20
162.8557449579227
 30
0.0
 11
637.9013914403229
 21
162.9499704387773
 31
0.0
  0
LINE
  5
1B1
330
1F
100
AcDbEntity
  8
0
  6
CONTINUOUS
 62
     7
100
AcDbLine
 10
637.901453993349
 20
162.9499829039676
 30
0.0
 11
651.9944844940222
 21
162.9499829039676
 31
0.0
  0
LINE
  5
1B2
330
1F
100
AcDbEntity
  8
0
  6
CONTINUOUS
 62
     7
100
AcDbLine
 10
652.944782323492
 20
163.1901721086532
 30
0.0
 11
701.1656030295244
 21
189.2294152899107
 31
0.0
  0
LINE
  5
1B3
330
1F
100
AcDbEntity
  8
0
  6
CONTINUOUS
 62
     7
100
AcDbLine
 10
633.2791773392895
 20
162.0288834525792
 30
0.0
 11
637.9013914403229
 21
162.9499704387773
 31
0.0
  0
ARC
  5
1B4
330
1F
100
AcDbEntity
  8
0
  6
CONTINUOUS
 62
     7
100
AcDbCircle
 10
-633.3768930640069
 20
161.5385247704464
 30
0.0
 40
0.5000000000000476
210
0.0
220
0.0
230
-1.0
100
AcDbArc
 50
1.000000000000242
 51
78.73007123647967
  0
LINE
  5
1B5
330
1F
100
AcDbEntity
  8
0
  6
CONTINUOUS
 62
     7
100
AcDbLine
 10
632.8754888853433
 20
161.4624428625802
 30
0.0
 11
632.8769692164286
 21
161.5472509736651
 31
0.0
  0
ARC
  5
1B6
330
1F
100
AcDbEntity
  8
0
  6
CONTINUOUS
 62
     7
100
AcDbCircle
 10
-704.0167428455385
 20
183.9490083198327
 30
0.0
 40
6.000974589190481
210
0.0
220
0.0
230
-1.0
100
AcDbArc
 50
61.63330558006019
 51
89.9976481266627
  0
LINE
  5
1B7
330
1F
100
AcDbEntity
  8
0
  6
CONTINUOUS
 62
     7
100
AcDbLine
 10
704.0164965179338
 20
189.9499829039676
 30
0.0
 11
712.4999875
 21
189.9499829039676
 31
0.0
  0
LINE
  5
1B8
330
1F
100
AcDbEntity
  8
0
  6
CONTINUOUS
 62
     7
100
AcDbLine
 10
712.4999875
 20
189.9499829039676
 30
0.0
 11
712.4999875
 21
189.8535697252948
 31
0.0
  0
LINE
  5
1B9
330
1F
100
AcDbEntity
  8
0
  6
CONTINUOUS
 62
     7
100
AcDbLine
 10
637.5007489082519
 20
139.9499829039675
 30
0.0
 11
637.8498502068163
 21
119.9499829039676
 31
0.0
  0
LINE
  5
1BA
330
1F
100
AcDbEntity
  8
0
  6
CONTINUOUS
 62
     7
100
AcDbLine
 10
637.8498502068163
 20
119.9499829039676
 30
0.0
 11
633.2509483522655
 21
119.9499829039676
 31
0.0
  0
LINE
  5
1BB
330
1F
100
AcDbEntity
  8
0
  6
CONTINUOUS
 62
     7
100
AcDbLine
 10
632.9018470537011
 20
139.9499829039675
 30
0.0
 11
637.5007489082519
 21
139.9499829039675
 31
0.0
  0
LINE
  5
1BC
330
1F
100
AcDbEntity
  8
0
  6
CONTINUOUS
 62
     7
100
AcDbLine
 10
712.4999875
 20
119.9499829039676
 30
0.0
 11
712.4999875
 21
139.9499829039675
 31
0.0
  0
LINE
  5
1BD
330
1F
100
AcDbEntity
  8
0
  6
CONTINUOUS
 62
     7
100
AcDbLine
 10
637.8498502068163
 20
119.9499829039676
 30
0.0
 11
712.4999875
 21
119.9499829039676
 31
0.0
  0
LINE
  5
1BE
330
1F
100
AcDbEntity
  8
0
  6
CONTINUOUS
 62
     7
100
AcDbLine
 10
712.4999875
 20
139.9499829039675
 30
0.0
 11
676.4999875000001
 21
139.9499829039675
 31
0.0
  0
LINE
  5
1BF
330
1F
100
AcDbEntity
  8
0
  6
CONTINUOUS
 62
     7
100
AcDbLine
 10
676.4999875000001
 20
139.9499829039675
 30
0.0
 11
668.4999875000001
 21
139.9499829039675
 31
0.0
  0
LINE
  5
1C0
330
1F
100
AcDbEntity
  8
0
  6
CONTINUOUS
 62
     7
100
AcDbLine
 10
668.4999875000001
 20
139.9499829039675
 30
0.0
 11
637.5007489082519
 21
139.9499829039675
 31
0.0
  0
LINE
  5
1C1
330
1F
100
AcDbEntity
  8
0
  6
CONTINUOUS
 62
     7
100
AcDbLine
 10
632.8490887985644
 20
119.9499829039676
 30
0.0
 11
632.4999875
 21
139.9499829039675
 31
0.0
  0
LINE
  5
1C2
330
1F
100
AcDbEntity
  8
0
  6
CONTINUOUS
 62
     7
100
AcDbLine
 10
633.2509483522655
 20
119.9499829039676
 30
0.0
 11
632.8490887985644
 21
119.9499829039676
 31
0.0
  0
LINE
  5
1C3
330
1F
100
AcDbEntity
  8
0
  6
CONTINUOUS
 62
     7
100
AcDbLine
 10
632.4999875
 20
139.9499829039675
 30
0.0
 11
632.9018470537011
 21
139.9499829039675
 31
0.0
  0
LINE
  5
1C4
330
1F
100
AcDbEntity
  8
0
  6
CENTER
 62
     1
100
AcDbLine
 10
570.0
 20
216.9999875
 30
0.0
 11
570.0
 21
302.9999875
 31
0.0
  0
LINE
  5
1C6
330
1F
100
AcDbEntity
  8
0
  6
CENTER
 62
     1
100
AcDbLine
 10
570.0
 20
116.9499829039676
 30
0.0
 11
570.0
 21
192.9499829039676
 31
0.0
  0
ENDSEC
  0
SECTION
  2
OBJECTS
  0
DICTIONARY
  5
C
330
0
100
AcDbDictionary
  3
ACAD_GROUP
350
D
  3
ACAD_LAYOUT
350
1A
  3
ACAD_MATERIAL
350
43
  3
ACAD_MLEADERSTYLE
350
6B
  3
ACAD_MLINESTYLE
350
17
  3
ACAD_PLOTSETTINGS
350
19
  3
ACAD_SCALELIST
350
47
  3
ACAD_VISUALSTYLE
350
2A
  3
ACDBHEADERROUNDTRIPXREC
350
1C7
  3
ACDBVARIABLEDICTIONARY
350
1E8
  0
DICTIONARY
  5
1EF
330
8
100
AcDbDictionary
280
     1
  3
ACAD_XREC_ROUNDTRIP
360
1F0
  0
DICTIONARY
  5
D
102
{ACAD_REACTORS
330
C
102
}
330
C
100
AcDbDictionary
  0
DICTIONARY
  5
1A
102
{ACAD_REACTORS
330
C
102
}
330
C
100
AcDbDictionary
  0
DICTIONARY
  5
43
102
{ACAD_REACTORS
330
C
102
}
330
C
100
AcDbDictionary
  3
BYBLOCK
350
45
  3
BYLAYER
350
44
  3
GLOBAL
350
46
  0
DICTIONARY
  5
6B
102
{ACAD_REACTORS
330
C
102
}
330
C
100
AcDbDictionary
  3
STANDARD
350
6C
  0
DICTIONARY
  5
17
102
{ACAD_REACTORS
330
C
102
}
330
C
100
AcDbDictionary
  3
STANDARD
350
18
  0
DICTIONARY
  5
19
102
{ACAD_REACTORS
330
C
102
}
330
C
100
AcDbDictionary
  0
DICTIONARY
  5
47
102
{ACAD_REACTORS
330
C
102
}
330
C
100
AcDbDictionary
  3
A0
350
48
  3
A1
350
49
  3
A2
350
4A
  3
A3
350
4B
  3
A4
350
4C
  3
A5
350
4D
  3
A6
350
4E
  3
A7
350
4F
  3
A8
350
50
  3
A9
350
51
  3
B0
350
52
  3
B1
350
53
  3
B2
350
54
  3
B3
350
55
  3
B4
350
56
  3
B5
350
57
  3
B6
350
58
  3
B7
350
59
  3
B8
350
5A
  3
B9
350
5B
  3
C0
350
5C
  3
C1
350
5D
  3
C2
350
5E
  3
C3
350
5F
  3
C4
350
60
  3
C5
350
61
  3
C6
350
62
  3
C7
350
63
  3
C8
350
64
  3
C9
350
65
  3
D0
350
66
  3
D1
350
67
  3
D2
350
68
  0
DICTIONARY
  5
2A
102
{ACAD_REACTORS
330
C
102
}
330
C
100
AcDbDictionary
  3
2DWIREFRAME
350
2F
  3
BASIC
350
32
  3
BRIGHTEN
350
36
  3
COLORCHANGE
350
3A
  3
CONCEPTUAL
350
34
  3
DIM
350
35
  3
EDGECOLOROFF
350
3D
  3
FACEPATTERN
350
39
  3
FLAT
350
2B
  3
FLATWITHEDGES
350
2C
  3
GOURAUD
350
2D
  3
GOURAUDWITHEDGES
350
2E
  3
HIDDEN
350
31
  3
JITTEROFF
350
3B
  3
LINEPATTERN
350
38
  3
OVERHANGOFF
350
3C
  3
REALISTIC
350
33
  3
SHADED
350
42
  3
SHADED_WITH_EDGES
350
41
  3
SHADES_OF_GRAY
350
3E
  3
SKETCHY
350
3F
  3
THICKEN
350
37
  3
WIREFRAME
350
30
  3
X-RAY
350
40
  0
DICTIONARY
  5
1C7
102
{ACAD_REACTORS
330
C
102
}
330
C
100
AcDbDictionary
  3
CEPSNID
350
1D1
  3
CEPSNTYPE
350
1D0
  3
DIMSTYLEDATA
350
1E7
  3
FINGERPRINTGUID
350
1D2
  3
HYPERLINKBASE
350
1CA
  3
INSUNITS
350
1CF
  3
LAYOUTDICT
350
1CC
  3
LWETCUNION
350
1CE
  3
PLOTSETDICT
350
1CD
  3
PSVPSCALE
350
1D4
  3
PUCSBASE
350
1D7
  3
PUCSORGBACK
350
1DD
  3
PUCSORGBOTTOM
350
1D9
  3
PUCSORGFRONT
350
1DC
  3
PUCSORGLEFT
350
1DA
  3
PUCSORGRIGHT
350
1DB
  3
PUCSORGTOP
350
1D8
  3
PUCSORTHOREF
350
1D5
  3
PUCSORTHOVIEW
350
1D6
  3
STYLESHEET
350
1CB
  3
TSTACKALIGN
350
1C8
  3
TSTACKSIZE
350
1C9
  3
UCSBASE
350
1E0
  3
UCSORGBACK
350
1E6
  3
UCSORGBOTTOM
350
1E2
  3
UCSORGFRONT
350
1E5
  3
UCSORGLEFT
350
1E3
  3
UCSORGRIGHT
350
1E4
  3
UCSORGTOP
350
1E1
  3
UCSORTHOREF
350
1DE
  3
UCSORTHOVIEW
350
1DF
  3
VERSIONGUID
350
1D3
  0
DICTIONARY
  5
1E8
102
{ACAD_REACTORS
330
C
102
}
330
C
100
AcDbDictionary
  3
CANNOSCALE
350
1F1
  3
CMLEADERSTYLE
350
1EA
  3
CTABLESTYLE
350
1E9
  3
DIMASSOC
350
1ED
  3
HIDETEXT
350
1EE
  3
MSLTSCALE
350
1F2
  0
XRECORD
  5
1F0
102
{ACAD_REACTORS
330
1EF
102
}
330
1EF
100
AcDbXrecord
102
VTR_0.000_0.000_1.000_1.000_VISUALSTYLE
340
2F
102
VTR_0.000_0.000_1.000_1.000_GRIDDISPLAY
 70
     3
102
VTR_0.000_0.000_1.000_1.000_GRIDMAJOR
 70
     5
102
VTR_0.000_0.000_1.000_1.000_DEFAULTLIGHTING
280
     1
102
VTR_0.000_0.000_1.000_1.000_DEFAULTLIGHTINGTYPE
 70
     1
102
VTR_0.000_0.000_1.000_1.000_BRIGHTNESS
141
0.0
102
VTR_0.000_0.000_1.000_1.000_CONTRAST
142
0.0
  0
MATERIAL
  5
45
102
{ACAD_REACTORS
330
43
102
}
102
{ACAD_XDICTIONARY
360
1F5
102
}
330
43
100
AcDbMaterial
  1
BYBLOCK
  0
MATERIAL
  5
44
102
{ACAD_REACTORS
330
43
102
}
102
{ACAD_XDICTIONARY
360
1F3
102
}
330
43
100
AcDbMaterial
  1
BYLAYER
  0
MATERIAL
  5
46
102
{ACAD_REACTORS
330
43
102
}
102
{ACAD_XDICTIONARY
360
1F7
102
}
330
43
100
AcDbMaterial
  1
GLOBAL
  0
ACAD_PROXY_OBJECT
  5
6C
102
{ACAD_REACTORS
330
6B
102
}
330
6B
100
AcDbProxyObject
 90
      499
 91
      505
 93
      610
310
40901902A4063FBFFFFFE056BD1B81E855B9FC0AD7A3703D0AD73F4214DD185B99185C9900AD7A3703D0AC73F90141901A02B5E8DC0F42B1CFC02B5E8DC0F42B1CFE5764000000000000300FC0
340
14
340
0
340
11
340
0
 94
        0
1001
ACAD_MLEADERVER
1070
     2
  0
MLINESTYLE
  5
18
102
{ACAD_REACTORS
330
17
102
}
330
17
100
AcDbMlineStyle
  2
Standard
 70
     0
  3

 62
   256
 51
90.0
 52
90.0
 71
     2
 49
0.5
 62
   256
  6
BYLAYER
 49
-0.5
 62
   256
  6
BYLAYER
  0
ACAD_PROXY_OBJECT
  5
48
102
{ACAD_REACTORS
330
47
102
}
330
47
100
AcDbProxyObject
 90
      499
 91
      503
 93
       41
310
903313A31580
  0
ACAD_PROXY_OBJECT
  5
49
102
{ACAD_REACTORS
330
47
102
}
330
47
100
AcDbProxyObject
 90
      499
 91
      503
 93
      105
310
903313A324000000000000004000
  0
ACAD_PROXY_OBJECT
  5
4A
102
{ACAD_REACTORS
330
47
102
}
330
47
100
AcDbProxyObject
 90
      499
 91
      503
 93
      105
310
903313A344000000000000104000
  0
ACAD_PROXY_OBJECT
  5
4B
102
{ACAD_REACTORS
330
47
102
}
330
47
100
AcDbProxyObject
 90
      499
 91
      503
 93
      105
310
903313A354000000000000144000
  0
ACAD_PROXY_OBJECT
  5
4C
102
{ACAD_REACTORS
330
47
102
}
330
47
100
AcDbProxyObject
 90
      499
 91
      503
 93
      105
310
903313A384000000000000204000
  0
ACAD_PROXY_OBJECT
  5
4D
102
{ACAD_REACTORS
330
47
102
}
330
47
100
AcDbProxyObject
 90
      499
 91
      503
 93
      113
310
904313A31304000000000000244000
  0
ACAD_PROXY_OBJECT
  5
4E
102
{ACAD_REACTORS
330
47
102
}
330
47
100
AcDbProxyObject
 90
      499
 91
      503
 93
      113
310
904313A31364000000000000304000
  0
ACAD_PROXY_OBJECT
  5
4F
102
{ACAD_REACTORS
330
47
102
}
330
47
100
AcDbProxyObject
 90
      499
 91
      503
 93
      113
310
904313A32304000000000000344000
  0
ACAD_PROXY_OBJECT
  5
50
102
{ACAD_REACTORS
330
47
102
}
330
47
100
AcDbProxyObject
 90
      499
 91
      503
 93
      113
310
904313A333040000000000003E4000
  0
ACAD_PROXY_OBJECT
  5
51
102
{ACAD_REACTORS
330
47
102
}
330
47
100
AcDbProxyObject
 90
      499
 91
      503
 93
      113
310
904313A34304000000000000444000
  0
ACAD_PROXY_OBJECT
  5
52
102
{ACAD_REACTORS
330
47
102
}
330
47
100
AcDbProxyObject
 90
      499
 91
      503
 93
      113
310
904313A35304000000000000494000
  0
ACAD_PROXY_OBJECT
  5
53
102
{ACAD_REACTORS
330
47
102
}
330
47
100
AcDbProxyObject
 90
      499
 91
      503
 93
      121
310
905313A3130304000000000000594000
  0
ACAD_PROXY_OBJECT
  5
54
102
{ACAD_REACTORS
330
47
102
}
330
47
100
AcDbProxyObject
 90
      499
 91
      503
 93
      105
310
903323A310000000000000010100
  0
ACAD_PROXY_OBJECT
  5
55
102
{ACAD_REACTORS
330
47
102
}
330
47
100
AcDbProxyObject
 90
      499
 91
      503
 93
      105
310
903343A310000000000000410100
  0
ACAD_PROXY_OBJECT
  5
56
102
{ACAD_REACTORS
330
47
102
}
330
47
100
AcDbProxyObject
 90
      499
 91
      503
 93
      105
310
903383A310000000000000810100
  0
ACAD_PROXY_OBJECT
  5
57
102
{ACAD_REACTORS
330
47
102
}
330
47
100
AcDbProxyObject
 90
      499
 91
      503
 93
      113
310
90431303A310000000000000910100
  0
ACAD_PROXY_OBJECT
  5
58
102
{ACAD_REACTORS
330
47
102
}
330
47
100
AcDbProxyObject
 90
      499
 91
      503
 93
      121
310
9053130303A310000000000001650100
  0
ACAD_PROXY_OBJECT
  5
59
102
{ACAD_REACTORS
330
47
102
}
330
47
100
AcDbProxyObject
 90
      499
 91
      503
 93
      257
310
90E312F31323822203D2031272D3022000000000000200FC000000000000284000
  0
ACAD_PROXY_OBJECT
  5
5A
102
{ACAD_REACTORS
330
47
102
}
330
47
100
AcDbProxyObject
 90
      499
 91
      503
 93
      249
310
90D312F363422203D2031272D3022000000000000240FC000000000000284000
  0
ACAD_PROXY_OBJECT
  5
5B
102
{ACAD_REACTORS
330
47
102
}
330
47
100
AcDbProxyObject
 90
      499
 91
      503
 93
      249
310
90D312F333222203D2031272D3022000000000000280FC000000000000284000
  0
ACAD_PROXY_OBJECT
  5
5C
102
{ACAD_REACTORS
330
47
102
}
330
47
100
AcDbProxyObject
 90
      499
 91
      503
 93
      249
310
90D312F313622203D2031272D30220000000000002C0FC000000000000284000
  0
ACAD_PROXY_OBJECT
  5
5D
102
{ACAD_REACTORS
330
47
102
}
330
47
100
AcDbProxyObject
 90
      499
 91
      503
 93
      249
310
90D332F333222203D2031272D30220000000000002E0FC000000000000284000
  0
ACAD_PROXY_OBJECT
  5
5E
102
{ACAD_REACTORS
330
47
102
}
330
47
100
AcDbProxyObject
 90
      499
 91
      503
 93
      241
310
90C312F3822203D2031272D3022000000000000300FC000000000000284000
  0
ACAD_PROXY_OBJECT
  5
5F
102
{ACAD_REACTORS
330
47
102
}
330
47
100
AcDbProxyObject
 90
      499
 91
      503
 93
      249
310
90D332F313622203D2031272D3022000000000000320FC000000000000284000
  0
ACAD_PROXY_OBJECT
  5
60
102
{ACAD_REACTORS
330
47
102
}
330
47
100
AcDbProxyObject
 90
      499
 91
      503
 93
      241
310
90C312F3422203D2031272D3022000000000000340FC000000000000284000
  0
ACAD_PROXY_OBJECT
  5
61
102
{ACAD_REACTORS
330
47
102
}
330
47
100
AcDbProxyObject
 90
      499
 91
      503
 93
      241
310
90C332F3822203D2031272D3022000000000000360FC000000000000284000
  0
ACAD_PROXY_OBJECT
  5
62
102
{ACAD_REACTORS
330
47
102
}
330
47
100
AcDbProxyObject
 90
      499
 91
      503
 93
      241
310
90C312F3222203D2031272D3022000000000000380FC000000000000284000
  0
ACAD_PROXY_OBJECT
  5
63
102
{ACAD_REACTORS
330
47
102
}
330
47
100
AcDbProxyObject
 90
      499
 91
      503
 93
      241
310
90C332F3422203D2031272D30220000000000003A0FC000000000000284000
  0
ACAD_PROXY_OBJECT
  5
64
102
{ACAD_REACTORS
330
47
102
}
330
47
100
AcDbProxyObject
 90
      499
 91
      503
 93
      161
310
90A3122203D2031272D30224000000000000284000
  0
ACAD_PROXY_OBJECT
  5
65
102
{ACAD_REACTORS
330
47
102
}
330
47
100
AcDbProxyObject
 90
      499
 91
      503
 93
      257
310
90E312D312F3222203D2031272D30220000000000003E0FC000000000000284000
  0
ACAD_PROXY_OBJECT
  5
66
102
{ACAD_REACTORS
330
47
102
}
330
47
100
AcDbProxyObject
 90
      499
 91
      503
 93
      225
310
90A3322203D2031272D302200000000000002100000000000000284000
  0
ACAD_PROXY_OBJECT
  5
67
102
{ACAD_REACTORS
330
47
102
}
330
47
100
AcDbProxyObject
 90
      499
 91
      503
 93
      225
310
90A3622203D2031272D302200000000000006100000000000000284000
  0
ACAD_PROXY_OBJECT
  5
68
102
{ACAD_REACTORS
330
47
102
}
330
47
100
AcDbProxyObject
 90
      499
 91
      503
 93
      249
310
90D31272D3022203D2031272D30220000000000000A100000000000000284000
  0
ACAD_PROXY_OBJECT
  5
2F
102
{ACAD_REACTORS
330
2A
102
}
330
2A
100
AcDbProxyObject
 90
      499
 91
      501
 93
      436
310
42CC9915DA5C99599C985B595049028333333333333E33F0000000000000F90107901411070040501600405405064090741402480A0340
1001
ACAD
1000
AcDbSavedByObjectVersion
1070
     0
  0
ACAD_PROXY_OBJECT
  5
32
102
{ACAD_REACTORS
330
2A
102
}
330
2A
100
AcDbProxyObject
 90
      499
 91
      501
 93
      388
310
4150985CDA58D07406404333333333333E33F0000000000000F90107A41107004050150841D405064090741402480A0350
1001
ACAD
1000
AcDbSavedByObjectVersion
1070
     0
  0
ACAD_PROXY_OBJECT
  5
36
102
{ACAD_REACTORS
330
2A
102
}
330
2A
100
AcDbProxyObject
 90
      499
 91
      501
 93
      428
310
42109C9A59DA1D195B90C409028333333333333E33F0000000000000F9010790141107004050150841D405064090741402480A029950
1001
ACAD
1000
AcDbSavedByObjectVersion
1070
     0
  0
ACAD_PROXY_OBJECT
  5
3A
102
{ACAD_REACTORS
330
2A
102
}
330
2A
100
AcDbProxyObject
 90
      499
 91
      501
 93
      452
310
42D0DBDB1BDC90DA185B99D95104090240C333333333333E33F0000000000000F90108901411070040501508421405064090741402480A0350
1001
ACAD
1000
AcDbSavedByObjectVersion
1070
     0
  0
ACAD_PROXY_OBJECT
  5
34
102
{ACAD_REACTORS
330
2A
102
}
330
2A
100
AcDbProxyObject
 90
      499
 91
      501
 93
      500
310
4290DBDB98D95C1D1D585B10940D028333333333333E33F0000000000000F90107902409070040501000000000018199010841D405064090740C02480A0340
1001
ACAD
1000
AcDbSavedByObjectVersion
1070
     0
  0
ACAD_PROXY_OBJECT
  5
35
102
{ACAD_REACTORS
330
2A
102
}
330
2A
100
AcDbProxyObject
 90
      499
 91
      501
 93
      412
310
40D11A5B50B409028333333333333E33F0000000000000F9010790141107004050150841D405064090741402480A02677FFFFFD0
1001
ACAD
1000
AcDbSavedByObjectVersion
1070
     0
  0
ACAD_PROXY_OBJECT
  5
3D
102
{ACAD_REACTORS
330
2A
102
}
330
2A
100
AcDbProxyObject
 90
      499
 91
      501
 93
      452
310
43115919D950DBDB1BDC93D999916409028333333333333E33F0000000000000F9010790141107004050150841D405064090741402480A0350
1001
ACAD
1000
AcDbSavedByObjectVersion
1070
     0
  0
ACAD_PROXY_OBJECT
  5
39
102
{ACAD_REACTORS
330
2A
102
}
330
2A
100
AcDbProxyObject
 90
      499
 91
      501
 93
      444
310
42D19858D95C185D1D195C9B90F409028333333333333E33F0000000000000F9010790141107004050150841D405064090741402480A0350
1001
ACAD
1000
AcDbSavedByObjectVersion
1070
     0
  0
ACAD_PROXY_OBJECT
  5
2B
102
{ACAD_REACTORS
330
2A
102
}
330
2A
100
AcDbProxyObject
 90
      499
 91
      501
 93
      380
310
41119B185D240901404333333333333E33F0000000000000F9010740A907004050150841D405064090741402480A1B50
1001
ACAD
1000
AcDbSavedByObjectVersion
1070
     0
  0
ACAD_PROXY_OBJECT
  5
2C
102
{ACAD_REACTORS
330
2A
102
}
330
2A
100
AcDbProxyObject
 90
      499
 91
      501
 93
      468
310
43519B185D15DA5D1A115919D95CD0140901404333333333333E33F0000000000000F90107409019070040501600405405064090741402480A1B50
1001
ACAD
1000
AcDbSavedByObjectVersion
1070
     0
  0
ACAD_PROXY_OBJECT
  5
2D
102
{ACAD_REACTORS
330
2A
102
}
330
2A
100
AcDbProxyObject
 90
      499
 91
      501
 93
      404
310
41D1DBDD5C985D5910240902404333333333333E33F0000000000000F9010740A9070040501641D405064090741402480A1B50
1001
ACAD
1000
AcDbSavedByObjectVersion
1070
     0
  0
ACAD_PROXY_OBJECT
  5
2E
102
{ACAD_REACTORS
330
2A
102
}
330
2A
100
AcDbProxyObject
 90
      499
 91
      501
 93
      492
310
4411DBDD5C985D5915DA5D1A115919D95CD0340902404333333333333E33F0000000000000F90107409019070040501600405405064090741402480A1B50
1001
ACAD
1000
AcDbSavedByObjectVersion
1070
     0
  0
ACAD_PROXY_OBJECT
  5
31
102
{ACAD_REACTORS
330
2A
102
}
330
2A
100
AcDbProxyObject
 90
      499
 91
      501
 93
      476
310
41921A5919195B90640502408333333333333E33F0000000000000F901079024090700405020000000000001110200405405064090740C02480A0340
1001
ACAD
1000
AcDbSavedByObjectVersion
1070
     0
  0
ACAD_PROXY_OBJECT
  5
3B
102
{ACAD_REACTORS
330
2A
102
}
330
2A
100
AcDbProxyObject
 90
      499
 91
      501
 93
      428
310
42529A5D1D195C93D999914409028333333333333E33F0000000000000F9010790141107004050150A41D405064090741402480A0350
1001
ACAD
1000
AcDbSavedByObjectVersion
1070
     0
  0
ACAD_PROXY_OBJECT
  5
38
102
{ACAD_REACTORS
330
2A
102
}
330
2A
100
AcDbProxyObject
 90
      499
 91
      501
 93
      444
310
42D31A5B995C185D1D195C9B90E409028333333333333E33F0000000000000F9010790141107004050750841D405064090741402483A0350
1001
ACAD
1000
AcDbSavedByObjectVersion
1070
     0
  0
ACAD_PROXY_OBJECT
  5
3C
102
{ACAD_REACTORS
330
2A
102
}
330
2A
100
AcDbProxyObject
 90
      499
 91
      501
 93
      444
310
42D3DD995C9A185B99D3D999915409028333333333333E33F0000000000000F9010790141107004050150941D405064090741402480A0350
1001
ACAD
1000
AcDbSavedByObjectVersion
1070
     0
  0
ACAD_PROXY_OBJECT
  5
33
102
{ACAD_REACTORS
330
2A
102
}
330
2A
100
AcDbProxyObject
 90
      499
 91
      501
 93
      428
310
425499585B1A5CDD1A58D08409038333333333333E33F0000000000000F9010740A907004050150800405405064090740C02480A1B40
1001
ACAD
1000
AcDbSavedByObjectVersion
1070
     0
  0
ACAD_PROXY_OBJECT
  5
42
102
{ACAD_REACTORS
330
2A
102
}
330
2A
100
AcDbProxyObject
 90
      499
 91
      501
 93
      420
310
4194DA1859195911B40902404333333333333E33F0000000000000F9010740A41107004050150800405405064090840C02480A0B40
1001
ACAD
1000
AcDbSavedByObjectVersion
1070
     0
  0
ACAD_PROXY_OBJECT
  5
41
102
{ACAD_REACTORS
330
2A
102
}
330
2A
100
AcDbProxyObject
 90
      499
 91
      501
 93
      516
310
4454DA18591959081DDA5D1A08195919D95CD1A40902404333333333333E33F0000000000000F901074090142907004050250800405405064090740C02480A0B40
1001
ACAD
1000
AcDbSavedByObjectVersion
1070
     0
  0
ACAD_PROXY_OBJECT
  5
3E
102
{ACAD_REACTORS
330
2A
102
}
330
2A
100
AcDbProxyObject
 90
      499
 91
      501
 93
      532
310
4394DA1859195CC81BD98811DC985E5174090240C333333333333E33F0000000000000F901079024090741D01000000000000111010841D405064090740C02480A0340
1001
ACAD
1000
AcDbSavedByObjectVersion
1070
     0
  0
ACAD_PROXY_OBJECT
  5
3F
102
{ACAD_REACTORS
330
2A
102
}
330
2A
100
AcDbProxyObject
 90
      499
 91
      501
 93
      476
310
41D4DAD95D18DA1E51840502408333333333333E33F0000000000000F901079024090741D01000000000000111010B41D405064090741802480A0340
1001
ACAD
1000
AcDbSavedByObjectVersion
1070
     0
  0
ACAD_PROXY_OBJECT
  5
37
102
{ACAD_REACTORS
330
2A
102
}
330
2A
100
AcDbProxyObject
 90
      499
 91
      501
 93
      412
310
41D51A1A58DAD95B90D409028333333333333E33F0000000000000F9010790141107004050150C41D405064090741402480A0350
1001
ACAD
1000
AcDbSavedByObjectVersion
1070
     0
  0
ACAD_PROXY_OBJECT
  5
30
102
{ACAD_REACTORS
330
2A
102
}
330
2A
100
AcDbProxyObject
 90
      499
 91
      501
 93
      420
310
4255DA5C99599C985B595059028333333333333E33F0000000000000F90107901411070040501600405405064090740C02480A0340
1001
ACAD
1000
AcDbSavedByObjectVersion
1070
     0
  0
ACAD_PROXY_OBJECT
  5
40
102
{ACAD_REACTORS
330
2A
102
}
330
2A
100
AcDbProxyObject
 90
      499
 91
      501
 93
      404
310
41560B54985E51940902404000000000000E03F0000000000000F9010740501907004050150841D405064090740C02480A1B40
1001
ACAD
1000
AcDbSavedByObjectVersion
1070
     0
  0
XRECORD
  5
1D1
102
{ACAD_REACTORS
330
1C7
102
}
330
1C7
100
AcDbXrecord
340
0
  0
XRECORD
  5
1D0
102
{ACAD_REACTORS
330
1C7
102
}
330
1C7
100
AcDbXrecord
 90
        0
  0
XRECORD
  5
1E7
102
{ACAD_REACTORS
330
1C7
102
}
330
1C7
100
AcDbXrecord
1000
DSTYLE
1002
{
1070
   179
 70
     2
1070
   171
 70
     2
1070
   143
 40
25.4
1070
   274
 70
     2
1070
    41
 40
3.0
1070
   141
 40
0.09
1070
    43
 40
0.38
1070
   278
 70
    46
1070
    44
 40
1.5
1070
    42
 40
0.0625
1070
   147
 40
1.5
1070
   272
 70
     4
1070
    73
 70
     1
1070
   172
 70
     0
1070
    74
 70
     1
1070
   283
 70
     1
1070
   340
340
6E
1070
   140
 40
3.0
1070
   284
 70
     0
1070
    78
 70
     0
1002
}
  0
XRECORD
  5
1D2
102
{ACAD_REACTORS
330
1C7
102
}
330
1C7
100
AcDbXrecord
  1
{1CEB3192-0F3A-4D27-9E4A-5B9F14E5697F}
  0
XRECORD
  5
1CA
102
{ACAD_REACTORS
330
1C7
102
}
330
1C7
100
AcDbXrecord
  1

  0
XRECORD
  5
1CF
102
{ACAD_REACTORS
330
1C7
102
}
330
1C7
100
AcDbXrecord
 90
        4
  0
XRECORD
  5
1CC
102
{ACAD_REACTORS
330
1C7
102
}
330
1C7
100
AcDbXrecord
340
1A
  0
XRECORD
  5
1CE
102
{ACAD_REACTORS
330
1C7
102
}
330
1C7
100
AcDbXrecord
 90
    10269
  0
XRECORD
  5
1CD
102
{ACAD_REACTORS
330
1C7
102
}
330
1C7
100
AcDbXrecord
340
19
  0
XRECORD
  5
1D4
102
{ACAD_REACTORS
330
1C7
102
}
330
1C7
100
AcDbXrecord
 40
0.0
  0
XRECORD
  5
1D7
102
{ACAD_REACTORS
330
1C7
102
}
330
1C7
100
AcDbXrecord
340
0
  0
XRECORD
  5
1DD
102
{ACAD_REACTORS
330
1C7
102
}
330
1C7
100
AcDbXrecord
 10
0.0
 20
0.0
 30
0.0
  0
XRECORD
  5
1D9
102
{ACAD_REACTORS
330
1C7
102
}
330
1C7
100
AcDbXrecord
 10
0.0
 20
0.0
 30
0.0
  0
XRECORD
  5
1DC
102
{ACAD_REACTORS
330
1C7
102
}
330
1C7
100
AcDbXrecord
 10
0.0
 20
0.0
 30
0.0
  0
XRECORD
  5
1DA
102
{ACAD_REACTORS
330
1C7
102
}
330
1C7
100
AcDbXrecord
 10
0.0
 20
0.0
 30
0.0
  0
XRECORD
  5
1DB
102
{ACAD_REACTORS
330
1C7
102
}
330
1C7
100
AcDbXrecord
 10
0.0
 20
0.0
 30
0.0
  0
XRECORD
  5
1D8
102
{ACAD_REACTORS
330
1C7
102
}
330
1C7
100
AcDbXrecord
 10
0.0
 20
0.0
 30
0.0
  0
XRECORD
  5
1D5
102
{ACAD_REACTORS
330
1C7
102
}
330
1C7
100
AcDbXrecord
340
0
  0
XRECORD
  5
1D6
102
{ACAD_REACTORS
330
1C7
102
}
330
1C7
100
AcDbXrecord
 70
     0
  0
XRECORD
  5
1CB
102
{ACAD_REACTORS
330
1C7
102
}
330
1C7
100
AcDbXrecord
  1

  0
XRECORD
  5
1C8
102
{ACAD_REACTORS
330
1C7
102
}
330
1C7
100
AcDbXrecord
 90
        1
  0
XRECORD
  5
1C9
102
{ACAD_REACTORS
330
1C7
102
}
330
1C7
100
AcDbXrecord
 90
       70
  0
XRECORD
  5
1E0
102
{ACAD_REACTORS
330
1C7
102
}
330
1C7
100
AcDbXrecord
340
0
  0
XRECORD
  5
1E6
102
{ACAD_REACTORS
330
1C7
102
}
330
1C7
100
AcDbXrecord
 10
0.0
 20
0.0
 30
0.0
  0
XRECORD
  5
1E2
102
{ACAD_REACTORS
330
1C7
102
}
330
1C7
100
AcDbXrecord
 10
0.0
 20
0.0
 30
0.0
  0
XRECORD
  5
1E5
102
{ACAD_REACTORS
330
1C7
102
}
330
1C7
100
AcDbXrecord
 10
0.0
 20
0.0
 30
0.0
  0
XRECORD
  5
1E3
102
{ACAD_REACTORS
330
1C7
102
}
330
1C7
100
AcDbXrecord
 10
0.0
 20
0.0
 30
0.0
  0
XRECORD
  5
1E4
102
{ACAD_REACTORS
330
1C7
102
}
330
1C7
100
AcDbXrecord
 10
0.0
 20
0.0
 30
0.0
  0
XRECORD
  5
1E1
102
{ACAD_REACTORS
330
1C7
102
}
330
1C7
100
AcDbXrecord
 10
0.0
 20
0.0
 30
0.0
  0
XRECORD
  5
1DE
102
{ACAD_REACTORS
330
1C7
102
}
330
1C7
100
AcDbXrecord
340
0
  0
XRECORD
  5
1DF
102
{ACAD_REACTORS
330
1C7
102
}
330
1C7
100
AcDbXrecord
 70
     0
  0
XRECORD
  5
1D3
102
{ACAD_REACTORS
330
1C7
102
}
330
1C7
100
AcDbXrecord
  1
{FAEB1C32-E019-11D5-929B-00C0DF256EC4}
  0
DICTIONARYVAR
  5
1F1
102
{ACAD_REACTORS
330
1E8
102
}
330
1E8
100
DictionaryVariables
280
     0
  1
1:1
  0
DICTIONARYVAR
  5
1EA
102
{ACAD_REACTORS
330
1E8
102
}
330
1E8
100
DictionaryVariables
280
     0
  1
Standard
  0
DICTIONARYVAR
  5
1E9
102
{ACAD_REACTORS
330
1E8
102
}
330
1E8
100
DictionaryVariables
280
     0
  1
Standard
  0
DICTIONARYVAR
  5
1ED
102
{ACAD_REACTORS
330
1E8
102
}
330
1E8
100
DictionaryVariables
280
     0
  1
2
  0
DICTIONARYVAR
  5
1EE
102
{ACAD_REACTORS
330
1E8
102
}
330
1E8
100
DictionaryVariables
280
     0
  1
1
  0
DICTIONARYVAR
  5
1F2
102
{ACAD_REACTORS
330
1E8
102
}
330
1E8
100
DictionaryVariables
280
     0
  1
1
  0
DICTIONARY
  5
1F5
330
45
100
AcDbDictionary
280
     1
  3
ACAD_XREC_ROUNDTRIP
360
1F6
  0
DICTIONARY
  5
1F3
330
44
100
AcDbDictionary
280
     1
  3
ACAD_XREC_ROUNDTRIP
360
1F4
  0
DICTIONARY
  5
1F7
330
46
100
AcDbDictionary
280
     1
  3
ACAD_XREC_ROUNDTRIP
360
1F8
  0
XRECORD
  5
1F6
102
{ACAD_REACTORS
330
1F5
102
}
330
1F5
100
AcDbXrecord
102
MATERIAL
148
0.0
149
0.0
149
0.0
 93
        0
 94
      127
282
     0
 72
     1
 77
     1
171
     1
175
     1
179
     1
273
     0
  0
XRECORD
  5
1F4
102
{ACAD_REACTORS
330
1F3
102
}
330
1F3
100
AcDbXrecord
102
MATERIAL
148
0.0
149
0.0
149
0.0
 93
        0
 94
      127
282
     0
 72
     1
 77
     1
171
     1
175
     1
179
     1
273
     0
  0
XRECORD
  5
1F8
102
{ACAD_REACTORS
330
1F7
102
}
330
1F7
100
AcDbXrecord
102
MATERIAL
148
0.0
149
0.0
149
0.0
 93
        0
 94
      127
282
     0
 72
     1
 77
     1
171
     1
175
     1
179
     1
273
     0
  0
ENDSEC
  0
EOF
