  0
SECTION
  2
HEADER
  9
$ACADVER
  1
AC1004
  9
$INSBASE
 10
0.0
 20
0.0
  9
$EXTMIN
 10
0.0
 20
0.0
  9
$EXTMAX
 10
647.4999874999999
 20
285.4999875
  9
$LIMMIN
 10
0.0
 20
0.0
  9
$LIMMAX
 10
12.0
 20
9.0
  9
$ORTHOMODE
 70
     0
  9
$REGENMODE
 70
     1
  9
$FILLMODE
 70
     1
  9
$QTEXTMODE
 70
     0
  9
$DRAGMODE
 70
     2
  9
$LTSCALE
 40
1.0
  9
$OSMODE
 70
    37
  9
$ATTMODE
 70
     1
  9
$TEXTSIZE
 40
0.2
  9
$TRACEWID
 40
0.05
  9
$TEXTSTYLE
  7
STANDARD
  9
$CLAYER
  8
0
  9
$CELTYPE
  6
BYLAYER
  9
$CECOLOR
 62
   256
  9
$DIMSCALE
 40
1.0
  9
$DIMASZ
 40
3.0
  9
$DIMEXO
 40
0.0625
  9
$DIMDLI
 40
0.38
  9
$DIMRND
 40
0.0
  9
$DIMDLE
 40
0.0
  9
$DIMEXE
 40
1.5
  9
$DIMTP
 40
0.0
  9
$DIMTM
 40
0.0
  9
$DIMTXT
 40
3.0
  9
$DIMCEN
 40
0.09
  9
$DIMTSZ
 40
0.0
  9
$DIMTOL
 70
     0
  9
$DIMLIM
 70
     0
  9
$DIMTIH
 70
     1
  9
$DIMTOH
 70
     1
  9
$DIMSE1
 70
     0
  9
$DIMSE2
 70
     0
  9
$DIMTAD
 70
     1
  9
$DIMZIN
 70
     0
  9
$DIMBLK
  1

  9
$DIMASO
 70
     1
  9
$DIMSHO
 70
     1
  9
$DIMPOST
  1

  9
$DIMAPOST
  1

  9
$DIMALT
 70
     0
  9
$DIMALTD
 70
     2
  9
$DIMALTF
 40
25.4
  9
$DIMLFAC
 40
1.0
  9
$DIMTOFL
 70
     0
  9
$DIMTVP
 40
0.0
  9
$DIMTIX
 70
     0
  9
$DIMSOXD
 70
     0
  9
$DIMSAH
 70
     0
  9
$DIMBLK1
  1

  9
$DIMBLK2
  1

  9
$LUNITS
 70
     2
  9
$LUPREC
 70
     4
  9
$SKETCHINC
 40
0.1
  9
$FILLETRAD
 40
0.5
  9
$AUNITS
 70
     0
  9
$AUPREC
 70
     0
  9
$MENU
  1
.
  9
$ELEVATION
 40
0.0
  9
$THICKNESS
 40
0.0
  9
$LIMCHECK
 70
     0
  9
$CHAMFERA
 40
0.0
  9
$CHAMFERB
 40
0.0
  9
$SKPOLY
 70
     0
  9
$TDCREATE
 40
2460256.469048623
  9
$TDUPDATE
 40
2460256.469048843
  9
$TDINDWG
 40
0.0000000116
  9
$TDUSRTIMER
 40
0.0000000116
  9
$USRTIMER
 70
     1
  9
$ANGBASE
 50
0.0
  9
$ANGDIR
 70
     0
  9
$PDMODE
 70
     0
  9
$PDSIZE
 40
0.0
  9
$PLINEWID
 40
0.0
  9
$COORDS
 70
     1
  9
$SPLFRAME
 70
     0
  9
$SPLINETYPE
 70
     6
  9
$SPLINESEGS
 70
     8
  9
$ATTDIA
 70
     0
  9
$ATTREQ
 70
     1
  9
$SURFTAB1
 70
     6
  9
$SURFTAB2
 70
     6
  9
$SURFTYPE
 70
     6
  9
$SURFU
 70
     6
  9
$SURFV
 70
     6
  9
$UCSNAME
  2

  9
$UCSORG
 10
0.0
 20
0.0
 30
0.0
  9
$UCSXDIR
 10
1.0
 20
0.0
 30
0.0
  9
$UCSYDIR
 10
0.0
 20
1.0
 30
0.0
  9
$USERI1
 70
     0
  9
$USERI2
 70
     0
  9
$USERI3
 70
     0
  9
$USERI4
 70
     0
  9
$USERI5
 70
     0
  9
$USERR1
 40
0.0
  9
$USERR2
 40
0.0
  9
$USERR3
 40
0.0
  9
$USERR4
 40
0.0
  9
$USERR5
 40
0.0
  9
$WORLDVIEW
 70
     1
  0
ENDSEC
  0
SECTION
  2
TABLES
  0
TABLE
  2
LTYPE
 70
     2
  0
LTYPE
  2
CONTINUOUS
 70
     0
  3
Solid line
 72
    65
 73
     0
 40
0.0
  0
LTYPE
  2
CENTER
 70
     0
  3

 72
    65
 73
     0
 40
0.0
  0
ENDTAB
  0
TABLE
  2
LAYER
 70
     1
  0
LAYER
  2
0
 70
     0
 62
     7
  6
CONTINUOUS
  0
ENDTAB
  0
TABLE
  2
STYLE
 70
     2
  0
STYLE
  2
STANDARD
 70
     0
 40
0.0
 41
1.0
 50
0.0
 71
     0
 42
0.2
  3
txt
  4

  0
STYLE
  2
ＭＳ_ゴシック
 70
     0
 40
0.0
 41
1.0
 50
0.0
 71
     0
 42
0.2
  3
ＭＳ ゴシック.shx
  4

  0
ENDTAB
  0
TABLE
  2
VIEW
 70
     0
  0
ENDTAB
  0
ENDSEC
  0
SECTION
  2
BLOCKS
  0
BLOCK
  8
0
  2
D_FRAME_DRAWING_17
 70
     0
 10
0.0
 20
0.0
  0
LINE
  8
0
  6
CONTINUOUS
 62
     7
 10
0.0
 20
0.0
 11
210.0
 21
0.0
  0
LINE
  8
0
  6
CONTINUOUS
 62
     7
 10
210.0
 20
0.0
 11
210.0
 21
297.0
  0
LINE
  8
0
  6
CONTINUOUS
 62
     7
 10
210.0
 20
297.0
 11
0.0
 21
297.0
  0
LINE
  8
0
  6
CONTINUOUS
 62
     7
 10
0.0
 20
297.0
 11
0.0
 21
0.0
  0
ENDBLK
  8
0
  0
BLOCK
  8
0
  2
D_FRAME_VIEW_1288
 70
     0
 10
0.0
 20
0.0
  0
LINE
  8
0
  6
CONTINUOUS
 62
     7
 10
480.75
 20
63.93327980472775
 11
482.116264736901
 21
63.93327980472775
  0
LINE
  8
0
  6
CONTINUOUS
 62
     7
 10
474.05
 20
96.63327980472776
 11
480.4771887126814
 21
95.19435695860506
  0
LINE
  8
0
  6
CONTINUOUS
 62
     7
 10
405.95
 20
96.63327980472776
 11
474.05
 21
96.63327980472776
  0
LINE
  8
0
  6
CONTINUOUS
 62
     7
 10
399.5228112873186
 20
95.19435695860506
 11
405.95
 21
96.63327980472776
  0
LINE
  8
0
  6
CONTINUOUS
 62
     7
 10
399.25
 20
63.93327980472775
 11
399.5228112873186
 21
95.19435695860506
  0
LINE
  8
0
  6
CONTINUOUS
 62
     7
 10
397.8837352630989
 20
63.93327980472775
 11
399.25
 21
63.93327980472775
  0
LINE
  8
0
  6
CONTINUOUS
 62
     7
 10
480.75
 20
63.93327980472775
 11
480.4771887126814
 21
95.19435695860506
  0
LINE
  8
0
  6
CONTINUOUS
 62
     7
 10
482.6111629970704
 20
63.93327980472775
 11
482.116264736901
 21
63.93327980472775
  0
LINE
  8
0
  6
CONTINUOUS
 62
     7
 10
397.8837352630989
 20
63.93327980472775
 11
397.3888370029295
 21
63.93327980472775
  0
LINE
  8
0
  6
CONTINUOUS
 62
     7
 10
482.9720448439718
 20
97.04430851788462
 11
482.9719573303324
 21
97.04837447142462
  0
LINE
  8
0
  6
CONTINUOUS
 62
     7
 10
482.9720448439718
 20
97.04430851788462
 11
483.55
 21
63.93327980472775
  0
LINE
  8
0
  6
CONTINUOUS
 62
     7
 10
483.55
 20
63.93327980472775
 11
482.6111629970704
 21
63.93327980472775
  0
LINE
  8
0
  6
CONTINUOUS
 62
     7
 10
396.45
 20
63.93327980472775
 11
397.0279551560282
 21
97.0443085178846
  0
LINE
  8
0
  6
CONTINUOUS
 62
     7
 10
397.0280426696675
 20
97.04837447142462
 11
397.0279551560282
 21
97.0443085178846
  0
LINE
  8
0
  6
CONTINUOUS
 62
     7
 10
397.3888370029295
 20
63.93327980472775
 11
396.45
 21
63.93327980472775
  0
POLYLINE
  8
0
  6
CONTINUOUS
 62
     7
 66
     1
  0
VERTEX
  8
0
  6
CONTINUOUS
 62
     7
 10
482.5907146467409
 20
97.52131428406605
  0
VERTEX
  8
0
  6
CONTINUOUS
 62
     7
 10
482.6083685820815
 20
97.51666077236956
  0
VERTEX
  8
0
  6
CONTINUOUS
 62
     7
 10
482.6258448178339
 20
97.51136481405175
  0
VERTEX
  8
0
  6
CONTINUOUS
 62
     7
 10
482.6491395984241
 20
97.50319637011862
  0
VERTEX
  8
0
  6
CONTINUOUS
 62
     7
 10
482.6720232595916
 20
97.49388088095587
  0
VERTEX
  8
0
  6
CONTINUOUS
 62
     7
 10
482.6944112017152
 20
97.48345178741229
  0
VERTEX
  8
0
  6
CONTINUOUS
 62
     7
 10
482.7110840597893
 20
97.47478218677746
  0
VERTEX
  8
0
  6
CONTINUOUS
 62
     7
 10
482.7274220173451
 20
97.4654908964611
  0
VERTEX
  8
0
  6
CONTINUOUS
 62
     7
 10
482.7449631654526
 20
97.4545768372118
  0
VERTEX
  8
0
  6
CONTINUOUS
 62
     7
 10
482.7620485876091
 20
97.44294118727328
  0
VERTEX
  8
0
  6
CONTINUOUS
 62
     7
 10
482.7786340031428
 20
97.43061367632413
  0
VERTEX
  8
0
  6
CONTINUOUS
 62
     7
 10
482.7949490005269
 20
97.41739625119286
  0
VERTEX
  8
0
  6
CONTINUOUS
 62
     7
 10
482.8106965294603
 20
97.4035043286969
  0
VERTEX
  8
0
  6
CONTINUOUS
 62
     7
 10
482.8260833608529
 20
97.38872506441237
  0
VERTEX
  8
0
  6
CONTINUOUS
 62
     7
 10
482.8408339940584
 20
97.37329503660499
  0
VERTEX
  8
0
  6
CONTINUOUS
 62
     7
 10
482.8549077069557
 20
97.35725658192554
  0
VERTEX
  8
0
  6
CONTINUOUS
 62
     7
 10
482.8678984474087
 20
97.34113012087
  0
VERTEX
  8
0
  6
CONTINUOUS
 62
     7
 10
482.8802164100217
 20
97.32447223487652
  0
VERTEX
  8
0
  6
CONTINUOUS
 62
     7
 10
482.8918296292437
 20
97.30732606070447
  0
VERTEX
  8
0
  6
CONTINUOUS
 62
     7
 10
482.9028906736723
 20
97.28942731913878
  0
VERTEX
  8
0
  6
CONTINUOUS
 62
     7
 10
482.9131891121227
 20
97.2710794851101
  0
VERTEX
  8
0
  6
CONTINUOUS
 62
     7
 10
482.9228385549927
 20
97.2520389433097
  0
VERTEX
  8
0
  6
CONTINUOUS
 62
     7
 10
482.9316665800482
 20
97.23260479192055
  0
VERTEX
  8
0
  6
CONTINUOUS
 62
     7
 10
482.9396914424096
 20
97.21272033433509
  0
VERTEX
  8
0
  6
CONTINUOUS
 62
     7
 10
482.9466234291559
 20
97.19321067477479
  0
VERTEX
  8
0
  6
CONTINUOUS
 62
     7
 10
482.9527445705833
 20
97.17342366728293
  0
VERTEX
  8
0
  6
CONTINUOUS
 62
     7
 10
482.9580392342517
 20
97.15341043574412
  0
VERTEX
  8
0
  6
CONTINUOUS
 62
     7
 10
482.9625640728118
 20
97.13287256214757
  0
VERTEX
  8
0
  6
CONTINUOUS
 62
     7
 10
482.9662213806833
 20
97.11216436376868
  0
VERTEX
  8
0
  6
CONTINUOUS
 62
     7
 10
482.9690379675562
 20
97.09101981589949
  0
VERTEX
  8
0
  6
CONTINUOUS
 62
     7
 10
482.9709504003249
 20
97.06977625818736
  0
VERTEX
  8
0
  6
CONTINUOUS
 62
     7
 10
482.9719573303324
 20
97.04837447142462
  0
SEQEND
  8
0
  6
CONTINUOUS
 62
     7
  0
POLYLINE
  8
0
  6
CONTINUOUS
 62
     7
 66
     1
  0
VERTEX
  8
0
  6
CONTINUOUS
 62
     7
 10
397.0280426696676
 20
97.04837447142462
  0
VERTEX
  8
0
  6
CONTINUOUS
 62
     7
 10
397.0290033179148
 20
97.06906946362407
  0
VERTEX
  8
0
  6
CONTINUOUS
 62
     7
 10
397.030822201234
 20
97.08972639248114
  0
VERTEX
  8
0
  6
CONTINUOUS
 62
     7
 10
397.0334937515217
 20
97.11029216486644
  0
VERTEX
  8
0
  6
CONTINUOUS
 62
     7
 10
397.0370124006743
 20
97.13071368765063
  0
VERTEX
  8
0
  6
CONTINUOUS
 62
     7
 10
397.041517086857
 20
97.15155734662133
  0
VERTEX
  8
0
  6
CONTINUOUS
 62
     7
 10
397.0469118568545
 20
97.17221051081684
  0
VERTEX
  8
0
  6
CONTINUOUS
 62
     7
 10
397.0531809379909
 20
97.19261692510037
  0
VERTEX
  8
0
  6
CONTINUOUS
 62
     7
 10
397.0603085575903
 20
97.2127203343351
  0
VERTEX
  8
0
  6
CONTINUOUS
 62
     7
 10
397.068054735791
 20
97.23194921110178
  0
VERTEX
  8
0
  6
CONTINUOUS
 62
     7
 10
397.0765991568525
 20
97.25085772824143
  0
VERTEX
  8
0
  6
CONTINUOUS
 62
     7
 10
397.0859187433244
 20
97.26939729224212
  0
VERTEX
  8
0
  6
CONTINUOUS
 62
     7
 10
397.0959904177562
 20
97.28751930959197
  0
VERTEX
  8
0
  6
CONTINUOUS
 62
     7
 10
397.1071340338651
 20
97.30571519880515
  0
VERTEX
  8
0
  6
CONTINUOUS
 62
     7
 10
397.1190547780558
 20
97.32343537010176
  0
VERTEX
  8
0
  6
CONTINUOUS
 62
     7
 10
397.1317188109188
 20
97.34063182922688
  0
VERTEX
  8
0
  6
CONTINUOUS
 62
     7
 10
397.1450922930443
 20
97.35725658192557
  0
VERTEX
  8
0
  6
CONTINUOUS
 62
     7
 10
397.1587346394301
 20
97.37282222820387
  0
VERTEX
  8
0
  6
CONTINUOUS
 62
     7
 10
397.1730210433283
 20
97.38782206462685
  0
VERTEX
  8
0
  6
CONTINUOUS
 62
     7
 10
397.1879136043289
 20
97.40221816663433
  0
VERTEX
  8
0
  6
CONTINUOUS
 62
     7
 10
397.2033744220213
 20
97.4159726096662
  0
VERTEX
  8
0
  6
CONTINUOUS
 62
     7
 10
397.2198648844591
 20
97.42944196427514
  0
VERTEX
  8
0
  6
CONTINUOUS
 62
     7
 10
397.2369274019944
 20
97.44220723207073
  0
VERTEX
  8
0
  6
CONTINUOUS
 62
     7
 10
397.2545143197016
 20
97.45423476036277
  0
VERTEX
  8
0
  6
CONTINUOUS
 62
     7
 10
397.2725779826549
 20
97.4654908964611
  0
VERTEX
  8
0
  6
CONTINUOUS
 62
     7
 10
397.2940916467854
 20
97.47754847332455
  0
VERTEX
  8
0
  6
CONTINUOUS
 62
     7
 10
397.3162259884922
 20
97.4885491150948
  0
VERTEX
  8
0
  6
CONTINUOUS
 62
     7
 10
397.3388967688842
 20
97.498459419413
  0
VERTEX
  8
0
  6
CONTINUOUS
 62
     7
 10
397.3620197490702
 20
97.50724598392021
  0
VERTEX
  8
0
  6
CONTINUOUS
 62
     7
 10
397.3855106901588
 20
97.51487540625753
  0
VERTEX
  8
0
  6
CONTINUOUS
 62
     7
 10
397.409285353259
 20
97.52131428406605
  0
SEQEND
  8
0
  6
CONTINUOUS
 62
     7
  0
ARC
  8
0
  6
CONTINUOUS
 62
     7
 10
473.8524299686136
 20
94.43327980472776
 40
5.000000000000004
 50
76.81367155767214
 51
76.89616248891366
  0
LINE
  8
0
  6
CONTINUOUS
 62
     7
 10
474.993022740376
 20
99.3014466187352
 11
482.5861802735698
 21
97.52239899606671
  0
LINE
  8
0
  6
CONTINUOUS
 62
     7
 10
482.5907146467409
 20
97.52131428406605
 11
482.5861802735698
 21
97.52239899606671
  0
LINE
  8
0
  6
CONTINUOUS
 62
     7
 10
397.4138197264302
 20
97.52239899606671
 11
397.409285353259
 21
97.52131428406605
  0
LINE
  8
0
  6
CONTINUOUS
 62
     7
 10
397.4138197264302
 20
97.52239899606671
 11
405.006977259624
 21
99.30144661873521
  0
ARC
  8
0
  6
CONTINUOUS
 62
     7
 10
406.1475700313864
 20
94.43327980472776
 40
5.000000000000002
 50
103.1038375110863
 51
103.1863284423273
  0
LINE
  8
0
  6
CONTINUOUS
 62
     7
 10
473.8595957628135
 20
99.43327466986447
 11
474.9860126741888
 21
99.30308372784631
  0
LINE
  8
0
  6
CONTINUOUS
 62
     7
 10
405.0139873258112
 20
99.30308372784631
 11
406.1404042371865
 21
99.43327466986447
  0
ARC
  8
0
  6
CONTINUOUS
 62
     7
 10
406.1475700313864
 20
94.43327980472776
 40
5.000000000000004
 50
90.0
 51
90.08211398101173
  0
LINE
  8
0
  6
CONTINUOUS
 62
     7
 10
406.1475700313864
 20
99.43327980472776
 11
473.8524299686136
 21
99.43327980472776
  0
ARC
  8
0
  6
CONTINUOUS
 62
     7
 10
473.8524299686136
 20
94.43327980472776
 40
5.000000000000004
 50
89.91788601898827
 51
90.0
  0
LINE
  8
0
  6
CONTINUOUS
 62
     9
 10
473.8524248739885
 20
99.43327980472776
 11
473.8367767566485
 21
99.70678430015168
  0
LINE
  8
0
  6
CONTINUOUS
 62
     9
 10
474.9928387803055
 20
99.30196898564698
 11
474.9930270060967
 21
99.30144561929325
  0
LINE
  8
0
  6
CONTINUOUS
 62
     9
 10
397.4138310193548
 20
97.52317827590994
 11
397.4138198219925
 21
97.5223990184566
  0
LINE
  8
0
  6
CONTINUOUS
 62
     7
 10
397.0283717444148
 20
97.06817485056312
 11
397.0387920288189
 21
97.66515254426082
  0
LINE
  8
0
  6
CONTINUOUS
 62
     9
 10
482.5861801780075
 20
97.5223990184566
 11
482.5861692156482
 21
97.52316397154506
  0
LINE
  8
0
  6
CONTINUOUS
 62
     7
 10
482.9612132612366
 20
97.66484947718462
 11
482.9716265826345
 21
97.06827069384974
  0
LINE
  8
0
  6
CONTINUOUS
 62
     9
 10
405.0069729939033
 20
99.30144561929325
 11
405.0072896200074
 21
99.30383255821413
  0
LINE
  8
0
  6
CONTINUOUS
 62
     9
 10
405.0072896200074
 20
99.30383255821413
 11
405.0073769191752
 21
99.30975685455778
  0
LINE
  8
0
  6
CONTINUOUS
 62
     9
 10
406.1632232433514
 20
99.70678430015168
 11
406.1475751260114
 21
99.43327980472776
  0
LINE
  8
0
  6
CONTINUOUS
 62
     9
 10
473.8367961103249
 20
99.70678430015168
 11
473.254886034886
 21
133.0443901946
  0
LINE
  8
0
  6
CONTINUOUS
 62
     9
 10
406.7451139651141
 20
133.0443901946
 11
406.1632038896751
 21
99.70678430015168
  0
LINE
  8
0
  6
CONTINUOUS
 62
     7
 10
397.0387920232396
 20
97.66515222462067
 11
397.6207025017038
 21
131.0027812083719
  0
LINE
  8
0
  6
CONTINUOUS
 62
     7
 10
482.3792974982962
 20
131.0027812083719
 11
482.9612132562707
 21
97.66484976167597
  0
LINE
  8
0
  6
CONTINUOUS
 62
     7
 10
477.2254536508073
 20
55.2871478113868
 11
476.8701413487724
 21
96.0019048758981
  0
LINE
  8
0
  6
CONTINUOUS
 62
     7
 10
403.1298586512275
 20
96.0019048758981
 11
402.7745463491927
 21
55.2871478113867
  0
LINE
  8
0
  6
CONTINUOUS
 62
     7
 10
406.5899262066372
 20
133.9306919367697
 11
406.7497143768983
 21
133.9332235636029
  0
LINE
  8
0
  6
CONTINUOUS
 62
     9
 10
406.7496973089507
 20
133.9332235638938
 11
406.7451105026253
 21
133.0443901946
  0
LINE
  8
0
  6
CONTINUOUS
 62
     9
 10
473.2548894973747
 20
133.0443901946
 11
473.2503026910492
 21
133.9332235638938
  0
LINE
  8
0
  6
CONTINUOUS
 62
     7
 10
474.3908230003525
 20
133.8014466187352
 11
474.1489463967129
 21
133.8518473825471
  0
LINE
  8
0
  6
CONTINUOUS
 62
     7
 10
473.4101235974051
 20
133.9306903480403
 11
473.2503026910492
 21
133.9332235638647
  0
POLYLINE
  8
0
  6
CONTINUOUS
 62
     7
 10
0.0
 20
0.0
 30
0.0
 66
     1
 70
     8
  0
VERTEX
  8
0
  6
CONTINUOUS
 62
     7
 10
406.7497697714098
 20
133.9332798047277
 30
0.0
 70
    32
  0
VERTEX
  8
0
  6
CONTINUOUS
 62
     7
 10
406.7497143768983
 20
133.9332235636029
 30
0.0
 70
    32
  0
SEQEND
  8
0
  6
CONTINUOUS
 62
     7
  0
LINE
  8
0
  6
CONTINUOUS
 62
     7
 10
406.7497697714098
 20
133.9332798047277
 11
473.2502302285902
 21
133.9332798047277
  0
POLYLINE
  8
0
  6
CONTINUOUS
 62
     9
 10
0.0
 20
0.0
 30
0.0
 66
     1
 70
     8
  0
VERTEX
  8
0
  6
CONTINUOUS
 62
     9
 10
473.2502856231017
 20
133.9332235636029
 30
0.0
 70
    32
  0
VERTEX
  8
0
  6
CONTINUOUS
 62
     9
 10
473.2502302285902
 20
133.9332798047277
 30
0.0
 70
    32
  0
SEQEND
  8
0
  6
CONTINUOUS
 62
     9
  0
LINE
  8
0
  6
CONTINUOUS
 62
     7
 10
398.0160195620514
 20
132.0223990184649
 11
405.609141212517
 21
133.8014382339481
  0
LINE
  8
0
  6
CONTINUOUS
 62
     7
 10
474.390858787483
 20
133.8014382339481
 11
481.9839804379486
 21
132.0223990184649
  0
LINE
  8
0
  6
CONTINUOUS
 62
     7
 10
482.3474421303806
 20
131.6838179881196
 11
482.361585709412
 21
131.6265002205755
  0
LINE
  8
0
  6
CONTINUOUS
 62
     7
 10
482.361585709412
 20
131.6265002205755
 11
482.3698451039483
 21
131.5443085178846
  0
POLYLINE
  8
0
  6
CONTINUOUS
 62
     7
 66
     1
  0
VERTEX
  8
0
  6
CONTINUOUS
 62
     7
 10
481.9839805335463
 20
132.0223989960667
  0
VERTEX
  8
0
  6
CONTINUOUS
 62
     7
 10
482.0068501689728
 20
132.0164674078987
  0
VERTEX
  8
0
  6
CONTINUOUS
 62
     7
 10
482.0294140673529
 20
132.009462091872
  0
VERTEX
  8
0
  6
CONTINUOUS
 62
     7
 10
482.0516218476564
 20
132.0013986895673
  0
VERTEX
  8
0
  6
CONTINUOUS
 62
     7
 10
482.0734239239997
 20
131.9922952050771
  0
VERTEX
  8
0
  6
CONTINUOUS
 62
     7
 10
482.0947716163609
 20
131.9821719648058
  0
VERTEX
  8
0
  6
CONTINUOUS
 62
     7
 10
482.1156172592742
 20
131.9710515720848
  0
VERTEX
  8
0
  6
CONTINUOUS
 62
     7
 10
482.1359143082577
 20
131.9589588567033
  0
VERTEX
  8
0
  6
CONTINUOUS
 62
     7
 10
482.1556174437387
 20
131.9459208194678
  0
VERTEX
  8
0
  6
CONTINUOUS
 62
     7
 10
482.174682672244
 20
131.9319665719145
  0
VERTEX
  8
0
  6
CONTINUOUS
 62
     7
 10
482.1930674246293
 20
131.9171272713085
  0
VERTEX
  8
0
  6
CONTINUOUS
 62
     7
 10
482.2107306511278
 20
131.9014360510756
  0
VERTEX
  8
0
  6
CONTINUOUS
 62
     7
 10
482.2276329130075
 20
131.8849279468208
  0
VERTEX
  8
0
  6
CONTINUOUS
 62
     7
 10
482.2437364706303
 20
131.8676398181011
  0
VERTEX
  8
0
  6
CONTINUOUS
 62
     7
 10
482.2590053677174
 20
131.8496102661243
  0
VERTEX
  8
0
  6
CONTINUOUS
 62
     7
 10
482.2734055116332
 20
131.8308795475598
  0
VERTEX
  8
0
  6
CONTINUOUS
 62
     7
 10
482.2869047495083
 20
131.811489484653
  0
VERTEX
  8
0
  6
CONTINUOUS
 62
     7
 10
482.2994729400303
 20
131.7914833718436
  0
VERTEX
  8
0
  6
CONTINUOUS
 62
     7
 10
482.3110820207442
 20
131.7709058790975
  0
VERTEX
  8
0
  6
CONTINUOUS
 62
     7
 10
482.3217060707107
 20
131.7498029521667
  0
VERTEX
  8
0
  6
CONTINUOUS
 62
     7
 10
482.3313213683825
 20
131.7282217100008
  0
VERTEX
  8
0
  6
CONTINUOUS
 62
     7
 10
482.3399064445705
 20
131.7062103395395
  0
VERTEX
  8
0
  6
CONTINUOUS
 62
     7
 10
482.3474421303806
 20
131.6838179881196
  0
SEQEND
  8
0
  6
CONTINUOUS
 62
     7
  0
LINE
  8
0
  6
CONTINUOUS
 62
     7
 10
482.3698450969562
 20
131.5443089184606
 11
482.3754755968453
 21
131.2217377958513
  0
LINE
  8
0
  6
CONTINUOUS
 62
     7
 10
482.3754755968453
 20
131.2217377958513
 11
482.3792974918325
 21
131.0027815786759
  0
LINE
  8
0
  6
CONTINUOUS
 62
     7
 10
397.6525579691824
 20
131.6838183088477
 11
397.6346683236148
 21
131.6031731109366
  0
LINE
  8
0
  6
CONTINUOUS
 62
     7
 10
397.6346683236148
 20
131.6031731109366
 11
397.630154903044
 21
131.5443089184606
  0
POLYLINE
  8
0
  6
CONTINUOUS
 62
     7
 66
     1
  0
VERTEX
  8
0
  6
CONTINUOUS
 62
     7
 10
398.0160195620514
 20
132.0223990184649
  0
VERTEX
  8
0
  6
CONTINUOUS
 62
     7
 10
397.9931499358489
 20
132.016467437746
  0
VERTEX
  8
0
  6
CONTINUOUS
 62
     7
 10
397.9705860461794
 20
132.0094621300833
  0
VERTEX
  8
0
  6
CONTINUOUS
 62
     7
 10
397.9483782740073
 20
132.0013987370245
  0
VERTEX
  8
0
  6
CONTINUOUS
 62
     7
 10
397.926576205153
 20
131.9922952626251
  0
VERTEX
  8
0
  6
CONTINUOUS
 62
     7
 10
397.9052285195771
 20
131.9821720332482
  0
VERTEX
  8
0
  6
CONTINUOUS
 62
     7
 10
397.8843828826865
 20
131.9710516521804
  0
VERTEX
  8
0
  6
CONTINUOUS
 62
     7
 10
397.8640858389073
 20
131.9589589491621
  0
VERTEX
  8
0
  6
CONTINUOUS
 62
     7
 10
397.844382707759
 20
131.9459209249474
  0
VERTEX
  8
0
  6
CONTINUOUS
 62
     7
 10
397.8253174826651
 20
131.9319666910169
  0
VERTEX
  8
0
  6
CONTINUOUS
 62
     7
 10
397.8069327327234
 20
131.9171274045769
  0
VERTEX
  8
0
  6
CONTINUOUS
 62
     7
 10
397.7892695076574
 20
131.9014361989912
  0
VERTEX
  8
0
  6
CONTINUOUS
 62
     7
 10
397.7723672461601
 20
131.8849281098
  0
VERTEX
  8
0
  6
CONTINUOUS
 62
     7
 10
397.7562636878342
 20
131.8676399964932
  0
VERTEX
  8
0
  6
CONTINUOUS
 62
     7
 10
397.7409947889272
 20
131.8496104602086
  0
VERTEX
  8
0
  6
CONTINUOUS
 62
     7
 10
397.7265946420476
 20
131.8308797575439
  0
VERTEX
  8
0
  6
CONTINUOUS
 62
     7
 10
397.7130954000419
 20
131.8114897106709
  0
VERTEX
  8
0
  6
CONTINUOUS
 62
     7
 10
397.7005272042044
 20
131.7914836139537
  0
VERTEX
  8
0
  6
CONTINUOUS
 62
     7
 10
397.6889181169761
 20
131.7709061372815
  0
VERTEX
  8
0
  6
CONTINUOUS
 62
     7
 10
397.6782940592874
 20
131.7498032263285
  0
VERTEX
  8
0
  6
CONTINUOUS
 62
     7
 10
397.668678752681
 20
131.7282219999655
  0
VERTEX
  8
0
  6
CONTINUOUS
 62
     7
 10
397.6600936663462
 20
131.7062106450528
  0
VERTEX
  8
0
  6
CONTINUOUS
 62
     7
 10
397.6525579691824
 20
131.6838183088477
  0
SEQEND
  8
0
  6
CONTINUOUS
 62
     7
  0
LINE
  8
0
  6
CONTINUOUS
 62
     7
 10
397.6207025081675
 20
131.0027815786759
 11
397.6237960946075
 21
131.1800130271292
  0
LINE
  8
0
  6
CONTINUOUS
 62
     7
 10
397.6237960946075
 20
131.1800130271292
 11
397.6251022536136
 21
131.2548428264688
  0
LINE
  8
0
  6
CONTINUOUS
 62
     7
 10
397.6251022536136
 20
131.2548428264688
 11
397.6301549030438
 21
131.5443089184606
  0
ARC
  8
0
  6
CONTINUOUS
 62
     7
 10
406.7497697714098
 20
128.9332798047277
 40
5.000000000000018
 50
91.83221059469304
 51
103.1863284423274
  0
ARC
  8
0
  6
CONTINUOUS
 62
     7
 10
473.2502302285902
 20
128.9332798047277
 40
5.000000000000016
 50
76.81282916602233
 51
79.64507487648562
  0
ARC
  8
0
  6
CONTINUOUS
 62
     7
 10
473.2502302285902
 20
128.9332798047277
 40
5.000000000000005
 50
79.6450748764858
 51
88.16721836329071
  0
LINE
  8
0
  6
CONTINUOUS
 62
     7
 10
482.116264736901
 20
63.93327980472775
 11
482.6111629970704
 21
63.93327980472775
  0
LINE
  8
0
  6
CONTINUOUS
 62
     7
 10
482.1224211790804
 20
35.93327980472775
 11
481.6275229189109
 21
35.93327980472775
  0
LINE
  8
0
  6
CONTINUOUS
 62
     7
 10
398.372477081089
 20
35.93327980472775
 11
397.8775788209196
 21
35.93327980472775
  0
LINE
  8
0
  6
CONTINUOUS
 62
     7
 10
397.3888370029295
 20
63.93327980472775
 11
397.8837352630989
 21
63.93327980472775
  0
LINE
  8
0
  6
CONTINUOUS
 62
     7
 10
399.25
 20
63.93327980472775
 11
399.4943522981412
 21
35.93327980472776
  0
LINE
  8
0
  6
CONTINUOUS
 62
     7
 10
398.372477081089
 20
35.93327980472775
 11
399.4943522981412
 21
35.93327980472775
  0
LINE
  8
0
  6
CONTINUOUS
 62
     7
 10
397.8837352630989
 20
63.93327980472775
 11
399.25
 21
63.93327980472775
  0
LINE
  8
0
  6
CONTINUOUS
 62
     7
 10
480.5056477018588
 20
35.93327980472775
 11
481.6275229189109
 21
35.93327980472775
  0
LINE
  8
0
  6
CONTINUOUS
 62
     7
 10
480.75
 20
63.93327980472775
 11
480.5056477018588
 21
35.93327980472776
  0
LINE
  8
0
  6
CONTINUOUS
 62
     7
 10
480.75
 20
63.93327980472775
 11
482.116264736901
 21
63.93327980472775
  0
LINE
  8
0
  6
CONTINUOUS
 62
     7
 10
396.9387418179901
 20
35.93327980472775
 11
396.45
 21
63.93327980472775
  0
LINE
  8
0
  6
CONTINUOUS
 62
     7
 10
397.8775788209196
 20
35.93327980472775
 11
396.9387418179901
 21
35.93327980472775
  0
LINE
  8
0
  6
CONTINUOUS
 62
     7
 10
396.45
 20
63.93327980472775
 11
397.3888370029295
 21
63.93327980472775
  0
LINE
  8
0
  6
CONTINUOUS
 62
     7
 10
483.55
 20
63.93327980472775
 11
483.0612581820099
 21
35.93327980472775
  0
LINE
  8
0
  6
CONTINUOUS
 62
     7
 10
483.0612581820099
 20
35.93327980472775
 11
482.1224211790804
 21
35.93327980472775
  0
LINE
  8
0
  6
CONTINUOUS
 62
     7
 10
482.6111629970704
 20
63.93327980472775
 11
483.55
 21
63.93327980472775
  0
POLYLINE
  8
0
  6
CONTINUOUS
 62
     7
 66
     1
  0
VERTEX
  8
0
  6
CONTINUOUS
 62
     7
 10
440.4226497308103
 20
40.73327980472775
  0
VERTEX
  8
0
  6
CONTINUOUS
 62
     7
 10
440.5476497308104
 20
40.70956101421606
  0
VERTEX
  8
0
  6
CONTINUOUS
 62
     7
 10
440.641960828573
 20
40.65832462915218
  0
VERTEX
  8
0
  6
CONTINUOUS
 62
     7
 10
440.7214680451302
 20
40.5889215785333
  0
VERTEX
  8
0
  6
CONTINUOUS
 62
     7
 10
440.7914409793979
 20
40.50268154952409
  0
VERTEX
  8
0
  6
CONTINUOUS
 62
     7
 10
440.8457532722589
 20
40.41368414947459
  0
VERTEX
  8
0
  6
CONTINUOUS
 62
     7
 10
440.9037217071409
 20
40.28618846681821
  0
SEQEND
  8
0
  6
CONTINUOUS
 62
     7
  0
ARC
  8
0
  6
CONTINUOUS
 62
     7
 10
439.4364859533708
 20
39.74586106154567
 40
1.563564665125782
 50
359.5389632985912
 51
20.21684307441393
  0
LINE
  8
0
  6
CONTINUOUS
 62
     7
 10
440.4226497308103
 20
40.73327980472775
 11
451.2967334007307
 21
40.73327980472775
  0
LINE
  8
0
  6
CONTINUOUS
 62
     7
 10
440.0
 20
40.73327980472775
 11
440.4226497308103
 21
40.73327980472775
  0
LINE
  8
0
  6
CONTINUOUS
 62
     7
 10
441.0
 20
39.73327980472775
 11
441.0
 21
39.23327980472775
  0
LINE
  8
0
  6
CONTINUOUS
 62
     7
 10
441.0
 20
39.23327980472775
 11
440.0
 21
39.23327980472775
  0
LINE
  8
0
  6
CONTINUOUS
 62
     7
 10
428.6770627096278
 20
39.23327980472775
 11
425.6729456716341
 21
39.23327980472775
  0
LINE
  8
0
  6
CONTINUOUS
 62
     7
 10
425.6729456716341
 20
39.23327980472775
 11
425.7018923725103
 21
39.78561576080612
  0
LINE
  8
0
  6
CONTINUOUS
 62
     7
 10
428.7032665992693
 20
40.73327980472775
 11
439.5773502691897
 21
40.73327980472775
  0
ARC
  8
0
  6
CONTINUOUS
 62
     7
 10
440.5012206088429
 20
39.75286821795625
 40
1.501348401387098
 50
155.1225001753282
 51
180.7475714825299
  0
POLYLINE
  8
0
  6
CONTINUOUS
 62
     7
 66
     1
  0
VERTEX
  8
0
  6
CONTINUOUS
 62
     7
 10
439.1391833975638
 20
40.38445483706603
  0
VERTEX
  8
0
  6
CONTINUOUS
 62
     7
 10
439.1996385319197
 20
40.489587632656
  0
VERTEX
  8
0
  6
CONTINUOUS
 62
     7
 10
439.2729152363361
 20
40.58296088155279
  0
VERTEX
  8
0
  6
CONTINUOUS
 62
     7
 10
439.3555879332502
 20
40.65656979117626
  0
VERTEX
  8
0
  6
CONTINUOUS
 62
     7
 10
439.4500443311455
 20
40.70866669946037
  0
VERTEX
  8
0
  6
CONTINUOUS
 62
     7
 10
439.5515359562149
 20
40.73227973652801
  0
VERTEX
  8
0
  6
CONTINUOUS
 62
     7
 10
439.5773502691897
 20
40.73327980472775
  0
SEQEND
  8
0
  6
CONTINUOUS
 62
     7
  0
LINE
  8
0
  6
CONTINUOUS
 62
     7
 10
428.6770627096278
 20
39.23327980472775
 11
439.0
 21
39.23327980472775
  0
LINE
  8
0
  6
CONTINUOUS
 62
     7
 10
439.0
 20
39.73327980472775
 11
439.0
 21
39.23327980472775
  0
LINE
  8
0
  6
CONTINUOUS
 62
     7
 10
441.0
 20
39.23327980472775
 11
451.3229372903722
 21
39.23327980472776
  0
LINE
  8
0
  6
CONTINUOUS
 62
     7
 10
454.3270543283659
 20
39.23327980472776
 11
451.3229372903722
 21
39.23327980472776
  0
LINE
  8
0
  6
CONTINUOUS
 62
     7
 10
454.298107627481
 20
39.7856157609707
 11
454.2394784815966
 21
39.78534330407807
  0
LINE
  8
0
  6
CONTINUOUS
 62
     7
 10
454.298107627481
 20
39.78561576097071
 11
454.3270543283659
 21
39.23327980472776
  0
LINE
  8
0
  6
CONTINUOUS
 62
     7
 10
439.5773502691897
 20
40.73327980472775
 11
440.0
 21
40.73327980472775
  0
LINE
  8
0
  6
CONTINUOUS
 62
     7
 10
440.0
 20
39.23327980472775
 11
439.0
 21
39.23327980472775
  0
LINE
  8
0
  6
CONTINUOUS
 62
     7
 10
425.7605215184035
 20
39.78534330407764
 11
425.7018923725189
 21
39.78561576097069
  0
LINE
  8
0
  6
CONTINUOUS
 62
     7
 10
426.7005219072735
 20
40.73327980472775
 11
428.7032665992693
 21
40.73327980472775
  0
LINE
  8
0
  6
CONTINUOUS
 62
     7
 10
426.7005219072735
 20
40.73327980472775
 11
426.3432358946831
 21
40.66727482891538
  0
LINE
  8
0
  6
CONTINUOUS
 62
     7
 10
453.6567641097935
 20
40.66727482720292
 11
453.2994780927265
 21
40.73327980472776
  0
LINE
  8
0
  6
CONTINUOUS
 62
     7
 10
451.2967334007307
 20
40.73327980472775
 11
453.2994780927265
 21
40.73327980472776
  0
LINE
  8
0
  6
CONTINUOUS
 62
     7
 10
400.4699551467128
 20
38.73327980472775
 11
399.4699170683271
 21
38.73327980472775
  0
LINE
  8
0
  6
CONTINUOUS
 62
     7
 10
399.4943522981412
 20
35.93327980472775
 11
400.494390376527
 21
35.93327980472775
  0
LINE
  8
0
  6
CONTINUOUS
 62
     7
 10
480.5300829316728
 20
38.73327980472776
 11
479.5300448532872
 21
38.73327980472776
  0
LINE
  8
0
  6
CONTINUOUS
 62
     7
 10
479.505609623473
 20
35.93327980472775
 11
480.5056477018588
 21
35.93327980472775
  0
LINE
  8
0
  6
CONTINUOUS
 62
     7
 10
435.8532582180075
 20
38.73327980472772
 11
435.8270543283659
 21
39.23327980472775
  0
LINE
  8
0
  6
CONTINUOUS
 62
     7
 10
425.6729456716341
 20
39.23327980472775
 11
425.6467417819925
 21
38.73327980472775
  0
LINE
  8
0
  6
CONTINUOUS
 62
     7
 10
444.172945671634
 20
39.23327980472776
 11
444.1467417819925
 21
38.73327980472775
  0
LINE
  8
0
  6
CONTINUOUS
 62
     7
 10
454.3532582180075
 20
38.73327980472776
 11
454.3270543283659
 21
39.23327980472776
  0
LINE
  8
0
  6
CONTINUOUS
 62
     7
 10
454.5
 20
35.93327980472775
 11
444.0
 21
35.93327980472775
  0
LINE
  8
0
  6
CONTINUOUS
 62
     7
 10
444.0
 20
35.93327980472777
 11
444.0733708909962
 21
37.33327980472774
  0
LINE
  8
0
  6
CONTINUOUS
 62
     7
 10
454.4266291090037
 20
37.33327980472777
 11
454.5
 21
35.93327980472777
  0
LINE
  8
0
  6
CONTINUOUS
 62
     7
 10
436.0
 20
35.93327980472775
 11
425.5
 21
35.93327980472775
  0
LINE
  8
0
  6
CONTINUOUS
 62
     7
 10
435.9266291090037
 20
37.33327980472774
 11
436.0
 21
35.93327980472777
  0
LINE
  8
0
  6
CONTINUOUS
 62
     7
 10
425.5
 20
35.93327980472777
 11
425.5733708909963
 21
37.33327980472777
  0
LINE
  8
0
  6
CONTINUOUS
 62
     7
 10
424.3532582180075
 20
38.73327980472776
 11
424.5
 21
35.93327980472775
  0
LINE
  8
0
  6
CONTINUOUS
 62
     7
 10
423.498627654002
 20
35.93327980472775
 11
423.3518858720096
 21
38.73327980472776
  0
LINE
  8
0
  6
CONTINUOUS
 62
     7
 10
423.3518858720096
 20
38.73327980472776
 11
424.3532582180075
 21
38.73327980472776
  0
LINE
  8
0
  6
CONTINUOUS
 62
     7
 10
424.5
 20
35.93327980472775
 11
423.498627654002
 21
35.93327980472775
  0
LINE
  8
0
  6
CONTINUOUS
 62
     7
 10
456.6481141279904
 20
38.73327980472776
 11
456.5013723459979
 21
35.93327980472775
  0
LINE
  8
0
  6
CONTINUOUS
 62
     7
 10
456.6481141279904
 20
38.73327980472776
 11
479.5300448532872
 21
38.73327980472776
  0
LINE
  8
0
  6
CONTINUOUS
 62
     7
 10
456.5013723459979
 20
35.93327980472775
 11
479.505609623473
 21
35.93327980472775
  0
LINE
  8
0
  6
CONTINUOUS
 62
     7
 10
435.9266291090037
 20
37.33327980472774
 11
435.8532582180075
 21
38.73327980472772
  0
LINE
  8
0
  6
CONTINUOUS
 62
     7
 10
425.6467417819925
 20
38.73327980472775
 11
425.5733708909963
 21
37.33327980472777
  0
LINE
  8
0
  6
CONTINUOUS
 62
     7
 10
455.5
 20
35.93327980472775
 11
455.6467417819925
 21
38.73327980472775
  0
LINE
  8
0
  6
CONTINUOUS
 62
     7
 10
455.6467417819925
 20
38.73327980472776
 11
456.6481141279904
 21
38.73327980472776
  0
LINE
  8
0
  6
CONTINUOUS
 62
     7
 10
456.5013723459979
 20
35.93327980472775
 11
455.5
 21
35.93327980472775
  0
LINE
  8
0
  6
CONTINUOUS
 62
     7
 10
400.4699551467128
 20
38.73327980472776
 11
423.3518858720096
 21
38.73327980472776
  0
LINE
  8
0
  6
CONTINUOUS
 62
     7
 10
400.494390376527
 20
35.93327980472775
 11
423.498627654002
 21
35.93327980472775
  0
LINE
  8
0
  6
CONTINUOUS
 62
     7
 10
444.1467417819925
 20
38.73327980472775
 11
444.0733708909962
 21
37.33327980472774
  0
LINE
  8
0
  6
CONTINUOUS
 62
     7
 10
454.3532582180075
 20
38.73327980472776
 11
454.4266291090037
 21
37.33327980472777
  0
LINE
  8
0
  6
CONTINUOUS
 62
     7
 10
479.8300829316729
 20
38.73327980472776
 11
480.1286179654384
 21
72.94200634022613
  0
LINE
  8
0
  6
CONTINUOUS
 62
     7
 10
399.8713820345616
 20
72.94200634022613
 11
400.1699170683271
 21
38.73327980472775
  0
LINE
  8
0
  6
CONTINUOUS
 62
     7
 10
399.8687097383043
 20
73.2482211610887
 11
399.8713820345616
 21
72.94200634022613
  0
LINE
  8
0
  6
CONTINUOUS
 62
     7
 10
399.3372686779076
 20
73.93327980472775
 11
399.3670757167949
 21
73.93327980472775
  0
LINE
  8
0
  6
CONTINUOUS
 62
     7
 10
480.6329242832051
 20
73.93327980472775
 11
480.6627313220924
 21
73.93327980472775
  0
ARC
  8
0
  6
CONTINUOUS
 62
     7
 10
480.6329242832051
 20
73.43327980472775
 40
0.4999999999999936
 50
123.5235903467573
 51
125.672487090357
  0
LINE
  8
0
  6
CONTINUOUS
 62
     7
 10
480.1286179654384
 20
72.94200634022613
 11
480.1320110352103
 21
73.33081362519125
  0
ARC
  8
0
  6
CONTINUOUS
 62
     7
 10
480.6329242832051
 20
73.43327980472775
 40
0.5000000000000004
 50
90.0
 51
123.5235903467573
  0
LINE
  8
0
  6
CONTINUOUS
 62
     7
 10
455.6467417819925
 20
38.73327980472776
 11
455.1460556089935
 21
38.73327980472776
  0
LINE
  8
0
  6
CONTINUOUS
 62
     7
 10
454.999313827001
 20
35.93327980472775
 11
455.5
 21
35.93327980472775
  0
LINE
  8
0
  6
CONTINUOUS
 62
     7
 10
424.8539443910065
 20
38.73327980472776
 11
424.3532582180075
 21
38.73327980472776
  0
LINE
  8
0
  6
CONTINUOUS
 62
     7
 10
424.5
 20
35.93327980472775
 11
425.0006861729989
 21
35.93327980472775
  0
LINE
  8
0
  6
CONTINUOUS
 62
     7
 10
424.8539443910065
 20
38.73327980472776
 11
425.6467417819925
 21
38.73327980472776
  0
LINE
  8
0
  6
CONTINUOUS
 62
     7
 10
425.5
 20
35.93327980472775
 11
425.0006861729989
 21
35.93327980472775
  0
LINE
  8
0
  6
CONTINUOUS
 62
     7
 10
442.9986276540021
 20
35.93327980472775
 11
444.0
 21
35.93327980472775
  0
LINE
  8
0
  6
CONTINUOUS
 62
     7
 10
436.0
 20
35.93327980472775
 11
437.0013723459979
 21
35.93327980472775
  0
LINE
  8
0
  6
CONTINUOUS
 62
     7
 10
454.3532582180075
 20
38.73327980472776
 11
455.1460556089935
 21
38.73327980472776
  0
LINE
  8
0
  6
CONTINUOUS
 62
     7
 10
454.999313827001
 20
35.93327980472775
 11
454.5
 21
35.93327980472775
  0
POLYLINE
  8
0
  6
CONTINUOUS
 62
     7
 66
     1
  0
VERTEX
  8
0
  6
CONTINUOUS
 62
     7
 10
439.2886751345948
 20
38.73327980472776
  0
VERTEX
  8
0
  6
CONTINUOUS
 62
     7
 10
439.2745105171041
 20
38.73267753283034
  0
VERTEX
  8
0
  6
CONTINUOUS
 62
     7
 10
439.2603800234176
 20
38.73087216806385
  0
VERTEX
  8
0
  6
CONTINUOUS
 62
     7
 10
439.2463176951322
 20
38.72786805971015
  0
VERTEX
  8
0
  6
CONTINUOUS
 62
     7
 10
439.2323574096287
 20
38.72367244492937
  0
VERTEX
  8
0
  6
CONTINUOUS
 62
     7
 10
439.2185327984573
 20
38.71829543132503
  0
VERTEX
  8
0
  6
CONTINUOUS
 62
     7
 10
439.2048771663175
 20
38.71174997259386
  0
VERTEX
  8
0
  6
CONTINUOUS
 62
     7
 10
439.1914234108232
 20
38.70405183731927
  0
VERTEX
  8
0
  6
CONTINUOUS
 62
     7
 10
439.1782039432496
 20
38.6952195709834
  0
VERTEX
  8
0
  6
CONTINUOUS
 62
     7
 10
439.1652506104521
 20
38.68527445128948
  0
VERTEX
  8
0
  6
CONTINUOUS
 62
     7
 10
439.152594618144
 20
38.67424043690193
  0
VERTEX
  8
0
  6
CONTINUOUS
 62
     7
 10
439.1402664557193
 20
38.6621441097279
  0
VERTEX
  8
0
  6
CONTINUOUS
 62
     7
 10
439.128295822801
 20
38.64901461087904
  0
VERTEX
  8
0
  6
CONTINUOUS
 62
     7
 10
439.1167115576924
 20
38.63488357046808
  0
VERTEX
  8
0
  6
CONTINUOUS
 62
     7
 10
439.1055415679028
 20
38.61978503140914
  0
VERTEX
  8
0
  6
CONTINUOUS
 62
     7
 10
439.094812762916
 20
38.60375536740525
  0
VERTEX
  8
0
  6
CONTINUOUS
 62
     7
 10
439.0845509893629
 20
38.58683319532103
  0
VERTEX
  8
0
  6
CONTINUOUS
 62
     7
 10
439.0747809687548
 20
38.56905928215128
  0
VERTEX
  8
0
  6
CONTINUOUS
 62
     7
 10
439.0655262379271
 20
38.55047644680959
  0
VERTEX
  8
0
  6
CONTINUOUS
 62
     7
 10
439.0568090923371
 20
38.53112945697399
  0
VERTEX
  8
0
  6
CONTINUOUS
 62
     7
 10
439.0486505323519
 20
38.51106492123757
  0
VERTEX
  8
0
  6
CONTINUOUS
 62
     7
 10
439.0410702126571
 20
38.49033117682438
  0
VERTEX
  8
0
  6
CONTINUOUS
 62
     7
 10
439.034086394907
 20
38.46897817314077
  0
VERTEX
  8
0
  6
CONTINUOUS
 62
     7
 10
439.0277159037301
 20
38.44705735144291
  0
VERTEX
  8
0
  6
CONTINUOUS
 62
     7
 10
439.0219740861978
 20
38.42462152091032
  0
VERTEX
  8
0
  6
CONTINUOUS
 62
     7
 10
439.0168747748512
 20
38.40172473142388
  0
VERTEX
  8
0
  6
CONTINUOUS
 62
     7
 10
439.0124302543781
 20
38.378422143355
  0
VERTEX
  8
0
  6
CONTINUOUS
 62
     7
 10
439.0086512320177
 20
38.35476989467941
  0
VERTEX
  8
0
  6
CONTINUOUS
 62
     7
 10
439.0055468117658
 20
38.33082496573584
  0
VERTEX
  8
0
  6
CONTINUOUS
 62
     7
 10
439.0031244724427
 20
38.30664504195546
  0
VERTEX
  8
0
  6
CONTINUOUS
 62
     7
 10
439.001390049676
 20
38.28228837489256
  0
VERTEX
  8
0
  6
CONTINUOUS
 62
     7
 10
439.0003477218421
 20
38.25781364189149
  0
VERTEX
  8
0
  6
CONTINUOUS
 62
     7
 10
439.0
 20
38.23327980472778
  0
SEQEND
  8
0
  6
CONTINUOUS
 62
     7
  0
LINE
  8
0
  6
CONTINUOUS
 62
     7
 10
436.8808344536469
 20
38.73327980472776
 11
439.2886751345948
 21
38.73327980472776
  0
LINE
  8
0
  6
CONTINUOUS
 62
     7
 10
439.0
 20
38.23327980472778
 11
439.0
 21
35.93327980472781
  0
LINE
  8
0
  6
CONTINUOUS
 62
     7
 10
437.0013723459979
 20
35.93327980472775
 11
439.0
 21
35.93327980472781
  0
POLYLINE
  8
0
  6
CONTINUOUS
 62
     7
 66
     1
  0
VERTEX
  8
0
  6
CONTINUOUS
 62
     7
 10
441.0
 20
38.23327980472778
  0
VERTEX
  8
0
  6
CONTINUOUS
 62
     7
 10
440.9996522781579
 20
38.25781364189149
  0
VERTEX
  8
0
  6
CONTINUOUS
 62
     7
 10
440.998609950324
 20
38.28228837489256
  0
VERTEX
  8
0
  6
CONTINUOUS
 62
     7
 10
440.9968755275573
 20
38.30664504195546
  0
VERTEX
  8
0
  6
CONTINUOUS
 62
     7
 10
440.9944531882342
 20
38.33082496573584
  0
VERTEX
  8
0
  6
CONTINUOUS
 62
     7
 10
440.9913487679823
 20
38.35476989467941
  0
VERTEX
  8
0
  6
CONTINUOUS
 62
     7
 10
440.9875697456218
 20
38.37842214335501
  0
VERTEX
  8
0
  6
CONTINUOUS
 62
     7
 10
440.9831252251488
 20
38.40172473142388
  0
VERTEX
  8
0
  6
CONTINUOUS
 62
     7
 10
440.9780259138022
 20
38.42462152091032
  0
VERTEX
  8
0
  6
CONTINUOUS
 62
     7
 10
440.9722840962698
 20
38.44705735144291
  0
VERTEX
  8
0
  6
CONTINUOUS
 62
     7
 10
440.965913605093
 20
38.46897817314077
  0
VERTEX
  8
0
  6
CONTINUOUS
 62
     7
 10
440.9589297873429
 20
38.49033117682438
  0
VERTEX
  8
0
  6
CONTINUOUS
 62
     7
 10
440.9513494676481
 20
38.51106492123757
  0
VERTEX
  8
0
  6
CONTINUOUS
 62
     7
 10
440.9431909076629
 20
38.53112945697399
  0
VERTEX
  8
0
  6
CONTINUOUS
 62
     7
 10
440.9344737620729
 20
38.55047644680959
  0
VERTEX
  8
0
  6
CONTINUOUS
 62
     7
 10
440.9252190312452
 20
38.56905928215128
  0
VERTEX
  8
0
  6
CONTINUOUS
 62
     7
 10
440.9154490106371
 20
38.58683319532103
  0
VERTEX
  8
0
  6
CONTINUOUS
 62
     7
 10
440.905187237084
 20
38.60375536740525
  0
VERTEX
  8
0
  6
CONTINUOUS
 62
     7
 10
440.8944584320972
 20
38.61978503140914
  0
VERTEX
  8
0
  6
CONTINUOUS
 62
     7
 10
440.8832884423076
 20
38.63488357046808
  0
VERTEX
  8
0
  6
CONTINUOUS
 62
     7
 10
440.871704177199
 20
38.64901461087904
  0
VERTEX
  8
0
  6
CONTINUOUS
 62
     7
 10
440.8597335442807
 20
38.6621441097279
  0
VERTEX
  8
0
  6
CONTINUOUS
 62
     7
 10
440.8474053818559
 20
38.67424043690193
  0
VERTEX
  8
0
  6
CONTINUOUS
 62
     7
 10
440.8347493895479
 20
38.68527445128948
  0
VERTEX
  8
0
  6
CONTINUOUS
 62
     7
 10
440.8217960567504
 20
38.6952195709834
  0
VERTEX
  8
0
  6
CONTINUOUS
 62
     7
 10
440.8085765891768
 20
38.70405183731927
  0
VERTEX
  8
0
  6
CONTINUOUS
 62
     7
 10
440.7951228336825
 20
38.71174997259386
  0
VERTEX
  8
0
  6
CONTINUOUS
 62
     7
 10
440.7814672015426
 20
38.71829543132503
  0
VERTEX
  8
0
  6
CONTINUOUS
 62
     7
 10
440.7676425903713
 20
38.72367244492937
  0
VERTEX
  8
0
  6
CONTINUOUS
 62
     7
 10
440.7536823048677
 20
38.72786805971015
  0
VERTEX
  8
0
  6
CONTINUOUS
 62
     7
 10
440.7396199765824
 20
38.73087216806385
  0
VERTEX
  8
0
  6
CONTINUOUS
 62
     7
 10
440.7254894828959
 20
38.73267753283034
  0
VERTEX
  8
0
  6
CONTINUOUS
 62
     7
 10
440.7113248654052
 20
38.73327980472776
  0
SEQEND
  8
0
  6
CONTINUOUS
 62
     7
  0
LINE
  8
0
  6
CONTINUOUS
 62
     7
 10
440.7113248654051
 20
38.73327980472776
 11
443.119165546353
 21
38.73327980472776
  0
LINE
  8
0
  6
CONTINUOUS
 62
     7
 10
441.0
 20
38.23327980472778
 11
441.0
 21
35.93327980472775
  0
LINE
  8
0
  6
CONTINUOUS
 62
     7
 10
441.0
 20
35.93327980472775
 11
442.9986276540021
 21
35.93327980472775
  0
LINE
  8
0
  6
CONTINUOUS
 62
     7
 10
440.0
 20
38.73327980472778
 11
440.7113248654051
 21
38.73327980472776
  0
LINE
  8
0
  6
CONTINUOUS
 62
     7
 10
440.0
 20
35.93327980472778
 11
441.0
 21
35.93327980472775
  0
LINE
  8
0
  6
CONTINUOUS
 62
     7
 10
439.2886751345948
 20
38.73327980472776
 11
440.0
 21
38.73327980472778
  0
LINE
  8
0
  6
CONTINUOUS
 62
     7
 10
439.0
 20
35.93327980472781
 11
440.0
 21
35.93327980472778
  0
LINE
  8
0
  6
CONTINUOUS
 62
     7
 10
401.4685621827524
 20
62.69375207122815
 11
405.6934399138533
 21
38.73327980472776
  0
LINE
  8
0
  6
CONTINUOUS
 62
     7
 10
474.3065600861467
 20
38.73327980472776
 11
478.5314378172476
 21
62.69375207122815
  0
ARC
  8
0
  6
CONTINUOUS
 62
     7
 10
480.0086494467659
 20
62.43327980472775
 40
1.500000000000001
 50
90.0
 51
170.0
  0
ARC
  8
0
  6
CONTINUOUS
 62
     7
 10
399.9913505532341
 20
62.43327980472775
 40
1.500000000000001
 50
10.00000000000006
 51
90.0000000000021
  0
LINE
  8
0
  6
CONTINUOUS
 62
     7
 10
399.95
 20
63.93327980472777
 11
399.991350553234
 21
63.93327980472777
  0
LINE
  8
0
  6
CONTINUOUS
 62
     7
 10
480.0086494467659
 20
63.93327980472777
 11
480.05
 21
63.93327980472777
  0
ARC
  8
0
  6
CONTINUOUS
 62
     7
 10
444.0
 20
40.53327980472775
 40
0.9999999999999875
 50
11.53892090929956
 51
89.99999999999996
  0
ARC
  8
0
  6
CONTINUOUS
 62
     7
 10
436.0
 20
40.53327980472775
 40
1.000000000000001
 50
90.0
 51
168.4610790907006
  0
LINE
  8
0
  6
CONTINUOUS
 62
     7
 10
436.0
 20
41.53327980472775
 11
444.0
 21
41.53327980472775
  0
POLYLINE
  8
0
  6
CONTINUOUS
 62
     7
 66
     1
  0
VERTEX
  8
0
  6
CONTINUOUS
 62
     7
 10
426.3432359804493
 20
40.66727486172399
  0
VERTEX
  8
0
  6
CONTINUOUS
 62
     7
 10
426.2987489291357
 20
40.64898153430583
  0
VERTEX
  8
0
  6
CONTINUOUS
 62
     7
 10
426.255005737027
 20
40.62837985962575
  0
VERTEX
  8
0
  6
CONTINUOUS
 62
     7
 10
426.2121900198945
 20
40.60549006612413
  0
VERTEX
  8
0
  6
CONTINUOUS
 62
     7
 10
426.170484664117
 20
40.58034982345475
  0
VERTEX
  8
0
  6
CONTINUOUS
 62
     7
 10
426.1300695468208
 20
40.55301437317338
  0
VERTEX
  8
0
  6
CONTINUOUS
 62
     7
 10
426.0911192266137
 20
40.52355633873906
  0
VERTEX
  8
0
  6
CONTINUOUS
 62
     7
 10
426.0538006637713
 20
40.4920652071599
  0
VERTEX
  8
0
  6
CONTINUOUS
 62
     7
 10
426.0182710300661
 20
40.45864648569501
  0
VERTEX
  8
0
  6
CONTINUOUS
 62
     7
 10
425.9846756671361
 20
40.42342054838607
  0
VERTEX
  8
0
  6
CONTINUOUS
 62
     7
 10
425.9531462483329
 20
40.3865211982199
  0
VERTEX
  8
0
  6
CONTINUOUS
 62
     7
 10
425.9237991925402
 20
40.34809398079306
  0
VERTEX
  8
0
  6
CONTINUOUS
 62
     7
 10
425.8967343698117
 20
40.30829429389708
  0
VERTEX
  8
0
  6
CONTINUOUS
 62
     7
 10
425.8720341283416
 20
40.26728534399474
  0
VERTEX
  8
0
  6
CONTINUOUS
 62
     7
 10
425.849762660817
 20
40.22523600478364
  0
VERTEX
  8
0
  6
CONTINUOUS
 62
     7
 10
425.8299657162594
 20
40.182318634766
  0
VERTEX
  8
0
  6
CONTINUOUS
 62
     7
 10
425.8126706517087
 20
40.13870690996165
  0
VERTEX
  8
0
  6
CONTINUOUS
 62
     7
 10
425.7978868071405
 20
40.09457372477208
  0
VERTEX
  8
0
  6
CONTINUOUS
 62
     7
 10
425.7856061773713
 20
40.05008920882695
  0
VERTEX
  8
0
  6
CONTINUOUS
 62
     7
 10
425.7758043468107
 20
40.00541890083107
  0
VERTEX
  8
0
  6
CONTINUOUS
 62
     7
 10
425.7684416470171
 20
39.96072211245673
  0
VERTEX
  8
0
  6
CONTINUOUS
 62
     7
 10
425.7634644932397
 20
39.91615050669998
  0
VERTEX
  8
0
  6
CONTINUOUS
 62
     7
 10
425.7608068544479
 20
39.87184690633401
  0
VERTEX
  8
0
  6
CONTINUOUS
 62
     7
 10
425.760391811627
 20
39.8279443395942
  0
VERTEX
  8
0
  6
CONTINUOUS
 62
     7
 10
425.7621331611011
 20
39.78456532239453
  0
SEQEND
  8
0
  6
CONTINUOUS
 62
     7
  0
POLYLINE
  8
0
  6
CONTINUOUS
 62
     7
 66
     1
  0
VERTEX
  8
0
  6
CONTINUOUS
 62
     7
 10
454.2378668388991
 20
39.78456532239447
  0
VERTEX
  8
0
  6
CONTINUOUS
 62
     7
 10
454.2396081883733
 20
39.82794433959268
  0
VERTEX
  8
0
  6
CONTINUOUS
 62
     7
 10
454.2391931455525
 20
39.87184690633102
  0
VERTEX
  8
0
  6
CONTINUOUS
 62
     7
 10
454.2365355067611
 20
39.91615050669549
  0
VERTEX
  8
0
  6
CONTINUOUS
 62
     7
 10
454.2315583529841
 20
39.96072211245077
  0
VERTEX
  8
0
  6
CONTINUOUS
 62
     7
 10
454.2241956531912
 20
40.00541890082366
  0
VERTEX
  8
0
  6
CONTINUOUS
 62
     7
 10
454.2143938226313
 20
40.05008920881811
  0
VERTEX
  8
0
  6
CONTINUOUS
 62
     7
 10
454.2021131928631
 20
40.09457372476188
  0
VERTEX
  8
0
  6
CONTINUOUS
 62
     7
 10
454.1873293482959
 20
40.13870690995016
  0
VERTEX
  8
0
  6
CONTINUOUS
 62
     7
 10
454.1700342837465
 20
40.1823186347533
  0
VERTEX
  8
0
  6
CONTINUOUS
 62
     7
 10
454.1502373391901
 20
40.22523600476985
  0
VERTEX
  8
0
  6
CONTINUOUS
 62
     7
 10
454.127965871667
 20
40.26728534397997
  0
VERTEX
  8
0
  6
CONTINUOUS
 62
     7
 10
454.1032656301985
 20
40.30829429388146
  0
VERTEX
  8
0
  6
CONTINUOUS
 62
     7
 10
454.0762008074717
 20
40.34809398077675
  0
VERTEX
  8
0
  6
CONTINUOUS
 62
     7
 10
454.0468537516808
 20
40.38652119820304
  0
VERTEX
  8
0
  6
CONTINUOUS
 62
     7
 10
454.0153243328796
 20
40.42342054836886
  0
VERTEX
  8
0
  6
CONTINUOUS
 62
     7
 10
453.9817289699514
 20
40.4586464856776
  0
VERTEX
  8
0
  6
CONTINUOUS
 62
     7
 10
453.9461993362482
 20
40.49206520714249
  0
VERTEX
  8
0
  6
CONTINUOUS
 62
     7
 10
453.9088807734078
 20
40.52355633872182
  0
VERTEX
  8
0
  6
CONTINUOUS
 62
     7
 10
453.8699304532027
 20
40.5530143731565
  0
VERTEX
  8
0
  6
CONTINUOUS
 62
     7
 10
453.8295153359085
 20
40.58034982343839
  0
VERTEX
  8
0
  6
CONTINUOUS
 62
     7
 10
453.787809980133
 20
40.60549006610848
  0
VERTEX
  8
0
  6
CONTINUOUS
 62
     7
 10
453.7449942630024
 20
40.62837985961098
  0
VERTEX
  8
0
  6
CONTINUOUS
 62
     7
 10
453.7012510708955
 20
40.64898153429208
  0
VERTEX
  8
0
  6
CONTINUOUS
 62
     7
 10
453.6567640195836
 20
40.66727486171141
  0
SEQEND
  8
0
  6
CONTINUOUS
 62
     7
  0
POLYLINE
  8
0
  6
CONTINUOUS
 62
     7
 66
     1
  0
VERTEX
  8
0
  6
CONTINUOUS
 62
     7
 10
399.8687096828747
 20
73.24822747556509
  0
VERTEX
  8
0
  6
CONTINUOUS
 62
     7
 10
399.8686444693351
 20
73.25560378420909
  0
VERTEX
  8
0
  6
CONTINUOUS
 62
     7
 10
399.8685308518826
 20
73.26783170816248
  0
VERTEX
  8
0
  6
CONTINUOUS
 62
     7
 10
399.8684137853134
 20
73.27947561578765
  0
VERTEX
  8
0
  6
CONTINUOUS
 62
     7
 10
399.868293287599
 20
73.29058558322154
  0
VERTEX
  8
0
  6
CONTINUOUS
 62
     7
 10
399.8681719918152
 20
73.30123865918772
  0
VERTEX
  8
0
  6
CONTINUOUS
 62
     7
 10
399.8680176809051
 20
73.31491283909217
  0
VERTEX
  8
0
  6
CONTINUOUS
 62
     7
 10
399.8678851090247
 20
73.32826745020884
  0
VERTEX
  8
0
  6
CONTINUOUS
 62
     7
 10
399.8677849263456
 20
73.34167463167104
  0
VERTEX
  8
0
  6
CONTINUOUS
 62
     7
 10
399.8677131421774
 20
73.35555968348517
  0
VERTEX
  8
0
  6
CONTINUOUS
 62
     7
 10
399.8676365375949
 20
73.3703886942002
  0
VERTEX
  8
0
  6
CONTINUOUS
 62
     7
 10
399.8674748160597
 20
73.38664028918474
  0
VERTEX
  8
0
  6
CONTINUOUS
 62
     7
 10
399.8672982340239
 20
73.39647469196711
  0
VERTEX
  8
0
  6
CONTINUOUS
 62
     7
 10
399.867022984986
 20
73.40685701957449
  0
VERTEX
  8
0
  6
CONTINUOUS
 62
     7
 10
399.8666154889585
 20
73.41779697741603
  0
VERTEX
  8
0
  6
CONTINUOUS
 62
     7
 10
399.8660390001055
 20
73.42929940127954
  0
VERTEX
  8
0
  6
CONTINUOUS
 62
     7
 10
399.8652540026249
 20
73.44136439053544
  0
VERTEX
  8
0
  6
CONTINUOUS
 62
     7
 10
399.8642186117476
 20
73.45398740627788
  0
VERTEX
  8
0
  6
CONTINUOUS
 62
     7
 10
399.8626171361207
 20
73.46956826566003
  0
VERTEX
  8
0
  6
CONTINUOUS
 62
     7
 10
399.8605324152459
 20
73.48588843346272
  0
VERTEX
  8
0
  6
CONTINUOUS
 62
     7
 10
399.8578879664996
 20
73.50291632727495
  0
VERTEX
  8
0
  6
CONTINUOUS
 62
     7
 10
399.8546062830044
 20
73.5206118147988
  0
VERTEX
  8
0
  6
CONTINUOUS
 62
     7
 10
399.8505300893078
 20
73.5392646798511
  0
VERTEX
  8
0
  6
CONTINUOUS
 62
     7
 10
399.8456321923328
 20
73.55849905065735
  0
VERTEX
  8
0
  6
CONTINUOUS
 62
     7
 10
399.8398341082901
 20
73.57824595832832
  0
VERTEX
  8
0
  6
CONTINUOUS
 62
     7
 10
399.8330607484802
 20
73.59842789535195
  0
VERTEX
  8
0
  6
CONTINUOUS
 62
     7
 10
399.8252415690527
 20
73.61895914928712
  0
VERTEX
  8
0
  6
CONTINUOUS
 62
     7
 10
399.8164812545652
 20
73.63937336463708
  0
VERTEX
  8
0
  6
CONTINUOUS
 62
     7
 10
399.806594459639
 20
73.6599390029462
  0
VERTEX
  8
0
  6
CONTINUOUS
 62
     7
 10
399.7955333765765
 20
73.68055454399949
  0
VERTEX
  8
0
  6
CONTINUOUS
 62
     7
 10
399.7832583946596
 20
73.70111301033394
  0
VERTEX
  8
0
  6
CONTINUOUS
 62
     7
 10
399.771020029148
 20
73.7196591302007
  0
VERTEX
  8
0
  6
CONTINUOUS
 62
     7
 10
399.757737099484
 20
73.73797924493175
  0
VERTEX
  8
0
  6
CONTINUOUS
 62
     7
 10
399.743400752895
 20
73.75598476947646
  0
VERTEX
  8
0
  6
CONTINUOUS
 62
     7
 10
399.7280095926695
 20
73.77358580583923
  0
VERTEX
  8
0
  6
CONTINUOUS
 62
     7
 10
399.7115699550386
 20
73.79069184234262
  0
VERTEX
  8
0
  6
CONTINUOUS
 62
     7
 10
399.6940961086552
 20
73.80721248857222
  0
VERTEX
  8
0
  6
CONTINUOUS
 62
     7
 10
399.6756103712634
 20
73.82305823823035
  0
VERTEX
  8
0
  6
CONTINUOUS
 62
     7
 10
399.6561431391455
 20
73.8381412512076
  0
VERTEX
  8
0
  6
CONTINUOUS
 62
     7
 10
399.635732826093
 20
73.85237614540665
  0
VERTEX
  8
0
  6
CONTINUOUS
 62
     7
 10
399.6144257099095
 20
73.86568078824267
  0
VERTEX
  8
0
  6
CONTINUOUS
 62
     7
 10
399.596023382975
 20
73.87600089612742
  0
VERTEX
  8
0
  6
CONTINUOUS
 62
     7
 10
399.57707064304
 20
73.88557798353712
  0
VERTEX
  8
0
  6
CONTINUOUS
 62
     7
 10
399.5576059015443
 20
73.89437196445402
  0
VERTEX
  8
0
  6
CONTINUOUS
 62
     7
 10
399.537670714149
 20
73.90234563669584
  0
VERTEX
  8
0
  6
CONTINUOUS
 62
     7
 10
399.5173095543121
 20
73.90946494503683
  0
VERTEX
  8
0
  6
CONTINUOUS
 62
     7
 10
399.4965695607594
 20
73.91569922490017
  0
VERTEX
  8
0
  6
CONTINUOUS
 62
     7
 10
399.4755002608584
 20
73.92102142403297
  0
VERTEX
  8
0
  6
CONTINUOUS
 62
     7
 10
399.4541532721983
 20
73.92540829978125
  0
VERTEX
  8
0
  6
CONTINUOUS
 62
     7
 10
399.4325819849516
 20
73.92884058981963
  0
VERTEX
  8
0
  6
CONTINUOUS
 62
     7
 10
399.4108412278311
 20
73.9313031544637
  0
VERTEX
  8
0
  6
CONTINUOUS
 62
     7
 10
399.3889869206669
 20
73.93278508899184
  0
VERTEX
  8
0
  6
CONTINUOUS
 62
     7
 10
399.3670757167949
 20
73.93327980472775
  0
SEQEND
  8
0
  6
CONTINUOUS
 62
     7
  0
POLYLINE
  8
0
  6
CONTINUOUS
 62
     7
 66
     1
  0
VERTEX
  8
0
  6
CONTINUOUS
 62
     7
 10
480.3568124889129
 20
73.85012783058835
  0
VERTEX
  8
0
  6
CONTINUOUS
 62
     7
 10
480.3443863911677
 20
73.84162429552504
  0
VERTEX
  8
0
  6
CONTINUOUS
 62
     7
 10
480.3273072355864
 20
73.8289990714943
  0
VERTEX
  8
0
  6
CONTINUOUS
 62
     7
 10
480.3106000922215
 20
73.81550266324174
  0
VERTEX
  8
0
  6
CONTINUOUS
 62
     7
 10
480.2943604677918
 20
73.80117608146999
  0
VERTEX
  8
0
  6
CONTINUOUS
 62
     7
 10
480.2786774266978
 20
73.7860705254374
  0
VERTEX
  8
0
  6
CONTINUOUS
 62
     7
 10
480.2636324925054
 20
73.77024680004945
  0
VERTEX
  8
0
  6
CONTINUOUS
 62
     7
 10
480.2492986406751
 20
73.75377457966073
  0
VERTEX
  8
0
  6
CONTINUOUS
 62
     7
 10
480.2357394077343
 20
73.73673153580873
  0
VERTEX
  8
0
  6
CONTINUOUS
 62
     7
 10
480.2230081391827
 20
73.71920234910768
  0
VERTEX
  8
0
  6
CONTINUOUS
 62
     7
 10
480.211147394906
 20
73.70127762797182
  0
VERTEX
  8
0
  6
CONTINUOUS
 62
     7
 10
480.2001885268844
 20
73.68305275862424
  0
VERTEX
  8
0
  6
CONTINUOUS
 62
     7
 10
480.1901514396879
 20
73.66462671190816
  0
VERTEX
  8
0
  6
CONTINUOUS
 62
     7
 10
480.181044539796
 20
73.64610083271097
  0
VERTEX
  8
0
  6
CONTINUOUS
 62
     7
 10
480.1728648753468
 20
73.62757763731939
  0
VERTEX
  8
0
  6
CONTINUOUS
 62
     7
 10
480.1655984636733
 20
73.60915964275347
  0
VERTEX
  8
0
  6
CONTINUOUS
 62
     7
 10
480.1592208000839
 20
73.59094825010779
  0
VERTEX
  8
0
  6
CONTINUOUS
 62
     7
 10
480.1536975379271
 20
73.57304270120585
  0
VERTEX
  8
0
  6
CONTINUOUS
 62
     7
 10
480.1489853271784
 20
73.55553912451023
  0
VERTEX
  8
0
  6
CONTINUOUS
 62
     7
 10
480.145032796683
 20
73.5385296822989
  0
VERTEX
  8
0
  6
CONTINUOUS
 62
     7
 10
480.1417816638592
 20
73.52210182669019
  0
VERTEX
  8
0
  6
CONTINUOUS
 62
     7
 10
480.1391679551391
 20
73.50633766725628
  0
VERTEX
  8
0
  6
CONTINUOUS
 62
     7
 10
480.1374151345669
 20
73.4936646380069
  0
VERTEX
  8
0
  6
CONTINUOUS
 62
     7
 10
480.1360217038508
 20
73.48155559604005
  0
VERTEX
  8
0
  6
CONTINUOUS
 62
     7
 10
480.1349445841382
 20
73.47004904330653
  0
VERTEX
  8
0
  6
CONTINUOUS
 62
     7
 10
480.1341404463035
 20
73.45918009042825
  0
VERTEX
  8
0
  6
CONTINUOUS
 62
     7
 10
480.1336721291199
 20
73.45110821740671
  0
VERTEX
  8
0
  6
CONTINUOUS
 62
     7
 10
480.1333254095038
 20
73.443463348629
  0
VERTEX
  8
0
  6
CONTINUOUS
 62
     7
 10
480.1330804892889
 20
73.43625788663944
  0
VERTEX
  8
0
  6
CONTINUOUS
 62
     7
 10
480.1329183770097
 20
73.4295028159246
  0
VERTEX
  8
0
  6
CONTINUOUS
 62
     7
 10
480.1328396492417
 20
73.42469107445521
  0
VERTEX
  8
0
  6
CONTINUOUS
 62
     7
 10
480.1327907460027
 20
73.4201468985523
  0
VERTEX
  8
0
  6
CONTINUOUS
 62
     7
 10
480.1327647614373
 20
73.41586918479764
  0
VERTEX
  8
0
  6
CONTINUOUS
 62
     7
 10
480.1327554659047
 20
73.4118441831903
  0
VERTEX
  8
0
  6
CONTINUOUS
 62
     7
 10
480.1327575559466
 20
73.40805580079191
  0
VERTEX
  8
0
  6
CONTINUOUS
 62
     7
 10
480.13276660403
 20
73.40448791792694
  0
VERTEX
  8
0
  6
CONTINUOUS
 62
     7
 10
480.1327854705999
 20
73.39951429552221
  0
VERTEX
  8
0
  6
CONTINUOUS
 62
     7
 10
480.1328026539653
 20
73.39494637697649
  0
VERTEX
  8
0
  6
CONTINUOUS
 62
     7
 10
480.1328118791703
 20
73.39073041214736
  0
VERTEX
  8
0
  6
CONTINUOUS
 62
     7
 10
480.1328094000531
 20
73.3868132932555
  0
VERTEX
  8
0
  6
CONTINUOUS
 62
     7
 10
480.132756837966
 20
73.37900403112025
  0
SEQEND
  8
0
  6
CONTINUOUS
 62
     7
  0
LINE
  8
0
  6
CONTINUOUS
 62
     7
 10
480.132756837966
 20
73.37900403112025
 11
480.132012949408
 21
73.33102440538052
  0
ARC
  8
0
  6
CONTINUOUS
 62
     7
 10
436.8171389883588
 20
36.39167318828407
 40
2.342472765790693
 50
88.44184689617195
 51
105.7947404235112
  0
POLYLINE
  8
0
  6
CONTINUOUS
 62
     7
 66
     1
  0
VERTEX
  8
0
  6
CONTINUOUS
 62
     7
 10
436.1795368351591
 20
38.64570117229539
  0
VERTEX
  8
0
  6
CONTINUOUS
 62
     7
 10
436.0638809106514
 20
38.59331575945298
  0
VERTEX
  8
0
  6
CONTINUOUS
 62
     7
 10
435.9839958688558
 20
38.53495466862159
  0
SEQEND
  8
0
  6
CONTINUOUS
 62
     7
  0
POLYLINE
  8
0
  6
CONTINUOUS
 62
     7
 66
     1
  0
VERTEX
  8
0
  6
CONTINUOUS
 62
     7
 10
444.0160041311441
 20
38.53495466862159
  0
VERTEX
  8
0
  6
CONTINUOUS
 62
     7
 10
443.9098716705946
 20
38.60761904719744
  0
VERTEX
  8
0
  6
CONTINUOUS
 62
     7
 10
443.7828829107762
 20
38.65812727255849
  0
SEQEND
  8
0
  6
CONTINUOUS
 62
     7
  0
ARC
  8
0
  6
CONTINUOUS
 62
     7
 10
443.1689280846217
 20
36.20434225290415
 40
2.529427099411742
 50
75.9525804959606
 51
91.12727794200988
  0
ENDBLK
  8
0
  0
BLOCK
  8
0
  2
D_FRAME_VIEW_1844
 70
     0
 10
0.0
 20
0.0
  0
LINE
  8
0
  6
CONTINUOUS
 62
     9
 10
405.6091769996475
 20
266.2609304666867
 11
406.7497697714098
 21
266.2609304666867
  0
LINE
  8
0
  6
CONTINUOUS
 62
     9
 10
406.7497143768982
 20
266.2338910240081
 11
406.7497697714098
 21
266.2609304666867
  0
LINE
  8
0
  6
CONTINUOUS
 62
     7
 10
405.6091769996475
 20
266.2609304666867
 11
406.7497143768983
 21
266.2338910240081
  0
LINE
  8
0
  6
CONTINUOUS
 62
     9
 10
406.7496973089507
 20
266.2338910939399
 11
406.7451105026253
 21
262.9798574421004
  0
LINE
  8
0
  6
CONTINUOUS
 62
     9
 10
473.2548894973747
 20
262.9798574421004
 11
473.2503026910492
 21
266.2338910939409
  0
LINE
  8
0
  6
CONTINUOUS
 62
     7
 10
474.3908230003525
 20
266.2609304666867
 11
473.2503026910492
 21
266.233891093941
  0
LINE
  8
0
  6
CONTINUOUS
 62
     9
 10
473.2502302285902
 20
266.2609304666867
 11
473.2502856231017
 21
266.2338910240092
  0
LINE
  8
0
  6
CONTINUOUS
 62
     9
 10
474.3908945744902
 20
266.2609304666867
 11
473.2502302285902
 21
266.2609304666867
  0
LINE
  8
0
  6
CONTINUOUS
 62
     9
 10
406.7497697714098
 20
266.2609304666867
 11
473.2502302285902
 21
266.2609304666867
  0
LINE
  8
0
  6
CONTINUOUS
 62
     9
 10
406.7497697714098
 20
282.4999875
 11
406.7497697714098
 21
266.2609304666867
  0
LINE
  8
0
  6
CONTINUOUS
 62
     7
 10
405.6091769996475
 20
282.4999875
 11
406.7497697714098
 21
282.4999875
  0
LINE
  8
0
  6
CONTINUOUS
 62
     9
 10
473.2502302285902
 20
266.2609304666867
 11
473.2502302285902
 21
282.4999875
  0
LINE
  8
0
  6
CONTINUOUS
 62
     7
 10
473.2502302285902
 20
282.4999875
 11
474.3908230003525
 21
282.4999875
  0
LINE
  8
0
  6
CONTINUOUS
 62
     7
 10
406.7497697714098
 20
282.4999875
 11
473.2502302285901
 21
282.4999875
  0
LINE
  8
0
  6
CONTINUOUS
 62
     7
 10
474.390858787483
 20
266.2609304666867
 11
481.9839804379486
 21
266.2609304666867
  0
LINE
  8
0
  6
CONTINUOUS
 62
     7
 10
398.0160195620514
 20
266.2609304666867
 11
405.609141212517
 21
266.2609304666867
  0
LINE
  8
0
  6
CONTINUOUS
 62
     7
 10
398.0160194664537
 20
282.4999875
 11
405.6091769996475
 21
282.4999875
  0
LINE
  8
0
  6
CONTINUOUS
 62
     7
 10
474.3908230003525
 20
282.4999875
 11
481.9839805335463
 21
282.4999875
  0
LINE
  8
0
  6
CONTINUOUS
 62
     9
 10
473.8367961103249
 20
205.9677198255076
 11
473.254886034886
 21
262.9798574421004
  0
LINE
  8
0
  6
CONTINUOUS
 62
     9
 10
406.7451139651141
 20
262.9798574421004
 11
406.1632038896751
 21
205.9677198255076
  0
LINE
  8
0
  6
CONTINUOUS
 62
     7
 10
481.9839805335463
 20
266.2609304662025
 11
482.3698451039483
 21
266.2603072340021
  0
LINE
  8
0
  6
CONTINUOUS
 62
     7
 10
398.0160195620514
 20
266.2609304666867
 11
397.630154903044
 21
266.2603072340021
  0
LINE
  8
0
  6
CONTINUOUS
 62
     7
 10
397.6301548960517
 20
282.4999875
 11
398.0160194664537
 21
282.4999875
  0
LINE
  8
0
  6
CONTINUOUS
 62
     7
 10
481.9839805335463
 20
282.4999875
 11
482.3698451039483
 21
282.4999875
  0
LINE
  8
0
  6
CONTINUOUS
 62
     7
 10
396.45
 20
184.5010534715527
 11
397.0279551560282
 21
185.0790086275809
  0
LINE
  8
0
  6
CONTINUOUS
 62
     7
 10
396.45
 20
225.9999875
 11
396.45
 21
184.5010534715527
  0
LINE
  8
0
  6
CONTINUOUS
 62
     7
 10
396.45
 20
282.4999875
 11
396.45
 21
233.9999875
  0
LINE
  8
0
  6
CONTINUOUS
 62
     7
 10
397.6301548960517
 20
282.4999875
 11
396.45
 21
282.4999875
  0
LINE
  8
0
  6
CONTINUOUS
 62
     7
 10
483.55
 20
282.4999875
 11
483.55
 21
233.9999875
  0
LINE
  8
0
  6
CONTINUOUS
 62
     7
 10
483.55
 20
225.9999875
 11
483.55
 21
184.5010534715526
  0
LINE
  8
0
  6
CONTINUOUS
 62
     7
 10
482.9720448439718
 20
185.0790086275809
 11
483.55
 21
184.5010534715526
  0
LINE
  8
0
  6
CONTINUOUS
 62
     7
 10
482.3698451039483
 20
282.4999875
 11
483.55
 21
282.4999875
  0
LINE
  8
0
  6
CONTINUOUS
 62
     9
 10
406.1632232433514
 20
205.9677198255076
 11
406.1475751260114
 21
204.9581588948656
  0
LINE
  8
0
  6
CONTINUOUS
 62
     9
 10
405.0069729939049
 20
204.9581588948657
 11
406.1475751260114
 21
204.9581588948657
  0
LINE
  8
0
  6
CONTINUOUS
 62
     9
 10
473.8524248739885
 20
204.9581588948656
 11
473.8367767566485
 21
205.9677198255076
  0
LINE
  8
0
  6
CONTINUOUS
 62
     9
 10
473.8524248739897
 20
204.9581588934986
 11
474.9930270060962
 21
204.9581588948656
  0
LINE
  8
0
  6
CONTINUOUS
 62
     9
 10
473.8524299686136
 20
204.9581588948656
 11
406.1475700313864
 21
204.9581588948656
  0
LINE
  8
0
  6
CONTINUOUS
 62
     7
 10
474.993022740376
 20
204.9581588948656
 11
482.5861802735698
 21
204.9581588948656
  0
LINE
  8
0
  6
CONTINUOUS
 62
     7
 10
397.4138197264302
 20
204.9581588948657
 11
405.006977259624
 21
204.9581588948657
  0
LINE
  8
0
  6
CONTINUOUS
 62
     7
 10
473.8595957628135
 20
185.1196062658041
 11
474.9860126741888
 21
185.117388935656
  0
LINE
  8
0
  6
CONTINUOUS
 62
     7
 10
473.8595957628135
 20
185.1196062658041
 11
473.8524299686136
 21
185.1196423049518
  0
LINE
  8
0
  6
CONTINUOUS
 62
     9
 10
473.8524299686136
 20
185.1196423049517
 11
473.8524299686136
 21
204.9581588948656
  0
LINE
  8
0
  6
CONTINUOUS
 62
     7
 10
474.993022740376
 20
185.1173966401438
 11
474.9860126741888
 21
185.117388935656
  0
LINE
  8
0
  6
CONTINUOUS
 62
     9
 10
406.1475700313864
 20
204.9581588948656
 11
406.1475700313864
 21
185.1196423049517
  0
LINE
  8
0
  6
CONTINUOUS
 62
     7
 10
406.1475700313864
 20
185.1196423049517
 11
473.8524299686136
 21
185.1196423049517
  0
LINE
  8
0
  6
CONTINUOUS
 62
     7
 10
405.0139873258112
 20
185.1173889356561
 11
406.1404042371865
 21
185.1196062658041
  0
LINE
  8
0
  6
CONTINUOUS
 62
     7
 10
405.0139873258112
 20
185.1173889356561
 11
405.006977259624
 21
185.1173966401439
  0
LINE
  8
0
  6
CONTINUOUS
 62
     7
 10
406.1475700313864
 20
185.1196423049518
 11
406.1404042371865
 21
185.1196062658041
  0
LINE
  8
0
  6
CONTINUOUS
 62
     9
 10
473.7509798334609
 20
178.5241474038319
 11
473.8595957628135
 21
185.1196062658041
  0
LINE
  8
0
  6
CONTINUOUS
 62
     9
 10
406.1404042371865
 20
185.1196062658041
 11
406.2490201665391
 21
178.5241474038319
  0
LINE
  8
0
  6
CONTINUOUS
 62
     7
 10
474.993022740376
 20
185.1173966401438
 11
482.5861802735698
 21
185.0863432483797
  0
LINE
  8
0
  6
CONTINUOUS
 62
     7
 10
397.4138197264302
 20
185.0863432483797
 11
405.006977259624
 21
185.1173966401438
  0
LINE
  8
0
  6
CONTINUOUS
 62
     7
 10
482.590714646741
 20
185.0861721315018
 11
482.5861802735698
 21
185.0863432483797
  0
LINE
  8
0
  6
CONTINUOUS
 62
     7
 10
397.4138197264302
 20
185.0863432483798
 11
397.409285353259
 21
185.0861721315019
  0
LINE
  8
0
  6
CONTINUOUS
 62
     9
 10
474.7647542340907
 20
178.092705985651
 11
473.7509798334609
 21
178.0947513516375
  0
LINE
  8
0
  6
CONTINUOUS
 62
     9
 10
473.7509798334609
 20
178.0947513516375
 11
473.7509798334609
 21
178.5241474038319
  0
LINE
  8
0
  6
CONTINUOUS
 62
     9
 10
406.249020166539
 20
178.0947513516375
 11
405.2352457659092
 21
178.092705985651
  0
LINE
  8
0
  6
CONTINUOUS
 62
     9
 10
406.2490201665391
 20
178.0947513516375
 11
406.2490201665391
 21
178.5241474038319
  0
LINE
  8
0
  6
CONTINUOUS
 62
     9
 10
473.7509798334609
 20
178.0947513516375
 11
406.2490201665391
 21
178.0947513516375
  0
LINE
  8
0
  6
CONTINUOUS
 62
     7
 10
397.0279551498035
 20
204.9581588939735
 11
397.4138198219925
 21
204.9581588948657
  0
LINE
  8
0
  6
CONTINUOUS
 62
     7
 10
482.5861801780075
 20
204.9581588948656
 11
482.9720448501965
 21
204.9581588944573
  0
LINE
  8
0
  6
CONTINUOUS
 62
     7
 10
480.75
 20
177.4999875
 11
482.116264736901
 21
177.4999875
  0
LINE
  8
0
  6
CONTINUOUS
 62
     7
 10
474.05
 20
178.0707681231527
 11
480.4771887126814
 21
178.045651631447
  0
LINE
  8
0
  6
CONTINUOUS
 62
     7
 10
405.95
 20
178.0707681231527
 11
474.05
 21
178.0707681231527
  0
LINE
  8
0
  6
CONTINUOUS
 62
     7
 10
399.5228112873186
 20
178.045651631447
 11
405.95
 21
178.0707681231527
  0
LINE
  8
0
  6
CONTINUOUS
 62
     7
 10
397.8837352630989
 20
177.4999875
 11
399.25
 21
177.4999875
  0
LINE
  8
0
  6
CONTINUOUS
 62
     7
 10
480.75
 20
177.4999875
 11
480.4771887126814
 21
178.045651631447
  0
LINE
  8
0
  6
CONTINUOUS
 62
     7
 10
399.25
 20
177.4999875
 11
399.5228112873186
 21
178.045651631447
  0
LINE
  8
0
  6
CONTINUOUS
 62
     7
 10
397.0280426696676
 20
185.07896380397
 11
397.409285353259
 21
185.0861721315019
  0
POLYLINE
  8
0
  6
CONTINUOUS
 62
     7
 10
0.0
 20
0.0
 30
0.0
 66
     1
 70
     8
  0
VERTEX
  8
0
  6
CONTINUOUS
 62
     7
 10
397.0280426696675
 20
185.07896380397
 30
0.0
 70
    32
  0
VERTEX
  8
0
  6
CONTINUOUS
 62
     7
 10
397.0279551560282
 20
185.0790086275809
 30
0.0
 70
    32
  0
SEQEND
  8
0
  6
CONTINUOUS
 62
     7
  0
LINE
  8
0
  6
CONTINUOUS
 62
     7
 10
482.5907146467409
 20
185.0861721315019
 11
482.9719573303324
 21
185.0789638039699
  0
POLYLINE
  8
0
  6
CONTINUOUS
 62
     7
 10
0.0
 20
0.0
 30
0.0
 66
     1
 70
     8
  0
VERTEX
  8
0
  6
CONTINUOUS
 62
     7
 10
482.9720448439718
 20
185.0790086275809
 30
0.0
 70
    32
  0
VERTEX
  8
0
  6
CONTINUOUS
 62
     7
 10
482.9719573303324
 20
185.07896380397
 30
0.0
 70
    32
  0
SEQEND
  8
0
  6
CONTINUOUS
 62
     7
  0
LINE
  8
0
  6
CONTINUOUS
 62
     7
 10
483.55
 20
184.5010534715526
 11
482.6111629970704
 21
177.9291944510459
  0
LINE
  8
0
  6
CONTINUOUS
 62
     7
 10
397.3888370029295
 20
177.9291944510459
 11
396.45
 21
184.5010534715527
  0
POLYLINE
  8
0
  6
CONTINUOUS
 62
     7
 66
     1
  0
VERTEX
  8
0
  6
CONTINUOUS
 62
     7
 10
397.3888370029296
 20
177.9291944510459
  0
VERTEX
  8
0
  6
CONTINUOUS
 62
     7
 10
397.4134435991492
 20
177.8303366815123
  0
VERTEX
  8
0
  6
CONTINUOUS
 62
     7
 10
397.4575767526368
 20
177.7385237117466
  0
VERTEX
  8
0
  6
CONTINUOUS
 62
     7
 10
397.5194046436967
 20
177.6575663912587
  0
VERTEX
  8
0
  6
CONTINUOUS
 62
     7
 10
397.5963610032175
 20
177.5908249878394
  0
VERTEX
  8
0
  6
CONTINUOUS
 62
     7
 10
397.6852516299255
 20
177.5410697140758
  0
VERTEX
  8
0
  6
CONTINUOUS
 62
     7
 10
397.782386971004
 20
177.5103657450856
  0
VERTEX
  8
0
  6
CONTINUOUS
 62
     7
 10
397.883735263099
 20
177.4999875
  0
SEQEND
  8
0
  6
CONTINUOUS
 62
     7
  0
POLYLINE
  8
0
  6
CONTINUOUS
 62
     7
 66
     1
  0
VERTEX
  8
0
  6
CONTINUOUS
 62
     7
 10
482.116264736901
 20
177.4999875
  0
VERTEX
  8
0
  6
CONTINUOUS
 62
     7
 10
482.2176130289959
 20
177.5103657450856
  0
VERTEX
  8
0
  6
CONTINUOUS
 62
     7
 10
482.3147483700745
 20
177.5410697140758
  0
VERTEX
  8
0
  6
CONTINUOUS
 62
     7
 10
482.4036389967825
 20
177.5908249878394
  0
VERTEX
  8
0
  6
CONTINUOUS
 62
     7
 10
482.4805953563032
 20
177.6575663912587
  0
VERTEX
  8
0
  6
CONTINUOUS
 62
     7
 10
482.5424232473631
 20
177.7385237117466
  0
VERTEX
  8
0
  6
CONTINUOUS
 62
     7
 10
482.5865564008507
 20
177.8303366815123
  0
VERTEX
  8
0
  6
CONTINUOUS
 62
     7
 10
482.6111629970704
 20
177.9291944510459
  0
SEQEND
  8
0
  6
CONTINUOUS
 62
     7
  0
LINE
  8
0
  6
CONTINUOUS
 62
     7
 10
483.55
 20
184.5010534715526
 11
483.55
 21
225.9999875
  0
LINE
  8
0
  6
CONTINUOUS
 62
     7
 10
483.55
 20
225.9999875
 11
483.55
 21
233.9999875
  0
LINE
  8
0
  6
CONTINUOUS
 62
     7
 10
483.55
 20
233.9999875
 11
483.55
 21
282.4999875
  0
LINE
  8
0
  6
CONTINUOUS
 62
     7
 10
482.6111629970704
 20
177.9291944510459
 11
483.55
 21
184.5010534715526
  0
POLYLINE
  8
0
  6
CONTINUOUS
 62
     7
 66
     1
  0
VERTEX
  8
0
  6
CONTINUOUS
 62
     7
 10
482.116264736901
 20
177.4999875
  0
VERTEX
  8
0
  6
CONTINUOUS
 62
     7
 10
482.2176130289959
 20
177.5103657450856
  0
VERTEX
  8
0
  6
CONTINUOUS
 62
     7
 10
482.3147483700745
 20
177.5410697140758
  0
VERTEX
  8
0
  6
CONTINUOUS
 62
     7
 10
482.4036389967824
 20
177.5908249878394
  0
VERTEX
  8
0
  6
CONTINUOUS
 62
     7
 10
482.4805953563032
 20
177.6575663912587
  0
VERTEX
  8
0
  6
CONTINUOUS
 62
     7
 10
482.5424232473631
 20
177.7385237117466
  0
VERTEX
  8
0
  6
CONTINUOUS
 62
     7
 10
482.5865564008507
 20
177.8303366815123
  0
VERTEX
  8
0
  6
CONTINUOUS
 62
     7
 10
482.6111629970704
 20
177.9291944510459
  0
SEQEND
  8
0
  6
CONTINUOUS
 62
     7
  0
LINE
  8
0
  6
CONTINUOUS
 62
     7
 10
480.75
 20
177.4999875
 11
482.116264736901
 21
177.4999875
  0
POLYLINE
  8
0
  6
CONTINUOUS
 62
     7
 66
     1
  0
VERTEX
  8
0
  6
CONTINUOUS
 62
     7
 10
397.3888370029295
 20
177.9291944510459
  0
VERTEX
  8
0
  6
CONTINUOUS
 62
     7
 10
397.4134435991493
 20
177.8303366815123
  0
VERTEX
  8
0
  6
CONTINUOUS
 62
     7
 10
397.4575767526368
 20
177.7385237117466
  0
VERTEX
  8
0
  6
CONTINUOUS
 62
     7
 10
397.5194046436968
 20
177.6575663912587
  0
VERTEX
  8
0
  6
CONTINUOUS
 62
     7
 10
397.5963610032175
 20
177.5908249878394
  0
VERTEX
  8
0
  6
CONTINUOUS
 62
     7
 10
397.6852516299255
 20
177.5410697140758
  0
VERTEX
  8
0
  6
CONTINUOUS
 62
     7
 10
397.782386971004
 20
177.5103657450856
  0
VERTEX
  8
0
  6
CONTINUOUS
 62
     7
 10
397.883735263099
 20
177.4999875
  0
SEQEND
  8
0
  6
CONTINUOUS
 62
     7
  0
LINE
  8
0
  6
CONTINUOUS
 62
     7
 10
396.45
 20
184.5010534715527
 11
397.3888370029295
 21
177.9291944510459
  0
LINE
  8
0
  6
CONTINUOUS
 62
     7
 10
396.45
 20
282.4999875
 11
396.45
 21
233.9999875
  0
LINE
  8
0
  6
CONTINUOUS
 62
     7
 10
396.45
 20
233.9999875
 11
396.45
 21
225.9999875
  0
LINE
  8
0
  6
CONTINUOUS
 62
     7
 10
396.45
 20
225.9999875
 11
396.45
 21
184.5010534715527
  0
LINE
  8
0
  6
CONTINUOUS
 62
     7
 10
397.8837352630989
 20
177.4999875
 11
399.25
 21
177.4999875
  0
ENDBLK
  8
0
  0
BLOCK
  8
0
  2
D_FRAME_VIEW_1959
 70
     0
 10
0.0
 20
0.0
  0
LINE
  8
0
  6
CONTINUOUS
 62
     7
 10
600.9968009983791
 20
64.95558531607404
 11
598.9999875
 21
64.95558531607404
  0
LINE
  8
0
  6
CONTINUOUS
 62
     7
 10
600.8571303571429
 20
65.93327980472775
 11
600.9968009983791
 21
64.95558531607404
  0
LINE
  8
0
  6
CONTINUOUS
 62
     7
 10
600.8571303571429
 20
65.93327980472775
 11
589.1428446428571
 21
65.93327980472775
  0
LINE
  8
0
  6
CONTINUOUS
 62
     7
 10
589.0031740016208
 20
64.95558531607402
 11
589.1428446428571
 21
65.93327980472775
  0
LINE
  8
0
  6
CONTINUOUS
 62
     7
 10
590.9999875
 20
64.95558531607404
 11
589.0031740016208
 21
64.95558531607402
  0
LINE
  8
0
  6
CONTINUOUS
 62
     7
 10
550.0790086275808
 20
97.04430851788462
 11
549.5010534715525
 21
63.93327980472775
  0
LINE
  8
0
  6
CONTINUOUS
 62
     7
 10
647.4999874999999
 20
131.5443085178846
 11
647.4999874999999
 21
63.93327980472777
  0
LINE
  8
0
  6
CONTINUOUS
 62
     7
 10
600.7142732142856
 20
66.93327980472776
 11
600.850757353901
 21
65.97789082742031
  0
LINE
  8
0
  6
CONTINUOUS
 62
     7
 10
600.7142732142856
 20
66.93327980472776
 11
589.2857017857143
 21
66.93327980472776
  0
LINE
  8
0
  6
CONTINUOUS
 62
     7
 10
589.1492176460988
 20
65.97789082742031
 11
589.2857017857143
 21
66.93327980472776
  0
LINE
  8
0
  6
CONTINUOUS
 62
     7
 10
600.850757353901
 20
65.97789082742031
 11
589.1492176460988
 21
65.97789082742031
  0
LINE
  8
0
  6
CONTINUOUS
 62
     7
 10
600.5714160714285
 20
67.93327980472777
 11
600.704713709423
 21
67.0001963387666
  0
LINE
  8
0
  6
CONTINUOUS
 62
     7
 10
600.5714160714285
 20
67.93327980472777
 11
589.4285589285714
 21
67.93327980472776
  0
LINE
  8
0
  6
CONTINUOUS
 62
     7
 10
589.295261290577
 20
67.0001963387666
 11
589.4285589285714
 21
67.93327980472776
  0
LINE
  8
0
  6
CONTINUOUS
 62
     7
 10
600.704713709423
 20
67.0001963387666
 11
589.295261290577
 21
67.0001963387666
  0
LINE
  8
0
  6
CONTINUOUS
 62
     7
 10
600.4285589285714
 20
68.93327980472777
 11
600.5586700649449
 21
68.02250185011287
  0
LINE
  8
0
  6
CONTINUOUS
 62
     7
 10
600.4285589285714
 20
68.93327980472777
 11
589.5714160714285
 21
68.93327980472776
  0
LINE
  8
0
  6
CONTINUOUS
 62
     7
 10
589.441304935055
 20
68.02250185011286
 11
589.5714160714285
 21
68.93327980472776
  0
LINE
  8
0
  6
CONTINUOUS
 62
     7
 10
600.5586700649449
 20
68.02250185011287
 11
589.441304935055
 21
68.02250185011286
  0
LINE
  8
0
  6
CONTINUOUS
 62
     7
 10
600.2857017857143
 20
69.93327980472777
 11
600.4126264204668
 21
69.04480736145915
  0
LINE
  8
0
  6
CONTINUOUS
 62
     7
 10
600.2857017857143
 20
69.93327980472777
 11
589.7142732142858
 21
69.93327980472776
  0
LINE
  8
0
  6
CONTINUOUS
 62
     7
 10
589.587348579533
 20
69.04480736145915
 11
589.7142732142858
 21
69.93327980472776
  0
LINE
  8
0
  6
CONTINUOUS
 62
     7
 10
600.4126264204668
 20
69.04480736145915
 11
589.587348579533
 21
69.04480736145915
  0
LINE
  8
0
  6
CONTINUOUS
 62
     7
 10
600.2452956839321
 20
70.21612251720238
 11
600.2665827759888
 21
70.06711287280544
  0
ARC
  8
0
  6
CONTINUOUS
 62
     7
 10
598.2653966966099
 20
69.93327980472776
 40
2.000000000000003
 50
8.130102354156236
 51
30.00000000000023
  0
LINE
  8
0
  6
CONTINUOUS
 62
     7
 10
599.9974475041787
 20
70.93327980472777
 11
590.0025274958211
 21
70.93327980472776
  0
ARC
  8
0
  6
CONTINUOUS
 62
     7
 10
591.73457830339
 20
69.93327980472776
 40
2.0
 50
150.0000000000001
 51
171.8698976458437
  0
LINE
  8
0
  6
CONTINUOUS
 62
     7
 10
589.733392224011
 20
70.06711287280542
 11
589.7546793160677
 21
70.21612251720238
  0
LINE
  8
0
  6
CONTINUOUS
 62
     7
 10
600.2665827759888
 20
70.06711287280544
 11
589.733392224011
 21
70.06711287280542
  0
ARC
  8
0
  6
CONTINUOUS
 62
     7
 10
598.2653966966099
 20
69.93327980472776
 40
2.000000000000003
 50
35.31486102829825
 51
90.0
  0
LINE
  8
0
  6
CONTINUOUS
 62
     7
 10
598.2653966966099
 20
71.93327980472776
 11
591.73457830339
 21
71.93327980472776
  0
ARC
  8
0
  6
CONTINUOUS
 62
     7
 10
591.73457830339
 20
69.93327980472776
 40
2.0
 50
90.0
 51
144.6851389717024
  0
LINE
  8
0
  6
CONTINUOUS
 62
     7
 10
599.8973720595267
 20
71.08941838415173
 11
590.1026029404733
 21
71.0894183841517
  0
LINE
  8
0
  6
CONTINUOUS
 62
     7
 10
598.9999875
 20
63.93327980472777
 11
598.9999875
 21
64.95558531607404
  0
LINE
  8
0
  6
CONTINUOUS
 62
     7
 10
590.9999875
 20
63.93327980472775
 11
590.9999875
 21
64.95558531607404
  0
LINE
  8
0
  6
CONTINUOUS
 62
     7
 10
590.9999875
 20
63.93327980472775
 11
549.5010534715525
 21
63.93327980472775
  0
LINE
  8
0
  6
CONTINUOUS
 62
     7
 10
647.4999874999999
 20
63.93327980472777
 11
598.9999875
 21
63.93327980472777
  0
LINE
  8
0
  6
CONTINUOUS
 62
     7
 10
550.0790086275807
 20
97.04430851788463
 11
550.0789638039698
 21
97.04837447142464
  0
LINE
  8
0
  6
CONTINUOUS
 62
     7
 10
549.5010534715525
 20
63.93327980472775
 11
542.9291944510458
 21
63.93327980472775
  0
LINE
  8
0
  6
CONTINUOUS
 62
     7
 10
590.9999875
 20
65.58845221852086
 11
598.9999875
 21
65.58845221852086
  0
LINE
  8
0
  6
CONTINUOUS
 62
     7
 10
598.9999875
 20
65.58845221852086
 11
598.9999875
 21
64.95558531607404
  0
LINE
  8
0
  6
CONTINUOUS
 62
     7
 10
590.9999875
 20
65.58845221852086
 11
590.9999875
 21
64.95558531607404
  0
LINE
  8
0
  6
CONTINUOUS
 62
     7
 10
550.0861721315018
 20
97.52131428406605
 11
550.0789638039699
 21
97.04837447142462
  0
LINE
  8
0
  6
CONTINUOUS
 62
     7
 10
550.0861721315018
 20
97.52131428406605
 11
550.0863432483796
 21
97.52239899606671
  0
LINE
  8
0
  6
CONTINUOUS
 62
     7
 10
550.1173966401437
 20
99.3014466187352
 11
550.0863432483796
 21
97.52239899606671
  0
LINE
  8
0
  6
CONTINUOUS
 62
     7
 10
542.4999875
 20
63.93327980472775
 11
543.0649513538136
 21
96.30003731247722
  0
LINE
  8
0
  6
CONTINUOUS
 62
     7
 10
542.9291944510458
 20
63.93327980472775
 11
542.4999875
 21
63.93327980472775
  0
LINE
  8
0
  6
CONTINUOUS
 62
     7
 10
550.1173966401437
 20
99.3014466187352
 11
550.117388935656
 21
99.30308372784633
  0
LINE
  8
0
  6
CONTINUOUS
 62
     7
 10
647.4999874999999
 20
132.0223989960667
 11
647.4999874999999
 21
131.5443085178846
  0
LINE
  8
0
  6
CONTINUOUS
 62
     7
 10
647.4999874999999
 20
133.8014466187352
 11
647.4999874999999
 21
132.0223989960667
  0
LINE
  8
0
  6
CONTINUOUS
 62
     7
 10
543.0649513538136
 20
96.30003731247722
 11
543.0927059856508
 21
97.89009910551208
  0
LINE
  8
0
  6
CONTINUOUS
 62
     7
 10
550.119606265804
 20
99.43327466986447
 11
550.117388935656
 21
99.30308372784631
  0
POLYLINE
  8
0
  6
CONTINUOUS
 62
     7
 10
0.0
 20
0.0
 30
0.0
 66
     1
 70
     8
  0
VERTEX
  8
0
  6
CONTINUOUS
 62
     7
 10
550.119606265804
 20
99.43327466986447
 30
0.0
 70
    32
  0
VERTEX
  8
0
  6
CONTINUOUS
 62
     7
 10
550.1196423049516
 20
99.43327980472776
 30
0.0
 70
    32
  0
SEQEND
  8
0
  6
CONTINUOUS
 62
     7
  0
LINE
  8
0
  6
CONTINUOUS
 62
     7
 10
550.1196423049516
 20
99.43327980472776
 11
569.9581588948655
 21
99.43327980472776
  0
ARC
  8
0
  6
CONTINUOUS
 62
     7
 10
569.9579539261757
 20
101.4340363860078
 40
2.000756591779169
 50
270.0058696999558
 51
300.3109105476471
  0
LINE
  8
0
  6
CONTINUOUS
 62
     7
 10
570.9677198255075
 20
99.70678430015168
 11
627.9798574421003
 21
133.0443901946
  0
LINE
  8
0
  6
CONTINUOUS
 62
     7
 10
543.5241474038318
 20
98.49355267964584
 11
550.119606265804
 21
99.43327466986447
  0
ARC
  8
0
  6
CONTINUOUS
 62
     7
 10
543.5946751992157
 20
97.99855184118363
 40
0.5000000000000479
 50
98.10893332960974
 51
178.9999999999982
  0
LINE
  8
0
  6
CONTINUOUS
 62
     7
 10
543.0927059856508
 20
97.89009910551208
 11
543.0947513516375
 21
98.00727804440227
  0
ARC
  8
0
  6
CONTINUOUS
 62
     7
 10
631.2609304666867
 20
127.4332798047277
 40
6.500000000000042
 50
90.23834560111878
 51
120.3167802476043
  0
LINE
  8
0
  6
CONTINUOUS
 62
     7
 10
631.2609304666865
 20
133.9332798047277
 11
647.4999874999999
 21
133.9332798047277
  0
LINE
  8
0
  6
CONTINUOUS
 62
     7
 10
647.4999874999999
 20
133.9332798047277
 11
647.4999874999999
 21
133.8014466187352
  0
LINE
  8
0
  6
CONTINUOUS
 62
     7
 10
647.4999874999999
 20
63.93327980472777
 11
647.4999874999999
 21
35.93327980472776
  0
LINE
  8
0
  6
CONTINUOUS
 62
     7
 10
549.9897952895426
 20
35.93327980472775
 11
647.4999874999999
 21
35.93327980472776
  0
LINE
  8
0
  6
CONTINUOUS
 62
     7
 10
549.5010534715525
 20
63.93327980472775
 11
549.9897952895426
 21
35.93327980472775
  0
LINE
  8
0
  6
CONTINUOUS
 62
     7
 10
549.5010534715525
 20
63.93327980472775
 11
590.9999875
 21
63.93327980472775
  0
LINE
  8
0
  6
CONTINUOUS
 62
     7
 10
590.9999875
 20
63.93327980472775
 11
598.9999875
 21
63.93327980472777
  0
LINE
  8
0
  6
CONTINUOUS
 62
     7
 10
598.9999875
 20
63.93327980472777
 11
647.4999874999999
 21
63.93327980472777
  0
LINE
  8
0
  6
CONTINUOUS
 62
     7
 10
549.9897952895426
 20
35.93327980472775
 11
543.4179362690359
 21
35.93327980472775
  0
LINE
  8
0
  6
CONTINUOUS
 62
     7
 10
542.9291944510458
 20
63.93327980472775
 11
549.5010534715525
 21
63.93327980472775
  0
LINE
  8
0
  6
CONTINUOUS
 62
     7
 10
542.98872931799
 20
35.93327980472775
 11
542.4999875
 21
63.93327980472775
  0
LINE
  8
0
  6
CONTINUOUS
 62
     7
 10
543.4179362690359
 20
35.93327980472775
 11
542.98872931799
 21
35.93327980472775
  0
LINE
  8
0
  6
CONTINUOUS
 62
     7
 10
542.4999875
 20
63.93327980472775
 11
542.9291944510458
 21
63.93327980472775
  0
ENDBLK
  8
0
  0
ENDSEC
  0
SECTION
  2
ENTITIES
  0
INSERT
  8
0
 62
     7
  2
D_FRAME_DRAWING_17
 10
0.0
 20
0.0
 30
0.0
  0
INSERT
  8
0
  6
CENTER
 62
     7
  2
D_FRAME_VIEW_1288
 10
0.0
 20
0.0
 30
0.0
  0
INSERT
  8
0
  6
CENTER
 62
     7
  2
D_FRAME_VIEW_1844
 10
0.0
 20
0.0
 30
0.0
  0
INSERT
  8
0
  6
CENTER
 62
     7
  2
D_FRAME_VIEW_1959
 10
0.0
 20
0.0
 30
0.0
  0
LINE
  8
0
  6
CENTER
 62
     1
 10
440.0
 20
32.93327980472775
 11
440.0
 21
136.9332798047278
  0
LINE
  8
0
  6
CENTER
 62
     1
 10
440.0
 20
174.4999875
 11
440.0
 21
285.4999875
  0
TEXT
  8
0
  6
CONTINUOUS
 62
     7
 10
546.5191196698761
 20
200.5424534200325
 40
8.0
  1
MIDCJ-80
  0
ENDSEC
  0
EOF
