  0
SECTION
  2
HEADER
  9
$ACADVER
  1
AC1014
  9
$ACADMAINTVER
 70
     9
  9
$DWGCODEPAGE
  3
ANSI_932
  9
$INSBASE
 10
0.0
 20
0.0
 30
0.0
  9
$EXTMIN
 10
62.39216036244137
 20
7.992497186444899
 30
0.0
  9
$EXTMAX
 10
200.9734005698162
 20
188.9734005698162
 30
0.0
  9
$LIMMIN
 10
0.0
 20
0.0
  9
$LIMMAX
 10
12.0
 20
9.0
  9
$ORTHOMODE
 70
     0
  9
$REGENMODE
 70
     1
  9
$FILLMODE
 70
     1
  9
$QTEXTMODE
 70
     0
  9
$MIRRTEXT
 70
     1
  9
$DRAGMODE
 70
     2
  9
$LTSCALE
 40
1.0
  9
$OSMODE
 70
    37
  9
$ATTMODE
 70
     1
  9
$TEXTSIZE
 40
0.2
  9
$TRACEWID
 40
0.05
  9
$TEXTSTYLE
  7
STANDARD
  9
$CLAYER
  8
0
  9
$CELTYPE
  6
BYLAYER
  9
$CECOLOR
 62
   256
  9
$CELTSCALE
 40
1.0
  9
$DELOBJ
 70
     1
  9
$DISPSILH
 70
     0
  9
$DIMSCALE
 40
1.0
  9
$DIMASZ
 40
3.0
  9
$DIMEXO
 40
0.0625
  9
$DIMDLI
 40
0.38
  9
$DIMRND
 40
0.0
  9
$DIMDLE
 40
0.0
  9
$DIMEXE
 40
1.5
  9
$DIMTP
 40
0.0
  9
$DIMTM
 40
0.0
  9
$DIMTXT
 40
3.0
  9
$DIMCEN
 40
0.09
  9
$DIMTSZ
 40
0.0
  9
$DIMTOL
 70
     0
  9
$DIMLIM
 70
     0
  9
$DIMTIH
 70
     1
  9
$DIMTOH
 70
     1
  9
$DIMSE1
 70
     0
  9
$DIMSE2
 70
     0
  9
$DIMTAD
 70
     1
  9
$DIMZIN
 70
     0
  9
$DIMBLK
  1

  9
$DIMASO
 70
     1
  9
$DIMSHO
 70
     1
  9
$DIMPOST
  1

  9
$DIMAPOST
  1

  9
$DIMALT
 70
     0
  9
$DIMALTD
 70
     2
  9
$DIMALTF
 40
25.4
  9
$DIMLFAC
 40
1.0
  9
$DIMTOFL
 70
     0
  9
$DIMTVP
 40
0.0
  9
$DIMTIX
 70
     0
  9
$DIMSOXD
 70
     0
  9
$DIMSAH
 70
     0
  9
$DIMBLK1
  1

  9
$DIMBLK2
  1

  9
$DIMSTYLE
  2
STANDARD
  9
$DIMCLRD
 70
     0
  9
$DIMCLRE
 70
     0
  9
$DIMCLRT
 70
     0
  9
$DIMTFAC
 40
1.0
  9
$DIMGAP
 40
1.5
  9
$DIMJUST
 70
     0
  9
$DIMSD1
 70
     0
  9
$DIMSD2
 70
     0
  9
$DIMTOLJ
 70
     1
  9
$DIMTZIN
 70
     0
  9
$DIMALTZ
 70
     0
  9
$DIMALTTZ
 70
     0
  9
$DIMFIT
 70
     3
  9
$DIMUPT
 70
     0
  9
$DIMUNIT
 70
     2
  9
$DIMDEC
 70
     2
  9
$DIMTDEC
 70
     4
  9
$DIMALTU
 70
     2
  9
$DIMALTTD
 70
     2
  9
$DIMTXSTY
  7
ＭＳ_ゴシック
  9
$DIMAUNIT
 70
     0
  9
$LUNITS
 70
     2
  9
$LUPREC
 70
     4
  9
$SKETCHINC
 40
0.1
  9
$FILLETRAD
 40
0.5
  9
$AUNITS
 70
     0
  9
$AUPREC
 70
     0
  9
$MENU
  1
.
  9
$ELEVATION
 40
0.0
  9
$PELEVATION
 40
0.0
  9
$THICKNESS
 40
0.0
  9
$LIMCHECK
 70
     0
  9
$CHAMFERA
 40
0.0
  9
$CHAMFERB
 40
0.0
  9
$CHAMFERC
 40
0.0
  9
$CHAMFERD
 40
0.0
  9
$SKPOLY
 70
     0
  9
$TDCREATE
 40
2459277.745929977
  9
$TDUPDATE
 40
2459277.745930151
  9
$TDINDWG
 40
0.0000000116
  9
$TDUSRTIMER
 40
0.0000000116
  9
$USRTIMER
 70
     1
  9
$ANGBASE
 50
0.0
  9
$ANGDIR
 70
     0
  9
$PDMODE
 70
     0
  9
$PDSIZE
 40
0.0
  9
$PLINEWID
 40
0.0
  9
$COORDS
 70
     1
  9
$SPLFRAME
 70
     0
  9
$SPLINETYPE
 70
     6
  9
$SPLINESEGS
 70
     8
  9
$ATTDIA
 70
     0
  9
$ATTREQ
 70
     1
  9
$HANDLING
 70
     1
  9
$HANDSEED
  5
2C0
  9
$SURFTAB1
 70
     6
  9
$SURFTAB2
 70
     6
  9
$SURFTYPE
 70
     6
  9
$SURFU
 70
     6
  9
$SURFV
 70
     6
  9
$UCSNAME
  2

  9
$UCSORG
 10
0.0
 20
0.0
 30
0.0
  9
$UCSXDIR
 10
1.0
 20
0.0
 30
0.0
  9
$UCSYDIR
 10
0.0
 20
1.0
 30
0.0
  9
$PUCSNAME
  2

  9
$PUCSORG
 10
0.0
 20
0.0
 30
0.0
  9
$PUCSXDIR
 10
1.0
 20
0.0
 30
0.0
  9
$PUCSYDIR
 10
0.0
 20
1.0
 30
0.0
  9
$USERI1
 70
     0
  9
$USERI2
 70
     0
  9
$USERI3
 70
     0
  9
$USERI4
 70
     0
  9
$USERI5
 70
     0
  9
$USERR1
 40
0.0
  9
$USERR2
 40
0.0
  9
$USERR3
 40
0.0
  9
$USERR4
 40
0.0
  9
$USERR5
 40
0.0
  9
$WORLDVIEW
 70
     1
  9
$SHADEDGE
 70
     3
  9
$SHADEDIF
 70
    70
  9
$TILEMODE
 70
     1
  9
$MAXACTVP
 70
    64
  9
$PINSBASE
 10
0.0
 20
0.0
 30
0.0
  9
$PLIMCHECK
 70
     0
  9
$PEXTMIN
 10
1.000000000000000E+20
 20
1.000000000000000E+20
 30
1.000000000000000E+20
  9
$PEXTMAX
 10
-1.000000000000000E+20
 20
-1.000000000000000E+20
 30
-1.000000000000000E+20
  9
$PLIMMIN
 10
0.0
 20
0.0
  9
$PLIMMAX
 10
12.0
 20
9.0
  9
$UNITMODE
 70
     0
  9
$VISRETAIN
 70
     1
  9
$PLINEGEN
 70
     0
  9
$PSLTSCALE
 70
     1
  9
$TREEDEPTH
 70
  3020
  9
$PICKSTYLE
 70
     1
  9
$CMLSTYLE
  2
STANDARD
  9
$CMLJUST
 70
     0
  9
$CMLSCALE
 40
1.0
  9
$PROXYGRAPHICS
 70
     1
  9
$MEASUREMENT
 70
     1
  0
ENDSEC
  0
SECTION
  2
CLASSES
  0
CLASS
  1
ACDBDICTIONARYWDFLT
  2
AcDbDictionaryWithDefault
  3
ObjectDBX Classes
 90
        0
280
     0
281
     0
  0
CLASS
  1
VISUALSTYLE
  2
AcDbVisualStyle
  3
ObjectDBX Classes
 90
     4095
280
     0
281
     0
  0
CLASS
  1
MATERIAL
  2
AcDbMaterial
  3
ObjectDBX Classes
 90
     1153
280
     0
281
     0
  0
CLASS
  1
SCALE
  2
AcDbScale
  3
ObjectDBX Classes
 90
     1153
280
     0
281
     0
  0
CLASS
  1
TABLESTYLE
  2
AcDbTableStyle
  3
ObjectDBX Classes
 90
     4095
280
     0
281
     0
  0
CLASS
  1
MLEADERSTYLE
  2
AcDbMLeaderStyle
  3
ACDB_MLEADERSTYLE_CLASS
 90
     4095
280
     0
281
     0
  0
CLASS
  1
SUN
  2
AcDbSun
  3
SCENEOE
 90
     1153
280
     0
281
     0
  0
CLASS
  1
DICTIONARYVAR
  2
AcDbDictionaryVar
  3
ObjectDBX Classes
 90
        0
280
     0
281
     0
  0
CLASS
  1
XRECORD
  2
AcDbXrecord
  3
ObjectDBX Classes
 90
        0
280
     0
281
     0
  0
CLASS
  1
LWPOLYLINE
  2
AcDbPolyline
  3
ObjectDBX Classes
 90
        0
280
     0
281
     1
  0
CLASS
  1
HATCH
  2
AcDbHatch
  3
ObjectDBX Classes
 90
        0
280
     0
281
     1
  0
CLASS
  1
ACDBPLACEHOLDER
  2
AcDbPlaceHolder
  3
ObjectDBX Classes
 90
        0
280
     0
281
     0
  0
CLASS
  1
LAYOUT
  2
AcDbLayout
  3
ObjectDBX Classes
 90
        0
280
     0
281
     0
  0
ENDSEC
  0
SECTION
  2
TABLES
  0
TABLE
  2
VPORT
  5
8
102
{ACAD_XDICTIONARY
360
2B5
102
}
330
0
100
AcDbSymbolTable
 70
     1
  0
VPORT
  5
29
330
8
100
AcDbSymbolTableRecord
100
AcDbViewportTableRecord
  2
*ACTIVE
 70
     0
 10
0.0
 20
0.0
 11
1.0
 21
1.0
 12
131.6827804661288
 22
98.48294887813054
 13
0.0
 23
0.0
 14
0.5
 24
0.5
 15
0.5
 25
0.5
 16
0.0
 26
0.0
 36
1.0
 17
0.0
 27
0.0
 37
0.0
 40
180.9809033833713
 41
1.6
 42
50.0
 43
0.0
 44
0.0
 50
0.0
 51
0.0
 71
     0
 72
   100
 73
     1
 74
     3
 75
     0
 76
     0
 77
     0
 78
     0
  0
ENDTAB
  0
TABLE
  2
LTYPE
  5
5
330
0
100
AcDbSymbolTable
 70
     2
  0
LTYPE
  5
14
330
5
100
AcDbSymbolTableRecord
100
AcDbLinetypeTableRecord
  2
BYBLOCK
 70
     0
  3

 72
    65
 73
     0
 40
0.0
  0
LTYPE
  5
15
330
5
100
AcDbSymbolTableRecord
100
AcDbLinetypeTableRecord
  2
BYLAYER
 70
     0
  3

 72
    65
 73
     0
 40
0.0
  0
LTYPE
  5
16
330
5
100
AcDbSymbolTableRecord
100
AcDbLinetypeTableRecord
  2
CONTINUOUS
 70
     0
  3
Solid line
 72
    65
 73
     0
 40
0.0
  0
LTYPE
  5
193
330
5
100
AcDbSymbolTableRecord
100
AcDbLinetypeTableRecord
  2
CENTER
 70
     0
  3

 72
    65
 73
     0
 40
0.0
  0
ENDTAB
  0
TABLE
  2
LAYER
  5
2
330
0
100
AcDbSymbolTable
 70
     2
  0
LAYER
  5
10
330
2
100
AcDbSymbolTableRecord
100
AcDbLayerTableRecord
  2
0
 70
     0
 62
     7
  6
CONTINUOUS
  0
LAYER
  5
6E
330
2
100
AcDbSymbolTableRecord
100
AcDbLayerTableRecord
  2
1
 70
     0
 62
     7
  6
CONTINUOUS
  0
ENDTAB
  0
TABLE
  2
STYLE
  5
3
330
0
100
AcDbSymbolTable
 70
     2
  0
STYLE
  5
11
330
3
100
AcDbSymbolTableRecord
100
AcDbTextStyleTableRecord
  2
STANDARD
 70
     0
 40
0.0
 41
1.0
 50
0.0
 71
     0
 42
0.2
  3
txt
  4

  0
STYLE
  5
6F
330
3
100
AcDbSymbolTableRecord
100
AcDbTextStyleTableRecord
  2
ＭＳ_ゴシック
 70
     0
 40
0.0
 41
1.0
 50
0.0
 71
     0
 42
0.2
  3
ＭＳ ゴシック.shx
  4

  0
ENDTAB
  0
TABLE
  2
VIEW
  5
6
330
0
100
AcDbSymbolTable
 70
     0
  0
ENDTAB
  0
TABLE
  2
UCS
  5
7
330
0
100
AcDbSymbolTable
 70
     0
  0
ENDTAB
  0
TABLE
  2
APPID
  5
9
330
0
100
AcDbSymbolTable
 70
     2
  0
APPID
  5
12
330
9
100
AcDbSymbolTableRecord
100
AcDbRegAppTableRecord
  2
ACAD
 70
     0
  0
APPID
  5
2BF
330
9
100
AcDbSymbolTableRecord
100
AcDbRegAppTableRecord
  2
ACAD_MLEADERVER
 70
     0
  0
ENDTAB
  0
TABLE
  2
DIMSTYLE
  5
A
330
0
100
AcDbSymbolTable
 70
     1
  0
DIMSTYLE
105
27
330
A
100
AcDbSymbolTableRecord
100
AcDbDimStyleTableRecord
  2
STANDARD
 70
     0
  3

  4

  5

  6

  7

 40
1.0
 41
0.18
 42
0.0625
 43
0.38
 44
0.18
 45
0.0
 46
0.0
 47
0.0
 48
0.0
140
0.18
141
0.09
142
0.0
143
25.4
144
1.0
145
0.0
146
1.0
147
0.09
 71
     0
 72
     0
 73
     1
 74
     1
 75
     0
 76
     0
 77
     0
 78
     0
170
     0
171
     2
172
     0
173
     0
174
     0
175
     0
176
     0
177
     0
178
     0
270
     2
271
     4
272
     4
273
     2
274
     2
340
11
275
     0
280
     0
281
     0
282
     0
283
     1
284
     0
285
     0
286
     0
287
     3
288
     0
  0
ENDTAB
  0
TABLE
  2
BLOCK_RECORD
  5
1
330
0
100
AcDbSymbolTable
 70
     0
  0
BLOCK_RECORD
  5
1F
330
1
100
AcDbSymbolTableRecord
100
AcDbBlockTableRecord
  2
*MODEL_SPACE
  0
BLOCK_RECORD
  5
1B
330
1
100
AcDbSymbolTableRecord
100
AcDbBlockTableRecord
  2
*PAPER_SPACE
  0
ENDTAB
  0
ENDSEC
  0
SECTION
  2
BLOCKS
  0
BLOCK
  5
20
330
1F
100
AcDbEntity
  8
0
100
AcDbBlockBegin
  2
*MODEL_SPACE
 70
     0
 10
0.0
 20
0.0
 30
0.0
  3
*MODEL_SPACE
  1

  0
ENDBLK
  5
21
330
1F
100
AcDbEntity
  8
0
100
AcDbBlockEnd
  0
BLOCK
  5
1C
330
1B
100
AcDbEntity
 67
     1
  8
0
100
AcDbBlockBegin
  2
*PAPER_SPACE
 70
     0
 10
0.0
 20
0.0
 30
0.0
  3
*PAPER_SPACE
  1

  0
ENDBLK
  5
1D
330
1B
100
AcDbEntity
 67
     1
  8
0
100
AcDbBlockEnd
  0
ENDSEC
  0
SECTION
  2
ENTITIES
  0
MTEXT
  5
70
330
1F
100
AcDbEntity
  8
1
 62
     7
100
AcDbMText
 10
66.0250719019633
 20
16.85613355008126
 30
0.0
 40
10.0
 41
0.0
 71
     1
 72
     1
  1
{\fＭＳ ゴシック;MIDD-40}
  0
LWPOLYLINE
  5
71
330
1F
100
AcDbEntity
  8
1
  6
CONTINUOUS
 62
     7
100
AcDbPolyline
 90
       17
 70
     0
 43
0.0
 10
91.79971863010535
 20
76.4761305375654
 10
91.76409611361055
 20
76.51045429769027
 10
91.72681977404477
 20
76.54297442529014
 10
91.68798082974924
 20
76.57361134087479
 10
91.64767432289052
 20
76.6022900733325
 10
91.60599888688434
 20
76.62894044339045
 10
91.56305650503124
 20
76.65349723534942
 10
91.51895226095498
 20
76.67590035667202
 10
91.47379408145397
 20
76.69609498503424
 10
91.42769247239536
 20
76.71403170248028
 10
91.38076024829783
 20
76.72966661635247
 10
91.33311225626495
 20
76.74296146670024
 10
91.2848650949448
 20
76.75388371990546
 10
91.23613682920305
 20
76.76240664829503
 10
91.18704670120843
 20
76.76850939554562
 10
91.13771483863707
 20
76.7721770277209
 10
91.08826196070996
 20
76.77340056981618
  0
LWPOLYLINE
  5
72
330
1F
100
AcDbEntity
  8
1
  6
CONTINUOUS
 62
     7
100
AcDbPolyline
 90
       30
 70
     0
 43
0.0
 10
106.698071420438
 20
103.6501826291613
 10
106.6975587887408
 20
103.6734495276297
 10
106.6959073593467
 20
103.6967315246252
 10
106.6931323232708
 20
103.7199481253067
 10
106.6892488715278
 20
103.7430188348331
 10
106.6842721951326
 20
103.7658631583629
 10
106.6782174851001
 20
103.788400601055
 10
106.6710999324452
 20
103.8105506680681
 10
106.6629206976731
 20
103.8323030768335
 10
106.6536826141701
 20
103.8536987459787
 10
106.6434253999991
 20
103.8746708159955
 10
106.6321887732229
 20
103.8951524273757
 10
106.6200124519041
 20
103.9150767206108
 10
106.6069361541057
 20
103.9343768361926
 10
106.5929995978904
 20
103.9529859146127
 10
106.5779439081333
 20
103.9711927904343
 10
106.5619842196041
 20
103.9887063569324
 10
106.5451793000457
 20
104.0054692360602
 10
106.5275879172007
 20
104.021424049771
 10
106.509268838812
 20
104.0365134200182
 10
106.4902808326225
 20
104.0506799687549
 10
106.4706826663748
 20
104.0638663179346
 10
106.4516483545536
 20
104.0753803920895
 10
106.4320319632639
 20
104.086029826201
 10
106.4118996900238
 20
104.0957833941703
 10
106.3913177323512
 20
104.1046098698986
 10
106.3703522877641
 20
104.112478027287
 10
106.3490695537804
 20
104.1193566402366
 10
106.3275357279181
 20
104.1252144826487
 10
106.3058170076951
 20
104.1300203284245
  0
LWPOLYLINE
  5
73
330
1F
100
AcDbEntity
  8
1
  6
CONTINUOUS
 62
     7
100
AcDbPolyline
 90
       17
 70
     0
 43
0.0
 10
-78.20016482359374
 20
76.4760125243854
 10
-78.23577841496846
 20
76.51033922824509
 10
-78.27304584328824
 20
76.54286290077614
 10
-78.31187592818134
 20
76.5735039679193
 10
-78.3521736660016
 20
76.60218746169267
 10
-78.39384046226911
 20
76.62884320361216
 10
-78.43677437289642
 20
76.65340597639383
 10
-78.48087035361011
 20
76.67581568351763
 10
-78.52602051695746
 20
76.69601749626267
 10
-78.57211439626923
 20
76.71396198785396
 10
-78.61903921593309
 20
76.72960525439235
 10
-78.66668016731609
 20
76.74290902227216
 10
-78.71492068966127
 20
76.75384074182315
 10
-78.76364275527105
 20
76.7623736669484
 10
-78.81272715827981
 20
76.76848692056247
 10
-78.86205380630898
 20
76.7721655456704
 10
-78.91150201429103
 20
76.77340054196227
210
0.0
220
0.0
230
-1.0
  0
LWPOLYLINE
  5
74
330
1F
100
AcDbEntity
  8
1
  6
CONTINUOUS
 62
     7
100
AcDbPolyline
 90
       25
 70
     0
 43
0.0
 10
-190.6886855334298
 20
96.72524754969955
 10
-190.6893377586327
 20
96.73533248804364
 10
-190.6912928736893
 20
96.7442082532222
 10
-190.6945462006759
 20
96.75185360855664
 10
-190.6990899554909
 20
96.75825026131947
 10
-190.7049132664787
 20
96.76338290650246
 10
-190.7120022004426
 20
96.76723926343642
 10
-190.7203397959814
 20
96.7698101051746
 10
-190.7299061040731
 20
96.77108928056963
 10
-190.7406782358054
 20
96.77107372899108
 10
-190.7526304171413
 20
96.76976348764859
 10
-190.7657340505879
 20
96.7671616915028
 10
-190.7799577836197
 20
96.76327456576439
 10
-190.7952675836954
 20
96.75811141099938
 10
-190.8116268196854
 20
96.75168458087602
 10
-190.8289963495181
 20
96.74400945260658
 10
-190.8473346138332
 20
96.73510439015512
 10
-190.8665977354194
 20
96.72499070029855
 10
-190.8867396241973
 20
96.71369258164702
 10
-190.9077120874973
 20
96.70123706674468
 10
-190.9294649453683
 20
96.68765395739021
 10
-190.9519461506413
 20
96.67297575333114
 10
-190.9751019134603
 20
96.65723757450311
 10
-190.9988768299832
 20
96.64047707699986
 10
-191.0232140149442
 20
96.62273436297494
210
0.0
220
0.0
230
-1.0
  0
LWPOLYLINE
  5
75
330
1F
100
AcDbEntity
  8
1
  6
CONTINUOUS
 62
     7
100
AcDbPolyline
 90
       30
 70
     0
 43
0.0
 10
63.69418299230496
 20
104.1300203284245
 10
63.67165028871144
 20
104.1250160565171
 10
63.64932623636705
 20
104.1188870252556
 10
63.62728579305769
 20
104.1116668441391
 10
63.60560391656918
 20
104.1033891226664
 10
63.58435556468736
 20
104.0940874703365
 10
63.5636156951981
 20
104.0837954966484
 10
63.54345926588722
 20
104.072546811101
 10
63.52390087506453
 20
104.0603506942557
 10
63.50489347571196
 20
104.0471994888259
 10
63.48649337718873
 20
104.0331449897837
 10
63.468756888854
 20
104.0182389921013
 10
63.45174032006703
 20
104.0025332907511
 10
63.43549998018698
 20
103.9860796807051
 10
63.42009217857307
 20
103.9689299569356
 10
63.40520497449782
 20
103.9506732934051
 10
63.39117002321887
 20
103.9316710561115
 10
63.37803087151611
 20
103.9119913423731
 10
63.36583106616951
 20
103.8917022495082
 10
63.35461415395903
 20
103.8708718748354
 10
63.34442368166458
 20
103.8495683156729
 10
63.33530319606616
 20
103.827859669339
 10
63.32755602090913
 20
103.8065913771772
 10
63.32079911775246
 20
103.7849071742871
 10
63.31504811460939
 20
103.7628805391956
 10
63.31031863949318
 20
103.7405849504297
 10
63.30662632041709
 20
103.7180938865163
 10
63.30398678539435
 20
103.6954808259825
 10
63.30241566243826
 20
103.6728192473552
 10
63.30192857956203
 20
103.6501826291613
  0
LWPOLYLINE
  5
76
330
1F
100
AcDbEntity
  8
1
  6
CONTINUOUS
 62
     7
100
AcDbPolyline
 90
       33
 70
     0
 43
0.0
 10
103.48347987314
 20
85.27340056981618
 10
103.4382694997964
 20
85.27237805812216
 10
103.3931515827237
 20
85.26931261410044
 10
103.3482183891175
 20
85.26421050665574
 10
103.3035618084096
 20
85.25708216971712
 10
103.2592731643521
 20
85.24794218090032
 10
103.2154430282577
 20
85.23680923169626
 10
103.17216103378
 20
85.2237060892464
 10
103.1295156936099
 20
85.20865954978356
 10
103.0875942184655
 20
85.19170038383281
 10
103.0464823387439
 20
85.17286327328516
 10
103.0062641292006
 20
85.15218674047227
 10
102.9670218370148
 20
85.12971306938731
 10
102.9288357135919
 20
85.10548821921327
 10
102.8917838504472
 20
85.07956173033531
 10
102.8559420195075
 20
85.05198662302958
 10
102.8213835181554
 20
85.02281928903544
 10
102.7881790193344
 20
84.99211937623305
 10
102.7563964270211
 20
84.95994966666213
 10
102.7261007373602
 20
84.92637594813112
 10
102.6973539057456
 20
84.89146687967965
 10
102.6702147201202
 20
84.85529385116918
 10
102.6447386807534
 20
84.81793083728898
 10
102.6209778867416
 20
84.77945424627633
 10
102.5989809294641
 20
84.7399427636597
 10
102.5787927932132
 20
84.69947719134517
 10
102.5604547631995
 20
84.65814028237452
 10
102.5440043411235
 20
84.6160165716934
 10
102.5294751684828
 20
84.5731922032753
 10
102.5168969577755
 20
84.52975475395525
 10
102.5062954317366
 20
84.48579305433302
 10
102.4976922707348
 20
84.4413970071125
 10
102.4911050684355
 20
84.39665740324861
  0
LWPOLYLINE
  5
77
330
1F
100
AcDbEntity
  8
1
  6
CONTINUOUS
 62
     7
100
AcDbPolyline
 90
       32
 70
     0
 43
0.0
 10
-62.40001373386166
 20
184.5634986184569
 10
-62.40049615714166
 20
184.5843004112315
 10
-62.40184213930986
 20
184.6050966903966
 10
-62.40404878396413
 20
184.6258299835168
 10
-62.40711319470236
 20
184.6464428181563
 10
-62.41116392859064
 20
184.6675085108378
 10
-62.41611834541406
 20
184.6884037634229
 10
-62.42196182192166
 20
184.7090698616179
 10
-62.42867973486243
 20
184.7294480911293
 10
-62.43604129340337
 20
184.7489522177201
 10
-62.44421551378552
 20
184.7681476009434
 10
-62.45317947218085
 20
184.7869839889551
 10
-62.46291024476128
 20
184.8054111299113
 10
-62.47371813481139
 20
184.8239290824957
 10
-62.48531707306846
 20
184.8419781503841
 10
-62.49767247851734
 20
184.8595088949923
 10
-62.51074977014288
 20
184.8764718777364
 10
-62.52410589957363
 20
184.8923579882548
 10
-62.53811386321946
 20
184.9076819602602
 10
-62.55273433340975
 20
184.9224051561799
 10
-62.5679279824739
 20
184.936488938441
 10
-62.58414752976807
 20
184.9503002969616
 10
-62.60093958114957
 20
184.963410475585
 10
-62.61825394449194
 20
184.9757859415276
 10
-62.6360404276688
 20
184.9873931620058
 10
-62.65794768023661
 20
185.0002744124203
 10
-62.68045216456462
 20
185.0120202787401
 10
-62.70345704049775
 20
185.0225896497429
 10
-62.72143916113701
 20
185.0298985679009
 10
-62.73966568538182
 20
185.0365010717114
 10
-62.75808807165659
 20
185.0423868376879
 10
-62.77665777838569
 20
185.0475455423438
210
0.0
220
0.0
230
-1.0
  0
LWPOLYLINE
  5
78
330
1F
100
AcDbEntity
  8
1
  6
CONTINUOUS
 62
     7
100
AcDbPolyline
 90
       32
 70
     0
 43
0.0
 10
-107.2233422216143
 20
185.0475455423438
 10
-107.2474825813448
 20
185.0406889696445
 10
-107.2713475094691
 20
185.0326066717921
 10
-107.2948298800218
 20
185.0233211654152
 10
-107.3125741161494
 20
185.0153729577762
 10
-107.3300398026162
 20
185.0067231833979
 10
-107.3471829508631
 20
184.9973903991758
 10
-107.3639595723312
 20
184.9873931620058
 10
-107.3812499491017
 20
184.9761246403681
 10
-107.3980950658094
 20
184.9641304680834
 10
-107.4144487775382
 20
184.9514412928544
 10
-107.430264939372
 20
184.9380877623839
 10
-107.445960171525
 20
184.9236614119266
 10
-107.4610514458349
 20
184.9085553181304
 10
-107.4754957895347
 20
184.8928114752991
 10
-107.4892502298571
 20
184.8764718777364
 10
-107.5019668125278
 20
184.859997744606
 10
-107.5140022599548
 20
184.8429871793192
 10
-107.5253247287341
 20
184.8254854527329
 10
-107.5359023754616
 20
184.807537835704
 10
-107.5459974765915
 20
184.7886162157399
 10
-107.5552822472864
 20
184.7692575755171
 10
-107.5637315544879
 20
184.749516629244
 10
-107.5713202651376
 20
184.7294480911293
 10
-107.5778603352347
 20
184.7096502475437
 10
-107.5835749319717
 20
184.689580055975
 10
-107.5884504955462
 20
184.6692913410163
 10
-107.5924734661558
 20
184.6488379272609
 10
-107.5957169755614
 20
184.6276380301581
 10
-107.5980525003651
 20
184.6063064644386
 10
-107.5994767080598
 20
184.5849058029292
 10
-107.5999862661384
 20
184.5634986184569
210
0.0
220
0.0
230
-1.0
  0
LWPOLYLINE
  5
79
330
1F
100
AcDbEntity
  8
1
  6
CONTINUOUS
 62
     7
100
AcDbPolyline
 90
       28
 70
     0
 43
0.0
 10
-62.40001373386167
 20
104.5634986184569
 10
-62.40066086715574
 20
104.5875556863631
 10
-62.40247886328278
 20
104.6116399397449
 10
-62.40545480648419
 20
104.6356650672406
 10
-62.40957578100141
 20
104.6595447574886
 10
-62.41482887107591
 20
104.6831926991271
 10
-62.4212011609491
 20
104.7065225807946
 10
-62.42867973486243
 20
104.7294480911293
 10
-62.43727746830296
 20
104.7519742220059
 10
-62.44698840387358
 20
104.7741166709176
 10
-62.457769931759
 20
104.7958011004854
 10
-62.46957944214393
 20
104.8169531733301
 10
-62.48237432521309
 20
104.8374985520729
 10
-62.49611197115117
 20
104.8573628993346
 10
-62.51074977014288
 20
104.8764718777364
 10
-62.52626385095485
 20
104.8947868788429
 10
-62.5426835978258
 20
104.9123687371201
 10
-62.55994252803017
 20
104.9291635175949
 10
-62.57797415884224
 20
104.9451172852941
 10
-62.59671200753645
 20
104.9601761052444
 10
-62.61608959138719
 20
104.9742860424727
 10
-62.6360404276688
 20
104.9873931620058
 10
-62.65817996362688
 20
105.0003906358123
 10
-62.68097866649497
 20
105.0122433649566
 10
-62.70433116783898
 20
105.0229182848104
 10
-62.72813209922483
 20
105.0323823307452
 10
-62.75227609221845
 20
105.0406024381325
 10
-62.7766577783857
 20
105.0475455423437
210
0.0
220
0.0
230
-1.0
  0
LWPOLYLINE
  5
7A
330
1F
100
AcDbEntity
  8
1
  6
CONTINUOUS
 62
     7
100
AcDbPolyline
 90
       28
 70
     0
 43
0.0
 10
-107.2233422216143
 20
105.0475455423437
 10
-107.2477239077816
 20
105.0406024381325
 10
-107.2718679007752
 20
105.0323823307452
 10
-107.2956688321611
 20
105.0229182848105
 10
-107.3190213335051
 20
105.0122433649566
 10
-107.3418200363732
 20
105.0003906358123
 10
-107.3639595723312
 20
104.9873931620058
 10
-107.3839104086128
 20
104.9742860424727
 10
-107.4032879924636
 20
104.9601761052444
 10
-107.4220258411578
 20
104.9451172852941
 10
-107.4400574719699
 20
104.9291635175949
 10
-107.4573164021742
 20
104.9123687371201
 10
-107.4737361490452
 20
104.8947868788429
 10
-107.4892502298571
 20
104.8764718777364
 10
-107.5038880288489
 20
104.8573628993347
 10
-107.517625674787
 20
104.8374985520729
 10
-107.5304205578561
 20
104.8169531733301
 10
-107.542230068241
 20
104.7958011004854
 10
-107.5530115961265
 20
104.7741166709176
 10
-107.5627225316971
 20
104.7519742220059
 10
-107.5713202651376
 20
104.7294480911293
 10
-107.5787988390509
 20
104.7065225807946
 10
-107.5851711289241
 20
104.6831926991271
 10
-107.5904242189986
 20
104.6595447574886
 10
-107.5945451935159
 20
104.6356650672406
 10
-107.5975211367173
 20
104.6116399397449
 10
-107.5993391328443
 20
104.5875556863631
 10
-107.5999862661384
 20
104.5634986184569
210
0.0
220
0.0
230
-1.0
  0
LWPOLYLINE
  5
7B
330
1F
100
AcDbEntity
  8
1
  6
CONTINUOUS
 62
     7
100
AcDbPolyline
 90
       25
 70
     0
 43
0.0
 10
191.7252475496996
 20
95.6886855334297
 10
191.7353324880437
 20
95.68933775863269
 10
191.7442082532223
 20
95.69129287368924
 10
191.7518536085567
 20
95.69454620067587
 10
191.7582502613195
 20
95.6990899554908
 10
191.7633829065025
 20
95.70491326647864
 10
191.7672392634365
 20
95.7120022004425
 10
191.7698101051747
 20
95.72033979598136
 10
191.7710892805697
 20
95.72990610407305
 10
191.7710737289912
 20
95.74067823580535
 10
191.7697634876487
 20
95.75263041714129
 10
191.7671616915029
 20
95.76573405058781
 10
191.7632745657644
 20
95.77995778361965
 10
191.7581114109995
 20
95.79526758369532
 10
191.7516845808761
 20
95.81162681968533
 10
191.7440094526067
 20
95.82899634951802
 10
191.7351043901552
 20
95.84733461383318
 10
191.7249907002986
 20
95.86659773541939
 10
191.7136925816471
 20
95.88673962419725
 10
191.7012370667448
 20
95.90771208749723
 10
191.6876539573903
 20
95.92946494536828
 10
191.6729757533312
 20
95.95194615064129
 10
191.6572375745032
 20
95.97510191346026
 10
191.6404770769999
 20
95.99887682998315
 10
191.622734362975
 20
96.02321401494417
  0
LINE
  5
7C
330
1F
100
AcDbEntity
  8
1
  6
CONTINUOUS
 62
     7
100
AcDbLine
 10
66.99333257313386
 20
118.3475641701792
 30
0.0
 11
67.89688812856343
 21
118.2781015809698
 31
0.0
  0
ELLIPSE
  5
7D
330
1F
100
AcDbEntity
  8
1
  6
CONTINUOUS
 62
     7
100
AcDbEllipse
 10
107.1493270931232
 20
116.2692872281307
 30
0.0
 11
-0.04946254228597296
 21
-2.081752875155667
 31
0.0
210
0.0
220
0.0
230
-1.0
 40
0.2354577991235839
 41
3.135939623605497
 42
3.191831559982656
  0
ELLIPSE
  5
7E
330
1F
100
AcDbEntity
  8
1
  6
CONTINUOUS
 62
     7
100
AcDbEllipse
 10
63.09273127951154
 20
143.7684981377801
 30
0.0
 11
-5.095246653650707
 21
25.47623326825343
 31
0.0
210
0.0
220
0.0
230
-1.0
 40
0.1924500897298755
 41
3.18006368099712
 42
3.199267560530019
  0
ELLIPSE
  5
7F
330
1F
100
AcDbEntity
  8
1
  6
CONTINUOUS
 62
     7
100
AcDbEllipse
 10
70.09369272553528
 20
108.7636909076615
 30
0.0
 11
-4.394811306297589
 21
3.602883460614616
 31
0.0
210
0.0
220
0.0
230
-1.0
 40
0.7888566731954406
 41
0.7646692539161698
 42
0.766162649693755
  0
ELLIPSE
  5
80
330
1F
100
AcDbEntity
  8
1
  6
CONTINUOUS
 62
     7
100
AcDbEllipse
 10
99.90630727446475
 20
108.7636909076616
 30
0.0
 11
4.394811306297586
 21
3.602883460614617
 31
0.0
210
0.0
220
0.0
230
-1.0
 40
0.7888566731954411
 41
5.517022657485832
 42
5.518516053263404
  0
LINE
  5
81
330
1F
100
AcDbEntity
  8
1
  6
CONTINUOUS
 62
     7
100
AcDbLine
 10
62.40000000000003
 20
146.2734005698162
 30
0.0
 11
62.40000000000002
 21
156.1728955064278
 31
0.0
  0
LINE
  5
82
330
1F
100
AcDbEntity
  8
1
  6
CONTINUOUS
 62
     7
100
AcDbLine
 10
106.698071420438
 20
113.7637576720061
 30
0.0
 11
107.6
 21
118.2734005698162
 31
0.0
  0
LINE
  5
83
330
1F
100
AcDbEntity
  8
1
  6
CONTINUOUS
 62
     7
100
AcDbLine
 10
107.6
 20
118.2734005698162
 30
0.0
 11
107.5999862661384
 21
118.2739568454423
 31
0.0
  0
LINE
  5
84
330
1F
100
AcDbEntity
  8
1
  6
CONTINUOUS
 62
     7
100
AcDbLine
 10
107.2233422216143
 20
118.3478286847352
 30
0.0
 11
107.5999862661384
 21
118.2739568454423
 31
0.0
  0
LINE
  5
85
330
1F
100
AcDbEntity
  8
1
  6
CONTINUOUS
 62
     7
100
AcDbLine
 10
68.05351725371882
 20
113.2734005698162
 30
0.0
 11
69.05632273293475
 21
113.2734005698162
 31
0.0
  0
LINE
  5
86
330
1F
100
AcDbEntity
  8
1
  6
CONTINUOUS
 62
     7
100
AcDbLine
 10
69.05632273293475
 20
113.2734005698162
 30
0.0
 11
100.9436772670653
 21
113.2734005698162
 31
0.0
  0
ELLIPSE
  5
87
330
1F
100
AcDbEntity
  8
1
  6
CONTINUOUS
 62
     7
100
AcDbEllipse
 10
67.38469345620854
 20
97.53219490101792
 30
0.0
 11
0.4946254228597288
 21
-20.81752875155665
 31
0.0
210
0.0
220
0.0
230
-1.0
 40
0.2354577991235841
 41
3.14724568357409
 42
3.162639162756498
  0
LINE
  5
88
330
1F
100
AcDbEntity
  8
1
  6
CONTINUOUS
 62
     7
100
AcDbLine
 10
62.40000000000003
 20
118.2734005698162
 30
0.0
 11
63.30192857956203
 21
113.7637576720061
 31
0.0
  0
LINE
  5
89
330
1F
100
AcDbEntity
  8
1
  6
CONTINUOUS
 62
     7
100
AcDbLine
 10
106.698071420438
 20
113.7637576720061
 30
0.0
 11
106.3058170076951
 21
113.7602026151389
 31
0.0
  0
LINE
  5
8A
330
1F
100
AcDbEntity
  8
1
  6
CONTINUOUS
 62
     7
100
AcDbLine
 10
63.90000000000001
 20
113.2734005698162
 30
0.0
 11
64.29945502944206
 21
113.2734005698162
 31
0.0
  0
LINE
  5
8B
330
1F
100
AcDbEntity
  8
1
  6
CONTINUOUS
 62
     7
100
AcDbLine
 10
106.1
 20
113.2734005698162
 30
0.0
 11
106.6980580675691
 21
113.7636909076616
 31
0.0
  0
ELLIPSE
  5
8C
330
1F
100
AcDbEntity
  8
1
  6
CONTINUOUS
 62
     7
100
AcDbEllipse
 10
103.2654409839407
 20
126.3029259463024
 30
0.0
 11
-1.874614816933486
 21
-12.48921320746054
 31
0.0
210
0.0
220
0.0
230
-1.0
 40
0.6179492925708284
 41
6.190696541354461
 42
6.193552382918825
  0
LINE
  5
8D
330
1F
100
AcDbEntity
  8
1
  6
CONTINUOUS
 62
     7
100
AcDbLine
 10
67.32394857429216
 20
176.3420158357793
 30
0.0
 11
67.19052632670666
 21
176.0232140149442
 31
0.0
  0
LWPOLYLINE
  5
8E
330
1F
100
AcDbEntity
  8
1
  6
CONTINUOUS
 62
     7
100
AcDbPolyline
 90
       12
 70
     0
 43
0.0
 10
-104.2098848354448
 20
176.1199392363156
 10
-104.1948980360028
 20
176.0188174891355
 10
-104.1513743580623
 20
175.9258431257522
 10
-104.080962688487
 20
175.8445384635264
 10
-103.9863305609617
 20
175.7779837152488
 10
-103.8710630969495
 20
175.728700295821
 10
-103.7395271839975
 20
175.6985552988972
 10
-103.6331788364304
 20
175.6892217976848
 42
0.1488519419435168
 10
-102.991962092606
 20
175.8671127259284
 10
-102.90601147833
 20
175.929795178415
 10
-102.8314911520431
 20
175.9989666080665
 10
-102.8094736732934
 20
176.0232140149442
210
0.0
220
0.0
230
-1.0
  0
LINE
  5
8F
330
1F
100
AcDbEntity
  8
1
  6
CONTINUOUS
 62
     7
100
AcDbLine
 10
102.0043653420339
 20
118.2734005698161
 30
0.0
 11
67.99563465796615
 21
118.2734005698161
 31
0.0
  0
ELLIPSE
  5
90
330
1F
100
AcDbEntity
  8
1
  6
CONTINUOUS
 62
     7
100
AcDbEllipse
 10
62.31272467535893
 20
160.2734005698161
 30
0.0
 11
0.06172237450012957
 21
4.999999941981584
 31
0.0
210
0.0
220
0.0
230
-1.0
 40
0.012340714510321
 41
0.3581522016217499
 42
0.7852458237563382
  0
ELLIPSE
  5
91
330
1F
100
AcDbEntity
  8
1
  6
CONTINUOUS
 62
     7
100
AcDbEllipse
 10
62.31272467535893
 20
156.1728955064278
 30
0.0
 11
0.06172237450012957
 21
4.999999941981584
 31
0.0
210
0.0
220
0.0
230
1.0
 40
0.012340714510321
 41
5.070845861288658
 42
5.497939483423242
  0
LINE
  5
92
330
1F
100
AcDbEntity
  8
1
  6
CONTINUOUS
 62
     7
100
AcDbLine
 10
105.700544970558
 20
113.2734005698162
 30
0.0
 11
106.1
 21
113.2734005698162
 31
0.0
  0
LINE
  5
93
330
1F
100
AcDbEntity
  8
1
  6
CONTINUOUS
 62
     7
100
AcDbLine
 10
62.40000000000003
 20
118.2734005698161
 30
0.0
 11
62.40000000000002
 21
138.2734005698161
 31
0.0
  0
ELLIPSE
  5
94
330
1F
100
AcDbEntity
  8
1
  6
CONTINUOUS
 62
     7
100
AcDbEllipse
 10
106.9618095934064
 20
115.0143864142379
 30
0.0
 11
0.9765913899046619
 21
1.152762964674605
 31
0.0
210
0.0
220
0.0
230
-1.0
 40
0.506178076537527
 41
2.72396558992774
 42
2.736489906684631
  0
LINE
  5
95
330
1F
100
AcDbEntity
  8
1
  6
CONTINUOUS
 62
     7
100
AcDbLine
 10
63.69418299230496
 20
113.7602026151389
 30
0.0
 11
63.30192857956203
 21
113.7637576720061
 31
0.0
  0
LINE
  5
96
330
1F
100
AcDbEntity
  8
1
  6
CONTINUOUS
 62
     7
100
AcDbLine
 10
62.40000000000002
 20
163.8089344757489
 30
0.0
 11
62.40000000000002
 21
159.7084294123606
 31
0.0
  0
LINE
  5
97
330
1F
100
AcDbEntity
  8
1
  6
CONTINUOUS
 62
     7
100
AcDbLine
 10
107.6
 20
138.2734005698161
 30
0.0
 11
107.6
 21
146.2734005698162
 31
0.0
  0
LINE
  5
98
330
1F
100
AcDbEntity
  8
1
  6
CONTINUOUS
 62
     7
100
AcDbLine
 10
62.40000000000002
 20
138.2734005698161
 30
0.0
 11
62.40000000000002
 21
146.2734005698162
 31
0.0
  0
LINE
  5
99
330
1F
100
AcDbEntity
  8
1
  6
CONTINUOUS
 62
     7
100
AcDbLine
 10
62.40000000000002
 20
163.8089344757489
 30
0.0
 11
62.40000000000002
 21
159.7084294123606
 31
0.0
  0
LINE
  5
9A
330
1F
100
AcDbEntity
  8
1
  6
CONTINUOUS
 62
     7
100
AcDbLine
 10
62.40000000000003
 20
118.2734005698162
 30
0.0
 11
62.40000000000003
 21
138.2734005698161
 31
0.0
  0
LINE
  5
9B
330
1F
100
AcDbEntity
  8
1
  6
CONTINUOUS
 62
     7
100
AcDbLine
 10
62.80398205732289
 20
118.3510726771151
 30
0.0
 11
66.91778496066868
 21
118.350049390862
 31
0.0
  0
ELLIPSE
  5
9C
330
1F
100
AcDbEntity
  8
1
  6
CONTINUOUS
 62
     7
100
AcDbEllipse
 10
62.85067290687687
 20
116.2692872281307
 30
0.0
 11
-0.04946254228597347
 21
2.081752875155664
 31
0.0
210
0.0
220
0.0
230
-1.0
 40
0.2354577991235842
 41
6.232946400786716
 42
6.288838337163891
  0
LWPOLYLINE
  5
9D
330
1F
100
AcDbEntity
  8
1
  6
CONTINUOUS
 62
     7
100
AcDbPolyline
 90
       12
 70
     0
 43
0.0
 10
-67.19052632670666
 20
176.0232140149442
 10
-67.09398852167006
 20
175.929795178415
 10
-67.00803790739407
 20
175.8671127259284
 42
0.1488519419435186
 10
-66.36682116356963
 20
175.6892217976848
 10
-66.26047281600259
 20
175.6985552988972
 10
-66.1604812187736
 20
175.719312384471
 10
-66.0407101409075
 20
175.7639589212152
 10
-65.9405499673065
 20
175.8264081136581
 10
-65.86379524848445
 20
175.9042940851566
 10
-65.81335382342844
 20
175.9946661394155
 10
-65.79113665663144
 20
176.0941005470962
 10
-65.79011516455526
 20
176.1199392363156
210
0.0
220
0.0
230
-1.0
  0
LINE
  5
9E
330
1F
100
AcDbEntity
  8
1
  6
CONTINUOUS
 62
     7
100
AcDbLine
 10
107.6
 20
118.2734005698161
 30
0.0
 11
107.6
 21
138.2734005698161
 31
0.0
  0
ELLIPSE
  5
9F
330
1F
100
AcDbEntity
  8
1
  6
CONTINUOUS
 62
     7
100
AcDbEllipse
 10
66.73455901605813
 20
126.3029259463022
 30
0.0
 11
-1.874614816935241
 21
12.48921320746025
 31
0.0
210
0.0
220
0.0
230
-1.0
 40
0.6179492925708265
 41
3.231225577850631
 42
3.234081419415001
  0
LINE
  5
A0
330
1F
100
AcDbEntity
  8
1
  6
CONTINUOUS
 62
     7
100
AcDbLine
 10
103.0822150393313
 20
118.350049390862
 30
0.0
 11
107.1960179426772
 21
118.3510726771151
 31
0.0
  0
LINE
  5
A1
330
1F
100
AcDbEntity
  8
1
  6
CONTINUOUS
 62
     7
100
AcDbLine
 10
100.9436772670653
 20
113.2734005698162
 30
0.0
 11
101.9464827462812
 21
113.2734005698162
 31
0.0
  0
LINE
  5
A2
330
1F
100
AcDbEntity
  8
1
  6
CONTINUOUS
 62
     7
100
AcDbLine
 10
62.40001373386167
 20
118.2739568454423
 30
0.0
 11
62.7766577783857
 21
118.3478286847352
 31
0.0
  0
LINE
  5
A3
330
1F
100
AcDbEntity
  8
1
  6
CONTINUOUS
 62
     7
100
AcDbLine
 10
101.9464827462812
 20
113.2734005698162
 30
0.0
 11
105.700544970558
 21
113.2734005698162
 31
0.0
  0
LINE
  5
A4
330
1F
100
AcDbEntity
  8
1
  6
CONTINUOUS
 62
     7
100
AcDbLine
 10
62.40000000000002
 20
146.2734005698162
 30
0.0
 11
62.40000000000002
 21
156.1728955064278
 31
0.0
  0
LINE
  5
A5
330
1F
100
AcDbEntity
  8
1
  6
CONTINUOUS
 62
     7
100
AcDbLine
 10
107.6
 20
146.2734005698162
 30
0.0
 11
107.6
 21
156.1728955064278
 31
0.0
  0
LINE
  5
A6
330
1F
100
AcDbEntity
  8
1
  6
CONTINUOUS
 62
     7
100
AcDbLine
 10
107.6
 20
118.2734005698162
 30
0.0
 11
107.6
 21
138.2734005698161
 31
0.0
  0
ELLIPSE
  5
A7
330
1F
100
AcDbEntity
  8
1
  6
CONTINUOUS
 62
     7
100
AcDbEllipse
 10
106.9072687204885
 20
143.7684981377801
 30
0.0
 11
5.095246653650693
 21
25.47623326825343
 31
0.0
210
0.0
220
0.0
230
-1.0
 40
0.1924500897298755
 41
3.083917746649573
 42
3.103121626182465
  0
LINE
  5
A8
330
1F
100
AcDbEntity
  8
1
  6
CONTINUOUS
 62
     7
100
AcDbLine
 10
102.1031118714366
 20
118.2781015809698
 30
0.0
 11
103.0066674268662
 21
118.3475641701791
 31
0.0
  0
LINE
  5
A9
330
1F
100
AcDbEntity
  8
1
  6
CONTINUOUS
 62
     7
100
AcDbLine
 10
68.88996870719451
 20
113.7636853320853
 30
0.0
 11
67.9108143286615
 21
113.760155392541
 31
0.0
  0
LINE
  5
AA
330
1F
100
AcDbEntity
  8
1
  6
CONTINUOUS
 62
     7
100
AcDbLine
 10
107.6
 20
163.8089344757489
 30
0.0
 11
107.6
 21
159.7084294123606
 31
0.0
  0
LINE
  5
AB
330
1F
100
AcDbEntity
  8
1
  6
CONTINUOUS
 62
     7
100
AcDbLine
 10
102.0891856713385
 20
113.760155392541
 30
0.0
 11
101.1100312928055
 21
113.7636853320853
 31
0.0
  0
LINE
  5
AC
330
1F
100
AcDbEntity
  8
1
  6
CONTINUOUS
 62
     7
100
AcDbLine
 10
101.102423409603
 20
113.7636909076616
 30
0.0
 11
68.89757659039708
 21
113.7636909076616
 31
0.0
  0
LINE
  5
AD
330
1F
100
AcDbEntity
  8
1
  6
CONTINUOUS
 62
     7
100
AcDbLine
 10
67.8883782941278
 20
113.7601042440085
 30
0.0
 11
63.70577198819484
 21
113.7601042440085
 31
0.0
  0
ELLIPSE
  5
AE
330
1F
100
AcDbEntity
  8
1
  6
CONTINUOUS
 62
     7
100
AcDbEllipse
 10
102.6153065437914
 20
97.53219490101785
 30
0.0
 11
0.4946254228597353
 21
20.81752875155668
 31
0.0
210
0.0
220
0.0
230
-1.0
 40
0.2354577991235839
 41
6.262138798012879
 42
6.27753227719528
  0
ELLIPSE
  5
AF
330
1F
100
AcDbEntity
  8
1
  6
CONTINUOUS
 62
     7
100
AcDbEllipse
 10
63.0381904065937
 20
115.0143864142378
 30
0.0
 11
-0.9765913899046315
 21
1.152762964674582
 31
0.0
210
0.0
220
0.0
230
-1.0
 40
0.5061780765375392
 41
3.546695400494952
 42
3.559219717251859
  0
LINE
  5
B0
330
1F
100
AcDbEntity
  8
1
  6
CONTINUOUS
 62
     7
100
AcDbLine
 10
107.6
 20
146.2734005698162
 30
0.0
 11
107.5750858002642
 21
146.2734005698162
 31
0.0
  0
LINE
  5
B1
330
1F
100
AcDbEntity
  8
1
  6
CONTINUOUS
 62
     7
100
AcDbLine
 10
106.2942280118052
 20
113.7601042440085
 30
0.0
 11
102.1116217058722
 21
113.7601042440085
 31
0.0
  0
LINE
  5
B2
330
1F
100
AcDbEntity
  8
1
  6
CONTINUOUS
 62
     7
100
AcDbLine
 10
64.29945502944207
 20
113.2734005698162
 30
0.0
 11
68.05351725371882
 21
113.2734005698162
 31
0.0
  0
LINE
  5
B3
330
1F
100
AcDbEntity
  8
1
  6
CONTINUOUS
 62
     7
100
AcDbLine
 10
63.30194193243092
 20
113.7636909076616
 30
0.0
 11
63.90000000000003
 21
113.2734005698162
 31
0.0
  0
LINE
  5
B4
330
1F
100
AcDbEntity
  8
1
  6
CONTINUOUS
 62
     7
100
AcDbLine
 10
102.8094736732934
 20
176.0232140149442
 30
0.0
 11
102.6760514257079
 21
176.3420158357793
 31
0.0
  0
LINE
  5
B5
330
1F
100
AcDbEntity
  8
1
  6
CONTINUOUS
 62
     7
100
AcDbLine
 10
62.40001373386167
 20
118.2739568454423
 30
0.0
 11
62.40000000000003
 21
118.2734005698162
 31
0.0
  0
LINE
  5
B6
330
1F
100
AcDbEntity
  8
1
  6
CONTINUOUS
 62
     7
100
AcDbLine
 10
107.6
 20
146.2734005698162
 30
0.0
 11
107.6
 21
156.1728955064278
 31
0.0
  0
LINE
  5
B7
330
1F
100
AcDbEntity
  8
1
  6
CONTINUOUS
 62
     7
100
AcDbLine
 10
107.6078396375587
 20
157.9263302727697
 30
0.0
 11
107.6
 21
156.1728955064278
 31
0.0
  0
LINE
  5
B8
330
1F
100
AcDbEntity
  8
1
  6
CONTINUOUS
 62
     7
100
AcDbLine
 10
62.40000000000001
 20
156.1728955064278
 30
0.0
 11
62.39216036244137
 21
157.9263302727697
 31
0.0
  0
LINE
  5
B9
330
1F
100
AcDbEntity
  8
1
  6
CONTINUOUS
 62
     7
100
AcDbLine
 10
62.40001373386166
 20
184.5634986184569
 30
0.0
 11
62.40000000000001
 21
184.5521112087233
 31
0.0
  0
LINE
  5
BA
330
1F
100
AcDbEntity
  8
1
  6
CONTINUOUS
 62
     7
100
AcDbLine
 10
105.8032755000654
 20
73.27340056981616
 30
0.0
 11
106.40151581131
 21
73.27340056981616
 31
0.0
  0
ELLIPSE
  5
BB
330
1F
100
AcDbEntity
  8
1
  6
CONTINUOUS
 62
     7
100
AcDbEllipse
 10
67.38469345620854
 20
180.9734005698161
 30
0.0
 11
-3.412432673976086
 21
-3.941684048849428
 31
0.0
210
0.0
220
0.0
230
-1.0
 40
0.9014740704167385
 41
2.281501760625354
 42
2.296895239807762
  0
LINE
  5
BC
330
1F
100
AcDbEntity
  8
1
  6
CONTINUOUS
 62
     7
100
AcDbLine
 10
106.1
 20
85.27340056981619
 30
0.0
 11
106.0995429114192
 21
85.27340056981618
 31
0.0
  0
LINE
  5
BD
330
1F
100
AcDbEntity
  8
1
  6
CONTINUOUS
 62
     7
100
AcDbLine
 10
107.3037325886461
 20
73.27340056981616
 30
0.0
 11
107.6
 21
85.27340056981618
 31
0.0
  0
LINE
  5
BE
330
1F
100
AcDbEntity
  8
1
  6
CONTINUOUS
 62
     7
100
AcDbLine
 10
106.40151581131
 20
73.27340056981616
 30
0.0
 11
107.3037325886461
 21
73.27340056981616
 31
0.0
  0
LINE
  5
BF
330
1F
100
AcDbEntity
  8
1
  6
CONTINUOUS
 62
     7
100
AcDbLine
 10
62.40000000000003
 20
85.27340056981618
 30
0.0
 11
62.69626741135391
 21
73.27340056981618
 31
0.0
  0
LINE
  5
C0
330
1F
100
AcDbEntity
  8
1
  6
CONTINUOUS
 62
     7
100
AcDbLine
 10
107.6
 20
163.8089344757489
 30
0.0
 11
107.6
 21
159.7084294123606
 31
0.0
  0
LINE
  5
C1
330
1F
100
AcDbEntity
  8
1
  6
CONTINUOUS
 62
     7
100
AcDbLine
 10
107.6
 20
165.2734005698161
 30
0.0
 11
107.6
 21
184.5521112087233
 31
0.0
  0
LINE
  5
C2
330
1F
100
AcDbEntity
  8
1
  6
CONTINUOUS
 62
     7
100
AcDbLine
 10
63.30221677733616
 20
85.27340056981618
 30
0.0
 11
63.59848418869006
 21
73.27340056981618
 31
0.0
  0
LINE
  5
C3
330
1F
100
AcDbEntity
  8
1
  6
CONTINUOUS
 62
     7
100
AcDbLine
 10
66.99333257313386
 20
185.8908170177999
 30
0.0
 11
67.4401964877821
 21
185.9524261585449
 31
0.0
  0
LINE
  5
C4
330
1F
100
AcDbEntity
  8
1
  6
CONTINUOUS
 62
     7
100
AcDbLine
 10
90.50601874014302
 20
75.77340056981618
 30
0.0
 11
92.5060187459431
 21
75.76105938496183
 31
0.0
  0
LINE
  5
C5
330
1F
100
AcDbEntity
  8
1
  6
CONTINUOUS
 62
     7
100
AcDbLine
 10
77.50000000000001
 20
75.27340056981619
 30
0.0
 11
79.50015232224341
 21
75.27340056981619
 31
0.0
  0
LINE
  5
C6
330
1F
100
AcDbEntity
  8
1
  6
CONTINUOUS
 62
     7
100
AcDbLine
 10
106.40151581131
 20
73.27340056981616
 30
0.0
 11
106.6977832226639
 21
85.27340056981618
 31
0.0
  0
LINE
  5
C7
330
1F
100
AcDbEntity
  8
1
  6
CONTINUOUS
 62
     7
100
AcDbLine
 10
77.49398125405693
 20
75.76105938496184
 30
0.0
 11
77.50000000000001
 21
75.27340056981619
 31
0.0
  0
LINE
  5
C8
330
1F
100
AcDbEntity
  8
1
  6
CONTINUOUS
 62
     7
100
AcDbLine
 10
102.8094736732934
 20
176.622734362975
 30
0.0
 11
102.6760514257079
 21
176.3420158357793
 31
0.0
  0
LINE
  5
C9
330
1F
100
AcDbEntity
  8
1
  6
CONTINUOUS
 62
     7
100
AcDbLine
 10
67.4401964877821
 20
185.9524261585449
 30
0.0
 11
67.89688812856342
 21
185.9734005698161
 31
0.0
  0
LINE
  5
CA
330
1F
100
AcDbEntity
  8
1
  6
CONTINUOUS
 62
     7
100
AcDbLine
 10
64.74810549727377
 20
73.27340056981616
 30
0.0
 11
64.60000000000004
 21
85.27340056981618
 31
0.0
  0
LINE
  5
CB
330
1F
100
AcDbEntity
  8
1
  6
CONTINUOUS
 62
     7
100
AcDbLine
 10
84.25000000000001
 20
75.27340056981619
 30
0.0
 11
79.50015232224341
 21
75.27340056981619
 31
0.0
  0
LINE
  5
CC
330
1F
100
AcDbEntity
  8
1
  6
CONTINUOUS
 62
     7
100
AcDbLine
 10
106.0995429114192
 20
85.27340056981618
 30
0.0
 11
105.4
 21
85.27340056981618
 31
0.0
  0
LINE
  5
CD
330
1F
100
AcDbEntity
  8
1
  6
CONTINUOUS
 62
     7
100
AcDbLine
 10
79.493981259857
 20
75.77340056981618
 30
0.0
 11
84.25
 21
75.77340056981618
 31
0.0
  0
ELLIPSE
  5
CE
330
1F
100
AcDbEntity
  8
1
  6
CONTINUOUS
 62
     7
100
AcDbEllipse
 10
107.6872753246411
 20
156.1728955064278
 30
0.0
 11
0.06172237450013009
 21
-4.999999941981584
 31
0.0
210
0.0
220
0.0
230
1.0
 40
0.0123407145103209
 41
3.926838477346108
 42
4.353932099480712
  0
LINE
  5
CF
330
1F
100
AcDbEntity
  8
1
  6
CONTINUOUS
 62
     7
100
AcDbLine
 10
103.0822150393313
 20
185.8763039482708
 30
0.0
 11
107.1960179426771
 21
185.0537889563023
 31
0.0
  0
LINE
  5
D0
330
1F
100
AcDbEntity
  8
1
  6
CONTINUOUS
 62
     7
100
AcDbLine
 10
62.69626741135391
 20
73.27340056981618
 30
0.0
 11
63.59848418869006
 21
73.27340056981618
 31
0.0
  0
LINE
  5
D1
330
1F
100
AcDbEntity
  8
1
  6
CONTINUOUS
 62
     7
100
AcDbLine
 10
102.5563509592423
 20
185.9527426782681
 30
0.0
 11
103.0066674268661
 21
185.8908170177999
 31
0.0
  0
LINE
  5
D2
330
1F
100
AcDbEntity
  8
1
  6
CONTINUOUS
 62
     7
100
AcDbLine
 10
62.40000000000001
 20
184.5521112087233
 30
0.0
 11
62.40000000000001
 21
165.2734005698161
 31
0.0
  0
LINE
  5
D3
330
1F
100
AcDbEntity
  8
1
  6
CONTINUOUS
 62
     7
100
AcDbLine
 10
107.6
 20
184.5521112087233
 30
0.0
 11
107.5999862661384
 21
184.5634986184569
 31
0.0
  0
LINE
  5
D4
330
1F
100
AcDbEntity
  8
1
  6
CONTINUOUS
 62
     7
100
AcDbLine
 10
64.74810549727377
 20
73.27340056981616
 30
0.0
 11
64.19672449993469
 21
73.27340056981616
 31
0.0
  0
ELLIPSE
  5
D5
330
1F
100
AcDbEntity
  8
1
  6
CONTINUOUS
 62
     7
100
AcDbEllipse
 10
102.6153065437914
 20
180.9734005698161
 30
0.0
 11
-3.412432673976087
 21
3.941684048849423
 31
0.0
210
0.0
220
0.0
230
-1.0
 40
0.9014740704167411
 41
0.8446974137820394
 42
0.8600908929644382
  0
LINE
  5
D6
330
1F
100
AcDbEntity
  8
1
  6
CONTINUOUS
 62
     7
100
AcDbLine
 10
64.60000000000004
 20
85.27340056981618
 30
0.0
 11
63.9004570885808
 21
85.27340056981618
 31
0.0
  0
LINE
  5
D7
330
1F
100
AcDbEntity
  8
1
  6
CONTINUOUS
 62
     7
100
AcDbLine
 10
105.2518945027263
 20
73.27340056981616
 30
0.0
 11
105.4
 21
85.27340056981618
 31
0.0
  0
LINE
  5
D8
330
1F
100
AcDbEntity
  8
1
  6
CONTINUOUS
 62
     7
100
AcDbLine
 10
63.59848418869006
 20
73.27340056981618
 30
0.0
 11
64.19672449993469
 21
73.27340056981616
 31
0.0
  0
LINE
  5
D9
330
1F
100
AcDbEntity
  8
1
  6
CONTINUOUS
 62
     7
100
AcDbLine
 10
92.50000000000001
 20
75.27340056981618
 30
0.0
 11
92.5060187459431
 21
75.76105938496183
 31
0.0
  0
LINE
  5
DA
330
1F
100
AcDbEntity
  8
1
  6
CONTINUOUS
 62
     7
100
AcDbLine
 10
63.9004570885808
 20
85.27340056981618
 30
0.0
 11
63.90000000000003
 21
85.27340056981618
 31
0.0
  0
LINE
  5
DB
330
1F
100
AcDbEntity
  8
1
  6
CONTINUOUS
 62
     7
100
AcDbLine
 10
105.8032755000654
 20
73.27340056981616
 30
0.0
 11
105.2518945027263
 21
73.27340056981616
 31
0.0
  0
LINE
  5
DC
330
1F
100
AcDbEntity
  8
1
  6
CONTINUOUS
 62
     7
100
AcDbLine
 10
90.49984767775662
 20
75.27340056981619
 30
0.0
 11
92.50000000000001
 21
75.27340056981619
 31
0.0
  0
LINE
  5
DD
330
1F
100
AcDbEntity
  8
1
  6
CONTINUOUS
 62
     7
100
AcDbLine
 10
77.49398125405693
 20
75.76105938496184
 30
0.0
 11
79.493981259857
 21
75.77340056981618
 31
0.0
  0
ELLIPSE
  5
DE
330
1F
100
AcDbEntity
  8
1
  6
CONTINUOUS
 62
     7
100
AcDbEllipse
 10
107.6872753246411
 20
160.2734005698161
 30
0.0
 11
0.06172237450013009
 21
-4.999999941981584
 31
0.0
210
0.0
220
0.0
230
-1.0
 40
0.0123407145103209
 41
2.35634682983345
 42
2.783440451968076
  0
LWPOLYLINE
  5
DF
330
1F
100
AcDbEntity
  8
1
  6
CONTINUOUS
 62
     7
100
AcDbPolyline
 90
       12
 70
     0
 43
0.0
 10
104.2098848354448
 20
176.1199392363156
 10
104.1948980360028
 20
176.2246888907589
 10
104.1513743580623
 20
176.3296384115382
 10
104.080962688487
 20
176.4308118045662
 10
103.9863305609617
 20
176.5243761336898
 10
103.9015876101481
 20
176.5874088829717
 42
0.1479896430256544
 10
103.262465822499
 20
176.7710345940649
 10
103.1555380824895
 20
176.7630706400867
 10
103.0547157886675
 20
176.7437303210304
 10
102.933477563529
 20
176.7009939383797
 10
102.8314911520432
 20
176.640412689331
 10
102.8094736732934
 20
176.622734362975
  0
LINE
  5
E0
330
1F
100
AcDbEntity
  8
1
  6
CONTINUOUS
 62
     7
100
AcDbLine
 10
62.7766577783857
 20
185.0475455423437
 30
0.0
 11
62.80398205732288
 21
185.0537889563024
 31
0.0
  0
LWPOLYLINE
  5
E1
330
1F
100
AcDbEntity
  8
1
  6
CONTINUOUS
 62
     7
100
AcDbPolyline
 90
       12
 70
     0
 43
0.0
 10
67.19052632670666
 20
176.622734362975
 10
67.09398852167006
 20
176.6874429001022
 10
66.97715835518653
 20
176.734819949527
 10
66.87885711547818
 20
176.7578724590006
 10
66.77371644376731
 20
176.7696595314155
 42
0.1479645021804263
 10
66.1289369030505
 20
176.6067867308001
 10
66.04071014090748
 20
176.546154598158
 10
65.96352981532948
 20
176.4787750401512
 10
65.8806143277935
 20
176.3809417773597
 10
65.82337494616989
 20
176.2773887678501
 10
65.79398017433749
 20
176.1720390991263
 10
65.79011516455526
 20
176.1199392363156
  0
LINE
  5
E2
330
1F
100
AcDbEntity
  8
1
  6
CONTINUOUS
 62
     7
100
AcDbLine
 10
107.1960179426771
 20
185.0537889563024
 30
0.0
 11
107.2233422216143
 21
185.0475455423437
 31
0.0
  0
LINE
  5
E3
330
1F
100
AcDbEntity
  8
1
  6
CONTINUOUS
 62
     7
100
AcDbLine
 10
102.1031118714366
 20
185.9734005698162
 30
0.0
 11
102.5563509592423
 21
185.9527426782681
 31
0.0
  0
LINE
  5
E4
330
1F
100
AcDbEntity
  8
1
  6
CONTINUOUS
 62
     7
100
AcDbLine
 10
67.32394857429216
 20
176.3420158357793
 30
0.0
 11
67.19052632670666
 21
176.622734362975
 31
0.0
  0
LINE
  5
E5
330
1F
100
AcDbEntity
  8
1
  6
CONTINUOUS
 62
     7
100
AcDbLine
 10
62.80398205732288
 20
185.0537889563024
 30
0.0
 11
66.91778496066868
 21
185.8763039482708
 31
0.0
  0
LINE
  5
E6
330
1F
100
AcDbEntity
  8
1
  6
CONTINUOUS
 62
     7
100
AcDbLine
 10
86.64843556936958
 20
73.27340056981618
 30
0.0
 11
92.47531575045439
 21
73.27340056981618
 31
0.0
  0
LINE
  5
E7
330
1F
100
AcDbEntity
  8
1
  6
CONTINUOUS
 62
     7
100
AcDbLine
 10
85.75000000000001
 20
75.77340056981622
 30
0.0
 11
85.75000000000001
 21
75.27340056981619
 31
0.0
  0
LINE
  5
E8
330
1F
100
AcDbEntity
  8
1
  6
CONTINUOUS
 62
     7
100
AcDbLine
 10
85.00000000000001
 20
76.76674573348025
 30
0.0
 11
85.00000000000001
 21
75.27340056981619
 31
0.0
  0
ELLIPSE
  5
E9
330
1F
100
AcDbEntity
  8
1
  6
CONTINUOUS
 62
     7
100
AcDbEllipse
 10
101.7310779515177
 20
74.2208989743343
 30
0.0
 11
0.08673181675748294
 21
0.6983018086664379
 31
0.0
210
0.0
220
0.0
230
-1.0
 40
0.7105629631689045
 41
5.53215005603409
 42
6.195158677601103
  0
LINE
  5
EA
330
1F
100
AcDbEntity
  8
1
  6
CONTINUOUS
 62
     7
100
AcDbLine
 10
75.50000000000003
 20
73.27340056981616
 30
0.0
 11
76.50000000000003
 21
73.27340056981618
 31
0.0
  0
LINE
  5
EB
330
1F
100
AcDbEntity
  8
1
  6
CONTINUOUS
 62
     7
100
AcDbLine
 10
92.49259472513633
 20
74.67340056981617
 30
0.0
 11
92.4938289376136
 21
74.77340056981619
 31
0.0
  0
LINE
  5
EC
330
1F
100
AcDbEntity
  8
1
  6
CONTINUOUS
 62
     7
100
AcDbLine
 10
77.49382893761361
 20
75.77340056981618
 30
0.0
 11
77.49398125405693
 21
75.76105938496183
 31
0.0
  0
LINE
  5
ED
330
1F
100
AcDbEntity
  8
1
  6
CONTINUOUS
 62
     7
100
AcDbLine
 10
76.50000000000003
 20
74.77340056981618
 30
0.0
 11
77.00000000000003
 21
74.77340056981618
 31
0.0
  0
LINE
  5
EE
330
1F
100
AcDbEntity
  8
1
  6
CONTINUOUS
 62
     7
100
AcDbLine
 10
86.5371088923424
 20
74.77340056981619
 30
0.0
 11
86.50000000000001
 21
75.27340056981619
 31
0.0
  0
LINE
  5
EF
330
1F
100
AcDbEntity
  8
1
  6
CONTINUOUS
 62
     7
100
AcDbLine
 10
77.00000000000003
 20
73.27340056981616
 30
0.0
 11
76.50000000000003
 21
73.27340056981616
 31
0.0
  0
LINE
  5
F0
330
1F
100
AcDbEntity
  8
1
  6
CONTINUOUS
 62
     7
100
AcDbLine
 10
90.52230456373836
 20
76.77340056981618
 30
0.0
 11
79.47769543626166
 21
76.77340056981618
 31
0.0
  0
LINE
  5
F1
330
1F
100
AcDbEntity
  8
1
  6
CONTINUOUS
 62
     7
100
AcDbLine
 10
105.272240673597
 20
74.92191500677136
 30
0.0
 11
101.7738526372904
 21
74.92191500677134
 31
0.0
  0
LINE
  5
F2
330
1F
100
AcDbEntity
  8
1
  6
CONTINUOUS
 62
     7
100
AcDbLine
 10
94.50000000000003
 20
74.77340056981618
 30
0.0
 11
101.4558811813477
 21
74.77340056981618
 31
0.0
  0
LINE
  5
F3
330
1F
100
AcDbEntity
  8
1
  6
CONTINUOUS
 62
     7
100
AcDbLine
 10
92.5060187459431
 20
75.76105938496183
 30
0.0
 11
92.50617106238641
 21
75.77340056981618
 31
0.0
  0
LINE
  5
F4
330
1F
100
AcDbEntity
  8
1
  6
CONTINUOUS
 62
     7
100
AcDbLine
 10
86.64843556936958
 20
73.27340056981616
 30
0.0
 11
86.14706039059536
 21
73.27340056981616
 31
0.0
  0
LINE
  5
F5
330
1F
100
AcDbEntity
  8
1
  6
CONTINUOUS
 62
     7
100
AcDbLine
 10
77.5074052748637
 20
74.67340056981618
 30
0.0
 11
77.50617106238643
 21
74.77340056981619
 31
0.0
  0
LINE
  5
F6
330
1F
100
AcDbEntity
  8
1
  6
CONTINUOUS
 62
     7
100
AcDbLine
 10
77.52468424954564
 20
73.27340056981618
 30
0.0
 11
83.35156443063046
 21
73.27340056981618
 31
0.0
  0
LINE
  5
F7
330
1F
100
AcDbEntity
  8
1
  6
CONTINUOUS
 62
     7
100
AcDbLine
 10
93.00000000000003
 20
74.77340056981618
 30
0.0
 11
92.4938289376136
 21
74.77340056981618
 31
0.0
  0
LINE
  5
F8
330
1F
100
AcDbEntity
  8
1
  6
CONTINUOUS
 62
     7
100
AcDbLine
 10
76.50000000000003
 20
73.27340056981618
 30
0.0
 11
76.50000000000003
 21
74.77340056981618
 31
0.0
  0
LINE
  5
F9
330
1F
100
AcDbEntity
  8
1
  6
CONTINUOUS
 62
     7
100
AcDbLine
 10
93.00000000000003
 20
73.27340056981616
 30
0.0
 11
92.47531575045439
 21
73.27340056981616
 31
0.0
  0
LINE
  5
FA
330
1F
100
AcDbEntity
  8
1
  6
CONTINUOUS
 62
     7
100
AcDbLine
 10
85.75000000000004
 20
75.77340056981618
 30
0.0
 11
90.50601874014302
 21
75.77340056981618
 31
0.0
  0
LINE
  5
FB
330
1F
100
AcDbEntity
  8
1
  6
CONTINUOUS
 62
     7
100
AcDbLine
 10
77.50617106238643
 20
74.77340056981618
 30
0.0
 11
77.00000000000003
 21
74.77340056981618
 31
0.0
  0
LINE
  5
FC
330
1F
100
AcDbEntity
  8
1
  6
CONTINUOUS
 62
     7
100
AcDbLine
 10
86.14706039059536
 20
73.27340056981616
 30
0.0
 11
85.57679491924313
 21
73.27340056981616
 31
0.0
  0
LINE
  5
FD
330
1F
100
AcDbEntity
  8
1
  6
CONTINUOUS
 62
     7
100
AcDbLine
 10
84.25000000000001
 20
75.77340056981619
 30
0.0
 11
84.25000000000001
 21
75.27340056981619
 31
0.0
  0
LINE
  5
FE
330
1F
100
AcDbEntity
  8
1
  6
CONTINUOUS
 62
     7
100
AcDbLine
 10
85.75000000000001
 20
75.77340056981622
 30
0.0
 11
85.34175170953618
 21
76.48050735100271
 31
0.0
  0
LINE
  5
FF
330
1F
100
AcDbEntity
  8
1
  6
CONTINUOUS
 62
     7
100
AcDbLine
 10
93.50000000000003
 20
73.27340056981616
 30
0.0
 11
94.50000000000003
 21
73.27340056981616
 31
0.0
  0
LINE
  5
100
330
1F
100
AcDbEntity
  8
1
  6
CONTINUOUS
 62
     7
100
AcDbLine
 10
84.65824829046386
 20
76.48050735100271
 30
0.0
 11
84.25000000000001
 21
75.77340056981619
 31
0.0
  0
LINE
  5
101
330
1F
100
AcDbEntity
  8
1
  6
CONTINUOUS
 62
     7
100
AcDbLine
 10
84.42320508075692
 20
73.27340056981616
 30
0.0
 11
83.85293960940469
 21
73.27340056981616
 31
0.0
  0
LINE
  5
102
330
1F
100
AcDbEntity
  8
1
  6
CONTINUOUS
 62
     7
100
AcDbLine
 10
91.0885844700167
 20
76.77340056981618
 30
0.0
 11
90.52230456373836
 21
76.77340056981618
 31
0.0
  0
LINE
  5
103
330
1F
100
AcDbEntity
  8
1
  6
CONTINUOUS
 62
     7
100
AcDbLine
 10
92.5060187459431
 20
75.76105938496183
 30
0.0
 11
91.79977690814968
 21
76.47607153580763
 31
0.0
  0
LINE
  5
104
330
1F
100
AcDbEntity
  8
1
  6
CONTINUOUS
 62
     7
100
AcDbLine
 10
85.00000000000001
 20
76.76674573348024
 30
0.0
 11
84.65824829046386
 21
76.4805073510027
 31
0.0
  0
LINE
  5
105
330
1F
100
AcDbEntity
  8
1
  6
CONTINUOUS
 62
     7
100
AcDbLine
 10
79.47769543626166
 20
76.77340056981618
 30
0.0
 11
78.9114742331839
 21
76.77340056981618
 31
0.0
  0
LINE
  5
106
330
1F
100
AcDbEntity
  8
1
  6
CONTINUOUS
 62
     7
100
AcDbLine
 10
64.74810549727377
 20
73.27340056981616
 30
0.0
 11
75.50000000000003
 21
73.27340056981616
 31
0.0
  0
LINE
  5
107
330
1F
100
AcDbEntity
  8
1
  6
CONTINUOUS
 62
     7
100
AcDbLine
 10
86.54453067081089
 20
74.67340056981617
 30
0.0
 11
86.64843556936958
 21
73.27340056981616
 31
0.0
  0
LINE
  5
108
330
1F
100
AcDbEntity
  8
1
  6
CONTINUOUS
 62
     7
100
AcDbLine
 10
92.47531575045439
 20
73.27340056981616
 30
0.0
 11
92.49259472513633
 21
74.67340056981617
 31
0.0
  0
LINE
  5
109
330
1F
100
AcDbEntity
  8
1
  6
CONTINUOUS
 62
     7
100
AcDbLine
 10
83.45546932918916
 20
74.67340056981617
 30
0.0
 11
83.46289110765763
 21
74.77340056981619
 31
0.0
  0
LINE
  5
10A
330
1F
100
AcDbEntity
  8
1
  6
CONTINUOUS
 62
     7
100
AcDbLine
 10
83.50000000000001
 20
75.27340056981619
 30
0.0
 11
83.46289110765763
 21
74.77340056981619
 31
0.0
  0
LINE
  5
10B
330
1F
100
AcDbEntity
  8
1
  6
CONTINUOUS
 62
     7
100
AcDbLine
 10
83.85293960940469
 20
73.27340056981616
 30
0.0
 11
83.35156443063046
 21
73.27340056981616
 31
0.0
  0
LINE
  5
10C
330
1F
100
AcDbEntity
  8
1
  6
CONTINUOUS
 62
     7
100
AcDbLine
 10
68.70414108147985
 20
74.77340056981619
 30
0.0
 11
67.50889493156453
 21
84.39665740324861
 31
0.0
  0
LINE
  5
10D
330
1F
100
AcDbEntity
  8
1
  6
CONTINUOUS
 62
     7
100
AcDbLine
 10
85.57679491924313
 20
73.27340056981616
 30
0.0
 11
85.00000000000001
 21
73.27340056981616
 31
0.0
  0
LINE
  5
10E
330
1F
100
AcDbEntity
  8
1
  6
CONTINUOUS
 62
     7
100
AcDbLine
 10
85.75000000000001
 20
75.27340056981619
 30
0.0
 11
85.00000000000001
 21
75.27340056981619
 31
0.0
  0
LINE
  5
10F
330
1F
100
AcDbEntity
  8
1
  6
CONTINUOUS
 62
     7
100
AcDbLine
 10
77.49398125405693
 20
75.76105938496184
 30
0.0
 11
78.20022309185033
 21
76.47607153580763
 31
0.0
  0
ELLIPSE
  5
110
330
1F
100
AcDbEntity
  8
1
  6
CONTINUOUS
 62
     7
100
AcDbEllipse
 10
68.26892204848237
 20
74.2208989743343
 30
0.0
 11
-0.08673181675748286
 21
0.6983018086664379
 31
0.0
210
0.0
220
0.0
230
-1.0
 40
0.7105629631689045
 41
0.0880266295784973
 42
0.7510352511454953
  0
LINE
  5
111
330
1F
100
AcDbEntity
  8
1
  6
CONTINUOUS
 62
     7
100
AcDbLine
 10
93.00000000000003
 20
74.77340056981618
 30
0.0
 11
93.50000000000003
 21
74.77340056981618
 31
0.0
  0
LINE
  5
112
330
1F
100
AcDbEntity
  8
1
  6
CONTINUOUS
 62
     7
100
AcDbLine
 10
85.00000000000001
 20
73.27340056981616
 30
0.0
 11
84.42320508075692
 21
73.27340056981616
 31
0.0
  0
LINE
  5
113
330
1F
100
AcDbEntity
  8
1
  6
CONTINUOUS
 62
     7
100
AcDbLine
 10
102.4911050684355
 20
84.39665740324861
 30
0.0
 11
101.2958589185202
 21
74.77340056981618
 31
0.0
  0
LINE
  5
114
330
1F
100
AcDbEntity
  8
1
  6
CONTINUOUS
 62
     7
100
AcDbLine
 10
86.5445306708109
 20
74.67340056981617
 30
0.0
 11
86.53710889234242
 21
74.77340056981619
 31
0.0
  0
ARC
  5
115
330
1F
100
AcDbEntity
  8
1
  6
CONTINUOUS
 62
     7
100
AcDbCircle
 10
66.51652012686009
 20
84.27340056981618
 30
0.0
 40
1.000000000000001
100
AcDbArc
 50
7.080101234739801
 51
89.99999999999994
  0
LINE
  5
116
330
1F
100
AcDbEntity
  8
1
  6
CONTINUOUS
 62
     7
100
AcDbLine
 10
93.50000000000003
 20
73.27340056981616
 30
0.0
 11
93.00000000000003
 21
73.27340056981616
 31
0.0
  0
LINE
  5
117
330
1F
100
AcDbEntity
  8
1
  6
CONTINUOUS
 62
     7
100
AcDbLine
 10
76.50000000000003
 20
74.77340056981618
 30
0.0
 11
75.50000000000003
 21
74.77340056981618
 31
0.0
  0
LINE
  5
118
330
1F
100
AcDbEntity
  8
1
  6
CONTINUOUS
 62
     7
100
AcDbLine
 10
85.34175170953618
 20
76.48050735100271
 30
0.0
 11
85.00000000000001
 21
76.76674573348024
 31
0.0
  0
LINE
  5
119
330
1F
100
AcDbEntity
  8
1
  6
CONTINUOUS
 62
     7
100
AcDbLine
 10
77.00000000000003
 20
73.27340056981616
 30
0.0
 11
77.52468424954564
 21
73.27340056981616
 31
0.0
  0
LINE
  5
11A
330
1F
100
AcDbEntity
  8
1
  6
CONTINUOUS
 62
     7
100
AcDbLine
 10
94.50000000000003
 20
73.27340056981616
 30
0.0
 11
105.2518945027263
 21
73.27340056981616
 31
0.0
  0
LINE
  5
11B
330
1F
100
AcDbEntity
  8
1
  6
CONTINUOUS
 62
     7
100
AcDbLine
 10
68.54411881865228
 20
74.77340056981618
 30
0.0
 11
75.50000000000003
 21
74.77340056981618
 31
0.0
  0
LINE
  5
11C
330
1F
100
AcDbEntity
  8
1
  6
CONTINUOUS
 62
     7
100
AcDbLine
 10
94.50000000000003
 20
74.77340056981618
 30
0.0
 11
93.50000000000003
 21
74.77340056981618
 31
0.0
  0
LINE
  5
11D
330
1F
100
AcDbEntity
  8
1
  6
CONTINUOUS
 62
     7
100
AcDbLine
 10
92.50000000000001
 20
75.27340056981618
 30
0.0
 11
92.4938289376136
 21
74.77340056981619
 31
0.0
  0
LINE
  5
11E
330
1F
100
AcDbEntity
  8
1
  6
CONTINUOUS
 62
     7
100
AcDbLine
 10
85.00000000000001
 20
75.27340056981619
 30
0.0
 11
84.25000000000001
 21
75.27340056981619
 31
0.0
  0
LINE
  5
11F
330
1F
100
AcDbEntity
  8
1
  6
CONTINUOUS
 62
     7
100
AcDbLine
 10
90.49984767775662
 20
75.27340056981618
 30
0.0
 11
85.75000000000001
 21
75.27340056981619
 31
0.0
  0
LINE
  5
120
330
1F
100
AcDbEntity
  8
1
  6
CONTINUOUS
 62
     7
100
AcDbLine
 10
93.50000000000003
 20
74.77340056981618
 30
0.0
 11
93.50000000000003
 21
73.27340056981616
 31
0.0
  0
LINE
  5
121
330
1F
100
AcDbEntity
  8
1
  6
CONTINUOUS
 62
     7
100
AcDbLine
 10
77.50617106238643
 20
74.77340056981619
 30
0.0
 11
77.50000000000001
 21
75.27340056981619
 31
0.0
  0
LINE
  5
122
330
1F
100
AcDbEntity
  8
1
  6
CONTINUOUS
 62
     7
100
AcDbLine
 10
64.72775932640307
 20
74.92191500677134
 30
0.0
 11
68.2261473627096
 21
74.92191500677134
 31
0.0
  0
LINE
  5
123
330
1F
100
AcDbEntity
  8
1
  6
CONTINUOUS
 62
     7
100
AcDbLine
 10
83.35156443063046
 20
73.27340056981616
 30
0.0
 11
83.45546932918916
 21
74.67340056981617
 31
0.0
  0
LINE
  5
124
330
1F
100
AcDbEntity
  8
1
  6
CONTINUOUS
 62
     7
100
AcDbLine
 10
77.5074052748637
 20
74.67340056981618
 30
0.0
 11
77.52468424954564
 21
73.27340056981616
 31
0.0
  0
LINE
  5
125
330
1F
100
AcDbEntity
  8
1
  6
CONTINUOUS
 62
     7
100
AcDbLine
 10
105.2518945027263
 20
43.27340056981615
 30
0.0
 11
105.2518945027263
 21
33.27340056981615
 31
0.0
  0
LINE
  5
126
330
1F
100
AcDbEntity
  8
1
  6
CONTINUOUS
 62
     7
100
AcDbLine
 10
64.74810549727377
 20
33.27340056981615
 30
0.0
 11
64.19672449993469
 21
33.27340056981615
 31
0.0
  0
ELLIPSE
  5
127
330
1F
100
AcDbEntity
  8
1
  6
CONTINUOUS
 62
     7
100
AcDbEllipse
 10
93.00000000000001
 20
47.35362230000328
 30
0.0
 11
0.0
 21
-0.7197782698128569
 31
0.0
210
0.0
220
0.0
230
-1.0
 40
0.694658370459004
 41
3.141592653589793
 42
4.712388980384683
  0
LINE
  5
128
330
1F
100
AcDbEntity
  8
1
  6
CONTINUOUS
 62
     7
100
AcDbLine
 10
84.42320508075692
 20
49.07340056981616
 30
0.0
 11
83.85293960940469
 21
49.07340056981616
 31
0.0
  0
LINE
  5
129
330
1F
100
AcDbEntity
  8
1
  6
CONTINUOUS
 62
     7
100
AcDbLine
 10
93.00000000000001
 20
48.07340056981614
 30
0.0
 11
92.47531575045439
 21
48.07340056981615
 31
0.0
  0
ELLIPSE
  5
12A
330
1F
100
AcDbEntity
  8
1
  6
CONTINUOUS
 62
     7
100
AcDbEllipse
 10
83.85293960940469
 20
48.57340056981616
 30
0.0
 11
0.501375178774216
 21
0.0
 31
0.0
210
0.0
220
0.0
230
-1.0
 40
0.9972571861702894
 41
3.141592653589787
 42
4.712388980384683
  0
ELLIPSE
  5
12B
330
1F
100
AcDbEntity
  8
1
  6
CONTINUOUS
 62
     7
100
AcDbEllipse
 10
77.00000000000001
 20
47.35362230000328
 30
0.0
 11
0.0
 21
-0.7197782698128569
 31
0.0
210
0.0
220
0.0
230
-1.0
 40
0.694658370459004
 41
1.570796326794903
 42
3.141592653589793
  0
CIRCLE
  5
12C
330
1F
100
AcDbEntity
  8
1
  6
CONTINUOUS
 62
     7
100
AcDbCircle
 10
85.00000000000001
 20
59.27340056981617
 30
0.0
 40
2.500000000000002
  0
LINE
  5
12D
330
1F
100
AcDbEntity
  8
1
  6
CONTINUOUS
 62
     7
100
AcDbLine
 10
75.50000000000003
 20
43.27340056981615
 30
0.0
 11
76.50000000000001
 21
44.27340056981615
 31
0.0
  0
LINE
  5
12E
330
1F
100
AcDbEntity
  8
1
  6
CONTINUOUS
 62
     7
100
AcDbLine
 10
63.60000000000002
 20
58.8175744420716
 30
0.0
 11
63.6
 21
45.92730241410169
 31
0.0
  0
LINE
  5
12F
330
1F
100
AcDbEntity
  8
1
  6
CONTINUOUS
 62
     7
100
AcDbLine
 10
63.6
 20
45.92730241410169
 30
0.0
 11
65.49305834462282
 21
45.92730241410169
 31
0.0
  0
ELLIPSE
  5
130
330
1F
100
AcDbEntity
  8
1
  6
CONTINUOUS
 62
     7
100
AcDbEllipse
 10
66.40000000000003
 20
73.23636150044837
 30
0.0
 11
0.0
 21
-2.121966862920335
 31
0.0
210
0.0
220
0.0
230
-1.0
 40
0.7069990525836459
 41
4.694933028968785
 42
7.871437585390384
  0
LINE
  5
131
330
1F
100
AcDbEntity
  8
1
  6
CONTINUOUS
 62
     7
100
AcDbLine
 10
94.50000000000003
 20
43.27340056981615
 30
0.0
 11
105.2518945027263
 21
43.27340056981615
 31
0.0
  0
LINE
  5
132
330
1F
100
AcDbEntity
  8
1
  6
CONTINUOUS
 62
     7
100
AcDbLine
 10
93.50000000000001
 20
44.27340056981615
 30
0.0
 11
94.50000000000003
 21
43.27340056981615
 31
0.0
  0
LINE
  5
133
330
1F
100
AcDbEntity
  8
1
  6
CONTINUOUS
 62
     7
100
AcDbLine
 10
86.14706039059536
 20
49.07340056981616
 30
0.0
 11
85.57679491924313
 21
49.07340056981616
 31
0.0
  0
ELLIPSE
  5
134
330
1F
100
AcDbEntity
  8
1
  6
CONTINUOUS
 62
     7
100
AcDbEllipse
 10
86.14706039059536
 20
48.57340056981616
 30
0.0
 11
-0.501375178774216
 21
0.0
 31
0.0
210
0.0
220
0.0
230
-1.0
 40
0.9972571861702894
 41
1.570796326794903
 42
3.141592653589795
  0
LINE
  5
135
330
1F
100
AcDbEntity
  8
1
  6
CONTINUOUS
 62
     7
100
AcDbLine
 10
85.57679491924313
 20
49.07340056981616
 30
0.0
 11
85.00000000000001
 21
50.0724386754928
 31
0.0
  0
LINE
  5
136
330
1F
100
AcDbEntity
  8
1
  6
CONTINUOUS
 62
     7
100
AcDbLine
 10
65.49305834462282
 20
58.8175744420716
 30
0.0
 11
65.49305834462282
 21
45.92730241410169
 31
0.0
  0
LINE
  5
137
330
1F
100
AcDbEntity
  8
1
  6
CONTINUOUS
 62
     7
100
AcDbLine
 10
65.49305834462282
 20
58.8175744420716
 30
0.0
 11
63.60000000000002
 21
58.8175744420716
 31
0.0
  0
LINE
  5
138
330
1F
100
AcDbEntity
  8
1
  6
CONTINUOUS
 62
     7
100
AcDbLine
 10
106.4
 20
45.92730241410169
 30
0.0
 11
104.5069416553772
 21
45.92730241410169
 31
0.0
  0
LINE
  5
139
330
1F
100
AcDbEntity
  8
1
  6
CONTINUOUS
 62
     7
100
AcDbLine
 10
105.8032755000653
 20
33.27340056981615
 30
0.0
 11
105.2518945027263
 21
33.27340056981615
 31
0.0
  0
LINE
  5
13A
330
1F
100
AcDbEntity
  8
1
  6
CONTINUOUS
 62
     7
100
AcDbLine
 10
106.4
 20
58.8175744420716
 30
0.0
 11
106.4
 21
45.92730241410169
 31
0.0
  0
LINE
  5
13B
330
1F
100
AcDbEntity
  8
1
  6
CONTINUOUS
 62
     7
100
AcDbLine
 10
104.5069416553772
 20
58.8175744420716
 30
0.0
 11
104.5069416553772
 21
45.92730241410169
 31
0.0
  0
LINE
  5
13C
330
1F
100
AcDbEntity
  8
1
  6
CONTINUOUS
 62
     7
100
AcDbLine
 10
92.47531575045439
 20
48.07340056981615
 30
0.0
 11
86.64843556936957
 21
48.07340056981615
 31
0.0
  0
LINE
  5
13D
330
1F
100
AcDbEntity
  8
1
  6
CONTINUOUS
 62
     7
100
AcDbLine
 10
104.5069416553772
 20
58.8175744420716
 30
0.0
 11
106.4
 21
58.8175744420716
 31
0.0
  0
LINE
  5
13E
330
1F
100
AcDbEntity
  8
1
  6
CONTINUOUS
 62
     7
100
AcDbLine
 10
86.64843556936957
 20
48.07340056981615
 30
0.0
 11
86.64843556936957
 21
48.57340056981616
 31
0.0
  0
LINE
  5
13F
330
1F
100
AcDbEntity
  8
1
  6
CONTINUOUS
 62
     7
100
AcDbLine
 10
83.35156443063046
 20
48.07340056981615
 30
0.0
 11
83.35156443063046
 21
48.57340056981616
 31
0.0
  0
LINE
  5
140
330
1F
100
AcDbEntity
  8
1
  6
CONTINUOUS
 62
     7
100
AcDbLine
 10
64.74810549727377
 20
43.27340056981615
 30
0.0
 11
75.50000000000003
 21
43.27340056981615
 31
0.0
  0
LINE
  5
141
330
1F
100
AcDbEntity
  8
1
  6
CONTINUOUS
 62
     7
100
AcDbLine
 10
64.74810549727377
 20
43.27340056981615
 30
0.0
 11
64.74810549727377
 21
33.27340056981615
 31
0.0
  0
ELLIPSE
  5
142
330
1F
100
AcDbEntity
  8
1
  6
CONTINUOUS
 62
     7
100
AcDbEllipse
 10
103.6
 20
73.23636150044837
 30
0.0
 11
0.0
 21
-2.121966862920335
 31
0.0
210
0.0
220
0.0
230
-1.0
 40
0.7069990525836459
 41
4.694933028968785
 42
7.871437585390384
  0
LINE
  5
143
330
1F
100
AcDbEntity
  8
1
  6
CONTINUOUS
 62
     7
100
AcDbLine
 10
83.35156443063046
 20
48.07340056981615
 30
0.0
 11
77.52468424954563
 21
48.07340056981615
 31
0.0
  0
LINE
  5
144
330
1F
100
AcDbEntity
  8
1
  6
CONTINUOUS
 62
     7
100
AcDbLine
 10
93.50000000000001
 20
44.27340056981615
 30
0.0
 11
93.50000000000001
 21
47.35362230000329
 31
0.0
  0
LINE
  5
145
330
1F
100
AcDbEntity
  8
1
  6
CONTINUOUS
 62
     7
100
AcDbLine
 10
85.00000000000001
 20
50.0724386754928
 30
0.0
 11
84.42320508075692
 21
49.07340056981616
 31
0.0
  0
LINE
  5
146
330
1F
100
AcDbEntity
  8
1
  6
CONTINUOUS
 62
     7
100
AcDbLine
 10
77.00000000000001
 20
48.07340056981614
 30
0.0
 11
77.52468424954563
 21
48.07340056981615
 31
0.0
  0
LINE
  5
147
330
1F
100
AcDbEntity
  8
1
  6
CONTINUOUS
 62
     7
100
AcDbLine
 10
76.50000000000001
 20
44.27340056981615
 30
0.0
 11
76.50000000000001
 21
47.35362230000329
 31
0.0
  0
LINE
  5
148
330
1F
100
AcDbEntity
  8
1
  6
CONTINUOUS
 62
     7
100
AcDbLine
 10
128.2734005698162
 20
103.1284650616894
 30
0.0
 11
128.2734005698162
 21
85.27340056981616
 31
0.0
  0
LINE
  5
149
330
1F
100
AcDbEntity
  8
1
  6
CONTINUOUS
 62
     7
100
AcDbLine
 10
198.1284650616895
 20
33.27340056981614
 30
0.0
 11
180.2734005698162
 21
33.27340056981615
 31
0.0
  0
LINE
  5
14A
330
1F
100
AcDbEntity
  8
1
  6
CONTINUOUS
 62
     7
100
AcDbLine
 10
184.3098944314112
 20
67.83961573244541
 30
0.0
 11
184.3098944314113
 21
56.70718540718686
 31
0.0
  0
ELLIPSE
  5
14B
330
1F
100
AcDbEntity
  8
1
  6
CONTINUOUS
 62
     7
100
AcDbEllipse
 10
130.0010383338023
 20
104.2858944876301
 30
0.0
 11
1.11995059017505
 21
0.9922876187192099
 31
0.0
210
0.0
220
0.0
230
-1.0
 40
0.5301489052840438
 41
3.580721985253652
 42
3.591110259726291
  0
LINE
  5
14C
330
1F
100
AcDbEntity
  8
1
  6
CONTINUOUS
 62
     7
100
AcDbLine
 10
200.8763039482708
 20
38.35004939086195
 30
0.0
 11
200.0537889563024
 21
38.35107267711508
 31
0.0
  0
LINE
  5
14D
330
1F
100
AcDbEntity
  8
1
  6
CONTINUOUS
 62
     7
100
AcDbLine
 10
180.2734005698162
 20
33.27340056981615
 30
0.0
 11
180.2734005698162
 21
33.76369090766161
 31
0.0
  0
LINE
  5
14E
330
1F
100
AcDbEntity
  8
1
  6
CONTINUOUS
 62
     7
100
AcDbLine
 10
128.2734005698162
 20
104.3751527384705
 30
0.0
 11
128.2734005698162
 21
103.6243402936151
 31
0.0
  0
LINE
  5
14F
330
1F
100
AcDbEntity
  8
1
  6
CONTINUOUS
 62
     7
100
AcDbLine
 10
199.3751527384705
 20
33.27340056981614
 30
0.0
 11
198.6243402936152
 21
33.27340056981614
 31
0.0
  0
LINE
  5
150
330
1F
100
AcDbEntity
  8
1
  6
CONTINUOUS
 62
     7
100
AcDbLine
 10
191.622734362975
 20
96.02321401494417
 30
0.0
 11
191.3420158357794
 21
96.34201583577934
 31
0.0
  0
ARC
  5
151
330
1F
100
AcDbEntity
  8
1
  6
CONTINUOUS
 62
     7
100
AcDbCircle
 10
178.5044755604317
 20
97.97340056981622
 30
0.0
 40
7.999999999999922
100
AcDbArc
 50
44.99999999999991
 51
90.0000000000002
  0
LINE
  5
152
330
1F
100
AcDbEntity
  8
1
  6
CONTINUOUS
 62
     7
100
AcDbLine
 10
153.8030102349496
 20
105.9734005698161
 30
0.0
 11
133.2781015809698
 21
105.9734005698162
 31
0.0
  0
LINE
  5
153
330
1F
100
AcDbEntity
  8
1
  6
CONTINUOUS
 62
     7
100
AcDbLine
 10
185.31901789681
 20
67.69545523738846
 30
0.0
 11
186.2734005698162
 21
67.55911485553041
 31
0.0
  0
LINE
  5
154
330
1F
100
AcDbEntity
  8
1
  6
CONTINUOUS
 62
     7
100
AcDbLine
 10
128.2734005698162
 20
85.27340056981616
 30
0.0
 11
128.7636909076617
 21
85.27340056981615
 31
0.0
  0
LINE
  5
155
330
1F
100
AcDbEntity
  8
1
  6
CONTINUOUS
 62
     7
100
AcDbLine
 10
128.7601042440085
 20
104.1323145185311
 30
0.0
 11
128.7601042440085
 21
104.9688357797178
 31
0.0
  0
LINE
  5
156
330
1F
100
AcDbEntity
  8
1
  6
CONTINUOUS
 62
     7
100
AcDbLine
 10
200.9734005698162
 20
58.80301023494967
 30
0.0
 11
200.8772851206346
 21
58.81505243563007
 31
0.0
  0
LINE
  5
157
330
1F
100
AcDbEntity
  8
1
  6
CONTINUOUS
 62
     7
100
AcDbLine
 10
186.2734005698162
 20
56.98768628410185
 30
0.0
 11
186.2734005698162
 21
67.55911485553041
 31
0.0
  0
LINE
  5
158
330
1F
100
AcDbEntity
  8
1
  6
CONTINUOUS
 62
     7
100
AcDbLine
 10
198.6243402936152
 20
33.27340056981614
 30
0.0
 11
198.1284650616895
 21
33.27340056981613
 31
0.0
  0
LINE
  5
159
330
1F
100
AcDbEntity
  8
1
  6
CONTINUOUS
 62
     7
100
AcDbLine
 10
200.9734005698162
 20
58.80301023494957
 30
0.0
 11
200.9734005698162
 21
38.27810158096976
 31
0.0
  0
LINE
  5
15A
330
1F
100
AcDbEntity
  8
1
  6
CONTINUOUS
 62
     7
100
AcDbLine
 10
200.9734005698162
 20
38.27810158096976
 30
0.0
 11
200.8908170177999
 21
38.3475641701791
 31
0.0
  0
ARC
  5
15B
330
1F
100
AcDbEntity
  8
1
  6
CONTINUOUS
 62
     7
100
AcDbCircle
 10
-186.2734005698162
 20
65.538809766426
 30
0.0
 40
2.000000000000001
210
0.0
220
0.0
230
-1.0
100
AcDbArc
 50
98.13010235415584
 51
120.0000000000001
  0
LINE
  5
15C
330
1F
100
AcDbEntity
  8
1
  6
CONTINUOUS
 62
     7
100
AcDbLine
 10
186.5562432822908
 20
57.02809238588394
 30
0.0
 11
186.3281413622088
 21
56.99550639730078
 31
0.0
  0
LINE
  5
15D
330
1F
100
AcDbEntity
  8
1
  6
CONTINUOUS
 62
     7
100
AcDbLine
 10
185.31901789681
 20
67.69545523738846
 30
0.0
 11
185.3190178968101
 21
56.85134590224382
 31
0.0
  0
LINE
  5
15E
330
1F
100
AcDbEntity
  8
1
  6
CONTINUOUS
 62
     7
100
AcDbLine
 10
182.2734005698162
 20
66.27340056981613
 30
0.0
 11
181.2825240352149
 21
66.27340056981613
 31
0.0
  0
ELLIPSE
  5
15F
330
1F
100
AcDbEntity
  8
1
  6
CONTINUOUS
 62
     7
100
AcDbEllipse
 10
141.3029259463025
 20
107.7483491326546
 30
0.0
 11
-12.53830330770649
 21
-2.820691815886272
 31
0.0
210
0.0
220
0.0
230
-1.0
 40
0.1193465709282272
 41
0.0268424707872824
 42
0.0296983123516448
  0
ELLIPSE
  5
160
330
1F
100
AcDbEntity
  8
1
  6
CONTINUOUS
 62
     7
100
AcDbEllipse
 10
195.9734005698162
 20
17.53219490101784
 30
0.0
 11
4.912906150488912
 21
20.81669951024444
 31
0.0
210
0.0
220
0.0
230
1.0
 40
0.0446357017871694
 41
6.27826721749281
 42
6.293660696675208
  0
LINE
  5
161
330
1F
100
AcDbEntity
  8
1
  6
CONTINUOUS
 62
     7
100
AcDbLine
 10
183.3007709660125
 20
67.98377622750239
 30
0.0
 11
184.2734005698162
 21
67.8448291412447
 31
0.0
  0
LINE
  5
162
330
1F
100
AcDbEntity
  8
1
  6
CONTINUOUS
 62
     7
100
AcDbLine
 10
161.2734005698162
 20
87.27340056981616
 30
0.0
 11
161.2734005698162
 21
86.28252403521486
 31
0.0
  0
ARC
  5
163
330
1F
100
AcDbEntity
  8
1
  6
CONTINUOUS
 62
     7
100
AcDbCircle
 10
-192.9734005698161
 20
83.50447556043162
 30
0.0
 40
8.000000000000059
210
0.0
220
0.0
230
-1.0
100
AcDbArc
 50
135.0000000000008
 51
180.0000000000001
  0
LINE
  5
164
330
1F
100
AcDbEntity
  8
1
  6
CONTINUOUS
 62
     7
100
AcDbLine
 10
133.2781015809698
 20
105.9734005698162
 30
0.0
 11
133.3475641701792
 21
105.8908170177999
 31
0.0
  0
LINE
  5
165
330
1F
100
AcDbEntity
  8
1
  6
CONTINUOUS
 62
     7
100
AcDbLine
 10
191.0232140149442
 20
96.62273436297494
 30
0.0
 11
191.3420158357794
 21
96.34201583577934
 31
0.0
  0
LINE
  5
166
330
1F
100
AcDbEntity
  8
1
  6
CONTINUOUS
 62
     7
100
AcDbLine
 10
183.3007709660125
 20
67.98377622750239
 30
0.0
 11
183.3007709660125
 21
56.56302491212989
 31
0.0
  0
LINE
  5
167
330
1F
100
AcDbEntity
  8
1
  6
CONTINUOUS
 62
     7
100
AcDbLine
 10
184.3098944314112
 20
67.83961573244541
 30
0.0
 11
185.2734005698162
 21
67.70197199838756
 31
0.0
  0
LINE
  5
168
330
1F
100
AcDbEntity
  8
1
  6
CONTINUOUS
 62
     7
100
AcDbLine
 10
184.2734005698162
 20
56.70197199838756
 30
0.0
 11
184.2734005698162
 21
67.8448291412447
 31
0.0
  0
LINE
  5
169
330
1F
100
AcDbEntity
  8
1
  6
CONTINUOUS
 62
     7
100
AcDbLine
 10
183.2734005698162
 20
56.55911485553042
 30
0.0
 11
182.2916475006137
 21
56.41886441707293
 31
0.0
  0
LINE
  5
16A
330
1F
100
AcDbEntity
  8
1
  6
CONTINUOUS
 62
     7
100
AcDbLine
 10
153.2734005698162
 20
86.2825240352149
 30
0.0
 11
153.2734005698162
 21
87.27340056981615
 31
0.0
  0
LINE
  5
16B
330
1F
100
AcDbEntity
  8
1
  6
CONTINUOUS
 62
     7
100
AcDbLine
 10
128.7636909076617
 20
85.27340056981615
 30
0.0
 11
128.7636909076616
 21
103.6401826992523
 31
0.0
  0
LINE
  5
16C
330
1F
100
AcDbEntity
  8
1
  6
CONTINUOUS
 62
     7
100
AcDbLine
 10
128.7636909076617
 20
85.27340056981615
 30
0.0
 11
133.2734005698162
 21
85.27340056981615
 31
0.0
  0
LINE
  5
16D
330
1F
100
AcDbEntity
  8
1
  6
CONTINUOUS
 62
     7
100
AcDbLine
 10
180.2734005698162
 20
38.27340056981615
 30
0.0
 11
199.5521112087234
 21
38.27340056981615
 31
0.0
  0
ELLIPSE
  5
16E
330
1F
100
AcDbEntity
  8
1
  6
CONTINUOUS
 62
     7
100
AcDbEllipse
 10
112.5321949010179
 20
100.9734005698161
 30
0.0
 11
20.81669951024444
 21
4.912906150488905
 31
0.0
210
0.0
220
0.0
230
-1.0
 40
0.0446357017871695
 41
6.27826721749281
 42
6.293660696675208
  0
LINE
  5
16F
330
1F
100
AcDbEntity
  8
1
  6
CONTINUOUS
 62
     7
100
AcDbLine
 10
186.3281413622087
 20
67.55129474233148
 30
0.0
 11
186.3281413622088
 21
56.99550639730078
 31
0.0
  0
LINE
  5
170
330
1F
100
AcDbEntity
  8
1
  6
CONTINUOUS
 62
     7
100
AcDbLine
 10
181.282524035215
 20
58.27340056981613
 30
0.0
 11
182.2734005698162
 21
58.27340056981613
 31
0.0
  0
LINE
  5
171
330
1F
100
AcDbEntity
  8
1
  6
CONTINUOUS
 62
     7
100
AcDbLine
 10
185.2734005698162
 20
56.84482914124471
 30
0.0
 11
184.3098944314113
 21
56.70718540718686
 31
0.0
  0
LINE
  5
172
330
1F
100
AcDbEntity
  8
1
  6
CONTINUOUS
 62
     7
100
AcDbLine
 10
184.2734005698162
 20
56.70197199838756
 30
0.0
 11
183.3007709660125
 21
56.56302491212989
 31
0.0
  0
LINE
  5
173
330
1F
100
AcDbEntity
  8
1
  6
CONTINUOUS
 62
     7
100
AcDbLine
 10
133.350049390862
 20
105.8763039482708
 30
0.0
 11
133.3510726771152
 21
105.0537889563023
 31
0.0
  0
ELLIPSE
  5
174
330
1F
100
AcDbEntity
  8
1
  6
CONTINUOUS
 62
     7
100
AcDbEllipse
 10
199.2858944876301
 20
35.00103833380224
 30
0.0
 11
0.9922876187192099
 21
1.119950590175049
 31
0.0
210
0.0
220
0.0
230
1.0
 40
0.5301489052840435
 41
3.580721985253653
 42
3.591110259726292
  0
LINE
  5
175
330
1F
100
AcDbEntity
  8
1
  6
CONTINUOUS
 62
     7
100
AcDbLine
 10
182.2916475006137
 20
68.12793672255935
 30
0.0
 11
182.2916475006137
 21
56.41886441707293
 31
0.0
  0
LINE
  5
176
330
1F
100
AcDbEntity
  8
1
  6
CONTINUOUS
 62
     7
100
AcDbLine
 10
180.2734005698162
 20
33.76369090766161
 30
0.0
 11
198.6401826992523
 21
33.7636909076616
 31
0.0
  0
LINE
  5
177
330
1F
100
AcDbEntity
  8
1
  6
CONTINUOUS
 62
     7
100
AcDbLine
 10
199.1300203284245
 20
33.76020261513891
 30
0.0
 11
199.1323145185312
 21
33.76010424400847
 31
0.0
  0
LINE
  5
178
330
1F
100
AcDbEntity
  8
1
  6
CONTINUOUS
 62
     7
100
AcDbLine
 10
182.2916475006137
 20
68.12793672255935
 30
0.0
 11
183.2734005698162
 21
67.98768628410184
 31
0.0
  0
LINE
  5
179
330
1F
100
AcDbEntity
  8
1
  6
CONTINUOUS
 62
     7
100
AcDbLine
 10
128.760202615139
 20
104.1300203284245
 30
0.0
 11
128.7601042440085
 21
104.1323145185311
 31
0.0
  0
LINE
  5
17A
330
1F
100
AcDbEntity
  8
1
  6
CONTINUOUS
 62
     7
100
AcDbLine
 10
199.1323145185312
 20
33.76010424400847
 30
0.0
 11
199.9688357797178
 21
33.76010424400847
 31
0.0
  0
LINE
  5
17B
330
1F
100
AcDbEntity
  8
1
  6
CONTINUOUS
 62
     7
100
AcDbLine
 10
185.2734005698162
 20
56.84482914124471
 30
0.0
 11
185.2734005698162
 21
67.70197199838756
 31
0.0
  0
LINE
  5
17C
330
1F
100
AcDbEntity
  8
1
  6
CONTINUOUS
 62
     7
100
AcDbLine
 10
186.2734005698162
 20
56.98768628410185
 30
0.0
 11
185.3190178968101
 21
56.85134590224382
 31
0.0
  0
ELLIPSE
  5
17D
330
1F
100
AcDbEntity
  8
1
  6
CONTINUOUS
 62
     7
100
AcDbEllipse
 10
202.7483491326546
 20
46.30292594630239
 30
0.0
 11
-2.820691815886275
 21
-12.53830330770648
 31
0.0
210
0.0
220
0.0
230
1.0
 40
0.119346570928227
 41
0.0268424707872824
 42
0.0296983123516448
  0
ARC
  5
17E
330
1F
100
AcDbEntity
  8
1
  6
CONTINUOUS
 62
     7
100
AcDbCircle
 10
-186.2734005698162
 20
59.00799137320627
 30
0.0
 40
2.0
210
0.0
220
0.0
230
-1.0
100
AcDbArc
 50
239.9999999999999
 51
261.8698976458442
  0
ARC
  5
17F
330
1F
100
AcDbEntity
  8
1
  6
CONTINUOUS
 62
     7
100
AcDbCircle
 10
-175.2734005698162
 20
76.17289550642782
 30
0.0
 40
5.0
210
0.0
220
0.0
230
-1.0
100
AcDbArc
 50
159.470662005267
 51
179.9999999999998
  0
LINE
  5
180
330
1F
100
AcDbEntity
  8
1
  6
CONTINUOUS
 62
     7
100
AcDbLine
 10
180.2734005698162
 20
33.76369090766161
 30
0.0
 11
180.2734005698162
 21
38.27340056981615
 31
0.0
  0
LINE
  5
181
330
1F
100
AcDbEntity
  8
1
  6
CONTINUOUS
 62
     7
100
AcDbLine
 10
186.3281413622087
 20
67.55129474233148
 30
0.0
 11
186.5562432822908
 21
67.51870875374833
 31
0.0
  0
LINE
  5
182
330
1F
100
AcDbEntity
  8
1
  6
CONTINUOUS
 62
     7
100
AcDbLine
 10
183.2734005698162
 20
56.55911485553042
 30
0.0
 11
183.2734005698162
 21
67.98768628410184
 31
0.0
  0
LINE
  5
183
330
1F
100
AcDbEntity
  8
1
  6
CONTINUOUS
 62
     7
100
AcDbLine
 10
191.1199392363156
 20
96.11993923631555
 30
0.0
 11
190.6886855334298
 21
96.72524754969955
 31
0.0
  0
LINE
  5
184
330
1F
100
AcDbEntity
  8
1
  6
CONTINUOUS
 62
     7
100
AcDbLine
 10
191.1199392363156
 20
96.11993923631555
 30
0.0
 11
191.7252475496996
 21
95.6886855334297
 31
0.0
  0
LINE
  5
185
330
1F
100
AcDbEntity
  8
1
  6
CONTINUOUS
 62
     7
100
AcDbLine
 10
133.2734005698162
 20
85.27340056981615
 30
0.0
 11
133.2734005698162
 21
104.5521112087233
 31
0.0
  0
LINE
  5
186
330
1F
100
AcDbEntity
  8
1
  6
CONTINUOUS
 62
     7
100
AcDbLine
 10
128.2734005698162
 20
103.6243402936151
 30
0.0
 11
128.2734005698162
 21
103.1284650616894
 31
0.0
  0
LINE
  5
187
330
1F
100
AcDbEntity
  8
1
  6
CONTINUOUS
 62
     7
100
AcDbLine
 10
62.39216036244137
 20
164.9558642931336
 30
0.0
 11
62.40000000000001
 21
165.2734005698161
 31
0.0
  0
LINE
  5
188
330
1F
100
AcDbEntity
  8
1
  6
CONTINUOUS
 62
     7
100
AcDbLine
 10
128.760155392541
 20
104.9733352622723
 30
0.0
 11
128.7636853320853
 21
105.0714518362755
 31
0.0
  0
LINE
  5
189
330
1F
100
AcDbEntity
  8
1
  6
CONTINUOUS
 62
     7
100
AcDbLine
 10
128.2734005698162
 20
104.4734005698162
 30
0.0
 11
128.2734005698162
 21
104.3751527384705
 31
0.0
  0
LINE
  5
18A
330
1F
100
AcDbEntity
  8
1
  6
CONTINUOUS
 62
     7
100
AcDbLine
 10
200.9734005698162
 20
38.27340056981612
 30
0.0
 11
200.0714586373853
 21
33.7636909076616
 31
0.0
  0
LINE
  5
18B
330
1F
100
AcDbEntity
  8
1
  6
CONTINUOUS
 62
     7
100
AcDbLine
 10
199.9733352622723
 20
33.76015539254099
 30
0.0
 11
200.0714518362755
 21
33.76368533208527
 31
0.0
  0
LINE
  5
18C
330
1F
100
AcDbEntity
  8
1
  6
CONTINUOUS
 62
     7
100
AcDbLine
 10
191.3957923146163
 20
96.39579231461626
 30
0.0
 11
198.6302548193086
 21
89.16132980992397
 31
0.0
  0
LINE
  5
18D
330
1F
100
AcDbEntity
  8
1
  6
CONTINUOUS
 62
     7
100
AcDbLine
 10
191.3957923146163
 20
96.39579231461624
 30
0.0
 11
184.161329809924
 21
103.6302548193085
 31
0.0
  0
LINE
  5
18E
330
1F
100
AcDbEntity
  8
1
  6
CONTINUOUS
 62
     7
100
AcDbLine
 10
199.4734005698162
 20
33.27340056981614
 30
0.0
 11
199.3751527384705
 21
33.27340056981614
 31
0.0
  0
LINE
  5
18F
330
1F
100
AcDbEntity
  8
1
  6
CONTINUOUS
 62
     7
100
AcDbLine
 10
133.2781015809698
 20
105.9734005698162
 30
0.0
 11
133.2734005698162
 21
105.9734005698162
 31
0.0
  0
LINE
  5
190
330
1F
100
AcDbEntity
  8
1
  6
CONTINUOUS
 62
     7
100
AcDbLine
 10
128.7636853320853
 20
105.0714518362755
 30
0.0
 11
128.2734005698162
 21
104.4734005698162
 31
0.0
  0
LINE
  5
191
330
1F
100
AcDbEntity
  8
1
  6
CONTINUOUS
 62
     7
100
AcDbLine
 10
200.0714518362755
 20
33.76368533208527
 30
0.0
 11
199.4734005698162
 21
33.27340056981613
 31
0.0
  0
LINE
  5
192
330
1F
100
AcDbEntity
  8
1
  6
CENTER
 62
     1
100
AcDbLine
 10
85.00000000000001
 20
110.2734005698162
 30
0.0
 11
85.00000000000001
 21
188.9734005698162
 31
0.0
  0
LINE
  5
194
330
1F
100
AcDbEntity
  8
1
  6
CONTINUOUS
 62
     7
100
AcDbLine
 10
200.9734005698162
 20
83.5044755604316
 30
0.0
 11
200.9734005698162
 21
58.80301023494957
 31
0.0
  0
LINE
  5
195
330
1F
100
AcDbEntity
  8
1
  6
CONTINUOUS
 62
     7
100
AcDbLine
 10
178.5044755604317
 20
105.9734005698161
 30
0.0
 11
153.8030102349496
 21
105.9734005698161
 31
0.0
  0
LINE
  5
196
330
1F
100
AcDbEntity
  8
1
  6
CONTINUOUS
 62
     7
100
AcDbLine
 10
133.2734005698162
 20
105.9734005698162
 30
0.0
 11
128.7636909076616
 21
105.0714586373853
 31
0.0
  0
LINE
  5
197
330
1F
100
AcDbEntity
  8
1
  6
CONTINUOUS
 62
     7
100
AcDbLine
 10
200.9734005698162
 20
38.27810158096973
 30
0.0
 11
200.9734005698162
 21
38.2734005698161
 31
0.0
  0
LINE
  5
198
330
1F
100
AcDbEntity
  8
1
  6
CONTINUOUS
 62
     7
100
AcDbLine
 10
67.89688812856403
 20
185.9734005698162
 30
0.0
 11
102.1031118714366
 21
185.9734005698162
 31
0.0
  0
LINE
  5
199
330
1F
100
AcDbEntity
  8
1
  6
CENTER
 62
     1
100
AcDbLine
 10
85.00000000000001
 20
30.27340056981614
 30
0.0
 11
85.00000000000001
 21
108.9734005698162
 31
0.0
  0
LINE
  5
19A
330
1F
100
AcDbEntity
  8
1
  6
CONTINUOUS
 62
     7
100
AcDbLine
 10
107.6078396375587
 20
164.9558642931331
 30
0.0
 11
107.6
 21
165.2734005698161
 31
0.0
  0
LINE
  5
19B
330
1F
100
AcDbEntity
  8
1
  6
CONTINUOUS
 62
     7
100
AcDbLine
 10
180.2734005698128
 20
66.27340056981613
 30
0.0
 11
180.2734005698162
 21
76.17289550642782
 31
0.0
  0
LINE
  5
19C
330
1F
100
AcDbEntity
  8
1
  6
CONTINUOUS
 62
     7
100
AcDbLine
 10
162.9837762275025
 20
88.3007709660124
 30
0.0
 11
151.56302491213
 21
88.30077096601248
 31
0.0
  0
LINE
  5
19D
330
1F
100
AcDbEntity
  8
1
  6
CONTINUOUS
 62
     7
100
AcDbLine
 10
151.8448291412448
 20
90.27340056981618
 30
0.0
 11
162.7019719983876
 21
90.27340056981618
 31
0.0
  0
ARC
  5
19E
330
1F
100
AcDbEntity
  8
1
  6
CONTINUOUS
 62
     7
100
AcDbCircle
 10
171.1728955064279
 20
80.27340056981615
 30
0.0
 40
5.0
100
AcDbArc
 50
44.99999999999989
 51
69.47066200526704
  0
LINE
  5
19F
330
1F
100
AcDbEntity
  8
1
  6
CONTINUOUS
 62
     7
100
AcDbLine
 10
188.2734005698162
 20
59.00799137320627
 30
0.0
 11
188.2734005698162
 21
65.538809766426
 31
0.0
  0
LINE
  5
1A0
330
1F
100
AcDbEntity
  8
1
  6
CONTINUOUS
 62
     7
100
AcDbLine
 10
162.9837762275025
 20
88.3007709660124
 30
0.0
 11
162.8448291412448
 21
89.27340056981615
 31
0.0
  0
LINE
  5
1A1
330
1F
100
AcDbEntity
  8
1
  6
CONTINUOUS
 62
     7
100
AcDbLine
 10
187.2734005698162
 20
57.2759405656374
 30
0.0
 11
187.2734005698162
 21
67.27086057399488
 31
0.0
  0
LINE
  5
1A2
330
1F
100
AcDbEntity
  8
1
  6
CONTINUOUS
 62
     7
100
AcDbLine
 10
162.8396157324455
 20
89.30989443141115
 30
0.0
 11
151.7071854071869
 21
89.30989443141122
 31
0.0
  0
LINE
  5
1A3
330
1F
100
AcDbEntity
  8
1
  6
CONTINUOUS
 62
     7
100
AcDbLine
 10
151.7019719983876
 20
89.27340056981616
 30
0.0
 11
162.8448291412448
 21
89.27340056981615
 31
0.0
  0
LINE
  5
1A4
330
1F
100
AcDbEntity
  8
1
  6
CONTINUOUS
 62
     7
100
AcDbLine
 10
151.5591148555305
 20
88.27340056981616
 30
0.0
 11
151.418864417073
 21
87.29164750061369
 31
0.0
  0
LINE
  5
1A5
330
1F
100
AcDbEntity
  8
1
  6
CONTINUOUS
 62
     7
100
AcDbLine
 10
178.8089344757489
 20
79.70842941236056
 30
0.0
 11
174.7084294123606
 21
83.80893447574888
 31
0.0
  0
LINE
  5
1A6
330
1F
100
AcDbEntity
  8
1
  6
CONTINUOUS
 62
     7
100
AcDbLine
 10
180.2734005698128
 20
66.27340056981613
 30
0.0
 11
181.2825240352149
 21
66.27340056981613
 31
0.0
  0
ARC
  5
1A7
330
1F
100
AcDbEntity
  8
1
  6
CONTINUOUS
 62
     7
100
AcDbCircle
 10
-186.2734005698162
 20
65.538809766426
 30
0.0
 40
2.000000000000001
210
0.0
220
0.0
230
-1.0
100
AcDbArc
 50
122.1360941798454
 51
180.0
  0
LINE
  5
1A8
330
1F
100
AcDbEntity
  8
1
  6
CONTINUOUS
 62
     7
100
AcDbLine
 10
181.282524035215
 20
58.27340056981613
 30
0.0
 11
180.2734005698162
 21
58.27340056981613
 31
0.0
  0
LINE
  5
1A9
330
1F
100
AcDbEntity
  8
1
  6
CONTINUOUS
 62
     7
100
AcDbLine
 10
187.3372648276075
 20
67.23238375093159
 30
0.0
 11
187.3372648276076
 21
57.3144173887007
 31
0.0
  0
LINE
  5
1AA
330
1F
100
AcDbEntity
  8
1
  6
CONTINUOUS
 62
     7
100
AcDbLine
 10
151.5591148555305
 20
88.27340056981616
 30
0.0
 11
162.9876862841019
 21
88.27340056981615
 31
0.0
  0
LINE
  5
1AB
330
1F
100
AcDbEntity
  8
1
  6
CONTINUOUS
 62
     7
100
AcDbLine
 10
162.8396157324455
 20
89.30989443141115
 30
0.0
 11
162.7019719983876
 21
90.27340056981618
 31
0.0
  0
LINE
  5
1AC
330
1F
100
AcDbEntity
  8
1
  6
CONTINUOUS
 62
     7
100
AcDbLine
 10
182.2734005698162
 20
56.41625771267328
 30
0.0
 11
182.2734005698162
 21
68.130543426959
 31
0.0
  0
ARC
  5
1AD
330
1F
100
AcDbEntity
  8
1
  6
CONTINUOUS
 62
     7
100
AcDbCircle
 10
-186.2734005698162
 20
59.00799137320627
 30
0.0
 40
2.0
210
0.0
220
0.0
230
-1.0
100
AcDbArc
 50
180.0
 51
237.8639058201529
  0
LINE
  5
1AE
330
1F
100
AcDbEntity
  8
1
  6
CONTINUOUS
 62
     7
100
AcDbLine
 10
151.9876862841019
 20
91.27340056981618
 30
0.0
 11
162.5591148555305
 21
91.27340056981618
 31
0.0
  0
LINE
  5
1AF
330
1F
100
AcDbEntity
  8
1
  6
CONTINUOUS
 62
     7
100
AcDbLine
 10
151.7019719983876
 20
89.27340056981616
 30
0.0
 11
151.56302491213
 21
88.30077096601248
 31
0.0
  0
LINE
  5
1B0
330
1F
100
AcDbEntity
  8
1
  6
CONTINUOUS
 62
     7
100
AcDbLine
 10
163.1279367225594
 20
87.2916475006136
 30
0.0
 11
151.418864417073
 21
87.29164750061369
 31
0.0
  0
ARC
  5
1B1
330
1F
100
AcDbEntity
  8
1
  6
CONTINUOUS
 62
     7
100
AcDbCircle
 10
-175.2734005698162
 20
76.17289550642782
 30
0.0
 40
5.0
210
0.0
220
0.0
230
-1.0
100
AcDbArc
 50
135.0
 51
159.470662005267
  0
LINE
  5
1B2
330
1F
100
AcDbEntity
  8
1
  6
CONTINUOUS
 62
     7
100
AcDbLine
 10
180.2734005698162
 20
38.27340056981615
 30
0.0
 11
180.2734005698162
 21
58.27340056981613
 31
0.0
  0
LINE
  5
1B3
330
1F
100
AcDbEntity
  8
1
  6
CONTINUOUS
 62
     7
100
AcDbLine
 10
151.8448291412448
 20
90.27340056981618
 30
0.0
 11
151.7071854071869
 21
89.30989443141122
 31
0.0
  0
LINE
  5
1B4
330
1F
100
AcDbEntity
  8
1
  6
CONTINUOUS
 62
     7
100
AcDbLine
 10
163.1279367225594
 20
87.2916475006136
 30
0.0
 11
162.9876862841019
 21
88.27340056981615
 31
0.0
  0
LINE
  5
1B5
330
1F
100
AcDbEntity
  8
1
  6
CONTINUOUS
 62
     7
100
AcDbLine
 10
182.2734005698162
 20
56.41625771267328
 30
0.0
 11
181.282524035215
 21
56.27470392201596
 31
0.0
  0
LINE
  5
1B6
330
1F
100
AcDbEntity
  8
1
  6
CONTINUOUS
 62
     7
100
AcDbLine
 10
181.2825240352149
 20
68.27209721761633
 30
0.0
 11
182.2734005698162
 21
68.130543426959
 31
0.0
  0
LINE
  5
1B7
330
1F
100
AcDbEntity
  8
1
  6
CONTINUOUS
 62
     7
100
AcDbLine
 10
181.282524035215
 20
58.27340056981613
 30
0.0
 11
181.282524035215
 21
56.27470392201596
 31
0.0
  0
LINE
  5
1B8
330
1F
100
AcDbEntity
  8
1
  6
CONTINUOUS
 62
     7
100
AcDbLine
 10
162.6954552373885
 20
90.31901789680992
 30
0.0
 11
162.5591148555305
 21
91.27340056981618
 31
0.0
  0
LINE
  5
1B9
330
1F
100
AcDbEntity
  8
1
  6
CONTINUOUS
 62
     7
100
AcDbLine
 10
181.2825240352149
 20
68.27209721761633
 30
0.0
 11
181.2825240352149
 21
66.27340056981613
 31
0.0
  0
LINE
  5
1BA
330
1F
100
AcDbEntity
  8
1
  6
CONTINUOUS
 62
     7
100
AcDbLine
 10
106.6977832226639
 20
33.7636909076616
 30
0.0
 11
106.0995429114192
 21
33.27340056981615
 31
0.0
  0
LINE
  5
1BB
330
1F
100
AcDbEntity
  8
1
  6
CONTINUOUS
 62
     7
100
AcDbLine
 10
86.64843556936957
 20
44.67340056981616
 30
0.0
 11
86.64843556936957
 21
44.9117900794821
 31
0.0
  0
LINE
  5
1BC
330
1F
100
AcDbEntity
  8
1
  6
CONTINUOUS
 62
     7
100
AcDbLine
 10
83.38072640020573
 20
45.88431179812469
 30
0.0
 11
83.35156443063045
 21
44.9117900794821
 31
0.0
  0
LINE
  5
1BD
330
1F
100
AcDbEntity
  8
1
  6
CONTINUOUS
 62
     7
100
AcDbLine
 10
107.6
 20
38.27340056981615
 30
0.0
 11
106.6977832226639
 21
33.7636909076616
 31
0.0
  0
LINE
  5
1BE
330
1F
100
AcDbEntity
  8
1
  6
CONTINUOUS
 62
     7
100
AcDbLine
 10
86.02620210254923
 20
39.72010509913031
 30
0.0
 11
83.9737978974508
 21
39.72010509913031
 31
0.0
  0
LINE
  5
1BF
330
1F
100
AcDbEntity
  8
1
  6
CONTINUOUS
 62
     7
100
AcDbLine
 10
90.4998476777566
 20
35.27340056981612
 30
0.0
 11
85.75000000000001
 21
35.27340056981615
 31
0.0
  0
LINE
  5
1C0
330
1F
100
AcDbEntity
  8
1
  6
CONTINUOUS
 62
     7
100
AcDbLine
 10
63.90045708858079
 20
33.27340056981615
 30
0.0
 11
63.30221677733616
 21
33.76369090766161
 31
0.0
  0
LINE
  5
1C1
330
1F
100
AcDbEntity
  8
1
  6
CONTINUOUS
 62
     7
100
AcDbLine
 10
106.0995429114192
 20
33.27340056981615
 30
0.0
 11
105.8032755000653
 21
33.27340056981615
 31
0.0
  0
ARC
  5
1C2
330
1F
100
AcDbEntity
  8
1
  6
CONTINUOUS
 62
     7
100
AcDbCircle
 10
90.50596488959812
 20
37.27345442616125
 30
0.0
 40
2.000053857070079
100
AcDbArc
 50
270.0015426629321
 51
359.9984571709078
  0
LINE
  5
1C3
330
1F
100
AcDbEntity
  8
1
  6
CONTINUOUS
 62
     7
100
AcDbLine
 10
83.44062577225219
 20
46.88167366253406
 30
0.0
 11
83.43229378094497
 21
46.60381031435045
 31
0.0
  0
LINE
  5
1C4
330
1F
100
AcDbEntity
  8
1
  6
CONTINUOUS
 62
     7
100
AcDbLine
 10
106.0995429114192
 20
85.27340056981618
 30
0.0
 11
105.4
 21
85.27340056981618
 31
0.0
  0
LINE
  5
1C5
330
1F
100
AcDbEntity
  8
1
  6
CONTINUOUS
 62
     7
100
AcDbLine
 10
77.51095654749163
 20
45.18965342766565
 30
0.0
 11
77.51234212477283
 21
44.91179007948205
 31
0.0
  0
LINE
  5
1C6
330
1F
100
AcDbEntity
  8
1
  6
CONTINUOUS
 62
     7
100
AcDbLine
 10
86.58906134162176
 20
48.07340056981615
 30
0.0
 11
86.64843556936957
 21
48.07340056981615
 31
0.0
  0
LINE
  5
1C7
330
1F
100
AcDbEntity
  8
1
  6
CONTINUOUS
 62
     7
100
AcDbLine
 10
105.4
 20
102.6570932254382
 30
0.0
 11
105.4
 21
85.27340056981618
 31
0.0
  0
LINE
  5
1C8
330
1F
100
AcDbEntity
  8
1
  6
CONTINUOUS
 62
     7
100
AcDbLine
 10
77.51095654749163
 20
45.18965342766564
 30
0.0
 11
77.49867845809779
 21
46.21981103802858
 31
0.0
  0
LINE
  5
1C9
330
1F
100
AcDbEntity
  8
1
  6
CONTINUOUS
 62
     7
100
AcDbLine
 10
83.45546932918916
 20
43.27340056981615
 30
0.0
 11
83.46289110765763
 21
43.27340056981615
 31
0.0
  0
LINE
  5
1CA
330
1F
100
AcDbEntity
  8
1
  6
CONTINUOUS
 62
     7
100
AcDbLine
 10
83.41093865837829
 20
48.07340056981615
 30
0.0
 11
83.35156443063046
 21
48.07340056981615
 31
0.0
  0
LINE
  5
1CB
330
1F
100
AcDbEntity
  8
1
  6
CONTINUOUS
 62
     7
100
AcDbLine
 10
79.5001523222434
 20
35.27340056981611
 30
0.0
 11
79.49398125985698
 21
35.27340056981611
 31
0.0
  0
LINE
  5
1CC
330
1F
100
AcDbEntity
  8
1
  6
CONTINUOUS
 62
     7
100
AcDbLine
 10
90.50601874014302
 20
35.2734005698161
 30
0.0
 11
90.4998476777566
 21
35.2734005698161
 31
0.0
  0
LINE
  5
1CD
330
1F
100
AcDbEntity
  8
1
  6
CONTINUOUS
 62
     7
100
AcDbLine
 10
104.9905500329446
 20
103.1488198197328
 30
0.0
 11
102.0488725321065
 21
103.6906665127615
 31
0.0
  0
LINE
  5
1CE
330
1F
100
AcDbEntity
  8
1
  6
CONTINUOUS
 62
     7
100
AcDbLine
 10
67.95112746789356
 20
103.6906665127615
 30
0.0
 11
65.00944996705549
 21
103.1488198197328
 31
0.0
  0
LINE
  5
1CF
330
1F
100
AcDbEntity
  8
1
  6
CONTINUOUS
 62
     7
100
AcDbLine
 10
86.55937422774784
 20
47.67340056981615
 30
0.0
 11
86.58906134162176
 21
48.07340056981615
 31
0.0
  0
ELLIPSE
  5
1D0
330
1F
100
AcDbEntity
  8
1
  6
CONTINUOUS
 62
     7
100
AcDbEllipse
 10
85.9986248212258
 20
40.46734337406262
 30
0.0
 11
-0.04988521583361707
 21
0.7464941892981618
 31
0.0
210
0.0
220
0.0
230
-1.0
 40
0.6683070065062988
 41
1.670458005605893
 42
3.186223276491424
  0
ELLIPSE
  5
1D1
330
1F
100
AcDbEntity
  8
1
  6
CONTINUOUS
 62
     7
100
AcDbEllipse
 10
65.10003808056088
 20
102.6570932254382
 30
0.0
 11
0.500038080560844
 21
0.0
 31
0.0
210
0.0
220
0.0
230
1.0
 40
0.9999238446783877
 41
1.752964637267675
 42
3.141592653589793
  0
LINE
  5
1D2
330
1F
100
AcDbEntity
  8
1
  6
CONTINUOUS
 62
     7
100
AcDbLine
 10
85.75000000000001
 20
35.27340056981615
 30
0.0
 11
85.00000000000001
 21
36.57243867549281
 31
0.0
  0
LINE
  5
1D3
330
1F
100
AcDbEntity
  8
1
  6
CONTINUOUS
 62
     7
100
AcDbLine
 10
86.55937422774784
 20
46.88167366253406
 30
0.0
 11
86.55937422774784
 21
47.67340056981615
 31
0.0
  0
LINE
  5
1D4
330
1F
100
AcDbEntity
  8
1
  6
CONTINUOUS
 62
     7
100
AcDbLine
 10
64.60000000000002
 20
102.6570932254382
 30
0.0
 11
64.60000000000002
 21
85.27340056981618
 31
0.0
  0
LINE
  5
1D5
330
1F
100
AcDbEntity
  8
1
  6
CONTINUOUS
 62
     7
100
AcDbLine
 10
64.60000000000002
 20
85.27340056981618
 30
0.0
 11
63.9004570885808
 21
85.27340056981618
 31
0.0
  0
LINE
  5
1D6
330
1F
100
AcDbEntity
  8
1
  6
CONTINUOUS
 62
     7
100
AcDbLine
 10
86.64843556936957
 20
44.9117900794821
 30
0.0
 11
86.61927359979431
 21
45.88431179812469
 31
0.0
  0
LINE
  5
1D7
330
1F
100
AcDbEntity
  8
1
  6
CONTINUOUS
 62
     7
100
AcDbLine
 10
86.50000000000001
 20
42.77340056981615
 30
0.0
 11
86.50000000000001
 21
40.42624281504844
 31
0.0
  0
LINE
  5
1D8
330
1F
100
AcDbEntity
  8
1
  6
CONTINUOUS
 62
     7
100
AcDbLine
 10
63.30221677733616
 20
33.76369090766161
 30
0.0
 11
62.40000000000001
 21
38.27340056981615
 31
0.0
  0
ARC
  5
1D9
330
1F
100
AcDbEntity
  8
1
  6
CONTINUOUS
 62
     7
100
AcDbCircle
 10
79.49403511040188
 20
37.27345442616125
 30
0.0
 40
2.000053857070076
100
AcDbArc
 50
180.0015428290922
 51
269.9984573370683
  0
LINE
  5
1DA
330
1F
100
AcDbEntity
  8
1
  6
CONTINUOUS
 62
     7
100
AcDbLine
 10
106.1
 20
85.27340056981618
 30
0.0
 11
106.0995429114192
 21
85.27340056981618
 31
0.0
  0
LINE
  5
1DB
330
1F
100
AcDbEntity
  8
1
  6
CONTINUOUS
 62
     7
100
AcDbLine
 10
77.51234212477283
 20
44.67340056981612
 30
0.0
 11
77.51234212477283
 21
44.91179007948205
 31
0.0
  0
ELLIPSE
  5
1DC
330
1F
100
AcDbEntity
  8
1
  6
CONTINUOUS
 62
     7
100
AcDbEllipse
 10
101.1429913970526
 20
98.77340056981618
 30
0.0
 11
5.000380805608481
 21
0.0
 31
0.0
210
0.0
220
0.0
230
1.0
 40
0.9999238446783794
 41
1.38862801632212
 42
1.570796326794883
  0
LINE
  5
1DD
330
1F
100
AcDbEntity
  8
1
  6
CONTINUOUS
 62
     7
100
AcDbLine
 10
101.1429913970526
 20
103.7734005698162
 30
0.0
 11
68.85700860294742
 21
103.7734005698162
 31
0.0
  0
LINE
  5
1DE
330
1F
100
AcDbEntity
  8
1
  6
CONTINUOUS
 62
     7
100
AcDbLine
 10
83.38072640020573
 20
45.88431179812469
 30
0.0
 11
83.43229378094496
 21
46.60381031435045
 31
0.0
  0
LINE
  5
1DF
330
1F
100
AcDbEntity
  8
1
  6
CONTINUOUS
 62
     7
100
AcDbLine
 10
85.00000000000001
 20
36.57243867549281
 30
0.0
 11
84.25000000000001
 21
35.27340056981615
 31
0.0
  0
ELLIPSE
  5
1E0
330
1F
100
AcDbEntity
  8
1
  6
CONTINUOUS
 62
     7
100
AcDbEllipse
 10
104.8999619194392
 20
102.6570932254382
 30
0.0
 11
0.500038080560844
 21
0.0
 31
0.0
210
0.0
220
0.0
230
1.0
 40
0.9999238446783877
 41
0.0
 42
1.388628016322132
  0
LINE
  5
1E1
330
1F
100
AcDbEntity
  8
1
  6
CONTINUOUS
 62
     7
100
AcDbLine
 10
84.25000000000001
 20
35.27340056981615
 30
0.0
 11
79.50015232224341
 21
35.27340056981612
 31
0.0
  0
ELLIPSE
  5
1E2
330
1F
100
AcDbEntity
  8
1
  6
CONTINUOUS
 62
     7
100
AcDbEllipse
 10
68.85700860294742
 20
98.77340056981618
 30
0.0
 11
5.000380805608481
 21
0.0
 31
0.0
210
0.0
220
0.0
230
1.0
 40
0.9999238446783794
 41
1.57079632679491
 42
1.752964637267674
  0
LINE
  5
1E3
330
1F
100
AcDbEntity
  8
1
  6
CONTINUOUS
 62
     7
100
AcDbLine
 10
83.50000000000001
 20
42.77340056981615
 30
0.0
 11
83.50000000000001
 21
40.42624281504843
 31
0.0
  0
LINE
  5
1E4
330
1F
100
AcDbEntity
  8
1
  6
CONTINUOUS
 62
     7
100
AcDbLine
 10
77.49382893761361
 20
47.19233275667118
 30
0.0
 11
77.49867845809779
 21
46.21981103802858
 31
0.0
  0
LINE
  5
1E5
330
1F
100
AcDbEntity
  8
1
  6
CONTINUOUS
 62
     7
100
AcDbLine
 10
86.54453067081089
 20
43.27340056981615
 30
0.0
 11
86.5371088923424
 21
43.27340056981615
 31
0.0
  0
LINE
  5
1E6
330
1F
100
AcDbEntity
  8
1
  6
CONTINUOUS
 62
     7
100
AcDbLine
 10
83.41093865837829
 20
48.07340056981615
 30
0.0
 11
83.44062577225219
 21
47.67340056981615
 31
0.0
  0
LINE
  5
1E7
330
1F
100
AcDbEntity
  8
1
  6
CONTINUOUS
 62
     7
100
AcDbLine
 10
86.56770621905505
 20
46.60381031435045
 30
0.0
 11
86.55937422774784
 21
46.88167366253406
 31
0.0
  0
LINE
  5
1E8
330
1F
100
AcDbEntity
  8
1
  6
CONTINUOUS
 62
     7
100
AcDbLine
 10
83.35156443063046
 20
44.67340056981616
 30
0.0
 11
83.35156443063046
 21
44.9117900794821
 31
0.0
  0
LINE
  5
1E9
330
1F
100
AcDbEntity
  8
1
  6
CONTINUOUS
 62
     7
100
AcDbLine
 10
77.49382893761361
 20
47.19233275667118
 30
0.0
 11
77.49382893761361
 21
47.65918700744305
 31
0.0
  0
LINE
  5
1EA
330
1F
100
AcDbEntity
  8
1
  6
CONTINUOUS
 62
     7
100
AcDbLine
 10
77.49493751070261
 20
48.07340056981614
 30
0.0
 11
77.49382893761361
 21
47.65918700744306
 31
0.0
  0
LINE
  5
1EB
330
1F
100
AcDbEntity
  8
1
  6
CONTINUOUS
 62
     7
100
AcDbLine
 10
86.61927359979431
 20
45.88431179812469
 30
0.0
 11
86.56770621905505
 21
46.60381031435045
 31
0.0
  0
LINE
  5
1EC
330
1F
100
AcDbEntity
  8
1
  6
CONTINUOUS
 62
     7
100
AcDbLine
 10
86.54453067081089
 20
43.27340056981615
 30
0.0
 11
86.64843556936957
 21
44.67340056981616
 31
0.0
  0
LINE
  5
1ED
330
1F
100
AcDbEntity
  8
1
  6
CONTINUOUS
 62
     7
100
AcDbLine
 10
86.50000000000001
 20
42.77340056981615
 30
0.0
 11
86.5371088923424
 21
43.27340056981615
 31
0.0
  0
LINE
  5
1EE
330
1F
100
AcDbEntity
  8
1
  6
CONTINUOUS
 62
     7
100
AcDbLine
 10
83.46289110765763
 20
43.27340056981615
 30
0.0
 11
83.50000000000001
 21
42.77340056981615
 31
0.0
  0
LINE
  5
1EF
330
1F
100
AcDbEntity
  8
1
  6
CONTINUOUS
 62
     7
100
AcDbLine
 10
83.35156443063045
 20
44.67340056981616
 30
0.0
 11
83.45546932918916
 21
43.27340056981615
 31
0.0
  0
LINE
  5
1F0
330
1F
100
AcDbEntity
  8
1
  6
CONTINUOUS
 62
     7
100
AcDbLine
 10
83.44062577225219
 20
46.88167366253406
 30
0.0
 11
83.44062577225219
 21
47.67340056981615
 31
0.0
  0
ELLIPSE
  5
1F1
330
1F
100
AcDbEntity
  8
1
  6
CONTINUOUS
 62
     7
100
AcDbEllipse
 10
84.00137517877424
 20
40.46734337406262
 30
0.0
 11
0.04988521583361709
 21
0.7464941892981608
 31
0.0
210
0.0
220
0.0
230
-1.0
 40
0.6683070065062998
 41
3.096962030688161
 42
4.61272730157369
  0
LINE
  5
1F2
330
1F
100
AcDbEntity
  8
1
  6
CONTINUOUS
 62
     7
100
AcDbLine
 10
64.19672449993469
 20
33.27340056981615
 30
0.0
 11
63.90045708858079
 21
33.27340056981615
 31
0.0
  0
LINE
  5
1F3
330
1F
100
AcDbEntity
  8
1
  6
CONTINUOUS
 62
     7
100
AcDbLine
 10
62.40000000000001
 20
38.27340056981615
 30
0.0
 11
62.40000000000003
 21
58.27340056981615
 31
0.0
  0
LINE
  5
1F4
330
1F
100
AcDbEntity
  8
1
  6
CONTINUOUS
 62
     7
100
AcDbLine
 10
62.40000000000003
 20
66.27340056981615
 30
0.0
 11
62.40000000000002
 21
76.17289550642785
 31
0.0
  0
LINE
  5
1F5
330
1F
100
AcDbEntity
  8
1
  6
CONTINUOUS
 62
     7
100
AcDbLine
 10
107.6
 20
38.27340056981615
 30
0.0
 11
107.6
 21
58.27340056981615
 31
0.0
  0
LINE
  5
1F6
330
1F
100
AcDbEntity
  8
1
  6
CONTINUOUS
 62
     7
100
AcDbLine
 10
107.6
 20
66.27340056981615
 30
0.0
 11
107.6
 21
76.17289550642784
 31
0.0
  0
LINE
  5
1F7
330
1F
100
AcDbEntity
  8
1
  6
CONTINUOUS
 62
     7
100
AcDbLine
 10
102.0043653420339
 20
105.9734005698162
 30
0.0
 11
67.99563465796615
 21
105.9734005698162
 31
0.0
  0
ELLIPSE
  5
1F8
330
1F
100
AcDbEntity
  8
1
  6
CONTINUOUS
 62
     7
100
AcDbEllipse
 10
62.31272467535893
 20
80.27340056981616
 30
0.0
 11
0.0617223745001301
 21
4.999999941981584
 31
0.0
210
0.0
220
0.0
230
-1.0
 40
0.0123407145103209
 41
0.3581522016217499
 42
0.7852458237563382
  0
ELLIPSE
  5
1F9
330
1F
100
AcDbEntity
  8
1
  6
CONTINUOUS
 62
     7
100
AcDbEllipse
 10
107.6872753246411
 20
80.27340056981616
 30
0.0
 11
0.0617223745001295
 21
-4.999999941981584
 31
0.0
210
0.0
220
0.0
230
-1.0
 40
0.012340714510321
 41
2.356346829833454
 42
2.783440451968079
  0
LINE
  5
1FA
330
1F
100
AcDbEntity
  8
1
  6
CONTINUOUS
 62
     7
100
AcDbLine
 10
101.1429913970526
 20
33.27340056981614
 30
0.0
 11
68.85700860294742
 21
33.27340056981614
 31
0.0
  0
LINE
  5
1FB
330
1F
100
AcDbEntity
  8
1
  6
CONTINUOUS
 62
     7
100
AcDbLine
 10
107.1960179426772
 20
105.0537889563024
 30
0.0
 11
107.2233422216143
 21
105.0475455423437
 31
0.0
  0
LINE
  5
1FC
330
1F
100
AcDbEntity
  8
1
  6
CONTINUOUS
 62
     7
100
AcDbLine
 10
107.6
 20
79.70842941236057
 30
0.0
 11
107.6
 21
83.8089344757489
 31
0.0
  0
LINE
  5
1FD
330
1F
100
AcDbEntity
  8
1
  6
CONTINUOUS
 62
     7
100
AcDbLine
 10
63.90045708858079
 20
33.27340056981615
 30
0.0
 11
63.90000000000001
 21
33.27340056981615
 31
0.0
  0
LINE
  5
1FE
330
1F
100
AcDbEntity
  8
1
  6
CONTINUOUS
 62
     7
100
AcDbLine
 10
65.22978120954181
 20
103.1488198197328
 30
0.0
 11
65.22420084104589
 21
103.1477942668674
 31
0.0
  0
ELLIPSE
  5
1FF
330
1F
100
AcDbEntity
  8
1
  6
CONTINUOUS
 62
     7
100
AcDbEllipse
 10
103.2654409839407
 20
107.7483491326546
 30
0.0
 11
-7.927129446835279
 21
1.33175383849731
 31
0.0
210
0.0
220
0.0
230
-1.0
 40
0.3660922812340102
 41
4.796757703406028
 42
4.79961354497039
  0
LINE
  5
200
330
1F
100
AcDbEntity
  8
1
  6
CONTINUOUS
 62
     7
100
AcDbLine
 10
62.80398205732289
 20
105.0537889563024
 30
0.0
 11
66.91778496066868
 21
105.8763039482708
 31
0.0
  0
LINE
  5
201
330
1F
100
AcDbEntity
  8
1
  6
CONTINUOUS
 62
     7
100
AcDbLine
 10
68.88996870719451
 20
105.0714518362755
 30
0.0
 11
67.9108143286615
 21
104.9733352622723
 31
0.0
  0
LINE
  5
202
330
1F
100
AcDbEntity
  8
1
  6
CONTINUOUS
 62
     7
100
AcDbLine
 10
106.6980580675691
 20
33.76369090766162
 30
0.0
 11
107.6
 21
38.27340056981615
 31
0.0
  0
ELLIPSE
  5
203
330
1F
100
AcDbEntity
  8
1
  6
CONTINUOUS
 62
     7
100
AcDbEllipse
 10
70.09369272553528
 20
98.97243912379247
 30
0.0
 11
-3.013920833382957
 21
5.656946125908102
 31
0.0
210
0.0
220
0.0
230
-1.0
 40
0.7563877720667052
 41
0.3815879290693084
 42
0.3830813248468937
  0
ELLIPSE
  5
204
330
1F
100
AcDbEntity
  8
1
  6
CONTINUOUS
 62
     7
100
AcDbEllipse
 10
102.6153065437914
 20
100.9734005698162
 30
0.0
 11
-3.412432673976106
 21
3.941684048849403
 31
0.0
210
0.0
220
0.0
230
-1.0
 40
0.9014740704167405
 41
0.8446974137820443
 42
0.8600908929644439
  0
LINE
  5
205
330
1F
100
AcDbEntity
  8
1
  6
CONTINUOUS
 62
     7
100
AcDbLine
 10
106.2942280118052
 20
104.1323145185312
 30
0.0
 11
102.1116217058722
 21
104.9688357797178
 31
0.0
  0
LINE
  5
206
330
1F
100
AcDbEntity
  8
1
  6
CONTINUOUS
 62
     7
100
AcDbLine
 10
102.1031118714366
 20
105.9734005698162
 30
0.0
 11
103.0066674268662
 21
105.8908170177999
 31
0.0
  0
LINE
  5
207
330
1F
100
AcDbEntity
  8
1
  6
CONTINUOUS
 62
     7
100
AcDbLine
 10
63.30194193243092
 20
33.76369090766162
 30
0.0
 11
63.90000000000001
 21
33.27340056981615
 31
0.0
  0
LINE
  5
208
330
1F
100
AcDbEntity
  8
1
  6
CONTINUOUS
 62
     7
100
AcDbLine
 10
106.1
 20
33.27340056981615
 30
0.0
 11
106.6980580675691
 21
33.76369090766162
 31
0.0
  0
LINE
  5
209
330
1F
100
AcDbEntity
  8
1
  6
CONTINUOUS
 62
     7
100
AcDbLine
 10
62.39216036244137
 20
84.95586429313357
 30
0.0
 11
62.40000000000001
 21
85.27340056981616
 31
0.0
  0
LINE
  5
20A
330
1F
100
AcDbEntity
  8
1
  6
CONTINUOUS
 62
     7
100
AcDbLine
 10
107.6
 20
85.27340056981616
 30
0.0
 11
107.6078396375587
 21
84.95586429313357
 31
0.0
  0
LINE
  5
20B
330
1F
100
AcDbEntity
  8
1
  6
CONTINUOUS
 62
     7
100
AcDbLine
 10
106.6980580675691
 20
85.27340056981616
 30
0.0
 11
107.6
 21
85.27340056981616
 31
0.0
  0
LINE
  5
20C
330
1F
100
AcDbEntity
  8
1
  6
CONTINUOUS
 62
     7
100
AcDbLine
 10
101.102423409603
 20
105.0714586373853
 30
0.0
 11
68.89757659039708
 21
105.0714586373853
 31
0.0
  0
LINE
  5
20D
330
1F
100
AcDbEntity
  8
1
  6
CONTINUOUS
 62
     7
100
AcDbLine
 10
62.7766577783857
 20
105.0475455423437
 30
0.0
 11
62.80398205732289
 21
105.0537889563024
 31
0.0
  0
LINE
  5
20E
330
1F
100
AcDbEntity
  8
1
  6
CONTINUOUS
 62
     7
100
AcDbLine
 10
62.40000000000003
 20
104.5521112087234
 30
0.0
 11
62.40000000000003
 21
85.27340056981616
 31
0.0
  0
LINE
  5
20F
330
1F
100
AcDbEntity
  8
1
  6
CONTINUOUS
 62
     7
100
AcDbLine
 10
106.1
 20
33.27340056981615
 30
0.0
 11
106.0995429114192
 21
33.27340056981615
 31
0.0
  0
LINE
  5
210
330
1F
100
AcDbEntity
  8
1
  6
CONTINUOUS
 62
     7
100
AcDbLine
 10
102.1031118714366
 20
105.9734005698162
 30
0.0
 11
102.0043653420339
 21
105.9734005698162
 31
0.0
  0
LINE
  5
211
330
1F
100
AcDbEntity
  8
1
  6
CONTINUOUS
 62
     7
100
AcDbLine
 10
62.40000000000002
 20
79.70842941236057
 30
0.0
 11
62.40000000000002
 21
83.8089344757489
 31
0.0
  0
LINE
  5
212
330
1F
100
AcDbEntity
  8
1
  6
CONTINUOUS
 62
     7
100
AcDbLine
 10
63.30194193243092
 20
103.6401826992523
 30
0.0
 11
63.30194193243092
 21
85.27340056981616
 31
0.0
  0
ELLIPSE
  5
213
330
1F
100
AcDbEntity
  8
1
  6
CONTINUOUS
 62
     7
100
AcDbEllipse
 10
62.31272467535893
 20
76.17289550642784
 30
0.0
 11
0.0617223745001301
 21
4.999999941981584
 31
0.0
210
0.0
220
0.0
230
1.0
 40
0.0123407145103209
 41
5.070845861288655
 42
5.497939483423238
  0
LINE
  5
214
330
1F
100
AcDbEntity
  8
1
  6
CONTINUOUS
 62
     7
100
AcDbLine
 10
63.70577198819484
 20
104.1323145185312
 30
0.0
 11
63.69418299230496
 21
104.1300203284245
 31
0.0
  0
LINE
  5
215
330
1F
100
AcDbEntity
  8
1
  6
CONTINUOUS
 62
     7
100
AcDbLine
 10
102.0891856713385
 20
104.9733352622723
 30
0.0
 11
101.1100312928055
 21
105.0714518362755
 31
0.0
  0
LINE
  5
216
330
1F
100
AcDbEntity
  8
1
  6
CONTINUOUS
 62
     7
100
AcDbLine
 10
106.6980580675691
 20
85.27340056981616
 30
0.0
 11
106.6980580675691
 21
103.6401826992523
 31
0.0
  0
LINE
  5
217
330
1F
100
AcDbEntity
  8
1
  6
CONTINUOUS
 62
     7
100
AcDbLine
 10
103.0822150393313
 20
105.8763039482708
 30
0.0
 11
107.1960179426772
 21
105.0537889563024
 31
0.0
  0
LINE
  5
218
330
1F
100
AcDbEntity
  8
1
  6
CONTINUOUS
 62
     7
100
AcDbLine
 10
66.99333257313386
 20
105.8908170177999
 30
0.0
 11
67.89688812856343
 21
105.9734005698162
 31
0.0
  0
LINE
  5
219
330
1F
100
AcDbEntity
  8
1
  6
CONTINUOUS
 62
     7
100
AcDbLine
 10
63.30194193243092
 20
85.27340056981616
 30
0.0
 11
63.90000000000003
 21
85.27340056981618
 31
0.0
  0
LINE
  5
21A
330
1F
100
AcDbEntity
  8
1
  6
CONTINUOUS
 62
     7
100
AcDbLine
 10
106.3058170076951
 20
104.1300203284245
 30
0.0
 11
106.2942280118052
 21
104.1323145185312
 31
0.0
  0
LINE
  5
21B
330
1F
100
AcDbEntity
  8
1
  6
CONTINUOUS
 62
     7
100
AcDbLine
 10
104.7757991589541
 20
103.1477942668674
 30
0.0
 11
104.7702187904582
 21
103.1488198197328
 31
0.0
  0
LINE
  5
21C
330
1F
100
AcDbEntity
  8
1
  6
CONTINUOUS
 62
     7
100
AcDbLine
 10
106.1
 20
85.27340056981618
 30
0.0
 11
106.6980580675691
 21
85.27340056981616
 31
0.0
  0
LINE
  5
21D
330
1F
100
AcDbEntity
  8
1
  6
CONTINUOUS
 62
     7
100
AcDbLine
 10
63.30192857956203
 20
103.6501826291613
 30
0.0
 11
63.30194193243094
 21
103.6401826992523
 31
0.0
  0
LINE
  5
21E
330
1F
100
AcDbEntity
  8
1
  6
CONTINUOUS
 62
     7
100
AcDbLine
 10
105.1854482962321
 20
102.6570932254382
 30
0.0
 11
105.1853852619411
 21
102.6622004733571
 31
0.0
  0
LINE
  5
21F
330
1F
100
AcDbEntity
  8
1
  6
CONTINUOUS
 62
     7
100
AcDbLine
 10
62.40000000000001
 20
38.27340056981615
 30
0.0
 11
63.30194193243092
 21
33.76369090766162
 31
0.0
  0
LINE
  5
220
330
1F
100
AcDbEntity
  8
1
  6
CONTINUOUS
 62
     7
100
AcDbLine
 10
67.8883782941278
 20
104.9688357797177
 30
0.0
 11
63.70577198819484
 21
104.1323145185312
 31
0.0
  0
ELLIPSE
  5
221
330
1F
100
AcDbEntity
  8
1
  6
CONTINUOUS
 62
     7
100
AcDbEllipse
 10
99.90630727446475
 20
98.97243912379247
 30
0.0
 11
3.013920833382949
 21
5.656946125908107
 31
0.0
210
0.0
220
0.0
230
-1.0
 40
0.7563877720667054
 41
5.900103982332695
 42
5.901597378110266
  0
LINE
  5
222
330
1F
100
AcDbEntity
  8
1
  6
CONTINUOUS
 62
     7
100
AcDbLine
 10
62.40001373386167
 20
104.5634986184569
 30
0.0
 11
62.40000000000002
 21
104.5521112087234
 31
0.0
  0
LINE
  5
223
330
1F
100
AcDbEntity
  8
1
  6
CONTINUOUS
 62
     7
100
AcDbLine
 10
107.6
 20
85.27340056981616
 30
0.0
 11
107.6
 21
104.5521112087234
 31
0.0
  0
LINE
  5
224
330
1F
100
AcDbEntity
  8
1
  6
CONTINUOUS
 62
     7
100
AcDbLine
 10
67.99563465796616
 20
105.9734005698162
 30
0.0
 11
67.89688812856345
 21
105.9734005698162
 31
0.0
  0
LINE
  5
225
330
1F
100
AcDbEntity
  8
1
  6
CONTINUOUS
 62
     7
100
AcDbLine
 10
106.6980580675691
 20
103.6401826992523
 30
0.0
 11
106.698071420438
 21
103.6501826291613
 31
0.0
  0
ELLIPSE
  5
226
330
1F
100
AcDbEntity
  8
1
  6
CONTINUOUS
 62
     7
100
AcDbEllipse
 10
66.73455901605813
 20
107.7483491326543
 30
0.0
 11
-7.927129446835488
 21
-1.331753838496888
 31
0.0
210
0.0
220
0.0
230
-1.0
 40
0.3660922812339937
 41
4.625164415798821
 42
4.628020257363194
  0
ELLIPSE
  5
227
330
1F
100
AcDbEntity
  8
1
  6
CONTINUOUS
 62
     7
100
AcDbEllipse
 10
67.38469345620854
 20
100.9734005698162
 30
0.0
 11
-3.412432673976111
 21
-3.941684048849402
 31
0.0
210
0.0
220
0.0
230
-1.0
 40
0.901474070416739
 41
2.281501760625348
 42
2.296895239807755
  0
LINE
  5
228
330
1F
100
AcDbEntity
  8
1
  6
CONTINUOUS
 62
     7
100
AcDbLine
 10
63.9004570885808
 20
85.27340056981618
 30
0.0
 11
63.90000000000003
 21
85.27340056981618
 31
0.0
  0
LINE
  5
229
330
1F
100
AcDbEntity
  8
1
  6
CONTINUOUS
 62
     7
100
AcDbLine
 10
107.6
 20
104.5521112087234
 30
0.0
 11
107.5999862661384
 21
104.5634986184569
 31
0.0
  0
LINE
  5
22A
330
1F
100
AcDbEntity
  8
1
  6
CONTINUOUS
 62
     7
100
AcDbLine
 10
62.40000000000003
 20
85.27340056981616
 30
0.0
 11
63.30194193243092
 21
85.27340056981616
 31
0.0
  0
ELLIPSE
  5
22B
330
1F
100
AcDbEntity
  8
1
  6
CONTINUOUS
 62
     7
100
AcDbEllipse
 10
135.5427687306096
 20
104.9863732273682
 30
0.0
 11
2.267225795623587
 21
0.4559866740180111
 31
0.0
210
0.0
220
0.0
230
-1.0
 40
0.2162019235983447
 41
3.18504802241799
 42
3.207189999985592
  0
ELLIPSE
  5
22C
330
1F
100
AcDbEntity
  8
1
  6
CONTINUOUS
 62
     7
100
AcDbEllipse
 10
199.9863732273683
 20
40.54276873060954
 30
0.0
 11
0.4559866740180114
 21
2.267225795623586
 31
0.0
210
0.0
220
0.0
230
1.0
 40
0.2162019235983447
 41
3.18504802241799
 42
3.207189999985592
  0
LINE
  5
22D
330
1F
100
AcDbEntity
  8
1
  6
CONTINUOUS
 62
     7
100
AcDbLine
 10
161.2734005698162
 20
85.2734005698128
 30
0.0
 11
171.1728955064279
 21
85.27340056981613
 31
0.0
  0
LINE
  5
22E
330
1F
100
AcDbEntity
  8
1
  6
CONTINUOUS
 62
     7
100
AcDbLine
 10
62.40000000000001
 20
76.17289550642785
 30
0.0
 11
62.39216036244137
 21
77.92633027276969
 31
0.0
  0
LINE
  5
22F
330
1F
100
AcDbEntity
  8
1
  6
CONTINUOUS
 62
     7
100
AcDbLine
 10
153.2734005698162
 20
85.27340056981616
 30
0.0
 11
161.2734005698162
 21
85.27340056981616
 31
0.0
  0
LINE
  5
230
330
1F
100
AcDbEntity
  8
1
  6
CONTINUOUS
 62
     7
100
AcDbLine
 10
168.2734005698162
 20
33.7636909076616
 30
0.0
 11
180.2734005698162
 21
33.7636909076616
 31
0.0
  0
LINE
  5
231
330
1F
100
AcDbEntity
  8
1
  6
CONTINUOUS
 62
     7
100
AcDbLine
 10
161.2734005698162
 20
85.27340056981616
 30
0.0
 11
171.1728955064279
 21
85.27340056981615
 31
0.0
  0
LINE
  5
232
330
1F
100
AcDbEntity
  8
1
  6
CONTINUOUS
 62
     7
100
AcDbLine
 10
133.3478286847353
 20
105.0475455423437
 30
0.0
 11
133.2739568454423
 21
104.5634986184569
 31
0.0
  0
LINE
  5
233
330
1F
100
AcDbEntity
  8
1
  6
CONTINUOUS
 62
     7
100
AcDbLine
 10
101.1429913970526
 20
33.27340056981616
 30
0.0
 11
102.0488725321065
 21
33.27340056981616
 31
0.0
  0
ELLIPSE
  5
234
330
1F
100
AcDbEntity
  8
1
  6
CONTINUOUS
 62
     7
100
AcDbEllipse
 10
132.3053530232467
 20
104.5634986184569
 30
0.0
 11
-20.26431501097483
 21
-0.01234446860028721
 31
0.0
210
0.0
220
0.0
230
1.0
 40
0.0246663946250205
 41
3.116901207536979
 42
3.137364337819605
  0
LINE
  5
235
330
1F
100
AcDbEntity
  8
1
  6
CONTINUOUS
 62
     7
100
AcDbLine
 10
198.6501826291614
 20
33.76375767200612
 30
0.0
 11
199.1300203284245
 21
33.76020261513892
 31
0.0
  0
LINE
  5
236
330
1F
100
AcDbEntity
  8
1
  6
CONTINUOUS
 62
     7
100
AcDbLine
 10
128.7636909076616
 20
73.27340056981615
 30
0.0
 11
133.2734005698162
 21
73.27340056981616
 31
0.0
  0
LINE
  5
237
330
1F
100
AcDbEntity
  8
1
  6
CONTINUOUS
 62
     7
100
AcDbLine
 10
180.2734005698162
 20
38.27340056981615
 30
0.0
 11
180.2734005698162
 21
58.27340056981613
 31
0.0
  0
LINE
  5
238
330
1F
100
AcDbEntity
  8
1
  6
CONTINUOUS
 62
     7
100
AcDbLine
 10
133.2734005698162
 20
85.27340056981616
 30
0.0
 11
153.2734005698162
 21
85.27340056981616
 31
0.0
  0
LINE
  5
239
330
1F
100
AcDbEntity
  8
1
  6
CONTINUOUS
 62
     7
100
AcDbLine
 10
104.9905500329446
 20
33.27340056981615
 30
0.0
 11
105.2518945027263
 21
33.27340056981615
 31
0.0
  0
LINE
  5
23A
330
1F
100
AcDbEntity
  8
1
  6
CONTINUOUS
 62
     7
100
AcDbLine
 10
180.2734005698162
 20
33.27340056981614
 30
0.0
 11
168.2734005698162
 21
33.27340056981615
 31
0.0
  0
ELLIPSE
  5
23B
330
1F
100
AcDbEntity
  8
1
  6
CONTINUOUS
 62
     7
100
AcDbEllipse
 10
199.5634986184569
 20
37.30535302324663
 30
0.0
 11
-0.01234446860029415
 21
-20.26431501097483
 31
0.0
210
0.0
220
0.0
230
-1.0
 40
0.0246663946250205
 41
3.116901207536979
 42
3.137364337819605
  0
ARC
  5
23C
330
1F
100
AcDbEntity
  8
1
  6
CONTINUOUS
 62
     7
100
AcDbCircle
 10
171.1728955064279
 20
80.27340056981615
 30
0.0
 40
4.999999999999999
100
AcDbArc
 50
69.47066200526704
 51
89.99999999999982
  0
LINE
  5
23D
330
1F
100
AcDbEntity
  8
1
  6
CONTINUOUS
 62
     7
100
AcDbLine
 10
161.2734005698162
 20
85.2734005698128
 30
0.0
 11
161.2734005698162
 21
86.28252403521486
 31
0.0
  0
LINE
  5
23E
330
1F
100
AcDbEntity
  8
1
  6
CONTINUOUS
 62
     7
100
AcDbLine
 10
163.2720972176164
 20
86.28252403521483
 30
0.0
 11
163.130543426959
 21
87.27340056981616
 31
0.0
  0
ELLIPSE
  5
23F
330
1F
100
AcDbEntity
  8
1
  6
CONTINUOUS
 62
     7
100
AcDbEllipse
 10
107.6872753246411
 20
76.17289550642784
 30
0.0
 11
0.0617223745001295
 21
-4.999999941981584
 31
0.0
210
0.0
220
0.0
230
1.0
 40
0.012340714510321
 41
3.926838477346104
 42
4.353932099480708
  0
LINE
  5
240
330
1F
100
AcDbEntity
  8
1
  6
CONTINUOUS
 62
     7
100
AcDbLine
 10
133.2734005698162
 20
85.27340056981616
 30
0.0
 11
128.7636909076616
 21
85.27340056981616
 31
0.0
  0
LINE
  5
241
330
1F
100
AcDbEntity
  8
1
  6
CONTINUOUS
 62
     7
100
AcDbLine
 10
64.74810549727377
 20
33.27340056981614
 30
0.0
 11
65.00944996705547
 21
33.27340056981614
 31
0.0
  0
LINE
  5
242
330
1F
100
AcDbEntity
  8
1
  6
CONTINUOUS
 62
     7
100
AcDbLine
 10
163.2720972176164
 20
86.28252403521483
 30
0.0
 11
161.2734005698162
 21
86.28252403521486
 31
0.0
  0
LINE
  5
243
330
1F
100
AcDbEntity
  8
1
  6
CONTINUOUS
 62
     7
100
AcDbLine
 10
151.4162577126733
 20
87.27340056981616
 30
0.0
 11
151.274703922016
 21
86.28252403521492
 31
0.0
  0
LINE
  5
244
330
1F
100
AcDbEntity
  8
1
  6
CONTINUOUS
 62
     7
100
AcDbLine
 10
153.2734005698162
 20
86.2825240352149
 30
0.0
 11
151.274703922016
 21
86.28252403521492
 31
0.0
  0
LINE
  5
245
330
1F
100
AcDbEntity
  8
1
  6
CONTINUOUS
 62
     7
100
AcDbLine
 10
153.2734005698162
 20
86.2825240352149
 30
0.0
 11
153.2734005698162
 21
85.27340056981618
 31
0.0
  0
LINE
  5
246
330
1F
100
AcDbEntity
  8
1
  6
CONTINUOUS
 62
     7
100
AcDbLine
 10
133.2734005698162
 20
73.27340056981616
 30
0.0
 11
133.2734005698162
 21
85.27340056981616
 31
0.0
  0
LINE
  5
247
330
1F
100
AcDbEntity
  8
1
  6
CONTINUOUS
 62
     7
100
AcDbLine
 10
162.2323837509317
 20
92.33726482760746
 30
0.0
 11
152.3144173887008
 21
92.33726482760751
 31
0.0
  0
ARC
  5
248
330
1F
100
AcDbEntity
  8
1
  6
CONTINUOUS
 62
     7
100
AcDbCircle
 10
160.5388097664261
 20
91.27340056981618
 30
0.0
 40
2.000000000000001
100
AcDbArc
 50
32.13609417984539
 51
90.0
  0
LINE
  5
249
330
1F
100
AcDbEntity
  8
1
  6
CONTINUOUS
 62
     7
100
AcDbLine
 10
154.0079913732063
 20
93.27340056981618
 30
0.0
 11
160.5388097664261
 21
93.27340056981618
 31
0.0
  0
LINE
  5
24A
330
1F
100
AcDbEntity
  8
1
  6
CONTINUOUS
 62
     7
100
AcDbLine
 10
152.028092385884
 20
91.55624328229078
 30
0.0
 11
151.9955063973008
 21
91.32814136220875
 31
0.0
  0
LINE
  5
24B
330
1F
100
AcDbEntity
  8
1
  6
CONTINUOUS
 62
     7
100
AcDbLine
 10
162.5512947423315
 20
91.32814136220867
 30
0.0
 11
151.9955063973008
 21
91.32814136220875
 31
0.0
  0
LINE
  5
24C
330
1F
100
AcDbEntity
  8
1
  6
CONTINUOUS
 62
     7
100
AcDbLine
 10
104.9905500329446
 20
33.27340056981615
 30
0.0
 11
102.0488725321065
 21
33.27340056981615
 31
0.0
  0
LINE
  5
24D
330
1F
100
AcDbEntity
  8
1
  6
CONTINUOUS
 62
     7
100
AcDbLine
 10
180.2734005698162
 20
38.27340056981615
 30
0.0
 11
180.2734005698162
 21
33.7636909076616
 31
0.0
  0
LINE
  5
24E
330
1F
100
AcDbEntity
  8
1
  6
CONTINUOUS
 62
     7
100
AcDbLine
 10
168.2734005698162
 20
73.27340056981615
 30
0.0
 11
161.2403063311161
 21
73.27340056981615
 31
0.0
  0
LINE
  5
24F
330
1F
100
AcDbEntity
  8
1
  6
CONTINUOUS
 62
     7
100
AcDbLine
 10
178.808934475749
 20
79.70842941236054
 30
0.0
 11
174.7084294123606
 21
83.80893447574888
 31
0.0
  0
LINE
  5
250
330
1F
100
AcDbEntity
  8
1
  6
CONTINUOUS
 62
     7
100
AcDbLine
 10
168.2734005698162
 20
66.24030633111605
 30
0.0
 11
168.2734005698162
 21
38.27340056981615
 31
0.0
  0
LINE
  5
251
330
1F
100
AcDbEntity
  8
1
  6
CONTINUOUS
 62
     7
100
AcDbLine
 10
67.95112746789354
 20
33.27340056981616
 30
0.0
 11
68.85700860294742
 21
33.27340056981616
 31
0.0
  0
LINE
  5
252
330
1F
100
AcDbEntity
  8
1
  6
CONTINUOUS
 62
     7
100
AcDbLine
 10
168.2734005698162
 20
73.27340056981615
 30
0.0
 11
168.2734005698162
 21
66.24030633111605
 31
0.0
  0
LINE
  5
253
330
1F
100
AcDbEntity
  8
1
  6
CONTINUOUS
 62
     7
100
AcDbLine
 10
168.2734005698162
 20
33.7636909076616
 30
0.0
 11
168.2734005698162
 21
38.27340056981614
 31
0.0
  0
LINE
  5
254
330
1F
100
AcDbEntity
  8
1
  6
CONTINUOUS
 62
     7
100
AcDbLine
 10
133.3510726771152
 20
105.0537889563023
 30
0.0
 11
133.3478286847351
 21
105.0475455423437
 31
0.0
  0
LINE
  5
255
330
1F
100
AcDbEntity
  8
1
  6
CONTINUOUS
 62
     7
100
AcDbLine
 10
133.2734005698162
 20
85.27340056981615
 30
0.0
 11
153.2734005698162
 21
85.27340056981618
 31
0.0
  0
ARC
  5
256
330
1F
100
AcDbEntity
  8
1
  6
CONTINUOUS
 62
     7
100
AcDbCircle
 10
154.0079913732063
 20
91.27340056981618
 30
0.0
 40
2.0
100
AcDbArc
 50
90.0
 51
147.8639058201528
  0
LINE
  5
257
330
1F
100
AcDbEntity
  8
1
  6
CONTINUOUS
 62
     7
100
AcDbLine
 10
162.5512947423315
 20
91.32814136220867
 30
0.0
 11
162.5187087537484
 21
91.55624328229078
 31
0.0
  0
LINE
  5
258
330
1F
100
AcDbEntity
  8
1
  6
CONTINUOUS
 62
     7
100
AcDbLine
 10
180.2734005698162
 20
66.27340056981613
 30
0.0
 11
180.2734005698162
 21
76.17289550642784
 31
0.0
  0
ARC
  5
259
330
1F
100
AcDbEntity
  8
1
  6
CONTINUOUS
 62
     7
100
AcDbCircle
 10
160.5388097664261
 20
91.27340056981618
 30
0.0
 40
2.000000000000001
100
AcDbArc
 50
8.130102354155781
 51
30.00000000000007
  0
LINE
  5
25A
330
1F
100
AcDbEntity
  8
1
  6
CONTINUOUS
 62
     7
100
AcDbLine
 10
152.2759405656375
 20
92.27340056981618
 30
0.0
 11
162.270860573995
 21
92.27340056981618
 31
0.0
  0
LINE
  5
25B
330
1F
100
AcDbEntity
  8
1
  6
CONTINUOUS
 62
     7
100
AcDbLine
 10
128.2734005698162
 20
73.27340056981615
 30
0.0
 11
128.7636909076616
 21
73.27340056981615
 31
0.0
  0
LINE
  5
25C
330
1F
100
AcDbEntity
  8
1
  6
CONTINUOUS
 62
     7
100
AcDbLine
 10
151.4162577126733
 20
87.27340056981616
 30
0.0
 11
163.130543426959
 21
87.27340056981616
 31
0.0
  0
ARC
  5
25D
330
1F
100
AcDbEntity
  8
1
  6
CONTINUOUS
 62
     7
100
AcDbCircle
 10
154.0079913732063
 20
91.27340056981618
 30
0.0
 40
2.0
100
AcDbArc
 50
149.9999999999999
 51
171.8698976458442
  0
LINE
  5
25E
330
1F
100
AcDbEntity
  8
1
  6
CONTINUOUS
 62
     7
100
AcDbLine
 10
151.9876862841019
 20
91.27340056981618
 30
0.0
 11
151.8513459022439
 21
90.31901789681
 31
0.0
  0
LINE
  5
25F
330
1F
100
AcDbEntity
  8
1
  6
CONTINUOUS
 62
     7
100
AcDbLine
 10
200.0537889563024
 20
38.3510726771151
 30
0.0
 11
200.0475455423438
 21
38.34782868473504
 31
0.0
  0
LINE
  5
260
330
1F
100
AcDbEntity
  8
1
  6
CONTINUOUS
 62
     7
100
AcDbLine
 10
107.6078396375587
 20
77.92633027276969
 30
0.0
 11
107.6
 21
76.17289550642784
 31
0.0
  0
LINE
  5
261
330
1F
100
AcDbEntity
  8
1
  6
CONTINUOUS
 62
     7
100
AcDbLine
 10
128.7637576720062
 20
103.6501826291613
 30
0.0
 11
128.760202615139
 21
104.1300203284245
 31
0.0
  0
LINE
  5
262
330
1F
100
AcDbEntity
  8
1
  6
CONTINUOUS
 62
     7
100
AcDbLine
 10
200.0475455423438
 20
38.34782868473521
 30
0.0
 11
199.5634986184569
 21
38.27395684544224
 31
0.0
  0
LINE
  5
263
330
1F
100
AcDbEntity
  8
1
  6
CONTINUOUS
 62
     7
100
AcDbLine
 10
162.6954552373885
 20
90.31901789680992
 30
0.0
 11
151.8513459022439
 21
90.31901789681
 31
0.0
  0
LINE
  5
264
330
1F
100
AcDbEntity
  8
1
  6
CONTINUOUS
 62
     7
100
AcDbLine
 10
128.2734005698162
 20
85.27340056981616
 30
0.0
 11
128.2734005698162
 21
73.27340056981615
 31
0.0
  0
LINE
  5
265
330
1F
100
AcDbEntity
  8
1
  6
CONTINUOUS
 62
     7
100
AcDbLine
 10
168.2734005698162
 20
33.27340056981615
 30
0.0
 11
168.2734005698162
 21
33.7636909076616
 31
0.0
  0
LINE
  5
266
330
1F
100
AcDbEntity
  8
1
  6
CONTINUOUS
 62
     7
100
AcDbLine
 10
161.2403063311161
 20
73.27340056981615
 30
0.0
 11
133.2734005698162
 21
73.27340056981615
 31
0.0
  0
LINE
  5
267
330
1F
100
AcDbEntity
  8
1
  6
CONTINUOUS
 62
     7
100
AcDbLine
 10
168.2734005698162
 20
38.27340056981614
 30
0.0
 11
180.2734005698162
 21
38.27340056981615
 31
0.0
  0
LINE
  5
268
330
1F
100
AcDbEntity
  8
1
  6
CONTINUOUS
 62
     7
100
AcDbLine
 10
67.95112746789354
 20
33.27340056981615
 30
0.0
 11
65.00944996705547
 21
33.27340056981615
 31
0.0
  0
LINE
  5
269
330
1F
100
AcDbEntity
  8
1
  6
CONTINUOUS
 62
     7
100
AcDbLine
 10
128.7636909076616
 20
73.27340056981615
 30
0.0
 11
128.7636909076616
 21
85.27340056981616
 31
0.0
  0
LINE
  5
26A
330
1F
100
AcDbEntity
  8
1
  6
CONTINUOUS
 62
     7
100
AcDbLine
 10
180.2734005698162
 20
58.27340056981613
 30
0.0
 11
180.2734005698162
 21
66.27340056981613
 31
0.0
  0
LINE
  5
26B
330
1F
100
AcDbEntity
  8
1
  6
CONTINUOUS
 62
     7
100
AcDbLine
 10
107.6
 20
58.27340056981614
 30
0.0
 11
107.6
 21
66.27340056981615
 31
0.0
  0
LINE
  5
26C
330
1F
100
AcDbEntity
  8
1
  6
CONTINUOUS
 62
     7
100
AcDbLine
 10
62.40000000000002
 20
66.27340056981615
 30
0.0
 11
62.40000000000002
 21
76.17289550642785
 31
0.0
  0
LINE
  5
26D
330
1F
100
AcDbEntity
  8
1
  6
CONTINUOUS
 62
     7
100
AcDbLine
 10
62.40000000000002
 20
79.70842941236056
 30
0.0
 11
62.40000000000002
 21
83.80893447574891
 31
0.0
  0
LINE
  5
26E
330
1F
100
AcDbEntity
  8
1
  6
CONTINUOUS
 62
     7
100
AcDbLine
 10
107.6
 20
79.70842941236056
 30
0.0
 11
107.6
 21
83.80893447574891
 31
0.0
  0
LINE
  5
26F
330
1F
100
AcDbEntity
  8
1
  6
CONTINUOUS
 62
     7
100
AcDbLine
 10
92.49146408955427
 20
44.28403184890846
 30
0.0
 11
92.4876578752272
 21
44.67340056981612
 31
0.0
  0
LINE
  5
270
330
1F
100
AcDbEntity
  8
1
  6
CONTINUOUS
 62
     7
100
AcDbLine
 10
92.49651706621665
 20
44.16529792244872
 30
0.0
 11
92.49146408955427
 21
44.28403184890846
 31
0.0
  0
LINE
  5
271
330
1F
100
AcDbEntity
  8
1
  6
CONTINUOUS
 62
     7
100
AcDbLine
 10
92.50132154190224
 20
46.21981103802859
 30
0.0
 11
92.50617106238641
 21
47.19233275667118
 31
0.0
  0
LINE
  5
272
330
1F
100
AcDbEntity
  8
1
  6
CONTINUOUS
 62
     7
100
AcDbLine
 10
92.5060187459431
 20
43.23194923937928
 30
0.0
 11
92.49898549117123
 21
44.07746655697295
 31
0.0
  0
LINE
  5
273
330
1F
100
AcDbEntity
  8
1
  6
CONTINUOUS
 62
     7
100
AcDbLine
 10
92.50617106238641
 20
47.65918700744305
 30
0.0
 11
92.5050624892974
 21
48.07340056981614
 31
0.0
  0
LINE
  5
274
330
1F
100
AcDbEntity
  8
1
  6
CONTINUOUS
 62
     7
100
AcDbLine
 10
77.5074052748637
 20
43.27340056981615
 30
0.0
 11
77.50617106238641
 21
43.27340056981615
 31
0.0
  0
LINE
  5
275
330
1F
100
AcDbEntity
  8
1
  6
CONTINUOUS
 62
     7
100
AcDbLine
 10
77.49398125405692
 20
43.23194923937929
 30
0.0
 11
77.49398125405692
 21
37.27340056981612
 31
0.0
  0
LINE
  5
276
330
1F
100
AcDbEntity
  8
1
  6
CONTINUOUS
 62
     7
100
AcDbLine
 10
77.5010145088288
 20
44.07746655697295
 30
0.0
 11
77.49398125405692
 21
43.23194923937929
 31
0.0
  0
LINE
  5
277
330
1F
100
AcDbEntity
  8
1
  6
CONTINUOUS
 62
     7
100
AcDbLine
 10
92.4876578752272
 20
44.91179007948205
 30
0.0
 11
92.48904345250838
 21
45.18965342766565
 31
0.0
  0
LINE
  5
278
330
1F
100
AcDbEntity
  8
1
  6
CONTINUOUS
 62
     7
100
AcDbLine
 10
77.50853591044573
 20
44.28403184890846
 30
0.0
 11
77.50348293378336
 21
44.16529792244872
 31
0.0
  0
LINE
  5
279
330
1F
100
AcDbEntity
  8
1
  6
CONTINUOUS
 62
     7
100
AcDbLine
 10
107.6
 20
66.27340056981615
 30
0.0
 11
107.6
 21
76.17289550642785
 31
0.0
  0
LINE
  5
27A
330
1F
100
AcDbEntity
  8
1
  6
CONTINUOUS
 62
     7
100
AcDbLine
 10
92.49898549117123
 20
44.07746655697295
 30
0.0
 11
92.49651706621665
 21
44.16529792244872
 31
0.0
  0
LINE
  5
27B
330
1F
100
AcDbEntity
  8
1
  6
CONTINUOUS
 62
     7
100
AcDbLine
 10
92.5060187459431
 20
37.27340056981613
 30
0.0
 11
92.5060187459431
 21
43.23194923937928
 31
0.0
  0
LINE
  5
27C
330
1F
100
AcDbEntity
  8
1
  6
CONTINUOUS
 62
     7
100
AcDbLine
 10
92.50617106238641
 20
47.19233275667118
 30
0.0
 11
92.50617106238641
 21
47.65918700744305
 31
0.0
  0
LINE
  5
27D
330
1F
100
AcDbEntity
  8
1
  6
CONTINUOUS
 62
     7
100
AcDbLine
 10
77.51234212477283
 20
44.67340056981612
 30
0.0
 11
77.50853591044573
 21
44.28403184890846
 31
0.0
  0
LINE
  5
27E
330
1F
100
AcDbEntity
  8
1
  6
CONTINUOUS
 62
     7
100
AcDbLine
 10
66.51652012686009
 20
85.27340056981618
 30
0.0
 11
64.60000000000002
 21
85.27340056981618
 31
0.0
  0
LINE
  5
27F
330
1F
100
AcDbEntity
  8
1
  6
CONTINUOUS
 62
     7
100
AcDbLine
 10
105.4
 20
85.27340056981618
 30
0.0
 11
103.48347987314
 21
85.27340056981618
 31
0.0
  0
LINE
  5
280
330
1F
100
AcDbEntity
  8
1
  6
CONTINUOUS
 62
     7
100
AcDbLine
 10
77.50348293378336
 20
44.16529792244872
 30
0.0
 11
77.5010145088288
 21
44.07746655697295
 31
0.0
  0
LINE
  5
281
330
1F
100
AcDbEntity
  8
1
  6
CONTINUOUS
 62
     7
100
AcDbLine
 10
92.48904345250838
 20
45.18965342766564
 30
0.0
 11
92.50132154190224
 21
46.21981103802858
 31
0.0
  0
LINE
  5
282
330
1F
100
AcDbEntity
  8
1
  6
CONTINUOUS
 62
     7
100
AcDbLine
 10
62.40000000000001
 20
38.27340056981615
 30
0.0
 11
62.40000000000002
 21
58.27340056981615
 31
0.0
  0
LINE
  5
283
330
1F
100
AcDbEntity
  8
1
  6
CONTINUOUS
 62
     7
100
AcDbLine
 10
62.40000000000002
 20
58.27340056981615
 30
0.0
 11
62.40000000000002
 21
66.27340056981615
 31
0.0
  0
ELLIPSE
  5
284
330
1F
100
AcDbEntity
  8
1
  6
CONTINUOUS
 62
     7
100
AcDbEllipse
 10
62.4872753246411
 20
80.27340056981618
 30
0.0
 11
-0.06172237450012948
 21
4.999999941981584
 31
0.0
210
0.0
220
0.0
230
-1.0
 40
0.012340714510321
 41
5.497939483423242
 42
5.925033105557832
  0
ELLIPSE
  5
285
330
1F
100
AcDbEntity
  8
1
  6
CONTINUOUS
 62
     7
100
AcDbEllipse
 10
62.4872753246411
 20
76.17289550642782
 30
0.0
 11
-0.06172237450012948
 21
4.999999941981584
 31
0.0
210
0.0
220
0.0
230
1.0
 40
0.012340714510321
 41
0.7852458237563382
 42
1.21233944589093
  0
ELLIPSE
  5
286
330
1F
100
AcDbEntity
  8
1
  6
CONTINUOUS
 62
     7
100
AcDbEllipse
 10
107.5127246753589
 20
80.27340056981618
 30
0.0
 11
-0.06172237450013009
 21
-4.999999941981584
 31
0.0
210
0.0
220
0.0
230
-1.0
 40
0.0123407145103209
 41
3.499744855211492
 42
3.926838477346108
  0
CIRCLE
  5
287
330
1F
100
AcDbEntity
  8
1
  6
CONTINUOUS
 62
     7
100
AcDbCircle
 10
97.50000000000003
 20
59.27340056981615
 30
0.0
 40
2.499999999999995
  0
ELLIPSE
  5
288
330
1F
100
AcDbEntity
  8
1
  6
CONTINUOUS
 62
     7
100
AcDbEllipse
 10
107.5127246753589
 20
76.17289550642782
 30
0.0
 11
-0.06172237450013009
 21
-4.999999941981584
 31
0.0
210
0.0
220
0.0
230
1.0
 40
0.0123407145103209
 41
1.929253207698863
 42
2.35634682983345
  0
LINE
  5
289
330
1F
100
AcDbEntity
  8
1
  6
CONTINUOUS
 62
     7
100
AcDbLine
 10
92.4876578752272
 20
44.67340056981612
 30
0.0
 11
92.4876578752272
 21
44.91179007948205
 31
0.0
  0
LINE
  5
28A
330
1F
100
AcDbEntity
  8
1
  6
CONTINUOUS
 62
     7
100
AcDbLine
 10
62.40783963755867
 20
77.92633027276968
 30
0.0
 11
62.40000000000003
 21
76.17289550642785
 31
0.0
  0
LINE
  5
28B
330
1F
100
AcDbEntity
  8
1
  6
CONTINUOUS
 62
     7
100
AcDbLine
 10
107.6
 20
76.17289550642784
 30
0.0
 11
107.5921603624414
 21
77.92633027276968
 31
0.0
  0
LINE
  5
28C
330
1F
100
AcDbEntity
  8
1
  6
CONTINUOUS
 62
     7
100
AcDbLine
 10
107.6
 20
38.27340056981615
 30
0.0
 11
107.6
 21
58.27340056981614
 31
0.0
  0
ENDSEC
  0
SECTION
  2
OBJECTS
  0
DICTIONARY
  5
C
330
0
100
AcDbDictionary
  3
ACAD_GROUP
350
D
  3
ACAD_LAYOUT
350
1A
  3
ACAD_MATERIAL
350
43
  3
ACAD_MLEADERSTYLE
350
6B
  3
ACAD_MLINESTYLE
350
17
  3
ACAD_PLOTSETTINGS
350
19
  3
ACAD_SCALELIST
350
47
  3
ACAD_VISUALSTYLE
350
2A
  3
ACDBHEADERROUNDTRIPXREC
350
28D
  3
ACDBVARIABLEDICTIONARY
350
2AE
  0
DICTIONARY
  5
2B5
330
8
100
AcDbDictionary
280
     1
  3
ACAD_XREC_ROUNDTRIP
360
2B6
  0
DICTIONARY
  5
D
102
{ACAD_REACTORS
330
C
102
}
330
C
100
AcDbDictionary
  0
DICTIONARY
  5
1A
102
{ACAD_REACTORS
330
C
102
}
330
C
100
AcDbDictionary
  0
DICTIONARY
  5
43
102
{ACAD_REACTORS
330
C
102
}
330
C
100
AcDbDictionary
  3
BYBLOCK
350
45
  3
BYLAYER
350
44
  3
GLOBAL
350
46
  0
DICTIONARY
  5
6B
102
{ACAD_REACTORS
330
C
102
}
330
C
100
AcDbDictionary
  3
STANDARD
350
6C
  0
DICTIONARY
  5
17
102
{ACAD_REACTORS
330
C
102
}
330
C
100
AcDbDictionary
  3
STANDARD
350
18
  0
DICTIONARY
  5
19
102
{ACAD_REACTORS
330
C
102
}
330
C
100
AcDbDictionary
  0
DICTIONARY
  5
47
102
{ACAD_REACTORS
330
C
102
}
330
C
100
AcDbDictionary
  3
A0
350
48
  3
A1
350
49
  3
A2
350
4A
  3
A3
350
4B
  3
A4
350
4C
  3
A5
350
4D
  3
A6
350
4E
  3
A7
350
4F
  3
A8
350
50
  3
A9
350
51
  3
B0
350
52
  3
B1
350
53
  3
B2
350
54
  3
B3
350
55
  3
B4
350
56
  3
B5
350
57
  3
B6
350
58
  3
B7
350
59
  3
B8
350
5A
  3
B9
350
5B
  3
C0
350
5C
  3
C1
350
5D
  3
C2
350
5E
  3
C3
350
5F
  3
C4
350
60
  3
C5
350
61
  3
C6
350
62
  3
C7
350
63
  3
C8
350
64
  3
C9
350
65
  3
D0
350
66
  3
D1
350
67
  3
D2
350
68
  0
DICTIONARY
  5
2A
102
{ACAD_REACTORS
330
C
102
}
330
C
100
AcDbDictionary
  3
2DWIREFRAME
350
2F
  3
BASIC
350
32
  3
BRIGHTEN
350
36
  3
COLORCHANGE
350
3A
  3
CONCEPTUAL
350
34
  3
DIM
350
35
  3
EDGECOLOROFF
350
3D
  3
FACEPATTERN
350
39
  3
FLAT
350
2B
  3
FLATWITHEDGES
350
2C
  3
GOURAUD
350
2D
  3
GOURAUDWITHEDGES
350
2E
  3
HIDDEN
350
31
  3
JITTEROFF
350
3B
  3
LINEPATTERN
350
38
  3
OVERHANGOFF
350
3C
  3
REALISTIC
350
33
  3
SHADED
350
42
  3
SHADED_WITH_EDGES
350
41
  3
SHADES_OF_GRAY
350
3E
  3
SKETCHY
350
3F
  3
THICKEN
350
37
  3
WIREFRAME
350
30
  3
X-RAY
350
40
  0
DICTIONARY
  5
28D
102
{ACAD_REACTORS
330
C
102
}
330
C
100
AcDbDictionary
  3
CEPSNID
350
297
  3
CEPSNTYPE
350
296
  3
DIMSTYLEDATA
350
2AD
  3
FINGERPRINTGUID
350
298
  3
HYPERLINKBASE
350
290
  3
INSUNITS
350
295
  3
LAYOUTDICT
350
292
  3
LWETCUNION
350
294
  3
PLOTSETDICT
350
293
  3
PSVPSCALE
350
29A
  3
PUCSBASE
350
29D
  3
PUCSORGBACK
350
2A3
  3
PUCSORGBOTTOM
350
29F
  3
PUCSORGFRONT
350
2A2
  3
PUCSORGLEFT
350
2A0
  3
PUCSORGRIGHT
350
2A1
  3
PUCSORGTOP
350
29E
  3
PUCSORTHOREF
350
29B
  3
PUCSORTHOVIEW
350
29C
  3
STYLESHEET
350
291
  3
TSTACKALIGN
350
28E
  3
TSTACKSIZE
350
28F
  3
UCSBASE
350
2A6
  3
UCSORGBACK
350
2AC
  3
UCSORGBOTTOM
350
2A8
  3
UCSORGFRONT
350
2AB
  3
UCSORGLEFT
350
2A9
  3
UCSORGRIGHT
350
2AA
  3
UCSORGTOP
350
2A7
  3
UCSORTHOREF
350
2A4
  3
UCSORTHOVIEW
350
2A5
  3
VERSIONGUID
350
299
  0
DICTIONARY
  5
2AE
102
{ACAD_REACTORS
330
C
102
}
330
C
100
AcDbDictionary
  3
CANNOSCALE
350
2B7
  3
CMLEADERSTYLE
350
2B0
  3
CTABLESTYLE
350
2AF
  3
DIMASSOC
350
2B3
  3
HIDETEXT
350
2B4
  3
MSLTSCALE
350
2B8
  0
XRECORD
  5
2B6
102
{ACAD_REACTORS
330
2B5
102
}
330
2B5
100
AcDbXrecord
102
VTR_0.000_0.000_1.000_1.000_VISUALSTYLE
340
2F
102
VTR_0.000_0.000_1.000_1.000_GRIDDISPLAY
 70
     3
102
VTR_0.000_0.000_1.000_1.000_GRIDMAJOR
 70
     5
102
VTR_0.000_0.000_1.000_1.000_DEFAULTLIGHTING
280
     1
102
VTR_0.000_0.000_1.000_1.000_DEFAULTLIGHTINGTYPE
 70
     1
102
VTR_0.000_0.000_1.000_1.000_BRIGHTNESS
141
0.0
102
VTR_0.000_0.000_1.000_1.000_CONTRAST
142
0.0
  0
MATERIAL
  5
45
102
{ACAD_REACTORS
330
43
102
}
102
{ACAD_XDICTIONARY
360
2BB
102
}
330
43
100
AcDbMaterial
  1
BYBLOCK
  0
MATERIAL
  5
44
102
{ACAD_REACTORS
330
43
102
}
102
{ACAD_XDICTIONARY
360
2B9
102
}
330
43
100
AcDbMaterial
  1
BYLAYER
  0
MATERIAL
  5
46
102
{ACAD_REACTORS
330
43
102
}
102
{ACAD_XDICTIONARY
360
2BD
102
}
330
43
100
AcDbMaterial
  1
GLOBAL
  0
ACAD_PROXY_OBJECT
  5
6C
102
{ACAD_REACTORS
330
6B
102
}
330
6B
100
AcDbProxyObject
 90
      499
 91
      505
 93
      610
310
40901902A4063FBFFFFFE056BD1B81E855B9FC0AD7A3703D0AD73F4214DD185B99185C9900AD7A3703D0AC73F90141901A02B5E8DC0F42B1CFC02B5E8DC0F42B1CFE5764000000000000300FC0
340
14
340
0
340
11
340
0
 94
        0
1001
ACAD_MLEADERVER
1070
     2
  0
MLINESTYLE
  5
18
102
{ACAD_REACTORS
330
17
102
}
330
17
100
AcDbMlineStyle
  2
Standard
 70
     0
  3

 62
   256
 51
90.0
 52
90.0
 71
     2
 49
0.5
 62
   256
  6
BYLAYER
 49
-0.5
 62
   256
  6
BYLAYER
  0
ACAD_PROXY_OBJECT
  5
48
102
{ACAD_REACTORS
330
47
102
}
330
47
100
AcDbProxyObject
 90
      499
 91
      503
 93
       41
310
903313A31580
  0
ACAD_PROXY_OBJECT
  5
49
102
{ACAD_REACTORS
330
47
102
}
330
47
100
AcDbProxyObject
 90
      499
 91
      503
 93
      105
310
903313A324000000000000004000
  0
ACAD_PROXY_OBJECT
  5
4A
102
{ACAD_REACTORS
330
47
102
}
330
47
100
AcDbProxyObject
 90
      499
 91
      503
 93
      105
310
903313A344000000000000104000
  0
ACAD_PROXY_OBJECT
  5
4B
102
{ACAD_REACTORS
330
47
102
}
330
47
100
AcDbProxyObject
 90
      499
 91
      503
 93
      105
310
903313A354000000000000144000
  0
ACAD_PROXY_OBJECT
  5
4C
102
{ACAD_REACTORS
330
47
102
}
330
47
100
AcDbProxyObject
 90
      499
 91
      503
 93
      105
310
903313A384000000000000204000
  0
ACAD_PROXY_OBJECT
  5
4D
102
{ACAD_REACTORS
330
47
102
}
330
47
100
AcDbProxyObject
 90
      499
 91
      503
 93
      113
310
904313A31304000000000000244000
  0
ACAD_PROXY_OBJECT
  5
4E
102
{ACAD_REACTORS
330
47
102
}
330
47
100
AcDbProxyObject
 90
      499
 91
      503
 93
      113
310
904313A31364000000000000304000
  0
ACAD_PROXY_OBJECT
  5
4F
102
{ACAD_REACTORS
330
47
102
}
330
47
100
AcDbProxyObject
 90
      499
 91
      503
 93
      113
310
904313A32304000000000000344000
  0
ACAD_PROXY_OBJECT
  5
50
102
{ACAD_REACTORS
330
47
102
}
330
47
100
AcDbProxyObject
 90
      499
 91
      503
 93
      113
310
904313A333040000000000003E4000
  0
ACAD_PROXY_OBJECT
  5
51
102
{ACAD_REACTORS
330
47
102
}
330
47
100
AcDbProxyObject
 90
      499
 91
      503
 93
      113
310
904313A34304000000000000444000
  0
ACAD_PROXY_OBJECT
  5
52
102
{ACAD_REACTORS
330
47
102
}
330
47
100
AcDbProxyObject
 90
      499
 91
      503
 93
      113
310
904313A35304000000000000494000
  0
ACAD_PROXY_OBJECT
  5
53
102
{ACAD_REACTORS
330
47
102
}
330
47
100
AcDbProxyObject
 90
      499
 91
      503
 93
      121
310
905313A3130304000000000000594000
  0
ACAD_PROXY_OBJECT
  5
54
102
{ACAD_REACTORS
330
47
102
}
330
47
100
AcDbProxyObject
 90
      499
 91
      503
 93
      105
310
903323A310000000000000010100
  0
ACAD_PROXY_OBJECT
  5
55
102
{ACAD_REACTORS
330
47
102
}
330
47
100
AcDbProxyObject
 90
      499
 91
      503
 93
      105
310
903343A310000000000000410100
  0
ACAD_PROXY_OBJECT
  5
56
102
{ACAD_REACTORS
330
47
102
}
330
47
100
AcDbProxyObject
 90
      499
 91
      503
 93
      105
310
903383A310000000000000810100
  0
ACAD_PROXY_OBJECT
  5
57
102
{ACAD_REACTORS
330
47
102
}
330
47
100
AcDbProxyObject
 90
      499
 91
      503
 93
      113
310
90431303A310000000000000910100
  0
ACAD_PROXY_OBJECT
  5
58
102
{ACAD_REACTORS
330
47
102
}
330
47
100
AcDbProxyObject
 90
      499
 91
      503
 93
      121
310
9053130303A310000000000001650100
  0
ACAD_PROXY_OBJECT
  5
59
102
{ACAD_REACTORS
330
47
102
}
330
47
100
AcDbProxyObject
 90
      499
 91
      503
 93
      257
310
90E312F31323822203D2031272D3022000000000000200FC000000000000284000
  0
ACAD_PROXY_OBJECT
  5
5A
102
{ACAD_REACTORS
330
47
102
}
330
47
100
AcDbProxyObject
 90
      499
 91
      503
 93
      249
310
90D312F363422203D2031272D3022000000000000240FC000000000000284000
  0
ACAD_PROXY_OBJECT
  5
5B
102
{ACAD_REACTORS
330
47
102
}
330
47
100
AcDbProxyObject
 90
      499
 91
      503
 93
      249
310
90D312F333222203D2031272D3022000000000000280FC000000000000284000
  0
ACAD_PROXY_OBJECT
  5
5C
102
{ACAD_REACTORS
330
47
102
}
330
47
100
AcDbProxyObject
 90
      499
 91
      503
 93
      249
310
90D312F313622203D2031272D30220000000000002C0FC000000000000284000
  0
ACAD_PROXY_OBJECT
  5
5D
102
{ACAD_REACTORS
330
47
102
}
330
47
100
AcDbProxyObject
 90
      499
 91
      503
 93
      249
310
90D332F333222203D2031272D30220000000000002E0FC000000000000284000
  0
ACAD_PROXY_OBJECT
  5
5E
102
{ACAD_REACTORS
330
47
102
}
330
47
100
AcDbProxyObject
 90
      499
 91
      503
 93
      241
310
90C312F3822203D2031272D3022000000000000300FC000000000000284000
  0
ACAD_PROXY_OBJECT
  5
5F
102
{ACAD_REACTORS
330
47
102
}
330
47
100
AcDbProxyObject
 90
      499
 91
      503
 93
      249
310
90D332F313622203D2031272D3022000000000000320FC000000000000284000
  0
ACAD_PROXY_OBJECT
  5
60
102
{ACAD_REACTORS
330
47
102
}
330
47
100
AcDbProxyObject
 90
      499
 91
      503
 93
      241
310
90C312F3422203D2031272D3022000000000000340FC000000000000284000
  0
ACAD_PROXY_OBJECT
  5
61
102
{ACAD_REACTORS
330
47
102
}
330
47
100
AcDbProxyObject
 90
      499
 91
      503
 93
      241
310
90C332F3822203D2031272D3022000000000000360FC000000000000284000
  0
ACAD_PROXY_OBJECT
  5
62
102
{ACAD_REACTORS
330
47
102
}
330
47
100
AcDbProxyObject
 90
      499
 91
      503
 93
      241
310
90C312F3222203D2031272D3022000000000000380FC000000000000284000
  0
ACAD_PROXY_OBJECT
  5
63
102
{ACAD_REACTORS
330
47
102
}
330
47
100
AcDbProxyObject
 90
      499
 91
      503
 93
      241
310
90C332F3422203D2031272D30220000000000003A0FC000000000000284000
  0
ACAD_PROXY_OBJECT
  5
64
102
{ACAD_REACTORS
330
47
102
}
330
47
100
AcDbProxyObject
 90
      499
 91
      503
 93
      161
310
90A3122203D2031272D30224000000000000284000
  0
ACAD_PROXY_OBJECT
  5
65
102
{ACAD_REACTORS
330
47
102
}
330
47
100
AcDbProxyObject
 90
      499
 91
      503
 93
      257
310
90E312D312F3222203D2031272D30220000000000003E0FC000000000000284000
  0
ACAD_PROXY_OBJECT
  5
66
102
{ACAD_REACTORS
330
47
102
}
330
47
100
AcDbProxyObject
 90
      499
 91
      503
 93
      225
310
90A3322203D2031272D302200000000000002100000000000000284000
  0
ACAD_PROXY_OBJECT
  5
67
102
{ACAD_REACTORS
330
47
102
}
330
47
100
AcDbProxyObject
 90
      499
 91
      503
 93
      225
310
90A3622203D2031272D302200000000000006100000000000000284000
  0
ACAD_PROXY_OBJECT
  5
68
102
{ACAD_REACTORS
330
47
102
}
330
47
100
AcDbProxyObject
 90
      499
 91
      503
 93
      249
310
90D31272D3022203D2031272D30220000000000000A100000000000000284000
  0
ACAD_PROXY_OBJECT
  5
2F
102
{ACAD_REACTORS
330
2A
102
}
330
2A
100
AcDbProxyObject
 90
      499
 91
      501
 93
      436
310
42CC9915DA5C99599C985B595049028333333333333E33F0000000000000F90107901411070040501600405405064090741402480A0340
1001
ACAD
1000
AcDbSavedByObjectVersion
1070
     0
  0
ACAD_PROXY_OBJECT
  5
32
102
{ACAD_REACTORS
330
2A
102
}
330
2A
100
AcDbProxyObject
 90
      499
 91
      501
 93
      388
310
4150985CDA58D07406404333333333333E33F0000000000000F90107A41107004050150841D405064090741402480A0350
1001
ACAD
1000
AcDbSavedByObjectVersion
1070
     0
  0
ACAD_PROXY_OBJECT
  5
36
102
{ACAD_REACTORS
330
2A
102
}
330
2A
100
AcDbProxyObject
 90
      499
 91
      501
 93
      428
310
42109C9A59DA1D195B90C409028333333333333E33F0000000000000F9010790141107004050150841D405064090741402480A029950
1001
ACAD
1000
AcDbSavedByObjectVersion
1070
     0
  0
ACAD_PROXY_OBJECT
  5
3A
102
{ACAD_REACTORS
330
2A
102
}
330
2A
100
AcDbProxyObject
 90
      499
 91
      501
 93
      452
310
42D0DBDB1BDC90DA185B99D95104090240C333333333333E33F0000000000000F90108901411070040501508421405064090741402480A0350
1001
ACAD
1000
AcDbSavedByObjectVersion
1070
     0
  0
ACAD_PROXY_OBJECT
  5
34
102
{ACAD_REACTORS
330
2A
102
}
330
2A
100
AcDbProxyObject
 90
      499
 91
      501
 93
      500
310
4290DBDB98D95C1D1D585B10940D028333333333333E33F0000000000000F90107902409070040501000000000018199010841D405064090740C02480A0340
1001
ACAD
1000
AcDbSavedByObjectVersion
1070
     0
  0
ACAD_PROXY_OBJECT
  5
35
102
{ACAD_REACTORS
330
2A
102
}
330
2A
100
AcDbProxyObject
 90
      499
 91
      501
 93
      412
310
40D11A5B50B409028333333333333E33F0000000000000F9010790141107004050150841D405064090741402480A02677FFFFFD0
1001
ACAD
1000
AcDbSavedByObjectVersion
1070
     0
  0
ACAD_PROXY_OBJECT
  5
3D
102
{ACAD_REACTORS
330
2A
102
}
330
2A
100
AcDbProxyObject
 90
      499
 91
      501
 93
      452
310
43115919D950DBDB1BDC93D999916409028333333333333E33F0000000000000F9010790141107004050150841D405064090741402480A0350
1001
ACAD
1000
AcDbSavedByObjectVersion
1070
     0
  0
ACAD_PROXY_OBJECT
  5
39
102
{ACAD_REACTORS
330
2A
102
}
330
2A
100
AcDbProxyObject
 90
      499
 91
      501
 93
      444
310
42D19858D95C185D1D195C9B90F409028333333333333E33F0000000000000F9010790141107004050150841D405064090741402480A0350
1001
ACAD
1000
AcDbSavedByObjectVersion
1070
     0
  0
ACAD_PROXY_OBJECT
  5
2B
102
{ACAD_REACTORS
330
2A
102
}
330
2A
100
AcDbProxyObject
 90
      499
 91
      501
 93
      380
310
41119B185D240901404333333333333E33F0000000000000F9010740A907004050150841D405064090741402480A1B50
1001
ACAD
1000
AcDbSavedByObjectVersion
1070
     0
  0
ACAD_PROXY_OBJECT
  5
2C
102
{ACAD_REACTORS
330
2A
102
}
330
2A
100
AcDbProxyObject
 90
      499
 91
      501
 93
      468
310
43519B185D15DA5D1A115919D95CD0140901404333333333333E33F0000000000000F90107409019070040501600405405064090741402480A1B50
1001
ACAD
1000
AcDbSavedByObjectVersion
1070
     0
  0
ACAD_PROXY_OBJECT
  5
2D
102
{ACAD_REACTORS
330
2A
102
}
330
2A
100
AcDbProxyObject
 90
      499
 91
      501
 93
      404
310
41D1DBDD5C985D5910240902404333333333333E33F0000000000000F9010740A9070040501641D405064090741402480A1B50
1001
ACAD
1000
AcDbSavedByObjectVersion
1070
     0
  0
ACAD_PROXY_OBJECT
  5
2E
102
{ACAD_REACTORS
330
2A
102
}
330
2A
100
AcDbProxyObject
 90
      499
 91
      501
 93
      492
310
4411DBDD5C985D5915DA5D1A115919D95CD0340902404333333333333E33F0000000000000F90107409019070040501600405405064090741402480A1B50
1001
ACAD
1000
AcDbSavedByObjectVersion
1070
     0
  0
ACAD_PROXY_OBJECT
  5
31
102
{ACAD_REACTORS
330
2A
102
}
330
2A
100
AcDbProxyObject
 90
      499
 91
      501
 93
      476
310
41921A5919195B90640502408333333333333E33F0000000000000F901079024090700405020000000000001110200405405064090740C02480A0340
1001
ACAD
1000
AcDbSavedByObjectVersion
1070
     0
  0
ACAD_PROXY_OBJECT
  5
3B
102
{ACAD_REACTORS
330
2A
102
}
330
2A
100
AcDbProxyObject
 90
      499
 91
      501
 93
      428
310
42529A5D1D195C93D999914409028333333333333E33F0000000000000F9010790141107004050150A41D405064090741402480A0350
1001
ACAD
1000
AcDbSavedByObjectVersion
1070
     0
  0
ACAD_PROXY_OBJECT
  5
38
102
{ACAD_REACTORS
330
2A
102
}
330
2A
100
AcDbProxyObject
 90
      499
 91
      501
 93
      444
310
42D31A5B995C185D1D195C9B90E409028333333333333E33F0000000000000F9010790141107004050750841D405064090741402483A0350
1001
ACAD
1000
AcDbSavedByObjectVersion
1070
     0
  0
ACAD_PROXY_OBJECT
  5
3C
102
{ACAD_REACTORS
330
2A
102
}
330
2A
100
AcDbProxyObject
 90
      499
 91
      501
 93
      444
310
42D3DD995C9A185B99D3D999915409028333333333333E33F0000000000000F9010790141107004050150941D405064090741402480A0350
1001
ACAD
1000
AcDbSavedByObjectVersion
1070
     0
  0
ACAD_PROXY_OBJECT
  5
33
102
{ACAD_REACTORS
330
2A
102
}
330
2A
100
AcDbProxyObject
 90
      499
 91
      501
 93
      428
310
425499585B1A5CDD1A58D08409038333333333333E33F0000000000000F9010740A907004050150800405405064090740C02480A1B40
1001
ACAD
1000
AcDbSavedByObjectVersion
1070
     0
  0
ACAD_PROXY_OBJECT
  5
42
102
{ACAD_REACTORS
330
2A
102
}
330
2A
100
AcDbProxyObject
 90
      499
 91
      501
 93
      420
310
4194DA1859195911B40902404333333333333E33F0000000000000F9010740A41107004050150800405405064090840C02480A0B40
1001
ACAD
1000
AcDbSavedByObjectVersion
1070
     0
  0
ACAD_PROXY_OBJECT
  5
41
102
{ACAD_REACTORS
330
2A
102
}
330
2A
100
AcDbProxyObject
 90
      499
 91
      501
 93
      516
310
4454DA18591959081DDA5D1A08195919D95CD1A40902404333333333333E33F0000000000000F901074090142907004050250800405405064090740C02480A0B40
1001
ACAD
1000
AcDbSavedByObjectVersion
1070
     0
  0
ACAD_PROXY_OBJECT
  5
3E
102
{ACAD_REACTORS
330
2A
102
}
330
2A
100
AcDbProxyObject
 90
      499
 91
      501
 93
      532
310
4394DA1859195CC81BD98811DC985E5174090240C333333333333E33F0000000000000F901079024090741D01000000000000111010841D405064090740C02480A0340
1001
ACAD
1000
AcDbSavedByObjectVersion
1070
     0
  0
ACAD_PROXY_OBJECT
  5
3F
102
{ACAD_REACTORS
330
2A
102
}
330
2A
100
AcDbProxyObject
 90
      499
 91
      501
 93
      476
310
41D4DAD95D18DA1E51840502408333333333333E33F0000000000000F901079024090741D01000000000000111010B41D405064090741802480A0340
1001
ACAD
1000
AcDbSavedByObjectVersion
1070
     0
  0
ACAD_PROXY_OBJECT
  5
37
102
{ACAD_REACTORS
330
2A
102
}
330
2A
100
AcDbProxyObject
 90
      499
 91
      501
 93
      412
310
41D51A1A58DAD95B90D409028333333333333E33F0000000000000F9010790141107004050150C41D405064090741402480A0350
1001
ACAD
1000
AcDbSavedByObjectVersion
1070
     0
  0
ACAD_PROXY_OBJECT
  5
30
102
{ACAD_REACTORS
330
2A
102
}
330
2A
100
AcDbProxyObject
 90
      499
 91
      501
 93
      420
310
4255DA5C99599C985B595059028333333333333E33F0000000000000F90107901411070040501600405405064090740C02480A0340
1001
ACAD
1000
AcDbSavedByObjectVersion
1070
     0
  0
ACAD_PROXY_OBJECT
  5
40
102
{ACAD_REACTORS
330
2A
102
}
330
2A
100
AcDbProxyObject
 90
      499
 91
      501
 93
      404
310
41560B54985E51940902404000000000000E03F0000000000000F9010740501907004050150841D405064090740C02480A1B40
1001
ACAD
1000
AcDbSavedByObjectVersion
1070
     0
  0
XRECORD
  5
297
102
{ACAD_REACTORS
330
28D
102
}
330
28D
100
AcDbXrecord
340
0
  0
XRECORD
  5
296
102
{ACAD_REACTORS
330
28D
102
}
330
28D
100
AcDbXrecord
 90
        0
  0
XRECORD
  5
2AD
102
{ACAD_REACTORS
330
28D
102
}
330
28D
100
AcDbXrecord
1000
DSTYLE
1002
{
1070
   179
 70
     2
1070
   171
 70
     2
1070
   143
 40
25.4
1070
   274
 70
     2
1070
    41
 40
3.0
1070
   141
 40
0.09
1070
    43
 40
0.38
1070
   278
 70
    46
1070
    44
 40
1.5
1070
    42
 40
0.0625
1070
   147
 40
1.5
1070
   272
 70
     4
1070
    73
 70
     1
1070
   172
 70
     0
1070
    74
 70
     1
1070
   283
 70
     1
1070
   340
340
6F
1070
   140
 40
3.0
1070
   284
 70
     0
1070
    78
 70
     0
1002
}
  0
XRECORD
  5
298
102
{ACAD_REACTORS
330
28D
102
}
330
28D
100
AcDbXrecord
  1
{ABA74294-A434-4249-B072-7BB7D1D57746}
  0
XRECORD
  5
290
102
{ACAD_REACTORS
330
28D
102
}
330
28D
100
AcDbXrecord
  1

  0
XRECORD
  5
295
102
{ACAD_REACTORS
330
28D
102
}
330
28D
100
AcDbXrecord
 90
        4
  0
XRECORD
  5
292
102
{ACAD_REACTORS
330
28D
102
}
330
28D
100
AcDbXrecord
340
1A
  0
XRECORD
  5
294
102
{ACAD_REACTORS
330
28D
102
}
330
28D
100
AcDbXrecord
 90
    10269
  0
XRECORD
  5
293
102
{ACAD_REACTORS
330
28D
102
}
330
28D
100
AcDbXrecord
340
19
  0
XRECORD
  5
29A
102
{ACAD_REACTORS
330
28D
102
}
330
28D
100
AcDbXrecord
 40
0.0
  0
XRECORD
  5
29D
102
{ACAD_REACTORS
330
28D
102
}
330
28D
100
AcDbXrecord
340
0
  0
XRECORD
  5
2A3
102
{ACAD_REACTORS
330
28D
102
}
330
28D
100
AcDbXrecord
 10
0.0
 20
0.0
 30
0.0
  0
XRECORD
  5
29F
102
{ACAD_REACTORS
330
28D
102
}
330
28D
100
AcDbXrecord
 10
0.0
 20
0.0
 30
0.0
  0
XRECORD
  5
2A2
102
{ACAD_REACTORS
330
28D
102
}
330
28D
100
AcDbXrecord
 10
0.0
 20
0.0
 30
0.0
  0
XRECORD
  5
2A0
102
{ACAD_REACTORS
330
28D
102
}
330
28D
100
AcDbXrecord
 10
0.0
 20
0.0
 30
0.0
  0
XRECORD
  5
2A1
102
{ACAD_REACTORS
330
28D
102
}
330
28D
100
AcDbXrecord
 10
0.0
 20
0.0
 30
0.0
  0
XRECORD
  5
29E
102
{ACAD_REACTORS
330
28D
102
}
330
28D
100
AcDbXrecord
 10
0.0
 20
0.0
 30
0.0
  0
XRECORD
  5
29B
102
{ACAD_REACTORS
330
28D
102
}
330
28D
100
AcDbXrecord
340
0
  0
XRECORD
  5
29C
102
{ACAD_REACTORS
330
28D
102
}
330
28D
100
AcDbXrecord
 70
     0
  0
XRECORD
  5
291
102
{ACAD_REACTORS
330
28D
102
}
330
28D
100
AcDbXrecord
  1

  0
XRECORD
  5
28E
102
{ACAD_REACTORS
330
28D
102
}
330
28D
100
AcDbXrecord
 90
        1
  0
XRECORD
  5
28F
102
{ACAD_REACTORS
330
28D
102
}
330
28D
100
AcDbXrecord
 90
       70
  0
XRECORD
  5
2A6
102
{ACAD_REACTORS
330
28D
102
}
330
28D
100
AcDbXrecord
340
0
  0
XRECORD
  5
2AC
102
{ACAD_REACTORS
330
28D
102
}
330
28D
100
AcDbXrecord
 10
0.0
 20
0.0
 30
0.0
  0
XRECORD
  5
2A8
102
{ACAD_REACTORS
330
28D
102
}
330
28D
100
AcDbXrecord
 10
0.0
 20
0.0
 30
0.0
  0
XRECORD
  5
2AB
102
{ACAD_REACTORS
330
28D
102
}
330
28D
100
AcDbXrecord
 10
0.0
 20
0.0
 30
0.0
  0
XRECORD
  5
2A9
102
{ACAD_REACTORS
330
28D
102
}
330
28D
100
AcDbXrecord
 10
0.0
 20
0.0
 30
0.0
  0
XRECORD
  5
2AA
102
{ACAD_REACTORS
330
28D
102
}
330
28D
100
AcDbXrecord
 10
0.0
 20
0.0
 30
0.0
  0
XRECORD
  5
2A7
102
{ACAD_REACTORS
330
28D
102
}
330
28D
100
AcDbXrecord
 10
0.0
 20
0.0
 30
0.0
  0
XRECORD
  5
2A4
102
{ACAD_REACTORS
330
28D
102
}
330
28D
100
AcDbXrecord
340
0
  0
XRECORD
  5
2A5
102
{ACAD_REACTORS
330
28D
102
}
330
28D
100
AcDbXrecord
 70
     0
  0
XRECORD
  5
299
102
{ACAD_REACTORS
330
28D
102
}
330
28D
100
AcDbXrecord
  1
{FAEB1C32-E019-11D5-929B-00C0DF256EC4}
  0
DICTIONARYVAR
  5
2B7
102
{ACAD_REACTORS
330
2AE
102
}
330
2AE
100
DictionaryVariables
280
     0
  1
1:1
  0
DICTIONARYVAR
  5
2B0
102
{ACAD_REACTORS
330
2AE
102
}
330
2AE
100
DictionaryVariables
280
     0
  1
Standard
  0
DICTIONARYVAR
  5
2AF
102
{ACAD_REACTORS
330
2AE
102
}
330
2AE
100
DictionaryVariables
280
     0
  1
Standard
  0
DICTIONARYVAR
  5
2B3
102
{ACAD_REACTORS
330
2AE
102
}
330
2AE
100
DictionaryVariables
280
     0
  1
2
  0
DICTIONARYVAR
  5
2B4
102
{ACAD_REACTORS
330
2AE
102
}
330
2AE
100
DictionaryVariables
280
     0
  1
1
  0
DICTIONARYVAR
  5
2B8
102
{ACAD_REACTORS
330
2AE
102
}
330
2AE
100
DictionaryVariables
280
     0
  1
1
  0
DICTIONARY
  5
2BB
330
45
100
AcDbDictionary
280
     1
  3
ACAD_XREC_ROUNDTRIP
360
2BC
  0
DICTIONARY
  5
2B9
330
44
100
AcDbDictionary
280
     1
  3
ACAD_XREC_ROUNDTRIP
360
2BA
  0
DICTIONARY
  5
2BD
330
46
100
AcDbDictionary
280
     1
  3
ACAD_XREC_ROUNDTRIP
360
2BE
  0
XRECORD
  5
2BC
102
{ACAD_REACTORS
330
2BB
102
}
330
2BB
100
AcDbXrecord
102
MATERIAL
148
0.0
149
0.0
149
0.0
 93
        0
 94
      127
282
     0
 72
     1
 77
     1
171
     1
175
     1
179
     1
273
     0
  0
XRECORD
  5
2BA
102
{ACAD_REACTORS
330
2B9
102
}
330
2B9
100
AcDbXrecord
102
MATERIAL
148
0.0
149
0.0
149
0.0
 93
        0
 94
      127
282
     0
 72
     1
 77
     1
171
     1
175
     1
179
     1
273
     0
  0
XRECORD
  5
2BE
102
{ACAD_REACTORS
330
2BD
102
}
330
2BD
100
AcDbXrecord
102
MATERIAL
148
0.0
149
0.0
149
0.0
 93
        0
 94
      127
282
     0
 72
     1
 77
     1
171
     1
175
     1
179
     1
273
     0
  0
ENDSEC
  0
EOF
