  0
SECTION
  2
HEADER
  9
$ACADVER
  1
AC1014
  9
$ACADMAINTVER
 70
     9
  9
$DWGCODEPAGE
  3
ANSI_932
  9
$INSBASE
 10
0.0
 20
0.0
 30
0.0
  9
$EXTMIN
 10
31.99216036244129
 20
-19.50750281355509
 30
0.0
  9
$EXTMAX
 10
225.131689721232
 20
205.631689721232
 30
0.0
  9
$LIMMIN
 10
0.0
 20
0.0
  9
$LIMMAX
 10
12.0
 20
9.0
  9
$ORTHOMODE
 70
     0
  9
$REGENMODE
 70
     1
  9
$FILLMODE
 70
     1
  9
$QTEXTMODE
 70
     0
  9
$MIRRTEXT
 70
     1
  9
$DRAGMODE
 70
     2
  9
$LTSCALE
 40
1.0
  9
$OSMODE
 70
    37
  9
$ATTMODE
 70
     1
  9
$TEXTSIZE
 40
0.2
  9
$TRACEWID
 40
0.05
  9
$TEXTSTYLE
  7
STANDARD
  9
$CLAYER
  8
0
  9
$CELTYPE
  6
BYLAYER
  9
$CECOLOR
 62
   256
  9
$CELTSCALE
 40
1.0
  9
$DELOBJ
 70
     1
  9
$DISPSILH
 70
     0
  9
$DIMSCALE
 40
1.0
  9
$DIMASZ
 40
3.0
  9
$DIMEXO
 40
0.0625
  9
$DIMDLI
 40
0.38
  9
$DIMRND
 40
0.0
  9
$DIMDLE
 40
0.0
  9
$DIMEXE
 40
1.5
  9
$DIMTP
 40
0.0
  9
$DIMTM
 40
0.0
  9
$DIMTXT
 40
3.0
  9
$DIMCEN
 40
0.09
  9
$DIMTSZ
 40
0.0
  9
$DIMTOL
 70
     0
  9
$DIMLIM
 70
     0
  9
$DIMTIH
 70
     1
  9
$DIMTOH
 70
     1
  9
$DIMSE1
 70
     0
  9
$DIMSE2
 70
     0
  9
$DIMTAD
 70
     1
  9
$DIMZIN
 70
     0
  9
$DIMBLK
  1

  9
$DIMASO
 70
     1
  9
$DIMSHO
 70
     1
  9
$DIMPOST
  1

  9
$DIMAPOST
  1

  9
$DIMALT
 70
     0
  9
$DIMALTD
 70
     2
  9
$DIMALTF
 40
25.4
  9
$DIMLFAC
 40
1.0
  9
$DIMTOFL
 70
     0
  9
$DIMTVP
 40
0.0
  9
$DIMTIX
 70
     0
  9
$DIMSOXD
 70
     0
  9
$DIMSAH
 70
     0
  9
$DIMBLK1
  1

  9
$DIMBLK2
  1

  9
$DIMSTYLE
  2
STANDARD
  9
$DIMCLRD
 70
     0
  9
$DIMCLRE
 70
     0
  9
$DIMCLRT
 70
     0
  9
$DIMTFAC
 40
1.0
  9
$DIMGAP
 40
1.5
  9
$DIMJUST
 70
     0
  9
$DIMSD1
 70
     0
  9
$DIMSD2
 70
     0
  9
$DIMTOLJ
 70
     1
  9
$DIMTZIN
 70
     0
  9
$DIMALTZ
 70
     0
  9
$DIMALTTZ
 70
     0
  9
$DIMFIT
 70
     3
  9
$DIMUPT
 70
     0
  9
$DIMUNIT
 70
     2
  9
$DIMDEC
 70
     2
  9
$DIMTDEC
 70
     4
  9
$DIMALTU
 70
     2
  9
$DIMALTTD
 70
     2
  9
$DIMTXSTY
  7
ＭＳ_ゴシック
  9
$DIMAUNIT
 70
     0
  9
$LUNITS
 70
     2
  9
$LUPREC
 70
     4
  9
$SKETCHINC
 40
0.1
  9
$FILLETRAD
 40
0.5
  9
$AUNITS
 70
     0
  9
$AUPREC
 70
     0
  9
$MENU
  1
.
  9
$ELEVATION
 40
0.0
  9
$PELEVATION
 40
0.0
  9
$THICKNESS
 40
0.0
  9
$LIMCHECK
 70
     0
  9
$CHAMFERA
 40
0.0
  9
$CHAMFERB
 40
0.0
  9
$CHAMFERC
 40
0.0
  9
$CHAMFERD
 40
0.0
  9
$SKPOLY
 70
     0
  9
$TDCREATE
 40
2459277.747046713
  9
$TDUPDATE
 40
2459277.747047072
  9
$TDINDWG
 40
0.0000000116
  9
$TDUSRTIMER
 40
0.0000000116
  9
$USRTIMER
 70
     1
  9
$ANGBASE
 50
0.0
  9
$ANGDIR
 70
     0
  9
$PDMODE
 70
     0
  9
$PDSIZE
 40
0.0
  9
$PLINEWID
 40
0.0
  9
$COORDS
 70
     1
  9
$SPLFRAME
 70
     0
  9
$SPLINETYPE
 70
     6
  9
$SPLINESEGS
 70
     8
  9
$ATTDIA
 70
     0
  9
$ATTREQ
 70
     1
  9
$HANDLING
 70
     1
  9
$HANDSEED
  5
307
  9
$SURFTAB1
 70
     6
  9
$SURFTAB2
 70
     6
  9
$SURFTYPE
 70
     6
  9
$SURFU
 70
     6
  9
$SURFV
 70
     6
  9
$UCSNAME
  2

  9
$UCSORG
 10
0.0
 20
0.0
 30
0.0
  9
$UCSXDIR
 10
1.0
 20
0.0
 30
0.0
  9
$UCSYDIR
 10
0.0
 20
1.0
 30
0.0
  9
$PUCSNAME
  2

  9
$PUCSORG
 10
0.0
 20
0.0
 30
0.0
  9
$PUCSXDIR
 10
1.0
 20
0.0
 30
0.0
  9
$PUCSYDIR
 10
0.0
 20
1.0
 30
0.0
  9
$USERI1
 70
     0
  9
$USERI2
 70
     0
  9
$USERI3
 70
     0
  9
$USERI4
 70
     0
  9
$USERI5
 70
     0
  9
$USERR1
 40
0.0
  9
$USERR2
 40
0.0
  9
$USERR3
 40
0.0
  9
$USERR4
 40
0.0
  9
$USERR5
 40
0.0
  9
$WORLDVIEW
 70
     1
  9
$SHADEDGE
 70
     3
  9
$SHADEDIF
 70
    70
  9
$TILEMODE
 70
     1
  9
$MAXACTVP
 70
    64
  9
$PINSBASE
 10
0.0
 20
0.0
 30
0.0
  9
$PLIMCHECK
 70
     0
  9
$PEXTMIN
 10
1.000000000000000E+20
 20
1.000000000000000E+20
 30
1.000000000000000E+20
  9
$PEXTMAX
 10
-1.000000000000000E+20
 20
-1.000000000000000E+20
 30
-1.000000000000000E+20
  9
$PLIMMIN
 10
0.0
 20
0.0
  9
$PLIMMAX
 10
12.0
 20
9.0
  9
$UNITMODE
 70
     0
  9
$VISRETAIN
 70
     1
  9
$PLINEGEN
 70
     0
  9
$PSLTSCALE
 70
     1
  9
$TREEDEPTH
 70
  3020
  9
$PICKSTYLE
 70
     1
  9
$CMLSTYLE
  2
STANDARD
  9
$CMLJUST
 70
     0
  9
$CMLSCALE
 40
1.0
  9
$PROXYGRAPHICS
 70
     1
  9
$MEASUREMENT
 70
     1
  0
ENDSEC
  0
SECTION
  2
CLASSES
  0
CLASS
  1
ACDBDICTIONARYWDFLT
  2
AcDbDictionaryWithDefault
  3
ObjectDBX Classes
 90
        0
280
     0
281
     0
  0
CLASS
  1
VISUALSTYLE
  2
AcDbVisualStyle
  3
ObjectDBX Classes
 90
     4095
280
     0
281
     0
  0
CLASS
  1
MATERIAL
  2
AcDbMaterial
  3
ObjectDBX Classes
 90
     1153
280
     0
281
     0
  0
CLASS
  1
SCALE
  2
AcDbScale
  3
ObjectDBX Classes
 90
     1153
280
     0
281
     0
  0
CLASS
  1
TABLESTYLE
  2
AcDbTableStyle
  3
ObjectDBX Classes
 90
     4095
280
     0
281
     0
  0
CLASS
  1
MLEADERSTYLE
  2
AcDbMLeaderStyle
  3
ACDB_MLEADERSTYLE_CLASS
 90
     4095
280
     0
281
     0
  0
CLASS
  1
SUN
  2
AcDbSun
  3
SCENEOE
 90
     1153
280
     0
281
     0
  0
CLASS
  1
DICTIONARYVAR
  2
AcDbDictionaryVar
  3
ObjectDBX Classes
 90
        0
280
     0
281
     0
  0
CLASS
  1
XRECORD
  2
AcDbXrecord
  3
ObjectDBX Classes
 90
        0
280
     0
281
     0
  0
CLASS
  1
LWPOLYLINE
  2
AcDbPolyline
  3
ObjectDBX Classes
 90
        0
280
     0
281
     1
  0
CLASS
  1
HATCH
  2
AcDbHatch
  3
ObjectDBX Classes
 90
        0
280
     0
281
     1
  0
CLASS
  1
ACDBPLACEHOLDER
  2
AcDbPlaceHolder
  3
ObjectDBX Classes
 90
        0
280
     0
281
     0
  0
CLASS
  1
LAYOUT
  2
AcDbLayout
  3
ObjectDBX Classes
 90
        0
280
     0
281
     0
  0
ENDSEC
  0
SECTION
  2
TABLES
  0
TABLE
  2
VPORT
  5
8
102
{ACAD_XDICTIONARY
360
2FC
102
}
330
0
100
AcDbSymbolTable
 70
     1
  0
VPORT
  5
29
330
8
100
AcDbSymbolTableRecord
100
AcDbViewportTableRecord
  2
*ACTIVE
 70
     0
 10
0.0
 20
0.0
 11
1.0
 21
1.0
 12
128.5619250418366
 22
93.06209345383846
 13
0.0
 23
0.0
 14
0.5
 24
0.5
 15
0.5
 25
0.5
 16
0.0
 26
0.0
 36
1.0
 17
0.0
 27
0.0
 37
0.0
 40
225.1391925347871
 41
1.6
 42
50.0
 43
0.0
 44
0.0
 50
0.0
 51
0.0
 71
     0
 72
   100
 73
     1
 74
     3
 75
     0
 76
     0
 77
     0
 78
     0
  0
ENDTAB
  0
TABLE
  2
LTYPE
  5
5
330
0
100
AcDbSymbolTable
 70
     2
  0
LTYPE
  5
14
330
5
100
AcDbSymbolTableRecord
100
AcDbLinetypeTableRecord
  2
BYBLOCK
 70
     0
  3

 72
    65
 73
     0
 40
0.0
  0
LTYPE
  5
15
330
5
100
AcDbSymbolTableRecord
100
AcDbLinetypeTableRecord
  2
BYLAYER
 70
     0
  3

 72
    65
 73
     0
 40
0.0
  0
LTYPE
  5
16
330
5
100
AcDbSymbolTableRecord
100
AcDbLinetypeTableRecord
  2
CONTINUOUS
 70
     0
  3
Solid line
 72
    65
 73
     0
 40
0.0
  0
LTYPE
  5
139
330
5
100
AcDbSymbolTableRecord
100
AcDbLinetypeTableRecord
  2
CENTER
 70
     0
  3

 72
    65
 73
     0
 40
0.0
  0
ENDTAB
  0
TABLE
  2
LAYER
  5
2
330
0
100
AcDbSymbolTable
 70
     2
  0
LAYER
  5
10
330
2
100
AcDbSymbolTableRecord
100
AcDbLayerTableRecord
  2
0
 70
     0
 62
     7
  6
CONTINUOUS
  0
LAYER
  5
6E
330
2
100
AcDbSymbolTableRecord
100
AcDbLayerTableRecord
  2
1
 70
     0
 62
     7
  6
CONTINUOUS
  0
ENDTAB
  0
TABLE
  2
STYLE
  5
3
330
0
100
AcDbSymbolTable
 70
     2
  0
STYLE
  5
11
330
3
100
AcDbSymbolTableRecord
100
AcDbTextStyleTableRecord
  2
STANDARD
 70
     0
 40
0.0
 41
1.0
 50
0.0
 71
     0
 42
0.2
  3
txt
  4

  0
STYLE
  5
6F
330
3
100
AcDbSymbolTableRecord
100
AcDbTextStyleTableRecord
  2
ＭＳ_ゴシック
 70
     0
 40
0.0
 41
1.0
 50
0.0
 71
     0
 42
0.2
  3
ＭＳ ゴシック.shx
  4

  0
ENDTAB
  0
TABLE
  2
VIEW
  5
6
330
0
100
AcDbSymbolTable
 70
     0
  0
ENDTAB
  0
TABLE
  2
UCS
  5
7
330
0
100
AcDbSymbolTable
 70
     0
  0
ENDTAB
  0
TABLE
  2
APPID
  5
9
330
0
100
AcDbSymbolTable
 70
     2
  0
APPID
  5
12
330
9
100
AcDbSymbolTableRecord
100
AcDbRegAppTableRecord
  2
ACAD
 70
     0
  0
APPID
  5
306
330
9
100
AcDbSymbolTableRecord
100
AcDbRegAppTableRecord
  2
ACAD_MLEADERVER
 70
     0
  0
ENDTAB
  0
TABLE
  2
DIMSTYLE
  5
A
330
0
100
AcDbSymbolTable
 70
     1
  0
DIMSTYLE
105
27
330
A
100
AcDbSymbolTableRecord
100
AcDbDimStyleTableRecord
  2
STANDARD
 70
     0
  3

  4

  5

  6

  7

 40
1.0
 41
0.18
 42
0.0625
 43
0.38
 44
0.18
 45
0.0
 46
0.0
 47
0.0
 48
0.0
140
0.18
141
0.09
142
0.0
143
25.4
144
1.0
145
0.0
146
1.0
147
0.09
 71
     0
 72
     0
 73
     1
 74
     1
 75
     0
 76
     0
 77
     0
 78
     0
170
     0
171
     2
172
     0
173
     0
174
     0
175
     0
176
     0
177
     0
178
     0
270
     2
271
     4
272
     4
273
     2
274
     2
340
11
275
     0
280
     0
281
     0
282
     0
283
     1
284
     0
285
     0
286
     0
287
     3
288
     0
  0
ENDTAB
  0
TABLE
  2
BLOCK_RECORD
  5
1
330
0
100
AcDbSymbolTable
 70
     0
  0
BLOCK_RECORD
  5
1F
330
1
100
AcDbSymbolTableRecord
100
AcDbBlockTableRecord
  2
*MODEL_SPACE
  0
BLOCK_RECORD
  5
1B
330
1
100
AcDbSymbolTableRecord
100
AcDbBlockTableRecord
  2
*PAPER_SPACE
  0
ENDTAB
  0
ENDSEC
  0
SECTION
  2
BLOCKS
  0
BLOCK
  5
20
330
1F
100
AcDbEntity
  8
0
100
AcDbBlockBegin
  2
*MODEL_SPACE
 70
     0
 10
0.0
 20
0.0
 30
0.0
  3
*MODEL_SPACE
  1

  0
ENDBLK
  5
21
330
1F
100
AcDbEntity
  8
0
100
AcDbBlockEnd
  0
BLOCK
  5
1C
330
1B
100
AcDbEntity
 67
     1
  8
0
100
AcDbBlockBegin
  2
*PAPER_SPACE
 70
     0
 10
0.0
 20
0.0
 30
0.0
  3
*PAPER_SPACE
  1

  0
ENDBLK
  5
1D
330
1B
100
AcDbEntity
 67
     1
  8
0
100
AcDbBlockEnd
  0
ENDSEC
  0
SECTION
  2
ENTITIES
  0
ELLIPSE
  5
70
330
1F
100
AcDbEntity
  8
1
  6
CONTINUOUS
 62
     7
100
AcDbEllipse
 10
67.72127817528009
 20
21.93168972123207
 30
0.0
 11
-0.5013751787742161
 21
0.0
 31
0.0
210
0.0
220
0.0
230
-1.0
 40
0.9972571861702894
 41
1.570796326794906
 42
3.141592653589798
  0
LINE
  5
71
330
1F
100
AcDbEntity
  8
1
  6
CONTINUOUS
 62
     7
100
AcDbLine
 10
75.49999999999996
 20
21.43168972123201
 30
0.0
 11
74.77734664594563
 21
21.43168972123204
 31
0.0
  0
LINE
  5
72
330
1F
100
AcDbEntity
  8
1
  6
CONTINUOUS
 62
     7
100
AcDbLine
 10
61.77734664594561
 20
21.43168972123201
 30
0.0
 11
55.22265335405429
 21
21.43168972123201
 31
0.0
  0
LINE
  5
73
330
1F
100
AcDbEntity
  8
1
  6
CONTINUOUS
 62
     7
100
AcDbLine
 10
54.49999999999996
 20
21.43168972123201
 30
0.0
 11
55.22265335405429
 21
21.43168972123201
 31
0.0
  0
LINE
  5
74
330
1F
100
AcDbEntity
  8
1
  6
CONTINUOUS
 62
     7
100
AcDbLine
 10
53.99999999999996
 20
17.63168972123205
 30
0.0
 11
53.99999999999996
 21
20.71191145141917
 31
0.0
  0
LINE
  5
75
330
1F
100
AcDbEntity
  8
1
  6
CONTINUOUS
 62
     7
100
AcDbLine
 10
52.99999999999995
 20
16.63168972123204
 30
0.0
 11
53.99999999999996
 21
17.63168972123205
 31
0.0
  0
LINE
  5
76
330
1F
100
AcDbEntity
  8
1
  6
CONTINUOUS
 62
     7
100
AcDbLine
 10
64.99999999999996
 20
57.13168972123206
 30
0.0
 11
64.42320508075683
 21
57.13168972123206
 31
0.0
  0
LINE
  5
77
330
1F
100
AcDbEntity
  8
1
  6
CONTINUOUS
 62
     7
100
AcDbLine
 10
65.57679491924308
 20
57.13168972123206
 30
0.0
 11
67.53573371356815
 21
57.13168972123206
 31
0.0
  0
LINE
  5
78
330
1F
100
AcDbEntity
  8
1
  6
CONTINUOUS
 62
     7
100
AcDbLine
 10
65.57679491924308
 20
57.13168972123206
 30
0.0
 11
65.57679491924308
 21
54.63168972123206
 31
0.0
  0
LINE
  5
79
330
1F
100
AcDbEntity
  8
1
  6
CONTINUOUS
 62
     7
100
AcDbLine
 10
67.72127817528009
 20
22.43168972123204
 30
0.0
 11
65.57679491924308
 21
22.43168972123204
 31
0.0
  0
LINE
  5
7A
330
1F
100
AcDbEntity
  8
1
  6
CONTINUOUS
 62
     7
100
AcDbLine
 10
54.49999999999996
 20
54.63168972123206
 30
0.0
 11
53.99999999999996
 21
54.63168972123206
 31
0.0
  0
LINE
  5
7B
330
1F
100
AcDbEntity
  8
1
  6
CONTINUOUS
 62
     7
100
AcDbLine
 10
64.42320508075684
 20
54.63168972123206
 30
0.0
 11
62.27872182471985
 21
54.63168972123206
 31
0.0
  0
LINE
  5
7C
330
1F
100
AcDbEntity
  8
1
  6
CONTINUOUS
 62
     7
100
AcDbLine
 10
64.99999999999996
 20
57.13168972123206
 30
0.0
 11
64.99999999999996
 21
54.63168972123206
 31
0.0
  0
LINE
  5
7D
330
1F
100
AcDbEntity
  8
1
  6
CONTINUOUS
 62
     7
100
AcDbLine
 10
74.77734664594563
 20
21.43168972123204
 30
0.0
 11
68.2226533540543
 21
21.43168972123201
 31
0.0
  0
ELLIPSE
  5
7E
330
1F
100
AcDbEntity
  8
1
  6
CONTINUOUS
 62
     7
100
AcDbEllipse
 10
54.49999999999996
 20
20.71191145141917
 30
0.0
 11
0.0
 21
-0.7197782698128707
 31
0.0
210
0.0
220
0.0
230
-1.0
 40
0.6946583704589906
 41
1.570796326794897
 42
3.141592653589793
  0
LINE
  5
7F
330
1F
100
AcDbEntity
  8
1
  6
CONTINUOUS
 62
     7
100
AcDbLine
 10
34.74684249545619
 20
16.63168972123204
 30
0.0
 11
52.99999999999995
 21
16.63168972123204
 31
0.0
  0
LINE
  5
80
330
1F
100
AcDbEntity
  8
1
  6
CONTINUOUS
 62
     7
100
AcDbLine
 10
34.74684249545619
 20
16.63168972123204
 30
0.0
 11
34.74684249545619
 21
4.631689721232034
 31
0.0
  0
LINE
  5
81
330
1F
100
AcDbEntity
  8
1
  6
CONTINUOUS
 62
     7
100
AcDbLine
 10
34.74684249545619
 20
4.631689721232034
 30
0.0
 11
33.9942361075039
 21
4.631689721232034
 31
0.0
  0
LINE
  5
82
330
1F
100
AcDbEntity
  8
1
  6
CONTINUOUS
 62
     7
100
AcDbLine
 10
61.77734664594561
 20
21.43168972123201
 30
0.0
 11
61.77734664594561
 21
21.93168972123204
 31
0.0
  0
LINE
  5
83
330
1F
100
AcDbEntity
  8
1
  6
CONTINUOUS
 62
     7
100
AcDbLine
 10
65.57679491924308
 20
57.13168972123206
 30
0.0
 11
64.99999999999997
 21
57.13168972123206
 31
0.0
  0
ELLIPSE
  5
84
330
1F
100
AcDbEntity
  8
1
  6
CONTINUOUS
 62
     7
100
AcDbEllipse
 10
75.49999999999996
 20
20.71191145141917
 30
0.0
 11
0.0
 21
-0.7197782698128707
 31
0.0
210
0.0
220
0.0
230
-1.0
 40
0.6946583704589906
 41
3.141592653589793
 42
4.71238898038469
  0
ELLIPSE
  5
85
330
1F
100
AcDbEntity
  8
1
  6
CONTINUOUS
 62
     7
100
AcDbEllipse
 10
62.27872182471985
 20
21.93168972123204
 30
0.0
 11
0.5013751787742161
 21
0.0
 31
0.0
210
0.0
220
0.0
230
-1.0
 40
0.9972571861702617
 41
3.141592653589783
 42
4.712388980384681
  0
LINE
  5
86
330
1F
100
AcDbEntity
  8
1
  6
CONTINUOUS
 62
     7
100
AcDbLine
 10
75.49999999999996
 20
54.63168972123206
 30
0.0
 11
74.77734664594563
 21
54.63168972123206
 31
0.0
  0
LINE
  5
87
330
1F
100
AcDbEntity
  8
1
  6
CONTINUOUS
 62
     7
100
AcDbLine
 10
62.27872182471985
 20
54.63168972123206
 30
0.0
 11
61.77734664594561
 21
54.63168972123206
 31
0.0
  0
LINE
  5
88
330
1F
100
AcDbEntity
  8
1
  6
CONTINUOUS
 62
     7
100
AcDbLine
 10
64.99999999999996
 20
54.63168972123206
 30
0.0
 11
64.42320508075684
 21
54.63168972123206
 31
0.0
  0
LINE
  5
89
330
1F
100
AcDbEntity
  8
1
  6
CONTINUOUS
 62
     7
100
AcDbLine
 10
64.42320508075684
 20
54.63168972123206
 30
0.0
 11
64.42320508075683
 21
57.13168972123206
 31
0.0
  0
LINE
  5
8A
330
1F
100
AcDbEntity
  8
1
  6
CONTINUOUS
 62
     7
100
AcDbLine
 10
61.96289110765757
 20
57.13168972123206
 30
0.0
 11
62.46426628643179
 21
57.13168972123206
 31
0.0
  0
LINE
  5
8B
330
1F
100
AcDbEntity
  8
1
  6
CONTINUOUS
 62
     7
100
AcDbLine
 10
68.2226533540543
 20
54.63168972123206
 30
0.0
 11
67.72127817528008
 21
54.63168972123206
 31
0.0
  0
LINE
  5
8C
330
1F
100
AcDbEntity
  8
1
  6
CONTINUOUS
 62
     7
100
AcDbLine
 10
75.99999999999996
 20
54.63168972123206
 30
0.0
 11
75.49999999999996
 21
54.63168972123206
 31
0.0
  0
LINE
  5
8D
330
1F
100
AcDbEntity
  8
1
  6
CONTINUOUS
 62
     7
100
AcDbLine
 10
54.49999999999996
 20
54.63168972123206
 30
0.0
 11
55.22265335405429
 21
54.63168972123206
 31
0.0
  0
LINE
  5
8E
330
1F
100
AcDbEntity
  8
1
  6
CONTINUOUS
 62
     7
100
AcDbLine
 10
75.49999999999996
 20
57.13168972123206
 30
0.0
 11
74.96289110765757
 21
57.13168972123206
 31
0.0
  0
LINE
  5
8F
330
1F
100
AcDbEntity
  8
1
  6
CONTINUOUS
 62
     7
100
AcDbLine
 10
37.673568469133
 20
57.13168972123206
 30
0.0
 11
35.60889493156446
 21
73.7549465546645
 31
0.0
  0
LINE
  5
90
330
1F
100
AcDbEntity
  8
1
  6
CONTINUOUS
 62
     7
100
AcDbLine
 10
67.53573371356813
 20
57.13168972123206
 30
0.0
 11
68.03710889234235
 21
57.13168972123206
 31
0.0
  0
LINE
  5
91
330
1F
100
AcDbEntity
  8
1
  6
CONTINUOUS
 62
     7
100
AcDbLine
 10
67.72127817528009
 20
54.63168972123206
 30
0.0
 11
65.57679491924308
 21
54.63168972123206
 31
0.0
  0
LINE
  5
92
330
1F
100
AcDbEntity
  8
1
  6
CONTINUOUS
 62
     7
100
AcDbLine
 10
54.49999999999996
 20
57.13168972123206
 30
0.0
 11
55.03710889234235
 21
57.13168972123206
 31
0.0
  0
LINE
  5
93
330
1F
100
AcDbEntity
  8
1
  6
CONTINUOUS
 62
     7
100
AcDbLine
 10
65.57679491924308
 20
54.63168972123206
 30
0.0
 11
64.99999999999997
 21
54.63168972123206
 31
0.0
  0
LINE
  5
94
330
1F
100
AcDbEntity
  8
1
  6
CONTINUOUS
 62
     7
100
AcDbLine
 10
68.2226533540543
 20
21.43168972123201
 30
0.0
 11
68.2226533540543
 21
21.93168972123207
 31
0.0
  0
LINE
  5
95
330
1F
100
AcDbEntity
  8
1
  6
CONTINUOUS
 62
     7
100
AcDbLine
 10
94.39110506843545
 20
73.75494655466449
 30
0.0
 11
92.32643153086691
 21
57.13168972123207
 31
0.0
  0
LINE
  5
96
330
1F
100
AcDbEntity
  8
1
  6
CONTINUOUS
 62
     7
100
AcDbLine
 10
62.46426628643179
 20
57.13168972123206
 30
0.0
 11
64.42320508075683
 21
57.13168972123206
 31
0.0
  0
LINE
  5
97
330
1F
100
AcDbEntity
  8
1
  6
CONTINUOUS
 62
     7
100
AcDbLine
 10
75.49999999999996
 20
57.13168972123206
 30
0.0
 11
75.99999999999996
 21
57.13168972123206
 31
0.0
  0
LINE
  5
98
330
1F
100
AcDbEntity
  8
1
  6
CONTINUOUS
 62
     7
100
AcDbLine
 10
65.57679491924308
 20
22.43168972123204
 30
0.0
 11
64.99999999999997
 21
23.43072782690871
 31
0.0
  0
LINE
  5
99
330
1F
100
AcDbEntity
  8
1
  6
CONTINUOUS
 62
     7
100
AcDbLine
 10
53.99999999999996
 20
57.13168972123206
 30
0.0
 11
54.49999999999996
 21
57.13168972123206
 31
0.0
  0
LINE
  5
9A
330
1F
100
AcDbEntity
  8
1
  6
CONTINUOUS
 62
     7
100
AcDbLine
 10
64.99999999999996
 20
23.43072782690871
 30
0.0
 11
64.42320508075684
 21
22.43168972123204
 31
0.0
  0
LINE
  5
9B
330
1F
100
AcDbEntity
  8
1
  6
CONTINUOUS
 62
     7
100
AcDbLine
 10
64.42320508075684
 20
22.43168972123204
 30
0.0
 11
62.27872182471985
 21
22.43168972123204
 31
0.0
  0
LINE
  5
9C
330
1F
100
AcDbEntity
  8
1
  6
CONTINUOUS
 62
     7
100
AcDbLine
 10
32.49377901892311
 20
9.631689721232037
 30
0.0
 11
33.39599579625924
 21
5.121980059077512
 31
0.0
  0
LINE
  5
9D
330
1F
100
AcDbEntity
  8
1
  6
CONTINUOUS
 62
     7
100
AcDbLine
 10
96.49999999999997
 20
36.32663918354111
 30
0.0
 11
96.49999999999997
 21
19.03137650183985
 31
0.0
  0
ELLIPSE
  5
9E
330
1F
100
AcDbEntity
  8
1
  6
CONTINUOUS
 62
     7
100
AcDbEllipse
 10
32.08727532464103
 20
69.63168972123208
 30
0.0
 11
-0.0617223745001295
 21
4.999999941981584
 31
0.0
210
0.0
220
0.0
230
-1.0
 40
0.0123407145103209
 41
5.497939483423238
 42
5.925033105557829
  0
LINE
  5
9F
330
1F
100
AcDbEntity
  8
1
  6
CONTINUOUS
 62
     7
100
AcDbLine
 10
97.65089870143562
 20
54.63168972123206
 30
0.0
 11
97.50622098107681
 21
54.63168972123206
 31
0.0
  0
LINE
  5
A0
330
1F
100
AcDbEntity
  8
1
  6
CONTINUOUS
 62
     7
100
AcDbLine
 10
95.25315750454372
 20
16.63168972123204
 30
0.0
 11
95.25315750454372
 21
4.631689721232034
 31
0.0
  0
LINE
  5
A1
330
1F
100
AcDbEntity
  8
1
  6
CONTINUOUS
 62
     7
100
AcDbLine
 10
31.99999999999994
 20
9.63168972123201
 30
0.0
 11
31.99999999999994
 21
38.63168972123201
 31
0.0
  0
LINE
  5
A2
330
1F
100
AcDbEntity
  8
1
  6
CONTINUOUS
 62
     7
100
AcDbLine
 10
74.99999999999996
 20
16.13168972123204
 30
0.0
 11
74.99999999999996
 21
8.631689721232037
 31
0.0
  0
LINE
  5
A3
330
1F
100
AcDbEntity
  8
1
  6
CONTINUOUS
 62
     7
100
AcDbLine
 10
97.99999999999997
 20
38.63168972123201
 30
0.0
 11
97.99999999999997
 21
46.63168972123201
 31
0.0
  0
CIRCLE
  5
A4
330
1F
100
AcDbEntity
  8
1
  6
CONTINUOUS
 62
     7
100
AcDbCircle
 10
79.99999999999993
 20
32.63168972123206
 30
0.0
 40
2.500000000000002
  0
ELLIPSE
  5
A5
330
1F
100
AcDbEntity
  8
1
  6
CONTINUOUS
 62
     7
100
AcDbEllipse
 10
36.99999999999995
 20
54.61317582906683
 30
0.0
 11
0.0
 21
-2.121481911848855
 31
0.0
210
0.0
220
0.0
230
-1.0
 40
0.7070798546764602
 41
4.703662001819675
 42
7.862708612539498
  0
CIRCLE
  5
A6
330
1F
100
AcDbEntity
  8
1
  6
CONTINUOUS
 62
     7
100
AcDbCircle
 10
64.99999999999996
 20
32.63168972123206
 30
0.0
 40
2.500000000000002
  0
LINE
  5
A7
330
1F
100
AcDbEntity
  8
1
  6
CONTINUOUS
 62
     7
100
AcDbLine
 10
93.91388331075434
 20
36.32663918354111
 30
0.0
 11
96.49999999999997
 21
36.32663918354111
 31
0.0
  0
LINE
  5
A8
330
1F
100
AcDbEntity
  8
1
  6
CONTINUOUS
 62
     7
100
AcDbLine
 10
97.99999999999997
 20
64.38042706276121
 30
0.0
 11
97.99999999999997
 21
73.1672236271648
 31
0.0
  0
LINE
  5
A9
330
1F
100
AcDbEntity
  8
1
  6
CONTINUOUS
 62
     7
100
AcDbLine
 10
75.99999999999996
 20
17.63168972123205
 30
0.0
 11
75.99999999999996
 21
20.71191145141917
 31
0.0
  0
LINE
  5
AA
330
1F
100
AcDbEntity
  8
1
  6
CONTINUOUS
 62
     7
100
AcDbLine
 10
74.88125154450431
 20
16.63168972123204
 30
0.0
 11
74.96289110765758
 21
16.63168972123204
 31
0.0
  0
LINE
  5
AB
330
1F
100
AcDbEntity
  8
1
  6
CONTINUOUS
 62
     7
100
AcDbLine
 10
74.77734664594563
 20
18.03168972123203
 30
0.0
 11
74.77734664594563
 21
18.27007923089798
 31
0.0
  0
LINE
  5
AC
330
1F
100
AcDbEntity
  8
1
  6
CONTINUOUS
 62
     7
100
AcDbLine
 10
96.00576389249602
 20
4.631689721232034
 30
0.0
 11
95.25315750454372
 21
4.631689721232034
 31
0.0
  0
LINE
  5
AD
330
1F
100
AcDbEntity
  8
1
  6
CONTINUOUS
 62
     7
100
AcDbLine
 10
31.99999999999994
 20
9.63168972123201
 30
0.0
 11
32.49377901892311
 21
9.631689721232037
 31
0.0
  0
LINE
  5
AE
330
1F
100
AcDbEntity
  8
1
  6
CONTINUOUS
 62
     7
100
AcDbLine
 10
97.50622098107681
 20
9.631689721232037
 30
0.0
 11
97.99999999999997
 21
9.63168972123201
 31
0.0
  0
LINE
  5
AF
330
1F
100
AcDbEntity
  8
1
  6
CONTINUOUS
 62
     7
100
AcDbLine
 10
97.99999999999997
 20
60.84489315682846
 30
0.0
 11
97.99216036244133
 21
62.59832792317031
 31
0.0
  0
LINE
  5
B0
330
1F
100
AcDbEntity
  8
1
  6
CONTINUOUS
 62
     7
100
AcDbLine
 10
97.99999999999997
 20
46.63168972123201
 30
0.0
 11
97.99999999999997
 21
60.84489315682847
 31
0.0
  0
LINE
  5
B1
330
1F
100
AcDbEntity
  8
1
  6
CONTINUOUS
 62
     7
100
AcDbLine
 10
31.99999999999994
 20
46.63168972123201
 30
0.0
 11
31.99999999999994
 21
60.84489315682847
 31
0.0
  0
ELLIPSE
  5
B2
330
1F
100
AcDbEntity
  8
1
  6
CONTINUOUS
 62
     7
100
AcDbEllipse
 10
32.08727532464103
 20
60.84489315682846
 30
0.0
 11
-0.0617223745001295
 21
4.999999941981584
 31
0.0
210
0.0
220
0.0
230
1.0
 40
0.0123407145103209
 41
0.7852458237563384
 42
1.212339445890927
  0
LINE
  5
B3
330
1F
100
AcDbEntity
  8
1
  6
CONTINUOUS
 62
     7
100
AcDbLine
 10
32.3491012985643
 20
54.63168972123206
 30
0.0
 11
32.49377901892311
 21
54.63168972123206
 31
0.0
  0
LINE
  5
B4
330
1F
100
AcDbEntity
  8
1
  6
CONTINUOUS
 62
     7
100
AcDbLine
 10
74.77734664594563
 20
18.03168972123203
 30
0.0
 11
74.88125154450431
 21
16.63168972123204
 31
0.0
  0
LINE
  5
B5
330
1F
100
AcDbEntity
  8
1
  6
CONTINUOUS
 62
     7
100
AcDbLine
 10
36.08611668924558
 20
36.32663918354114
 30
0.0
 11
36.08611668924556
 21
19.03137650183985
 31
0.0
  0
LINE
  5
B6
330
1F
100
AcDbEntity
  8
1
  6
CONTINUOUS
 62
     7
100
AcDbLine
 10
74.96289110765755
 20
16.63168972123204
 30
0.0
 11
74.99999999999994
 21
16.13168972123204
 31
0.0
  0
LINE
  5
B7
330
1F
100
AcDbEntity
  8
1
  6
CONTINUOUS
 62
     7
100
AcDbLine
 10
74.80650861552088
 20
19.24260094954058
 30
0.0
 11
74.88034133166556
 21
20.27275855990351
 31
0.0
  0
LINE
  5
B8
330
1F
100
AcDbEntity
  8
1
  6
CONTINUOUS
 62
     7
100
AcDbLine
 10
74.8886733229728
 20
20.55062190808712
 30
0.0
 11
74.8886733229728
 21
21.03168972123203
 31
0.0
  0
LINE
  5
B9
330
1F
100
AcDbEntity
  8
1
  6
CONTINUOUS
 62
     7
100
AcDbLine
 10
74.85898620909889
 20
21.43168972123201
 30
0.0
 11
74.8886733229728
 21
21.03168972123203
 31
0.0
  0
LINE
  5
BA
330
1F
100
AcDbEntity
  8
1
  6
CONTINUOUS
 62
     7
100
AcDbLine
 10
74.9337291380823
 20
19.57810018944452
 30
0.0
 11
74.96289110765757
 21
20.55062190808712
 31
0.0
  0
LINE
  5
BB
330
1F
100
AcDbEntity
  8
1
  6
CONTINUOUS
 62
     7
100
AcDbLine
 10
32.3491012985643
 20
54.63168972123206
 30
0.0
 11
32.49377901892311
 21
42.90986599006528
 31
0.0
  0
LINE
  5
BC
330
1F
100
AcDbEntity
  8
1
  6
CONTINUOUS
 62
     7
100
AcDbLine
 10
96.00576389249602
 20
4.631689721232034
 30
0.0
 11
96.60400420374069
 21
5.121980059077512
 31
0.0
  0
ELLIPSE
  5
BD
330
1F
100
AcDbEntity
  8
1
  6
CONTINUOUS
 62
     7
100
AcDbEllipse
 10
92.99999999999997
 20
54.61317582906683
 30
0.0
 11
0.0
 21
-2.121481911848855
 31
0.0
210
0.0
220
0.0
230
-1.0
 40
0.7070798546764602
 41
4.703662001819675
 42
7.862708612539498
  0
LINE
  5
BE
330
1F
100
AcDbEntity
  8
1
  6
CONTINUOUS
 62
     7
100
AcDbLine
 10
34.61652012686002
 20
74.63168972123209
 30
0.0
 11
34.49999999999994
 21
74.63168972123209
 31
0.0
  0
LINE
  5
BF
330
1F
100
AcDbEntity
  8
1
  6
CONTINUOUS
 62
     7
100
AcDbLine
 10
74.8598964219376
 20
18.54794257908156
 30
0.0
 11
74.93372913808228
 21
19.57810018944452
 31
0.0
  0
LINE
  5
C0
330
1F
100
AcDbEntity
  8
1
  6
CONTINUOUS
 62
     7
100
AcDbLine
 10
96.60400420374069
 20
5.121980059077512
 30
0.0
 11
97.50622098107681
 21
9.631689721232037
 31
0.0
  0
LINE
  5
C1
330
1F
100
AcDbEntity
  8
1
  6
CONTINUOUS
 62
     7
100
AcDbLine
 10
36.08611668924558
 20
36.32663918354114
 30
0.0
 11
33.49999999999994
 21
36.32663918354111
 31
0.0
  0
LINE
  5
C2
330
1F
100
AcDbEntity
  8
1
  6
CONTINUOUS
 62
     7
100
AcDbLine
 10
75.99999999999996
 20
17.63168972123205
 30
0.0
 11
76.99999999999994
 21
16.63168972123204
 31
0.0
  0
CIRCLE
  5
C3
330
1F
100
AcDbEntity
  8
1
  6
CONTINUOUS
 62
     7
100
AcDbCircle
 10
49.99999999999997
 20
32.63168972123206
 30
0.0
 40
2.500000000000002
  0
LINE
  5
C4
330
1F
100
AcDbEntity
  8
1
  6
CONTINUOUS
 62
     7
100
AcDbLine
 10
95.49999999999997
 20
74.63168972123209
 30
0.0
 11
95.38347987313992
 21
74.63168972123209
 31
0.0
  0
LINE
  5
C5
330
1F
100
AcDbEntity
  8
1
  6
CONTINUOUS
 62
     7
100
AcDbLine
 10
32.00783963755858
 20
62.59832792317034
 30
0.0
 11
31.99999999999994
 21
60.84489315682849
 31
0.0
  0
LINE
  5
C6
330
1F
100
AcDbEntity
  8
1
  6
CONTINUOUS
 62
     7
100
AcDbLine
 10
97.99999999999997
 20
9.63168972123201
 30
0.0
 11
97.99999999999997
 21
38.63168972123201
 31
0.0
  0
LINE
  5
C7
330
1F
100
AcDbEntity
  8
1
  6
CONTINUOUS
 62
     7
100
AcDbLine
 10
31.99999999999994
 20
64.38042706276121
 30
0.0
 11
31.99999999999994
 21
73.1672236271648
 31
0.0
  0
ELLIPSE
  5
C8
330
1F
100
AcDbEntity
  8
1
  6
CONTINUOUS
 62
     7
100
AcDbEllipse
 10
97.91272467535889
 20
69.63168972123202
 30
0.0
 11
-0.06172237450013012
 21
-4.999999941981584
 31
0.0
210
0.0
220
0.0
230
-1.0
 40
0.0123407145103209
 41
3.499744855211492
 42
3.92683847734609
  0
ELLIPSE
  5
C9
330
1F
100
AcDbEntity
  8
1
  6
CONTINUOUS
 62
     7
100
AcDbEllipse
 10
97.91272467535889
 20
60.84489315682846
 30
0.0
 11
-0.06172237450013012
 21
-4.999999941981584
 31
0.0
210
0.0
220
0.0
230
1.0
 40
0.0123407145103209
 41
1.929253207698868
 42
2.35634682983345
  0
LINE
  5
CA
330
1F
100
AcDbEntity
  8
1
  6
CONTINUOUS
 62
     7
100
AcDbLine
 10
74.8065086155209
 20
19.24260094954058
 30
0.0
 11
74.77734664594563
 21
18.27007923089798
 31
0.0
  0
LINE
  5
CB
330
1F
100
AcDbEntity
  8
1
  6
CONTINUOUS
 62
     7
100
AcDbLine
 10
74.8886733229728
 20
20.55062190808712
 30
0.0
 11
74.88034133166559
 21
20.27275855990351
 31
0.0
  0
LINE
  5
CC
330
1F
100
AcDbEntity
  8
1
  6
CONTINUOUS
 62
     7
100
AcDbLine
 10
97.50622098107681
 20
42.90986599006526
 30
0.0
 11
97.50622098107681
 21
9.631689721232037
 31
0.0
  0
LINE
  5
CD
330
1F
100
AcDbEntity
  8
1
  6
CONTINUOUS
 62
     7
100
AcDbLine
 10
76.99999999999993
 20
16.63168972123204
 30
0.0
 11
95.25315750454371
 21
16.63168972123204
 31
0.0
  0
LINE
  5
CE
330
1F
100
AcDbEntity
  8
1
  6
CONTINUOUS
 62
     7
100
AcDbLine
 10
93.91388331075434
 20
36.32663918354111
 30
0.0
 11
93.91388331075434
 21
19.03137650183985
 31
0.0
  0
LINE
  5
CF
330
1F
100
AcDbEntity
  8
1
  6
CONTINUOUS
 62
     7
100
AcDbLine
 10
31.99999999999994
 20
38.63168972123201
 30
0.0
 11
31.99999999999994
 21
46.63168972123201
 31
0.0
  0
LINE
  5
D0
330
1F
100
AcDbEntity
  8
1
  6
CONTINUOUS
 62
     7
100
AcDbLine
 10
74.8515644306304
 20
18.27007923089798
 30
0.0
 11
74.85989642193762
 21
18.54794257908156
 31
0.0
  0
LINE
  5
D1
330
1F
100
AcDbEntity
  8
1
  6
CONTINUOUS
 62
     7
100
AcDbLine
 10
32.49377901892311
 20
42.90986599006526
 30
0.0
 11
32.49377901892311
 21
9.631689721232037
 31
0.0
  0
LINE
  5
D2
330
1F
100
AcDbEntity
  8
1
  6
CONTINUOUS
 62
     7
100
AcDbLine
 10
33.39599579625924
 20
5.121980059077512
 30
0.0
 11
33.9942361075039
 21
4.631689721232034
 31
0.0
  0
LINE
  5
D3
330
1F
100
AcDbEntity
  8
1
  6
CONTINUOUS
 62
     7
100
AcDbLine
 10
33.49999999999994
 20
19.03137650183985
 30
0.0
 11
36.08611668924556
 21
19.03137650183985
 31
0.0
  0
LINE
  5
D4
330
1F
100
AcDbEntity
  8
1
  6
CONTINUOUS
 62
     7
100
AcDbLine
 10
97.65089870143562
 20
54.63168972123206
 30
0.0
 11
97.50622098107681
 21
42.90986599006528
 31
0.0
  0
LINE
  5
D5
330
1F
100
AcDbEntity
  8
1
  6
CONTINUOUS
 62
     7
100
AcDbLine
 10
96.49999999999997
 20
19.03137650183985
 30
0.0
 11
93.91388331075434
 21
19.03137650183985
 31
0.0
  0
LINE
  5
D6
330
1F
100
AcDbEntity
  8
1
  6
CONTINUOUS
 62
     7
100
AcDbLine
 10
33.49999999999994
 20
36.32663918354111
 30
0.0
 11
33.49999999999994
 21
19.03137650183985
 31
0.0
  0
LINE
  5
D7
330
1F
100
AcDbEntity
  8
1
  6
CONTINUOUS
 62
     7
100
AcDbLine
 10
61.85989642193762
 20
18.54794257908156
 30
0.0
 11
61.93372913808228
 21
19.57810018944452
 31
0.0
  0
LINE
  5
D8
330
1F
100
AcDbEntity
  8
1
  6
CONTINUOUS
 62
     7
100
AcDbLine
 10
61.85156443063039
 20
18.03168972123206
 30
0.0
 11
61.85156443063039
 21
18.27007923089798
 31
0.0
  0
LWPOLYLINE
  5
D9
330
1F
100
AcDbEntity
  8
1
  6
CONTINUOUS
 62
     7
100
AcDbPolyline
 90
        4
 70
     0
 43
0.0
 10
62.11132667702713
 20
15.63168972123204
 42
0.0361688720088247
 10
62.01289754486066
 20
17.51477785159807
 10
61.97744033769035
 20
17.62205917457642
 10
61.96289110765757
 20
17.63168972123205
  0
LINE
  5
DA
330
1F
100
AcDbEntity
  8
1
  6
CONTINUOUS
 62
     7
100
AcDbLine
 10
61.88125154450432
 20
16.63168972123204
 30
0.0
 11
61.96289110765757
 21
16.63168972123204
 31
0.0
  0
LINE
  5
DB
330
1F
100
AcDbEntity
  8
1
  6
CONTINUOUS
 62
     7
100
AcDbLine
 10
62.11132667702712
 20
15.63168972123204
 30
0.0
 11
62.11132667702712
 21
15.45045073870812
 31
0.0
  0
LINE
  5
DC
330
1F
100
AcDbEntity
  8
1
  6
CONTINUOUS
 62
     7
100
AcDbLine
 10
61.85156443063039
 20
18.27007923089798
 30
0.0
 11
61.85989642193762
 21
18.54794257908156
 31
0.0
  0
LINE
  5
DD
330
1F
100
AcDbEntity
  8
1
  6
CONTINUOUS
 62
     7
100
AcDbLine
 10
61.99999999999996
 20
16.13168972123204
 30
0.0
 11
61.99999999999996
 21
13.78453196646431
 31
0.0
  0
LINE
  5
DE
330
1F
100
AcDbEntity
  8
1
  6
CONTINUOUS
 62
     7
100
AcDbLine
 10
55.14010357806229
 20
18.54794257908156
 30
0.0
 11
55.14843556936952
 21
18.27007923089798
 31
0.0
  0
LINE
  5
DF
330
1F
100
AcDbEntity
  8
1
  6
CONTINUOUS
 62
     7
100
AcDbLine
 10
55.22265335405429
 20
18.03168972123203
 30
0.0
 11
55.22265335405429
 21
18.27007923089798
 31
0.0
  0
LINE
  5
E0
330
1F
100
AcDbEntity
  8
1
  6
CONTINUOUS
 62
     7
100
AcDbLine
 10
61.80650861552089
 20
19.24260094954058
 30
0.0
 11
61.88034133166556
 21
20.27275855990351
 31
0.0
  0
LINE
  5
E1
330
1F
100
AcDbEntity
  8
1
  6
CONTINUOUS
 62
     7
100
AcDbLine
 10
61.88867332297279
 20
20.55062190808712
 30
0.0
 11
61.88867332297279
 21
21.03168972123203
 31
0.0
  0
LINE
  5
E2
330
1F
100
AcDbEntity
  8
1
  6
CONTINUOUS
 62
     7
100
AcDbLine
 10
68.03710889234235
 20
17.63168972123205
 30
0.0
 11
68.1187484554956
 21
17.63168972123205
 31
0.0
  0
LWPOLYLINE
  5
E3
330
1F
100
AcDbEntity
  8
1
  6
CONTINUOUS
 62
     7
100
AcDbPolyline
 90
        3
 70
     0
 43
0.0
 10
68.03710889234235
 20
17.63168972123205
 10
67.98710245513925
 20
17.51477785159807
 42
0.0361688720088345
 10
67.88867332297278
 20
15.63168972123201
  0
LINE
  5
E4
330
1F
100
AcDbEntity
  8
1
  6
CONTINUOUS
 62
     7
100
AcDbLine
 10
61.80650861552089
 20
19.24260094954058
 30
0.0
 11
61.77734664594561
 21
18.27007923089798
 31
0.0
  0
LINE
  5
E5
330
1F
100
AcDbEntity
  8
1
  6
CONTINUOUS
 62
     7
100
AcDbLine
 10
61.85898620909887
 20
21.43168972123201
 30
0.0
 11
61.77734664594561
 21
21.43168972123201
 31
0.0
  0
LINE
  5
E6
330
1F
100
AcDbEntity
  8
1
  6
CONTINUOUS
 62
     7
100
AcDbLine
 10
68.14843556936952
 20
18.03168972123206
 30
0.0
 11
68.14843556936952
 21
18.27007923089798
 31
0.0
  0
LINE
  5
E7
330
1F
100
AcDbEntity
  8
1
  6
CONTINUOUS
 62
     7
100
AcDbLine
 10
55.14843556936952
 20
18.03168972123206
 30
0.0
 11
55.14843556936952
 21
18.27007923089798
 31
0.0
  0
LINE
  5
E8
330
1F
100
AcDbEntity
  8
1
  6
CONTINUOUS
 62
     7
100
AcDbLine
 10
68.1401035780623
 20
18.54794257908156
 30
0.0
 11
68.14843556936951
 21
18.27007923089798
 31
0.0
  0
LINE
  5
E9
330
1F
100
AcDbEntity
  8
1
  6
CONTINUOUS
 62
     7
100
AcDbLine
 10
55.03710889234234
 20
20.55062190808712
 30
0.0
 11
55.06627086191762
 21
19.57810018944452
 31
0.0
  0
LINE
  5
EA
330
1F
100
AcDbEntity
  8
1
  6
CONTINUOUS
 62
     7
100
AcDbLine
 10
55.03710889234235
 20
21.43168972123204
 30
0.0
 11
55.03710889234235
 21
20.55062190808712
 31
0.0
  0
LINE
  5
EB
330
1F
100
AcDbEntity
  8
1
  6
CONTINUOUS
 62
     7
100
AcDbLine
 10
55.01052936583543
 20
17.48197463076844
 30
0.0
 11
54.96268754209132
 21
16.57832491747512
 31
0.0
  0
LINE
  5
EC
330
1F
100
AcDbEntity
  8
1
  6
CONTINUOUS
 62
     7
100
AcDbLine
 10
55.22265335405429
 20
18.27007923089798
 30
0.0
 11
55.19349138447902
 21
19.24260094954058
 31
0.0
  0
LINE
  5
ED
330
1F
100
AcDbEntity
  8
1
  6
CONTINUOUS
 62
     7
100
AcDbLine
 10
68.14843556936952
 20
18.03168972123206
 30
0.0
 11
68.11874845549562
 21
17.63168972123205
 31
0.0
  0
LINE
  5
EE
330
1F
100
AcDbEntity
  8
1
  6
CONTINUOUS
 62
     7
100
AcDbLine
 10
68.1401035780623
 20
18.54794257908156
 30
0.0
 11
68.06627086191763
 21
19.57810018944452
 31
0.0
  0
LINE
  5
EF
330
1F
100
AcDbEntity
  8
1
  6
CONTINUOUS
 62
     7
100
AcDbLine
 10
74.88125154450431
 20
17.63168972123205
 30
0.0
 11
74.8515644306304
 21
18.03168972123206
 31
0.0
  0
LINE
  5
F0
330
1F
100
AcDbEntity
  8
1
  6
CONTINUOUS
 62
     7
100
AcDbLine
 10
54.99999999999995
 20
16.13168972123204
 30
0.0
 11
54.99999999999995
 21
8.631689721232037
 31
0.0
  0
LINE
  5
F1
330
1F
100
AcDbEntity
  8
1
  6
CONTINUOUS
 62
     7
100
AcDbLine
 10
61.96289110765757
 20
16.63168972123204
 30
0.0
 11
61.99999999999996
 21
16.13168972123204
 31
0.0
  0
LINE
  5
F2
330
1F
100
AcDbEntity
  8
1
  6
CONTINUOUS
 62
     7
100
AcDbLine
 10
68.03710889234235
 20
20.55062190808712
 30
0.0
 11
68.06627086191763
 21
19.57810018944452
 31
0.0
  0
LINE
  5
F3
330
1F
100
AcDbEntity
  8
1
  6
CONTINUOUS
 62
     7
100
AcDbLine
 10
74.8515644306304
 20
18.03168972123206
 30
0.0
 11
74.8515644306304
 21
18.27007923089798
 31
0.0
  0
LINE
  5
F4
330
1F
100
AcDbEntity
  8
1
  6
CONTINUOUS
 62
     7
100
AcDbLine
 10
61.96289110765757
 20
17.63168972123205
 30
0.0
 11
61.88125154450432
 21
17.63168972123205
 31
0.0
  0
LINE
  5
F5
330
1F
100
AcDbEntity
  8
1
  6
CONTINUOUS
 62
     7
100
AcDbLine
 10
61.96289110765755
 20
21.93168972123207
 30
0.0
 11
61.96289110765755
 21
20.55062190808712
 31
0.0
  0
LINE
  5
F6
330
1F
100
AcDbEntity
  8
1
  6
CONTINUOUS
 62
     7
100
AcDbLine
 10
55.14843556936952
 20
18.03168972123206
 30
0.0
 11
55.11874845549561
 21
17.63168972123205
 31
0.0
  0
LINE
  5
F7
330
1F
100
AcDbEntity
  8
1
  6
CONTINUOUS
 62
     7
100
AcDbLine
 10
75.0373124579086
 20
16.57832491747512
 30
0.0
 11
74.98947063416449
 21
17.48197463076844
 31
0.0
  0
LINE
  5
F8
330
1F
100
AcDbEntity
  8
1
  6
CONTINUOUS
 62
     7
100
AcDbLine
 10
74.96289110765755
 20
21.43168972123204
 30
0.0
 11
74.96289110765755
 21
20.55062190808712
 31
0.0
  0
LINE
  5
F9
330
1F
100
AcDbEntity
  8
1
  6
CONTINUOUS
 62
     7
100
AcDbLine
 10
55.11965866833435
 20
20.27275855990351
 30
0.0
 11
55.11132667702713
 21
20.55062190808712
 31
0.0
  0
LINE
  5
FA
330
1F
100
AcDbEntity
  8
1
  6
CONTINUOUS
 62
     7
100
AcDbLine
 10
75.0373124579086
 20
8.631689721232037
 30
0.0
 11
75.0373124579086
 21
16.57832491747512
 31
0.0
  0
LINE
  5
FB
330
1F
100
AcDbEntity
  8
1
  6
CONTINUOUS
 62
     7
100
AcDbLine
 10
55.11132667702712
 20
20.55062190808712
 30
0.0
 11
55.11132667702712
 21
21.03168972123203
 31
0.0
  0
LINE
  5
FC
330
1F
100
AcDbEntity
  8
1
  6
CONTINUOUS
 62
     7
100
AcDbLine
 10
55.11874845549559
 20
16.63168972123204
 30
0.0
 11
55.03710889234234
 21
16.63168972123204
 31
0.0
  0
LINE
  5
FD
330
1F
100
AcDbEntity
  8
1
  6
CONTINUOUS
 62
     7
100
AcDbLine
 10
54.99999999999995
 20
16.13168972123204
 30
0.0
 11
55.03710889234234
 21
16.63168972123204
 31
0.0
  0
LINE
  5
FE
330
1F
100
AcDbEntity
  8
1
  6
CONTINUOUS
 62
     7
100
AcDbLine
 10
74.98947063416448
 20
17.48197463076844
 30
0.0
 11
74.93631158115065
 21
17.63168972123205
 31
0.0
  0
LINE
  5
FF
330
1F
100
AcDbEntity
  8
1
  6
CONTINUOUS
 62
     7
100
AcDbLine
 10
54.96268754209132
 20
16.57832491747512
 30
0.0
 11
54.96268754209132
 21
8.631689721232037
 31
0.0
  0
LINE
  5
100
330
1F
100
AcDbEntity
  8
1
  6
CONTINUOUS
 62
     7
100
AcDbLine
 10
55.11874845549561
 20
16.63168972123204
 30
0.0
 11
55.22265335405429
 21
18.03168972123203
 31
0.0
  0
LINE
  5
101
330
1F
100
AcDbEntity
  8
1
  6
CONTINUOUS
 62
     7
100
AcDbLine
 10
61.77734664594561
 20
18.03168972123203
 30
0.0
 11
61.77734664594561
 21
18.27007923089798
 31
0.0
  0
LINE
  5
102
330
1F
100
AcDbEntity
  8
1
  6
CONTINUOUS
 62
     7
100
AcDbLine
 10
74.93631158115066
 20
17.63168972123205
 30
0.0
 11
74.88125154450431
 21
17.63168972123205
 31
0.0
  0
LINE
  5
103
330
1F
100
AcDbEntity
  8
1
  6
CONTINUOUS
 62
     7
100
AcDbLine
 10
55.1401035780623
 20
18.54794257908156
 30
0.0
 11
55.06627086191762
 21
19.57810018944452
 31
0.0
  0
LINE
  5
104
330
1F
100
AcDbEntity
  8
1
  6
CONTINUOUS
 62
     7
100
AcDbLine
 10
61.77734664594561
 20
18.03168972123203
 30
0.0
 11
61.8812515445043
 21
16.63168972123204
 31
0.0
  0
LINE
  5
105
330
1F
100
AcDbEntity
  8
1
  6
CONTINUOUS
 62
     7
100
AcDbLine
 10
61.88867332297279
 20
20.55062190808712
 30
0.0
 11
61.88034133166556
 21
20.27275855990351
 31
0.0
  0
LINE
  5
106
330
1F
100
AcDbEntity
  8
1
  6
CONTINUOUS
 62
     7
100
AcDbLine
 10
61.85898620909888
 20
21.43168972123201
 30
0.0
 11
61.88867332297279
 21
21.03168972123203
 31
0.0
  0
LINE
  5
107
330
1F
100
AcDbEntity
  8
1
  6
CONTINUOUS
 62
     7
100
AcDbLine
 10
61.93372913808228
 20
19.57810018944452
 30
0.0
 11
61.96289110765757
 21
20.55062190808712
 31
0.0
  0
LINE
  5
108
330
1F
100
AcDbEntity
  8
1
  6
CONTINUOUS
 62
     7
100
AcDbLine
 10
61.88125154450432
 20
17.63168972123205
 30
0.0
 11
61.85156443063039
 21
18.03168972123206
 31
0.0
  0
LINE
  5
109
330
1F
100
AcDbEntity
  8
1
  6
CONTINUOUS
 62
     7
100
AcDbLine
 10
55.11132667702713
 20
21.03168972123203
 30
0.0
 11
55.14101379090104
 21
21.43168972123201
 31
0.0
  0
LINE
  5
10A
330
1F
100
AcDbEntity
  8
1
  6
CONTINUOUS
 62
     7
100
AcDbLine
 10
55.06368841884926
 20
17.63168972123205
 30
0.0
 11
55.11874845549561
 21
17.63168972123205
 31
0.0
  0
LINE
  5
10B
330
1F
100
AcDbEntity
  8
1
  6
CONTINUOUS
 62
     7
100
AcDbLine
 10
55.06368841884926
 20
17.63168972123205
 30
0.0
 11
55.01052936583543
 21
17.48197463076844
 31
0.0
  0
LINE
  5
10C
330
1F
100
AcDbEntity
  8
1
  6
CONTINUOUS
 62
     7
100
AcDbLine
 10
55.19349138447903
 20
19.24260094954058
 30
0.0
 11
55.11965866833435
 21
20.27275855990351
 31
0.0
  0
LINE
  5
10D
330
1F
100
AcDbEntity
  8
1
  6
CONTINUOUS
 62
     7
100
AcDbLine
 10
68.03710889234235
 20
57.13168972123206
 30
0.0
 11
67.99999999999996
 21
57.63168972123206
 31
0.0
  0
LINE
  5
10E
330
1F
100
AcDbEntity
  8
1
  6
CONTINUOUS
 62
     7
100
AcDbLine
 10
61.99999999999996
 20
57.63168972123207
 30
0.0
 11
61.96289110765757
 21
57.13168972123207
 31
0.0
  0
LINE
  5
10F
330
1F
100
AcDbEntity
  8
1
  6
CONTINUOUS
 62
     7
100
AcDbLine
 10
68.11874845549562
 20
56.03168972123208
 30
0.0
 11
68.2226533540543
 21
54.63168972123209
 31
0.0
  0
LINE
  5
110
330
1F
100
AcDbEntity
  8
1
  6
CONTINUOUS
 62
     7
100
AcDbLine
 10
74.77734664594563
 20
54.63168972123206
 30
0.0
 11
74.88125154450431
 21
56.03168972123205
 31
0.0
  0
LINE
  5
111
330
1F
100
AcDbEntity
  8
1
  6
CONTINUOUS
 62
     7
100
AcDbLine
 10
53.99999999999996
 20
54.63168972123206
 30
0.0
 11
53.99999999999996
 21
57.13168972123206
 31
0.0
  0
LINE
  5
112
330
1F
100
AcDbEntity
  8
1
  6
CONTINUOUS
 62
     7
100
AcDbLine
 10
74.88125154450431
 20
56.03168972123208
 30
0.0
 11
74.96289110765758
 21
57.13168972123209
 31
0.0
  0
LINE
  5
113
330
1F
100
AcDbEntity
  8
1
  6
CONTINUOUS
 62
     7
100
AcDbLine
 10
55.22265335405429
 20
54.63168972123206
 30
0.0
 11
61.77734664594561
 21
54.63168972123206
 31
0.0
  0
LINE
  5
114
330
1F
100
AcDbEntity
  8
1
  6
CONTINUOUS
 62
     7
100
AcDbLine
 10
61.77734664594561
 20
54.63168972123206
 30
0.0
 11
61.8812515445043
 21
56.03168972123208
 31
0.0
  0
LINE
  5
115
330
1F
100
AcDbEntity
  8
1
  6
CONTINUOUS
 62
     7
100
AcDbLine
 10
55.11874845549561
 20
56.03168972123208
 30
0.0
 11
55.22265335405429
 21
54.63168972123206
 31
0.0
  0
LINE
  5
116
330
1F
100
AcDbEntity
  8
1
  6
CONTINUOUS
 62
     7
100
AcDbLine
 10
76.99999999999993
 20
54.63168972123206
 30
0.0
 11
95.25315750454371
 21
54.63168972123206
 31
0.0
  0
LINE
  5
117
330
1F
100
AcDbEntity
  8
1
  6
CONTINUOUS
 62
     7
100
AcDbLine
 10
75.99999999999996
 20
54.63168972123206
 30
0.0
 11
76.99999999999994
 21
54.63168972123206
 31
0.0
  0
LINE
  5
118
330
1F
100
AcDbEntity
  8
1
  6
CONTINUOUS
 62
     7
100
AcDbLine
 10
76.99999999999993
 20
57.13168972123206
 30
0.0
 11
95.28401281647574
 21
57.13168972123206
 31
0.0
  0
LINE
  5
119
330
1F
100
AcDbEntity
  8
1
  6
CONTINUOUS
 62
     7
100
AcDbLine
 10
53.99999999999996
 20
57.13168972123206
 30
0.0
 11
52.99999999999995
 21
57.13168972123206
 31
0.0
  0
LINE
  5
11A
330
1F
100
AcDbEntity
  8
1
  6
CONTINUOUS
 62
     7
100
AcDbLine
 10
76.99999999999993
 20
57.13168972123206
 30
0.0
 11
75.99999999999994
 21
57.13168972123206
 31
0.0
  0
LINE
  5
11B
330
1F
100
AcDbEntity
  8
1
  6
CONTINUOUS
 62
     7
100
AcDbLine
 10
52.99999999999995
 20
57.13168972123206
 30
0.0
 11
52.99999999999995
 21
54.63168972123206
 31
0.0
  0
LINE
  5
11C
330
1F
100
AcDbEntity
  8
1
  6
CONTINUOUS
 62
     7
100
AcDbLine
 10
34.7468424954562
 20
54.63168972123206
 30
0.0
 11
52.99999999999995
 21
54.63168972123206
 31
0.0
  0
LINE
  5
11D
330
1F
100
AcDbEntity
  8
1
  6
CONTINUOUS
 62
     7
100
AcDbLine
 10
68.11874845549562
 20
56.03168972123208
 30
0.0
 11
68.03710889234235
 21
57.13168972123209
 31
0.0
  0
LINE
  5
11E
330
1F
100
AcDbEntity
  8
1
  6
CONTINUOUS
 62
     7
100
AcDbLine
 10
61.88125154450432
 20
56.03168972123208
 30
0.0
 11
61.96289110765757
 21
57.13168972123206
 31
0.0
  0
LINE
  5
11F
330
1F
100
AcDbEntity
  8
1
  6
CONTINUOUS
 62
     7
100
AcDbLine
 10
55.11874845549561
 20
56.03168972123208
 30
0.0
 11
55.03710889234234
 21
57.13168972123206
 31
0.0
  0
LINE
  5
120
330
1F
100
AcDbEntity
  8
1
  6
CONTINUOUS
 62
     7
100
AcDbLine
 10
55.03710889234234
 20
57.13168972123206
 30
0.0
 11
54.99999999999995
 21
57.63168972123206
 31
0.0
  0
LINE
  5
121
330
1F
100
AcDbEntity
  8
1
  6
CONTINUOUS
 62
     7
100
AcDbLine
 10
68.2226533540543
 20
54.63168972123206
 30
0.0
 11
74.77734664594563
 21
54.63168972123206
 31
0.0
  0
LINE
  5
122
330
1F
100
AcDbEntity
  8
1
  6
CONTINUOUS
 62
     7
100
AcDbLine
 10
74.99999999999996
 20
57.63168972123207
 30
0.0
 11
74.96289110765757
 21
57.13168972123207
 31
0.0
  0
LINE
  5
123
330
1F
100
AcDbEntity
  8
1
  6
CONTINUOUS
 62
     7
100
AcDbLine
 10
52.99999999999995
 20
54.63168972123206
 30
0.0
 11
53.99999999999996
 21
54.63168972123206
 31
0.0
  0
LINE
  5
124
330
1F
100
AcDbEntity
  8
1
  6
CONTINUOUS
 62
     7
100
AcDbLine
 10
34.71598718352417
 20
57.13168972123206
 30
0.0
 11
52.99999999999995
 21
57.13168972123206
 31
0.0
  0
LINE
  5
125
330
1F
100
AcDbEntity
  8
1
  6
CONTINUOUS
 62
     7
100
AcDbLine
 10
75.99999999999996
 20
57.13168972123206
 30
0.0
 11
75.99999999999996
 21
54.63168972123206
 31
0.0
  0
MTEXT
  5
126
330
1F
100
AcDbEntity
  8
1
 62
     7
100
AcDbMText
 10
46.02507190196321
 20
-10.64386644991872
 30
0.0
 40
10.0
 41
0.0
 71
     1
 72
     1
  1
{\fＭＳ ゴシック;MIDD-60}
  0
LWPOLYLINE
  5
127
330
1F
100
AcDbEntity
  8
1
  6
CONTINUOUS
 62
     7
100
AcDbPolyline
 90
       32
 70
     0
 43
0.0
 10
-32.00003780360744
 20
200.8217877698728
 10
-32.00054997562651
 20
200.8426012573328
 10
-32.00192492791405
 20
200.8634085598733
 10
-32.00419064791652
 20
200.8843624949501
 10
-32.00733611409129
 20
200.9052218343537
 10
-32.01141337921916
 20
200.926197143499
 10
-32.01638234378523
 20
200.9469898094539
 10
-32.02229580110047
 20
200.967753494492
 10
-32.02909894014327
 20
200.9882471467708
 10
-32.0341177025233
 20
201.0017260618269
 10
-32.03952130245954
 20
201.0150553150566
 10
-32.05040750598909
 20
201.0390547635477
 10
-32.06253750875482
 20
201.0624434846452
 10
-32.07395580084955
 20
201.0820462248015
 10
-32.08624465505589
 20
201.1011042215476
 10
-32.09871375822373
 20
201.1186846644439
 10
-32.11191951508304
 20
201.1357028412602
 10
-32.12456697952276
 20
201.1506873943479
 10
-32.13778127080649
 20
201.1651556709443
 10
-32.15453537072357
 20
201.18197566291
 10
-32.17205577994886
 20
201.1979757850432
 10
-32.1902775863317
 20
201.2131030258228
 10
-32.20582461386002
 20
201.2249151582267
 10
-32.2218024866181
 20
201.2361034849929
 10
-32.2381701730895
 20
201.2466438401833
 10
-32.25374728798592
 20
201.2558695330107
 10
-32.26961725433993
 20
201.2645137140142
 10
-32.29139067112219
 20
201.2752097398686
 10
-32.31359556934732
 20
201.2848233596334
 10
-32.33613740863684
 20
201.2933279152515
 10
-32.3534004140307
 20
201.2990257393099
 10
-32.37079146472441
 20
201.3040812751288
210
0.0
220
0.0
230
-1.0
  0
LWPOLYLINE
  5
128
330
1F
100
AcDbEntity
  8
1
  6
CONTINUOUS
 62
     7
100
AcDbPolyline
 90
       17
 70
     0
 43
0.0
 10
64.99999999999997
 20
59.13073406867215
 10
64.97329932262612
 20
59.12763555574575
 10
64.94671022244832
 20
59.12239737340548
 10
64.92028982293898
 20
59.11503077525389
 10
64.89409488513749
 20
59.10555158753801
 10
64.86818168570596
 20
59.0939801751484
 10
64.84260589602562
 20
59.08034139786795
 10
64.81742246259356
 20
59.06466455696342
 10
64.79268548897686
 20
59.04698333223536
 10
64.76844811957756
 20
59.0273357096608
 10
64.74476242545833
 20
59.00576389978553
 10
64.72167929247411
 20
58.98231424703916
 10
64.69924831194996
 20
58.95703713017038
 10
64.67751767414006
 20
58.9299868540137
 10
64.6565340646969
 20
58.90122153282247
 10
64.63634256437257
 20
58.87080296541726
 10
64.61698655216841
 20
58.83879650241865
  0
LWPOLYLINE
  5
129
330
1F
100
AcDbEntity
  8
1
  6
CONTINUOUS
 62
     7
100
AcDbPolyline
 90
       31
 70
     0
 43
0.0
 10
-97.62920853527551
 20
96.30408127512881
 10
-97.65210131631896
 20
96.29727279672552
 10
-97.67480447822096
 20
96.28932352364956
 10
-97.69722346560616
 20
96.28025972367917
 10
-97.71926372309954
 20
96.27010766459244
 10
-97.74083069532597
 20
96.25889361416779
 10
-97.76182982691041
 20
96.24664384018334
 10
-97.77921754428903
 20
96.2354150438104
 10
-97.79616999914839
 20
96.22344900398868
 10
-97.81263886600497
 20
96.21077610912172
 10
-97.82857581937515
 20
96.19742674761295
 10
-97.84439904953635
 20
96.18299210933408
 10
-97.85962073309318
 20
96.16786501442249
 10
-97.8741961261764
 20
96.15208780951797
 10
-97.88808048491687
 20
96.13570284126023
 10
-97.90090119176955
 20
96.11920013264903
 10
-97.91303948393215
 20
96.10215232690723
 10
-97.92446247643142
 20
96.0846053112024
 10
-97.93513728429406
 20
96.06660497270221
 10
-97.94532695747709
 20
96.04762399185341
 10
-97.95470133968423
 20
96.02820004730974
 10
-97.96323463808693
 20
96.00838910897947
 10
-97.97090105985662
 20
95.98824714677086
 10
-97.97751151886058
 20
95.96837150915889
 10
-97.98328975989176
 20
95.94822313063085
 10
-97.98822227401882
 20
95.92785794116561
 10
-97.99229555231051
 20
95.90733187074237
 10
-97.99558428870023
 20
95.8860619073621
 10
-97.99795942173745
 20
95.86466984020122
 10
-97.99941928108169
 20
95.8432227630935
 10
-97.99996219639245
 20
95.82178776987278
210
0.0
220
0.0
230
-1.0
  0
LWPOLYLINE
  5
12A
330
1F
100
AcDbEntity
  8
1
  6
CONTINUOUS
 62
     7
100
AcDbPolyline
 90
       33
 70
     0
 43
0.0
 10
35.60889493156446
 20
73.75494655466454
 10
35.60230772926519
 20
73.7996861585284
 10
35.59370456826336
 20
73.8440822057489
 10
35.58310304222445
 20
73.88804390537113
 10
35.57052483151714
 20
73.9314813546912
 10
35.55599565887651
 20
73.97430572310927
 10
35.53954523680043
 20
74.01642943379039
 10
35.5212072067868
 20
74.05776634276108
 10
35.50101907053585
 20
74.0982319150756
 10
35.4790221132584
 20
74.1377433976922
 10
35.45526131924655
 20
74.1762199887049
 10
35.42978527987977
 20
74.21358300258508
 10
35.40264609425439
 20
74.24975603109559
 10
35.37389926263975
 20
74.28466509954703
 10
35.34360357297883
 20
74.31823881807804
 10
35.31182098066556
 20
74.35040852764897
 10
35.27861648184454
 20
74.38110844045133
 10
35.24405798049243
 20
74.4102757744455
 10
35.20821614955279
 20
74.43785088175122
 10
35.17116428640812
 20
74.46377737062916
 10
35.13297816298516
 20
74.48800222080322
 10
35.09373587079938
 20
74.51047589188815
 10
35.05351766125609
 20
74.53115242470105
 10
35.01240578153447
 20
74.54998953524873
 10
34.97048430639006
 20
74.56694870119946
 10
34.92783896621998
 20
74.5819952406623
 10
34.88455697174226
 20
74.59509838311213
 10
34.84072683564793
 20
74.60623133231621
 10
34.79643819159035
 20
74.61537132113301
 10
34.75178161088248
 20
74.62249965807167
 10
34.70684841727628
 20
74.62760176551632
 10
34.66173050020359
 20
74.63066720953805
 10
34.61652012686002
 20
74.63168972123209
  0
LWPOLYLINE
  5
12B
330
1F
100
AcDbEntity
  8
1
  6
CONTINUOUS
 62
     7
100
AcDbPolyline
 90
       31
 70
     0
 43
0.0
 10
-32.00003780360747
 20
95.82178776987278
 10
-32.00055249256845
 20
95.84261395187444
 10
-32.00193265059902
 20
95.86345231261463
 10
-32.00417693748497
 20
95.88424121164614
 10
-32.00728401301209
 20
95.90491900852184
 10
-32.01138596257251
 20
95.9260613823772
 10
-32.01639880456614
 20
95.9470375644354
 10
-32.02230798256554
 20
95.96778650309908
 10
-32.0290989401433
 20
95.98824714677086
 10
-32.03653669719375
 20
96.00782459931546
 10
-32.04479322001124
 20
96.02709004053513
 10
-32.05384497885711
 20
96.04599204234921
 10
-32.06366844399277
 20
96.06447917667711
 10
-32.0745751225221
 20
96.08305010141062
 10
-32.08627632726002
 20
96.10114442221914
 10
-32.09873635813688
 20
96.11871203640239
 10
-32.11191951508306
 20
96.13570284126023
 10
-32.12540207335718
 20
96.15163344397556
 10
-32.13953759182825
 20
96.1669905623438
 10
-32.15428512252855
 20
96.18173522605656
 10
-32.16960371749047
 20
96.19582846480542
 10
-32.18594784568533
 20
96.2096365554937
 10
-32.202858668342
 20
96.2227306540018
 10
-32.22028362947265
 20
96.23507750175615
 10
-32.23817017308951
 20
96.24664384018328
 10
-32.25916930467395
 20
96.25889361416779
 10
-32.28073627690039
 20
96.27010766459244
 10
-32.30277653439376
 20
96.28025972367917
 10
-32.32519552177898
 20
96.28932352364956
 10
-32.34789868368096
 20
96.29727279672552
 10
-32.37079146472443
 20
96.30408127512881
210
0.0
220
0.0
230
-1.0
  0
LWPOLYLINE
  5
12C
330
1F
100
AcDbEntity
  8
1
  6
CONTINUOUS
 62
     7
100
AcDbPolyline
 90
       32
 70
     0
 43
0.0
 10
-97.62920853527551
 20
201.3040812751288
 10
-97.64625042628403
 20
201.2991339324511
 10
-97.66317000754626
 20
201.2935698633723
 10
-97.685721621418
 20
201.2850991322775
 10
-97.70793841903483
 20
201.2755189479699
 10
-97.72972574786503
 20
201.2648557982741
 10
-97.74593000767622
 20
201.2560527250826
 10
-97.76182982691044
 20
201.2466438401833
 10
-97.77922846893591
 20
201.2354097008263
 10
-97.79617689721876
 20
201.2234481089071
 10
-97.81556933213217
 20
201.2084047606477
 10
-97.83424229189988
 20
201.1923978871514
 10
-97.85212106713124
 20
201.1754840772736
 10
-97.86456824187265
 20
201.1626645141871
 10
-97.87656302441744
 20
201.1493956372651
 10
-97.8880804849169
 20
201.1357028412602
 10
-97.8977329559498
 20
201.1234144687394
 10
-97.90700147139144
 20
201.1108253979382
 10
-97.92169558598401
 20
201.0890084664194
 10
-97.93523123599209
 20
201.0664386146862
 10
-97.94534953694472
 20
201.0475837505755
 10
-97.95465536878304
 20
201.028309617266
 10
-97.9632102994715
 20
201.0084540378036
 10
-97.97090105985664
 20
200.9882471467708
 10
-97.9774997092533
 20
200.9684154235064
 10
-97.9832651668174
 20
200.948329465899
 10
-97.98823076481116
 20
200.9278272546697
 10
-97.99232871946117
 20
200.9071440254127
 10
-97.9955923334673
 20
200.8860180413488
 10
-97.99795290668587
 20
200.8647914649636
 10
-97.99941814275117
 20
200.8432937029528
 10
-97.99996219639247
 20
200.8217877698728
210
0.0
220
0.0
230
-1.0
  0
LWPOLYLINE
  5
12D
330
1F
100
AcDbEntity
  8
1
  6
CONTINUOUS
 62
     7
100
AcDbPolyline
 90
       17
 70
     0
 43
0.0
 10
65.38301344783154
 20
58.83879650241865
 10
65.36365743562739
 20
58.87080296541726
 10
65.34346593530307
 20
58.90122153282247
 10
65.32248232585988
 20
58.9299868540137
 10
65.30075168805003
 20
58.95703713017038
 10
65.27832070752584
 20
58.98231424703916
 10
65.25523757454162
 20
59.00576389978553
 10
65.2315518804224
 20
59.0273357096608
 10
65.2073145110231
 20
59.04698333223536
 10
65.18257753740639
 20
59.06466455696342
 10
65.15739410397434
 20
59.08034139786795
 10
65.13181831429401
 20
59.0939801751484
 10
65.10590511486244
 20
59.10555158753801
 10
65.07971017706096
 20
59.11503077525389
 10
65.05328977755163
 20
59.12239737340548
 10
65.02670067737384
 20
59.12763555574575
 10
64.99999999999997
 20
59.13073406867215
  0
LWPOLYLINE
  5
12E
330
1F
100
AcDbEntity
  8
1
  6
CONTINUOUS
 62
     7
100
AcDbPolyline
 90
       33
 70
     0
 43
0.0
 10
95.38347987313992
 20
74.63168972123209
 10
95.33826949979634
 20
74.63066720953805
 10
95.29315158272364
 20
74.62760176551632
 10
95.24821838911745
 20
74.62249965807162
 10
95.20356180840957
 20
74.61537132113301
 10
95.15927316435199
 20
74.60623133231621
 10
95.11544302825767
 20
74.59509838311213
 10
95.07216103377993
 20
74.5819952406623
 10
95.02951569360987
 20
74.56694870119946
 10
94.98759421846545
 20
74.54998953524867
 10
94.9464823387438
 20
74.53115242470105
 10
94.90626412920055
 20
74.51047589188815
 10
94.86702183701476
 20
74.48800222080322
 10
94.8288357135918
 20
74.46377737062916
 10
94.79178385044715
 20
74.43785088175122
 10
94.75594201950749
 20
74.4102757744455
 10
94.72138351815539
 20
74.38110844045133
 10
94.68817901933437
 20
74.35040852764891
 10
94.6563964270211
 20
74.31823881807804
 10
94.62610073736016
 20
74.28466509954703
 10
94.59735390574552
 20
74.24975603109559
 10
94.57021472012016
 20
74.21358300258508
 10
94.54473868075335
 20
74.1762199887049
 10
94.52097788674152
 20
74.1377433976922
 10
94.49898092946407
 20
74.0982319150756
 10
94.47879279321313
 20
74.05776634276108
 10
94.46045476319948
 20
74.01642943379039
 10
94.4440043411234
 20
73.97430572310927
 10
94.4294751684828
 20
73.9314813546912
 10
94.41689695777549
 20
73.88804390537113
 10
94.40629543173657
 20
73.8440822057489
 10
94.39769227073474
 20
73.7996861585284
 10
94.39110506843545
 20
73.75494655466454
  0
LWPOLYLINE
  5
12F
330
1F
100
AcDbEntity
  8
1
  6
CONTINUOUS
 62
     7
100
AcDbPolyline
 90
       65
 70
     0
 43
0.0
 10
-93.44145495046513
 20
189.6423303201293
 10
-93.4407087901277
 20
189.6235376814035
 10
-93.43863104243566
 20
189.6049878522902
 10
-93.43522668946025
 20
189.5867253119966
 10
-93.43050389423732
 20
189.5687938508619
 10
-93.42447398119397
 20
189.5512364653562
 10
-93.41715140899437
 20
189.5340952549824
 10
-93.40855373587061
 20
189.517411321329
 10
-93.3987015775212
 20
189.5012246695161
 10
-93.387618557678
 20
189.4855741122699
 10
-93.37533125146099
 20
189.4704971768563
 10
-93.36186912165576
 20
189.4560300150982
 10
-93.34726444806684
 20
189.4422073166889
 10
-93.3315522501166
 20
189.4290622260125
 10
-93.31477020287477
 20
189.41662626267
 10
-93.29695854672029
 20
189.4049292459003
 10
-93.27815999085212
 20
189.3939992230795
 10
-93.25841961088003
 20
189.3838624024676
 10
-93.23778474074123
 20
189.3745430903663
 10
-93.21630485920215
 20
189.3660636328367
 10
-93.19403147121687
 20
189.358444362117
 10
-93.17101798442759
 20
189.35170354787
 10
-93.14731958110237
 20
189.345857353375
 10
-93.12299308581798
 20
189.3409197967717
 10
-93.09809682920442
 20
189.3369027174471
 10
-93.07269050807868
 20
189.3338157476462
 10
-93.04683504230196
 20
189.3316662893764
 10
-93.02059242870506
 20
189.3304594966581
 10
-92.99402559243059
 20
189.3301982631665
 10
-92.9671982360498
 20
189.3308832152935
 10
-92.94017468681498
 20
189.332512710645
 10
-92.91301974241428
 20
189.3350828419798
 10
-92.88579851559814
 20
189.3385874465774
 10
-92.85857627805044
 20
189.3430181210167
 10
-92.83141830387872
 20
189.3483642413244
 10
-92.80438971309826
 20
189.3546129884502
 10
-92.7775553154859
 20
189.3617493790045
 10
-92.75097945517757
 20
189.3697563011859
 10
-92.72472585638258
 20
189.3786145558122
 10
-92.69885747058412
 20
189.3883029023565
 10
-92.67343632559286
 20
189.3987981098788
 10
-92.64852337681504
 20
189.4100750127287
 10
-92.62417836109246
 20
189.4221065708894
 10
-92.60045965346391
 20
189.4348639348138
 10
-92.57742412719224
 20
189.4483165146013
 10
-92.55512701739238
 20
189.4624320533464
 10
-92.5336217885871
 20
189.4771767044857
 10
-92.51296000650885
 20
189.4925151129553
 10
-92.49319121445407
 20
189.5084104999666
 10
-92.47436281448715
 20
189.5248247511949
 10
-92.45651995377874
 20
189.541718508171
 10
-92.43970541635072
 20
189.5590512626556
 10
-92.42395952048778
 20
189.5767814537714
 10
-92.40932002206137
 20
189.5948665676582
 10
-92.39582202399754
 20
189.6132632394137
 10
-92.38349789210662
 20
189.6319273570752
 10
-92.3723771774756
 20
189.650814167392
 10
-92.36248654560988
 20
189.6698783831358
 10
-92.35384971249414
 20
189.6890742916914
 10
-92.34648738772543
 20
189.7083558646677
 10
-92.34041722485556
 20
189.7276768682653
 10
-92.33565377906069
 20
189.7469909741374
 10
-92.33220847224074
 20
189.7662518704765
 10
-92.33008956563165
 20
189.7854133730623
 10
-92.32930213999646
 20
189.8044295360029
210
0.0
220
0.0
230
-1.0
  0
LWPOLYLINE
  5
130
330
1F
100
AcDbEntity
  8
1
  6
CONTINUOUS
 62
     7
100
AcDbPolyline
 90
       65
 70
     0
 43
0.0
 10
-37.67069786000347
 20
189.8044295360029
 10
-37.66991043436828
 20
189.7854133730623
 10
-37.66779152775919
 20
189.7662518704765
 10
-37.66434622093922
 20
189.7469909741374
 10
-37.65958277514435
 20
189.7276768682653
 10
-37.65351261227448
 20
189.7083558646677
 10
-37.64615028750581
 20
189.6890742916914
 10
-37.63751345439004
 20
189.6698783831358
 10
-37.62762282252432
 20
189.650814167392
 10
-37.61650210789332
 20
189.6319273570752
 10
-37.60417797600239
 20
189.6132632394137
 10
-37.59067997793856
 20
189.5948665676582
 10
-37.57604047951213
 20
189.5767814537714
 10
-37.56029458364922
 20
189.5590512626556
 10
-37.5434800462212
 20
189.541718508171
 10
-37.52563718551277
 20
189.5248247511949
 10
-37.50680878554585
 20
189.5084104999666
 10
-37.48703999349107
 20
189.4925151129553
 10
-37.46637821141282
 20
189.4771767044857
 10
-37.44487298260756
 20
189.4624320533464
 10
-37.42257587280767
 20
189.4483165146013
 10
-37.399540346536
 20
189.4348639348138
 10
-37.37582163890747
 20
189.4221065708894
 10
-37.3514766231849
 20
189.4100750127287
 10
-37.32656367440709
 20
189.3987981098788
 10
-37.3011425294158
 20
189.3883029023565
 10
-37.27527414361734
 20
189.3786145558122
 10
-37.24902054482234
 20
189.3697563011859
 10
-37.22244468451402
 20
189.3617493790045
 10
-37.19561028690166
 20
189.3546129884502
 10
-37.16858169612119
 20
189.3483642413244
 10
-37.14142372194948
 20
189.3430181210167
 10
-37.1142014844018
 20
189.3385874465774
 10
-37.08698025758564
 20
189.3350828419798
 10
-37.05982531318494
 20
189.332512710645
 10
-37.03280176395015
 20
189.3308832152935
 10
-37.00597440756933
 20
189.3301982631665
 10
-36.97940757129486
 20
189.3304594966581
 10
-36.95316495769796
 20
189.3316662893764
 10
-36.92730949192127
 20
189.3338157476462
 10
-36.9019031707955
 20
189.3369027174471
 10
-36.87700691418195
 20
189.3409197967717
 10
-36.85268041889756
 20
189.345857353375
 10
-36.82898201557233
 20
189.35170354787
 10
-36.80596852878305
 20
189.358444362117
 10
-36.78369514079778
 20
189.3660636328367
 10
-36.76221525925868
 20
189.3745430903663
 10
-36.7415803891199
 20
189.3838624024676
 10
-36.7218400091478
 20
189.3939992230795
 10
-36.70304145327962
 20
189.4049292459003
 10
-36.68522979712515
 20
189.41662626267
 10
-36.66844774988331
 20
189.4290622260125
 10
-36.65273555193308
 20
189.4422073166889
 10
-36.63813087834416
 20
189.4560300150982
 10
-36.62466874853892
 20
189.4704971768563
 10
-36.61238144232194
 20
189.4855741122699
 10
-36.60129842247875
 20
189.5012246695161
 10
-36.5914462641293
 20
189.517411321329
 10
-36.58284859100556
 20
189.5340952549824
 10
-36.57552601880598
 20
189.5512364653562
 10
-36.5694961057626
 20
189.5687938508619
 10
-36.56477331053969
 20
189.5867253119966
 10
-36.56136895756426
 20
189.6049878522902
 10
-36.55929120987222
 20
189.6235376814035
 10
-36.55854504953479
 20
189.6423303201293
210
0.0
220
0.0
230
-1.0
  0
LWPOLYLINE
  5
131
330
1F
100
AcDbEntity
  8
1
  6
CONTINUOUS
 62
     7
100
AcDbPolyline
 90
       65
 70
     0
 43
0.0
 10
93.44145495046516
 20
189.6423303201293
 10
93.4407087901277
 20
189.6612049237274
 10
93.43863104243566
 20
189.6802252319062
 10
93.43522668946025
 20
189.6993456373335
 10
93.43050389423732
 20
189.718520292661
 10
93.42447398119397
 20
189.7377032204591
 10
93.41715140899437
 20
189.7568484234623
 10
93.40855373587064
 20
189.7759099948622
 10
93.3987015775212
 20
189.7948422283844
 10
93.387618557678
 20
189.8135997278838
 10
93.37533125146099
 20
189.8321375161966
 10
93.36186912165579
 20
189.8504111429874
 10
93.34726444806687
 20
189.8683767913334
 10
93.33155225011663
 20
189.8859913827899
 10
93.31477020287478
 20
189.903212680684
 10
93.29695854672032
 20
189.9199993913915
 10
93.27815999085215
 20
189.9363112633513
 10
93.25841961088005
 20
189.9521091835814
 10
93.23778474074126
 20
189.9673552714654
 10
93.21630485920215
 20
189.9820129695828
 10
93.19403147121687
 20
189.9960471313679
 10
93.17101798442759
 20
190.0094241053847
 10
93.1473195811024
 20
190.0221118160172
 10
93.12299308581798
 20
190.0340798403809
 10
93.09809682920445
 20
190.0452994812716
 10
93.07269050807868
 20
190.0557438359763
 10
93.04683504230199
 20
190.0653878607809
 10
93.02059242870509
 20
190.0742084310208
 10
92.99402559243059
 20
190.08218439653
 10
92.9671982360498
 20
190.0892966323547
 10
92.94017468681498
 20
190.0955280846122
 10
92.91301974241428
 20
190.100863811383
 10
92.88579851559811
 20
190.1052910185387
 10
92.85857627805044
 20
190.10879909042
 10
92.83141830387872
 20
190.1113796152915
 10
92.80438971309826
 20
190.1130264055114
 10
92.7775553154859
 20
190.113735512368
 10
92.75097945517757
 20
190.1135052355488
 10
92.72472585638258
 20
190.1123361272167
 10
92.69885747058412
 20
190.1102309906865
 10
92.67343632559283
 20
190.1071948737033
 10
92.64852337681504
 20
190.1032350563379
 10
92.62417836109243
 20
190.0983610335317
 10
92.60045965346389
 20
190.0925844923286
 10
92.57742412719224
 20
190.0859192838521
 10
92.55512701739235
 20
190.0783813900925
 10
92.5336217885871
 20
190.0699888855847
 10
92.51296000650885
 20
190.0607618940691
 10
92.49319121445407
 20
190.0507225402384
 10
92.47436281448715
 20
190.039894896686
 10
92.45651995377871
 20
190.0283049261849
 10
92.43970541635069
 20
190.015980419433
 10
92.42395952048778
 20
190.0029509284159
 10
92.40932002206134
 20
189.9892476955473
 10
92.39582202399751
 20
189.974903578754
 10
92.38349789210662
 20
189.9599529726893
 10
92.3723771774756
 20
189.9444317262603
 10
92.36248654560988
 20
189.928377056669
 10
92.35384971249411
 20
189.9118274601713
 10
92.34648738772543
 20
189.8948226197707
 10
92.34041722485556
 20
189.8774033100644
 10
92.33565377906069
 20
189.8596112994743
 10
92.33220847224074
 20
189.8414892500925
 10
92.33008956563165
 20
189.8230806153861
 10
92.32930213999646
 20
189.8044295360029
  0
LWPOLYLINE
  5
132
330
1F
100
AcDbEntity
  8
1
  6
CONTINUOUS
 62
     7
100
AcDbPolyline
 90
       65
 70
     0
 43
0.0
 10
37.67069786000347
 20
189.8044295360029
 10
37.66991043436828
 20
189.8230806153861
 10
37.66779152775919
 20
189.8414892500925
 10
37.66434622093922
 20
189.8596112994743
 10
37.65958277514437
 20
189.8774033100644
 10
37.6535126122745
 20
189.8948226197707
 10
37.64615028750581
 20
189.9118274601713
 10
37.63751345439005
 20
189.928377056669
 10
37.62762282252432
 20
189.9444317262603
 10
37.61650210789333
 20
189.9599529726892
 10
37.6041779760024
 20
189.974903578754
 10
37.59067997793858
 20
189.9892476955473
 10
37.57604047951214
 20
190.0029509284159
 10
37.56029458364923
 20
190.015980419433
 10
37.54348004622121
 20
190.0283049261849
 10
37.52563718551279
 20
190.039894896686
 10
37.50680878554586
 20
190.0507225402384
 10
37.48703999349108
 20
190.0607618940691
 10
37.46637821141284
 20
190.0699888855847
 10
37.44487298260757
 20
190.0783813900925
 10
37.42257587280767
 20
190.0859192838521
 10
37.39954034653601
 20
190.0925844923286
 10
37.37582163890748
 20
190.0983610335317
 10
37.35147662318492
 20
190.1032350563379
 10
37.32656367440709
 20
190.1071948737033
 10
37.3011425294158
 20
190.1102309906865
 10
37.27527414361735
 20
190.1123361272167
 10
37.24902054482236
 20
190.1135052355488
 10
37.22244468451404
 20
190.113735512368
 10
37.19561028690166
 20
190.1130264055114
 10
37.16858169612119
 20
190.1113796152915
 10
37.14142372194948
 20
190.10879909042
 10
37.1142014844018
 20
190.1052910185387
 10
37.08698025758564
 20
190.100863811383
 10
37.05982531318494
 20
190.0955280846122
 10
37.03280176395014
 20
190.0892966323547
 10
37.00597440756933
 20
190.08218439653
 10
36.97940757129485
 20
190.0742084310208
 10
36.95316495769794
 20
190.0653878607809
 10
36.92730949192126
 20
190.0557438359763
 10
36.90190317079549
 20
190.0452994812716
 10
36.87700691418194
 20
190.0340798403809
 10
36.85268041889754
 20
190.0221118160172
 10
36.82898201557233
 20
190.0094241053847
 10
36.80596852878304
 20
189.9960471313679
 10
36.78369514079777
 20
189.9820129695828
 10
36.76221525925867
 20
189.9673552714654
 10
36.74158038911988
 20
189.9521091835814
 10
36.72184000914778
 20
189.9363112633513
 10
36.70304145327961
 20
189.9199993913915
 10
36.68522979712515
 20
189.903212680684
 10
36.6684477498833
 20
189.8859913827899
 10
36.65273555193306
 20
189.8683767913334
 10
36.63813087834415
 20
189.8504111429874
 10
36.62466874853892
 20
189.8321375161966
 10
36.61238144232193
 20
189.8135997278838
 10
36.60129842247873
 20
189.7948422283844
 10
36.59144626412929
 20
189.7759099948622
 10
36.58284859100556
 20
189.7568484234623
 10
36.57552601880597
 20
189.7377032204591
 10
36.5694961057626
 20
189.718520292661
 10
36.56477331053969
 20
189.6993456373335
 10
36.56136895756426
 20
189.6802252319062
 10
36.55929120987222
 20
189.6612049237274
 10
36.55854504953479
 20
189.6423303201293
  0
ARC
  5
133
330
1F
100
AcDbEntity
  8
1
  6
CONTINUOUS
 62
     7
100
AcDbCircle
 10
90.65273922553116
 20
82.83557683372379
 30
0.0
 40
0.4999999999999933
100
AcDbArc
 50
124.8198864414776
 51
179.2903160886209
  0
LINE
  5
134
330
1F
100
AcDbEntity
  8
1
  6
CONTINUOUS
 62
     7
100
AcDbLine
 10
98.00783963755863
 20
179.3141534445492
 30
0.0
 11
98.0
 21
179.6316897212315
 31
0.0
  0
ELLIPSE
  5
135
330
1F
100
AcDbEntity
  8
1
  6
CONTINUOUS
 62
     7
100
AcDbEllipse
 10
98.08727532464107
 20
60.84489315682846
 30
0.0
 11
0.06172237450012947
 21
-4.999999941981584
 31
0.0
210
0.0
220
0.0
230
1.0
 40
0.0123407145103209
 41
3.92683847734609
 42
4.353932099480712
  0
LINE
  5
136
330
1F
100
AcDbEntity
  8
1
  6
CONTINUOUS
 62
     7
100
AcDbLine
 10
31.99999999999994
 20
60.84489315682846
 30
0.0
 11
31.9921603624413
 21
62.59832792317031
 31
0.0
  0
ELLIPSE
  5
137
330
1F
100
AcDbEntity
  8
1
  6
CONTINUOUS
 62
     7
100
AcDbEllipse
 10
31.91272467535888
 20
60.84489315682846
 30
0.0
 11
0.06172237450013009
 21
4.999999941981584
 31
0.0
210
0.0
220
0.0
230
1.0
 40
0.0123407145103209
 41
5.070845861288655
 42
5.497939483423238
  0
LINE
  5
138
330
1F
100
AcDbEntity
  8
1
  6
CENTER
 62
     1
100
AcDbLine
 10
64.99999999999997
 20
106.631689721232
 30
0.0
 11
64.99999999999997
 21
205.631689721232
 31
0.0
  0
LINE
  5
13A
330
1F
100
AcDbEntity
  8
1
  6
CONTINUOUS
 62
     7
100
AcDbLine
 10
39.49760061658048
 20
202.6316897212321
 30
0.0
 11
90.50239938341947
 21
202.6316897212321
 31
0.0
  0
LINE
  5
13B
330
1F
100
AcDbEntity
  8
1
  6
CENTER
 62
     1
100
AcDbLine
 10
64.99999999999997
 20
1.631689721231989
 30
0.0
 11
64.99999999999997
 21
100.6316897212321
 31
0.0
  0
ARC
  5
13C
330
1F
100
AcDbEntity
  8
1
  6
CONTINUOUS
 62
     7
100
AcDbCircle
 10
39.34726077446876
 20
82.83557683372379
 30
0.0
 40
0.5000000000000097
100
AcDbArc
 50
0.7096839113791096
 51
55.18011355852289
  0
LINE
  5
13D
330
1F
100
AcDbEntity
  8
1
  6
CONTINUOUS
 62
     7
100
AcDbLine
 10
95.09802745522065
 20
4.631689721232006
 30
0.0
 11
95.25315750454372
 21
4.631689721232006
 31
0.0
  0
LINE
  5
13E
330
1F
100
AcDbEntity
  8
1
  6
CONTINUOUS
 62
     7
100
AcDbLine
 10
39.01486072294341
 20
4.631689721232006
 30
0.0
 11
34.90197254477929
 21
4.631689721232006
 31
0.0
  0
LINE
  5
13F
330
1F
100
AcDbEntity
  8
1
  6
CONTINUOUS
 62
     7
100
AcDbLine
 10
90.00448391924148
 20
4.631689721232006
 30
0.0
 11
90.98513927705659
 21
4.631689721232006
 31
0.0
  0
LINE
  5
140
330
1F
100
AcDbEntity
  8
1
  6
CONTINUOUS
 62
     7
100
AcDbLine
 10
95.09802745522065
 20
4.631689721232006
 30
0.0
 11
90.98513927705659
 21
4.631689721232006
 31
0.0
  0
LINE
  5
141
330
1F
100
AcDbEntity
  8
1
  6
CONTINUOUS
 62
     7
100
AcDbLine
 10
98.00783963755863
 20
62.59832792317034
 30
0.0
 11
97.99999999999997
 21
60.84489315682849
 31
0.0
  0
LINE
  5
142
330
1F
100
AcDbEntity
  8
1
  6
CONTINUOUS
 62
     7
100
AcDbLine
 10
31.99999999999994
 20
64.38042706276121
 30
0.0
 11
31.99999999999994
 21
73.1672236271648
 31
0.0
  0
ARC
  5
143
330
1F
100
AcDbEntity
  8
1
  6
CONTINUOUS
 62
     7
100
AcDbCircle
 10
37.07345739609836
 20
79.37533868317482
 30
0.0
 40
4.64030758680346
100
AcDbArc
 50
56.52745879473068
 51
90.90704646138478
  0
LINE
  5
144
330
1F
100
AcDbEntity
  8
1
  6
CONTINUOUS
 62
     7
100
AcDbLine
 10
31.99216036244129
 20
179.3141534445495
 30
0.0
 11
31.99999999999993
 21
179.631689721232
 31
0.0
  0
LINE
  5
145
330
1F
100
AcDbEntity
  8
1
  6
CONTINUOUS
 62
     7
100
AcDbLine
 10
92.99999999999997
 20
94.63165164357129
 30
0.0
 11
92.99999999999997
 21
73.92458294004551
 31
0.0
  0
LINE
  5
146
330
1F
100
AcDbEntity
  8
1
  6
CONTINUOUS
 62
     7
100
AcDbLine
 10
90.00448391924148
 20
4.631689721232006
 30
0.0
 11
39.99551608075849
 21
4.631689721232006
 31
0.0
  0
LINE
  5
147
330
1F
100
AcDbEntity
  8
1
  6
CONTINUOUS
 62
     7
100
AcDbLine
 10
36.99999999999995
 20
73.92458294004551
 30
0.0
 11
36.99999999999996
 21
94.6316516435713
 31
0.0
  0
LINE
  5
148
330
1F
100
AcDbEntity
  8
1
  6
CONTINUOUS
 62
     7
100
AcDbLine
 10
34.7468424954562
 20
4.631689721232006
 30
0.0
 11
34.90197254477929
 21
4.631689721232006
 31
0.0
  0
LINE
  5
149
330
1F
100
AcDbEntity
  8
1
  6
CONTINUOUS
 62
     7
100
AcDbLine
 10
39.01486072294341
 20
4.631689721232006
 30
0.0
 11
39.99551608075849
 21
4.631689721232006
 31
0.0
  0
LINE
  5
14A
330
1F
100
AcDbEntity
  8
1
  6
CONTINUOUS
 62
     7
100
AcDbLine
 10
97.99999999999997
 20
64.38042706276121
 30
0.0
 11
97.99999999999997
 21
73.16722362716477
 31
0.0
  0
ARC
  5
14B
330
1F
100
AcDbEntity
  8
1
  6
CONTINUOUS
 62
     7
100
AcDbCircle
 10
92.93734895048594
 20
79.33834250970236
 30
0.0
 40
4.67714192719233
100
AcDbArc
 50
89.23249109560699
 51
123.3330036482773
  0
LINE
  5
14C
330
1F
100
AcDbEntity
  8
1
  6
CONTINUOUS
 62
     7
100
AcDbLine
 10
33.49999999999993
 20
74.63168972123209
 30
0.0
 11
33.49999999999994
 21
94.37913448081335
 31
0.0
  0
LINE
  5
14D
330
1F
100
AcDbEntity
  8
1
  6
CONTINUOUS
 62
     7
100
AcDbLine
 10
32.90221677733609
 20
5.121980059077484
 30
0.0
 11
33.39599579625924
 21
5.121980059077512
 31
0.0
  0
LINE
  5
14E
330
1F
100
AcDbEntity
  8
1
  6
CONTINUOUS
 62
     7
100
AcDbLine
 10
68.2226533540543
 20
18.27007923089798
 30
0.0
 11
68.19349138447903
 21
19.24260094954058
 31
0.0
  0
LINE
  5
14F
330
1F
100
AcDbEntity
  8
1
  6
CONTINUOUS
 62
     7
100
AcDbLine
 10
73.03691233136463
 20
6.631689721232036
 30
0.0
 11
72.99449928490307
 21
6.631689721232036
 31
0.0
  0
LINE
  5
150
330
1F
100
AcDbEntity
  8
1
  6
CONTINUOUS
 62
     7
100
AcDbLine
 10
96.60400420374069
 20
5.121980059077512
 30
0.0
 11
97.09778322266382
 21
5.121980059077484
 31
0.0
  0
LINE
  5
151
330
1F
100
AcDbEntity
  8
1
  6
CONTINUOUS
 62
     7
100
AcDbLine
 10
68.2226533540543
 20
18.03168972123203
 30
0.0
 11
68.2226533540543
 21
18.27007923089798
 31
0.0
  0
LINE
  5
152
330
1F
100
AcDbEntity
  8
1
  6
CONTINUOUS
 62
     7
100
AcDbLine
 10
32.90221677733609
 20
5.121980059077484
 30
0.0
 11
31.99999999999994
 21
9.63168972123201
 31
0.0
  0
LINE
  5
153
330
1F
100
AcDbEntity
  8
1
  6
CONTINUOUS
 62
     7
100
AcDbLine
 10
67.88867332297279
 20
15.63168972123204
 30
0.0
 11
67.88867332297279
 21
15.45045073870812
 31
0.0
  0
LINE
  5
154
330
1F
100
AcDbEntity
  8
1
  6
CONTINUOUS
 62
     7
100
AcDbLine
 10
65.74999999999994
 20
6.631689721232008
 30
0.0
 11
64.99999999999996
 21
7.930727826908672
 31
0.0
  0
ELLIPSE
  5
155
330
1F
100
AcDbEntity
  8
1
  6
CONTINUOUS
 62
     7
100
AcDbEllipse
 10
62.61270185580135
 20
15.4915512977223
 30
0.0
 11
0.04988521583361617
 21
0.7464941892981468
 31
0.0
210
0.0
220
0.0
230
1.0
 40
0.6683070065062924
 41
1.670458005605896
 42
3.186223276491428
  0
ELLIPSE
  5
156
330
1F
100
AcDbEntity
  8
1
  6
CONTINUOUS
 62
     7
100
AcDbEllipse
 10
67.49862482122573
 20
13.82563252547849
 30
0.0
 11
-0.049885215833618
 21
0.7464941892981753
 31
0.0
210
0.0
220
0.0
230
-1.0
 40
0.668307006506305
 41
1.670458005605899
 42
3.186223276491427
  0
LINE
  5
157
330
1F
100
AcDbEntity
  8
1
  6
CONTINUOUS
 62
     7
100
AcDbLine
 10
68.14101379090104
 20
21.43168972123201
 30
0.0
 11
68.2226533540543
 21
21.43168972123201
 31
0.0
  0
ELLIPSE
  5
158
330
1F
100
AcDbEntity
  8
1
  6
CONTINUOUS
 62
     7
100
AcDbEllipse
 10
87.20641357521467
 20
83.51317237926216
 30
0.0
 11
-3.458938206446084
 21
-12.4350605028386
 31
0.0
210
0.0
220
0.0
230
-1.0
 40
0.6198106402074663
 41
2.970864411791017
 42
3.095733375578508
  0
LINE
  5
159
330
1F
100
AcDbEntity
  8
1
  6
CONTINUOUS
 62
     7
100
AcDbLine
 10
95.09802745522065
 20
94.21207810771827
 30
0.0
 11
90.98513927705659
 21
95.03459309968669
 31
0.0
  0
LINE
  5
15A
330
1F
100
AcDbEntity
  8
1
  6
CONTINUOUS
 62
     7
100
AcDbLine
 10
67.52620210254919
 20
13.07839425054621
 30
0.0
 11
62.47379789745075
 21
13.07839425054621
 31
0.0
  0
LINE
  5
15B
330
1F
100
AcDbEntity
  8
1
  6
CONTINUOUS
 62
     7
100
AcDbLine
 10
33.50045708858074
 20
74.63168972123209
 30
0.0
 11
33.49999999999993
 21
74.63168972123209
 31
0.0
  0
LINE
  5
15C
330
1F
100
AcDbEntity
  8
1
  6
CONTINUOUS
 62
     7
100
AcDbLine
 10
64.24999999999999
 20
6.631689721232036
 30
0.0
 11
57.00550071509683
 21
6.631689721232036
 31
0.0
  0
ELLIPSE
  5
15D
330
1F
100
AcDbEntity
  8
1
  6
CONTINUOUS
 62
     7
100
AcDbEllipse
 10
57.00550071509683
 20
8.631689721232037
 30
0.0
 11
2.005500715096864
 21
0.0
 31
0.0
210
0.0
220
0.0
230
1.0
 40
0.9972571861702894
 41
3.141592653589785
 42
4.712388980384681
  0
LINE
  5
15E
330
1F
100
AcDbEntity
  8
1
  6
CONTINUOUS
 62
     7
100
AcDbLine
 10
39.84724173600085
 20
82.83866212993736
 30
0.0
 11
40.16564186653884
 21
57.13168972123204
 31
0.0
  0
LINE
  5
15F
330
1F
100
AcDbEntity
  8
1
  6
CONTINUOUS
 62
     7
100
AcDbLine
 10
68.11132667702712
 20
20.55062190808712
 30
0.0
 11
68.11132667702712
 21
21.03168972123203
 31
0.0
  0
LINE
  5
160
330
1F
100
AcDbEntity
  8
1
  6
CONTINUOUS
 62
     7
100
AcDbLine
 10
64.99999999999997
 20
7.930727826908672
 30
0.0
 11
64.24999999999999
 21
6.631689721232036
 31
0.0
  0
LINE
  5
161
330
1F
100
AcDbEntity
  8
1
  6
CONTINUOUS
 62
     7
100
AcDbLine
 10
74.88125154450431
 20
16.63168972123204
 30
0.0
 11
68.1187484554956
 21
16.63168972123204
 31
0.0
  0
LINE
  5
162
330
1F
100
AcDbEntity
  8
1
  6
CONTINUOUS
 62
     7
100
AcDbLine
 10
67.99999999999997
 20
16.13168972123204
 30
0.0
 11
68.03710889234236
 21
16.63168972123204
 31
0.0
  0
LINE
  5
163
330
1F
100
AcDbEntity
  8
1
  6
CONTINUOUS
 62
     7
100
AcDbLine
 10
33.50045708858077
 20
4.631689721232006
 30
0.0
 11
32.90221677733609
 21
5.121980059077484
 31
0.0
  0
ARC
  5
164
330
1F
100
AcDbEntity
  8
1
  6
CONTINUOUS
 62
     7
100
AcDbCircle
 10
56.9631548036378
 20
8.632157036235064
 30
0.0
 40
2.00046731612956
100
AcDbArc
 50
180.0133844614227
 51
269.998077173132
  0
ELLIPSE
  5
165
330
1F
100
AcDbEntity
  8
1
  6
CONTINUOUS
 62
     7
100
AcDbEllipse
 10
67.38729814419855
 20
15.4915512977223
 30
0.0
 11
-0.04988521583361609
 21
0.7464941892981468
 31
0.0
210
0.0
220
0.0
230
1.0
 40
0.6683070065062924
 41
3.09696203068816
 42
4.61272730157369
  0
ELLIPSE
  5
166
330
1F
100
AcDbEntity
  8
1
  6
CONTINUOUS
 62
     7
100
AcDbEllipse
 10
95.23814826580298
 20
93.73342269243547
 30
0.0
 11
1.149679155877261
 21
0.9837023083595139
 31
0.0
210
0.0
220
0.0
230
-1.0
 40
0.5287204096306353
 41
5.889689817095474
 42
6.708025077489198
  0
LINE
  5
167
330
1F
100
AcDbEntity
  8
1
  6
CONTINUOUS
 62
     7
100
AcDbLine
 10
96.49999999999997
 20
94.37913448081332
 30
0.0
 11
96.49999999999997
 21
74.63168972123206
 31
0.0
  0
LINE
  5
168
330
1F
100
AcDbEntity
  8
1
  6
CONTINUOUS
 62
     7
100
AcDbLine
 10
68.11132667702712
 20
21.03168972123203
 30
0.0
 11
68.14101379090104
 21
21.43168972123201
 31
0.0
  0
LINE
  5
169
330
1F
100
AcDbEntity
  8
1
  6
CONTINUOUS
 62
     7
100
AcDbLine
 10
68.11965866833432
 20
20.27275855990351
 30
0.0
 11
68.11132667702711
 21
20.55062190808712
 31
0.0
  0
ELLIPSE
  5
16A
330
1F
100
AcDbEntity
  8
1
  6
CONTINUOUS
 62
     7
100
AcDbEllipse
 10
62.50137517877419
 20
13.82563252547849
 30
0.0
 11
0.04988521583361802
 21
0.7464941892981743
 31
0.0
210
0.0
220
0.0
230
-1.0
 40
0.6683070065063059
 41
3.096962030688156
 42
4.612727301573693
  0
ELLIPSE
  5
16B
330
1F
100
AcDbEntity
  8
1
  6
CONTINUOUS
 62
     7
100
AcDbEllipse
 10
62.46426628643179
 20
21.93168972123204
 30
0.0
 11
0.5013751787742161
 21
0.0
 31
0.0
210
0.0
220
0.0
230
1.0
 40
0.9972571861702894
 41
1.570796326794901
 42
3.141592653589778
  0
LINE
  5
16C
330
1F
100
AcDbEntity
  8
1
  6
CONTINUOUS
 62
     7
100
AcDbLine
 10
97.09778322266382
 20
5.121980059077484
 30
0.0
 11
96.49954291141916
 21
4.631689721232006
 31
0.0
  0
LINE
  5
16D
330
1F
100
AcDbEntity
  8
1
  6
CONTINUOUS
 62
     7
100
AcDbLine
 10
67.41487542552201
 20
14.74431302278999
 30
0.0
 11
62.5851245744779
 21
14.74431302278999
 31
0.0
  0
ELLIPSE
  5
16E
330
1F
100
AcDbEntity
  8
1
  6
CONTINUOUS
 62
     7
100
AcDbEllipse
 10
42.79358642478588
 20
83.51317237926216
 30
0.0
 11
-3.458938206446979
 21
12.43506050283846
 31
0.0
210
0.0
220
0.0
230
-1.0
 40
0.6198106402074575
 41
0.0458592780113246
 42
0.1707282417988201
  0
LINE
  5
16F
330
1F
100
AcDbEntity
  8
1
  6
CONTINUOUS
 62
     7
100
AcDbLine
 10
90.30838408482089
 20
96.03344188988639
 30
0.0
 11
96.10054497055792
 21
94.875009712739
 31
0.0
  0
LINE
  5
170
330
1F
100
AcDbEntity
  8
1
  6
CONTINUOUS
 62
     7
100
AcDbLine
 10
96.49999999999997
 20
74.63168972123209
 30
0.0
 11
96.49954291141916
 21
74.63168972123209
 31
0.0
  0
LINE
  5
171
330
1F
100
AcDbEntity
  8
1
  6
CONTINUOUS
 62
     7
100
AcDbLine
 10
67.99999999999997
 20
16.13168972123204
 30
0.0
 11
67.99999999999997
 21
13.78453196646431
 31
0.0
  0
LINE
  5
172
330
1F
100
AcDbEntity
  8
1
  6
CONTINUOUS
 62
     7
100
AcDbLine
 10
68.11874845549562
 20
16.63168972123204
 30
0.0
 11
68.22265335405432
 21
18.03168972123203
 31
0.0
  0
LINE
  5
173
330
1F
100
AcDbEntity
  8
1
  6
CONTINUOUS
 62
     7
100
AcDbLine
 10
68.19349138447903
 20
19.24260094954058
 30
0.0
 11
68.11965866833435
 21
20.27275855990351
 31
0.0
  0
LINE
  5
174
330
1F
100
AcDbEntity
  8
1
  6
CONTINUOUS
 62
     7
100
AcDbLine
 10
72.99449928490309
 20
6.631689721232036
 30
0.0
 11
65.74999999999996
 21
6.631689721232008
 31
0.0
  0
LINE
  5
175
330
1F
100
AcDbEntity
  8
1
  6
CONTINUOUS
 62
     7
100
AcDbLine
 10
68.11874845549562
 20
16.63168972123204
 30
0.0
 11
68.03710889234236
 21
16.63168972123204
 31
0.0
  0
LINE
  5
176
330
1F
100
AcDbEntity
  8
1
  6
CONTINUOUS
 62
     7
100
AcDbLine
 10
61.88125154450432
 20
16.63168972123204
 30
0.0
 11
55.11874845549559
 21
16.63168972123204
 31
0.0
  0
LINE
  5
177
330
1F
100
AcDbEntity
  8
1
  6
CONTINUOUS
 62
     7
100
AcDbLine
 10
96.49954291141916
 20
4.631689721232006
 30
0.0
 11
96.00576389249602
 21
4.631689721232034
 31
0.0
  0
LINE
  5
178
330
1F
100
AcDbEntity
  8
1
  6
CONTINUOUS
 62
     7
100
AcDbLine
 10
40.69442139439498
 20
96.1316897212321
 30
0.0
 11
89.305578605605
 21
96.1316897212321
 31
0.0
  0
LINE
  5
179
330
1F
100
AcDbEntity
  8
1
  6
CONTINUOUS
 62
     7
100
AcDbLine
 10
57.00550071509682
 20
6.631689721232036
 30
0.0
 11
56.96308766863525
 21
6.631689721232036
 31
0.0
  0
ELLIPSE
  5
17A
330
1F
100
AcDbEntity
  8
1
  6
CONTINUOUS
 62
     7
100
AcDbEllipse
 10
67.53573371356813
 20
21.93168972123204
 30
0.0
 11
-0.5013751787742161
 21
0.0
 31
0.0
210
0.0
220
0.0
230
1.0
 40
0.9972571861702894
 41
3.141592653589799
 42
4.712388980384682
  0
LINE
  5
17B
330
1F
100
AcDbEntity
  8
1
  6
CONTINUOUS
 62
     7
100
AcDbLine
 10
95.49999999999997
 20
93.72178776987285
 30
0.0
 11
95.49999999999997
 21
74.63168972123209
 31
0.0
  0
ELLIPSE
  5
17C
330
1F
100
AcDbEntity
  8
1
  6
CONTINUOUS
 62
     7
100
AcDbEllipse
 10
94.99996191943913
 20
93.72178776987285
 30
0.0
 11
0.5000380805608441
 21
0.0
 31
0.0
210
0.0
220
0.0
230
1.0
 40
0.9999238446783877
 41
0.0
 42
1.373400766944961
  0
ELLIPSE
  5
17D
330
1F
100
AcDbEntity
  8
1
  6
CONTINUOUS
 62
     7
100
AcDbEllipse
 10
90.00448391924151
 20
90.1316897212321
 30
0.0
 11
5.000380805608469
 21
0.0
 31
0.0
210
0.0
220
0.0
230
1.0
 40
0.9999238446783766
 41
1.373400766944969
 42
1.570796326794851
  0
LINE
  5
17E
330
1F
100
AcDbEntity
  8
1
  6
CONTINUOUS
 62
     7
100
AcDbLine
 10
68.03710889234235
 20
21.93168972123207
 30
0.0
 11
68.03710889234235
 21
20.55062190808712
 31
0.0
  0
LINE
  5
17F
330
1F
100
AcDbEntity
  8
1
  6
CONTINUOUS
 62
     7
100
AcDbLine
 10
33.9942361075039
 20
4.631689721232034
 30
0.0
 11
33.50045708858077
 21
4.631689721232006
 31
0.0
  0
ELLIPSE
  5
180
330
1F
100
AcDbEntity
  8
1
  6
CONTINUOUS
 62
     7
100
AcDbEllipse
 10
72.99449928490309
 20
8.631689721232037
 30
0.0
 11
-2.005500715096878
 21
0.0
 31
0.0
210
0.0
220
0.0
230
1.0
 40
0.9972571861702826
 41
1.570796326794905
 42
3.141592653589796
  0
LINE
  5
181
330
1F
100
AcDbEntity
  8
1
  6
CONTINUOUS
 62
     7
100
AcDbLine
 10
90.00448391924151
 20
95.1316897212321
 30
0.0
 11
39.99551608075849
 21
95.1316897212321
 31
0.0
  0
ELLIPSE
  5
182
330
1F
100
AcDbEntity
  8
1
  6
CONTINUOUS
 62
     7
100
AcDbEllipse
 10
39.99551608075851
 20
90.1316897212321
 30
0.0
 11
5.000380805608482
 21
0.0
 31
0.0
210
0.0
220
0.0
230
1.0
 40
0.9999238446783794
 41
1.570796326794942
 42
1.768191886644821
  0
ARC
  5
183
330
1F
100
AcDbEntity
  8
1
  6
CONTINUOUS
 62
     7
100
AcDbCircle
 10
73.03684576702166
 20
8.632156465461387
 30
0.0
 40
2.000466745336796
100
AcDbArc
 50
270.0019064830396
 51
359.9866318824052
  0
LINE
  5
184
330
1F
100
AcDbEntity
  8
1
  6
CONTINUOUS
 62
     7
100
AcDbLine
 10
96.49954291141916
 20
74.63168972123209
 30
0.0
 11
95.49999999999997
 21
74.63168972123209
 31
0.0
  0
LINE
  5
185
330
1F
100
AcDbEntity
  8
1
  6
CONTINUOUS
 62
     7
100
AcDbLine
 10
39.01486072294341
 20
95.03459309968672
 30
0.0
 11
34.90197254477929
 21
94.2120781077183
 31
0.0
  0
ELLIPSE
  5
186
330
1F
100
AcDbEntity
  8
1
  6
CONTINUOUS
 62
     7
100
AcDbEllipse
 10
35.00003808056081
 20
93.72178776987279
 30
0.0
 11
0.500038080560858
 21
0.0
 31
0.0
210
0.0
220
0.0
230
1.0
 40
0.9999238446783599
 41
1.768191886644821
 42
3.141592653589832
  0
LINE
  5
187
330
1F
100
AcDbEntity
  8
1
  6
CONTINUOUS
 62
     7
100
AcDbLine
 10
34.49999999999996
 20
93.72178776987279
 30
0.0
 11
34.49999999999994
 21
74.63168972123206
 31
0.0
  0
LINE
  5
188
330
1F
100
AcDbEntity
  8
1
  6
CONTINUOUS
 62
     7
100
AcDbLine
 10
89.83435813346111
 20
57.13168972123251
 30
0.0
 11
90.15275826399909
 21
82.83866212993738
 31
0.0
  0
LINE
  5
189
330
1F
100
AcDbEntity
  8
1
  6
CONTINUOUS
 62
     7
100
AcDbLine
 10
97.99999999999997
 20
9.63168972123201
 30
0.0
 11
97.09778322266382
 21
5.121980059077484
 31
0.0
  0
LINE
  5
18A
330
1F
100
AcDbEntity
  8
1
  6
CONTINUOUS
 62
     7
100
AcDbLine
 10
34.49999999999994
 20
74.63168972123209
 30
0.0
 11
33.50045708858074
 21
74.63168972123209
 31
0.0
  0
LINE
  5
18B
330
1F
100
AcDbEntity
  8
1
  6
CONTINUOUS
 62
     7
100
AcDbLine
 10
36.99999999999994
 20
64.4316897212321
 30
0.0
 11
36.99999999999995
 21
73.92458294004554
 31
0.0
  0
LINE
  5
18C
330
1F
100
AcDbEntity
  8
1
  6
CONTINUOUS
 62
     7
100
AcDbLine
 10
90.50239938341947
 20
97.63168972123205
 30
0.0
 11
90.36626668057352
 21
97.63168972123205
 31
0.0
  0
LINE
  5
18D
330
1F
100
AcDbEntity
  8
1
  6
CONTINUOUS
 62
     7
100
AcDbLine
 10
97.99999999999997
 20
46.63168972123201
 30
0.0
 11
97.99999999999997
 21
60.84489315682847
 31
0.0
  0
LINE
  5
18E
330
1F
100
AcDbEntity
  8
1
  6
CONTINUOUS
 62
     7
100
AcDbLine
 10
32.90194193243086
 20
74.63168972123209
 30
0.0
 11
33.49999999999993
 21
74.63168972123209
 31
0.0
  0
LINE
  5
18F
330
1F
100
AcDbEntity
  8
1
  6
CONTINUOUS
 62
     7
100
AcDbLine
 10
31.99999999999994
 20
95.80278062784726
 30
0.0
 11
31.99999999999994
 21
74.63168972123212
 31
0.0
  0
LINE
  5
190
330
1F
100
AcDbEntity
  8
1
  6
CONTINUOUS
 62
     7
100
AcDbLine
 10
33.50045708858074
 20
4.631689721232034
 30
0.0
 11
33.49999999999993
 21
4.631689721232034
 31
0.0
  0
LINE
  5
191
330
1F
100
AcDbEntity
  8
1
  6
CONTINUOUS
 62
     7
100
AcDbLine
 10
90.73370490344071
 20
95.03459309968794
 30
0.0
 11
90.73130839391841
 21
95.03507118506278
 31
0.0
  0
LINE
  5
192
330
1F
100
AcDbEntity
  8
1
  6
CONTINUOUS
 62
     7
100
AcDbLine
 10
97.59524989787424
 20
96.31207810771826
 30
0.0
 11
97.62920853527545
 21
96.30408127512861
 31
0.0
  0
ELLIPSE
  5
193
330
1F
100
AcDbEntity
  8
1
  6
CONTINUOUS
 62
     7
100
AcDbEllipse
 10
88.26820861300443
 20
90.63072827520841
 30
0.0
 11
3.013920833382932
 21
5.656946125908096
 31
0.0
210
0.0
220
0.0
230
-1.0
 40
0.7563877720667076
 41
5.900103982332695
 42
5.901597378110276
  0
LINE
  5
194
330
1F
100
AcDbEntity
  8
1
  6
CONTINUOUS
 62
     7
100
AcDbLine
 10
38.62579976986302
 20
97.55473763394697
 30
0.0
 11
39.49760061658048
 21
97.6316897212321
 31
0.0
  0
LINE
  5
195
330
1F
100
AcDbEntity
  8
1
  6
CONTINUOUS
 62
     7
100
AcDbLine
 10
31.99999999999994
 20
74.63168972123209
 30
0.0
 11
32.90194193243086
 21
74.63168972123206
 31
0.0
  0
ELLIPSE
  5
196
330
1F
100
AcDbEntity
  8
1
  6
CONTINUOUS
 62
     7
100
AcDbEllipse
 10
36.49999999999995
 20
73.92458294004551
 30
0.0
 11
0.0
 21
-0.707106781186545
 31
0.0
210
0.0
220
0.0
230
-1.0
 40
0.7071067811865114
 41
3.141592653589797
 42
4.712388980384654
  0
LINE
  5
197
330
1F
100
AcDbEntity
  8
1
  6
CONTINUOUS
 62
     7
100
AcDbLine
 10
95.38347987313992
 20
74.63168972123209
 30
0.0
 11
94.69999999999995
 21
74.63168972123209
 31
0.0
  0
LINE
  5
198
330
1F
100
AcDbEntity
  8
1
  6
CONTINUOUS
 62
     7
100
AcDbLine
 10
33.89945502944199
 20
94.875009712739
 30
0.0
 11
39.69161591517907
 21
96.03344188988642
 31
0.0
  0
LINE
  5
199
330
1F
100
AcDbEntity
  8
1
  6
CONTINUOUS
 62
     7
100
AcDbLine
 10
31.99999999999994
 20
46.63168972123201
 30
0.0
 11
31.99999999999994
 21
60.84489315682847
 31
0.0
  0
ELLIPSE
  5
19A
330
1F
100
AcDbEntity
  8
1
  6
CONTINUOUS
 62
     7
100
AcDbEllipse
 10
31.91272467535888
 20
69.63168972123202
 30
0.0
 11
0.06172237450013009
 21
4.999999941981584
 31
0.0
210
0.0
220
0.0
230
-1.0
 40
0.0123407145103209
 41
0.3581522016217489
 42
0.7852458237563392
  0
LINE
  5
19B
330
1F
100
AcDbEntity
  8
1
  6
CONTINUOUS
 62
     7
100
AcDbLine
 10
31.9921603624413
 20
74.31415344454946
 30
0.0
 11
31.99999999999994
 21
74.63168972123204
 31
0.0
  0
LINE
  5
19C
330
1F
100
AcDbEntity
  8
1
  6
CONTINUOUS
 62
     7
100
AcDbLine
 10
96.49999999999997
 20
4.631689721232034
 30
0.0
 11
97.09805806756907
 21
5.121980059077484
 31
0.0
  0
LINE
  5
19D
330
1F
100
AcDbEntity
  8
1
  6
CONTINUOUS
 62
     7
100
AcDbLine
 10
97.99999999999997
 20
74.63168972123204
 30
0.0
 11
98.00783963755863
 21
74.31415344454946
 31
0.0
  0
LINE
  5
19E
330
1F
100
AcDbEntity
  8
1
  6
CONTINUOUS
 62
     7
100
AcDbLine
 10
97.99999999999997
 20
95.80278062784726
 30
0.0
 11
97.99996219639245
 21
95.82178776987284
 31
0.0
  0
ELLIPSE
  5
19F
330
1F
100
AcDbEntity
  8
1
  6
CONTINUOUS
 62
     7
100
AcDbEllipse
 10
98.08727532464107
 20
69.63168972123202
 30
0.0
 11
0.06172237450012947
 21
-4.999999941981584
 31
0.0
210
0.0
220
0.0
230
-1.0
 40
0.0123407145103209
 41
2.35634682983345
 42
2.783440451968076
  0
LINE
  5
1A0
330
1F
100
AcDbEntity
  8
1
  6
CONTINUOUS
 62
     7
100
AcDbLine
 10
97.99999999999997
 20
9.631689721232037
 30
0.0
 11
97.99999999999997
 21
38.63168972123201
 31
0.0
  0
LINE
  5
1A1
330
1F
100
AcDbEntity
  8
1
  6
CONTINUOUS
 62
     7
100
AcDbLine
 10
90.36626668057355
 20
97.6316897212321
 30
0.0
 11
39.63373331942642
 21
97.6316897212321
 31
0.0
  0
LINE
  5
1A2
330
1F
100
AcDbEntity
  8
1
  6
CONTINUOUS
 62
     7
100
AcDbLine
 10
34.61652012686
 20
74.63168972123209
 30
0.0
 11
35.29999999999997
 21
74.63168972123209
 31
0.0
  0
LINE
  5
1A3
330
1F
100
AcDbEntity
  8
1
  6
CONTINUOUS
 62
     7
100
AcDbLine
 10
91.4808498292411
 20
97.53459309968672
 30
0.0
 11
97.59524989787424
 21
96.31207810771829
 31
0.0
  0
ELLIPSE
  5
1A4
330
1F
100
AcDbEntity
  8
1
  6
CONTINUOUS
 62
     7
100
AcDbEllipse
 10
93.49999999999997
 20
73.92458294004557
 30
0.0
 11
0.0
 21
-0.707106781186545
 31
0.0
210
0.0
220
0.0
230
-1.0
 40
0.7071067811865507
 41
1.570796326794881
 42
3.141592653589787
  0
LINE
  5
1A5
330
1F
100
AcDbEntity
  8
1
  6
CONTINUOUS
 62
     7
100
AcDbLine
 10
93.49999999999997
 20
74.63168972123209
 30
0.0
 11
94.69999999999995
 21
74.63168972123209
 31
0.0
  0
LINE
  5
1A6
330
1F
100
AcDbEntity
  8
1
  6
CONTINUOUS
 62
     7
100
AcDbLine
 10
31.99999999999994
 20
9.631689721232094
 30
0.0
 11
32.90194193243086
 21
5.121980059077484
 31
0.0
  0
LINE
  5
1A7
330
1F
100
AcDbEntity
  8
1
  6
CONTINUOUS
 62
     7
100
AcDbLine
 10
90.50239938341947
 20
97.6316897212321
 30
0.0
 11
91.37420023013692
 21
97.55473763394697
 31
0.0
  0
LINE
  5
1A8
330
1F
100
AcDbEntity
  8
1
  6
CONTINUOUS
 62
     7
100
AcDbLine
 10
35.14325533573692
 20
94.21207810771838
 30
0.0
 11
35.13781775322563
 21
94.21099335147171
 31
0.0
  0
ELLIPSE
  5
1A9
330
1F
100
AcDbEntity
  8
1
  6
CONTINUOUS
 62
     7
100
AcDbEllipse
 10
41.73179138699551
 20
90.63072827520841
 30
0.0
 11
-3.01392083338293
 21
5.656946125908099
 31
0.0
210
0.0
220
0.0
230
-1.0
 40
0.7563877720667078
 41
0.3815879290693102
 42
0.3830813248468921
  0
LINE
  5
1AA
330
1F
100
AcDbEntity
  8
1
  6
CONTINUOUS
 62
     7
100
AcDbLine
 10
32.37079146472446
 20
96.30408127512864
 30
0.0
 11
32.40475010212567
 21
96.31207810771829
 31
0.0
  0
ELLIPSE
  5
1AB
330
1F
100
AcDbEntity
  8
1
  6
CONTINUOUS
 62
     7
100
AcDbEllipse
 10
91.01394133370124
 20
92.6316897212321
 30
0.0
 11
-3.412432673976153
 21
3.941684048849352
 31
0.0
210
0.0
220
0.0
230
-1.0
 40
0.9014740704167399
 41
0.8383658074381948
 42
0.8600908929644588
  0
LINE
  5
1AC
330
1F
100
AcDbEntity
  8
1
  6
CONTINUOUS
 62
     7
100
AcDbLine
 10
32.40475010212567
 20
96.31207810771826
 30
0.0
 11
38.51915017075886
 21
97.53459309968669
 31
0.0
  0
ELLIPSE
  5
1AD
330
1F
100
AcDbEntity
  8
1
  6
CONTINUOUS
 62
     7
100
AcDbEllipse
 10
38.98605866629872
 20
92.6316897212321
 30
0.0
 11
-3.412432673976145
 21
-3.941684048849358
 31
0.0
210
0.0
220
0.0
230
-1.0
 40
0.9014740704167432
 41
2.281501760625334
 42
2.303226846151596
  0
LINE
  5
1AE
330
1F
100
AcDbEntity
  8
1
  6
CONTINUOUS
 62
     7
100
AcDbLine
 10
39.63373331942643
 20
97.63168972123205
 30
0.0
 11
39.49760061658048
 21
97.63168972123205
 31
0.0
  0
LINE
  5
1AF
330
1F
100
AcDbEntity
  8
1
  6
CONTINUOUS
 62
     7
100
AcDbLine
 10
93.23312009227672
 20
64.4316897212321
 30
0.0
 11
92.99999999999997
 21
64.4316897212321
 31
0.0
  0
LINE
  5
1B0
330
1F
100
AcDbEntity
  8
1
  6
CONTINUOUS
 62
     7
100
AcDbLine
 10
36.76687990772322
 20
64.4316897212321
 30
0.0
 11
36.99999999999994
 21
64.4316897212321
 31
0.0
  0
LINE
  5
1B1
330
1F
100
AcDbEntity
  8
1
  6
CONTINUOUS
 62
     7
100
AcDbLine
 10
96.49999999999997
 20
4.631689721232034
 30
0.0
 11
96.49954291141916
 21
4.631689721232034
 31
0.0
  0
LINE
  5
1B2
330
1F
100
AcDbEntity
  8
1
  6
CONTINUOUS
 62
     7
100
AcDbLine
 10
92.99999999999997
 20
64.4316897212321
 30
0.0
 11
92.99999999999997
 21
73.92458294004554
 31
0.0
  0
LINE
  5
1B3
330
1F
100
AcDbEntity
  8
1
  6
CONTINUOUS
 62
     7
100
AcDbLine
 10
96.49999999999997
 20
74.63168972123209
 30
0.0
 11
97.09805806756907
 21
74.63168972123209
 31
0.0
  0
LINE
  5
1B4
330
1F
100
AcDbEntity
  8
1
  6
CONTINUOUS
 62
     7
100
AcDbLine
 10
32.90194193243086
 20
5.121980059077484
 30
0.0
 11
33.49999999999993
 21
4.631689721232034
 31
0.0
  0
ELLIPSE
  5
1B5
330
1F
100
AcDbEntity
  8
1
  6
CONTINUOUS
 62
     7
100
AcDbEllipse
 10
34.76185173419691
 20
93.73342269243547
 30
0.0
 11
-1.149679155877224
 21
0.983702308359542
 31
0.0
210
0.0
220
0.0
230
-1.0
 40
0.528720409630639
 41
5.858345536869959
 42
6.67668079726367
  0
LINE
  5
1B6
330
1F
100
AcDbEntity
  8
1
  6
CONTINUOUS
 62
     7
100
AcDbLine
 10
36.49999999999995
 20
74.63168972123209
 30
0.0
 11
35.29999999999997
 21
74.63168972123209
 31
0.0
  0
LINE
  5
1B7
330
1F
100
AcDbEntity
  8
1
  6
CONTINUOUS
 62
     7
100
AcDbLine
 10
31.99999999999994
 20
9.631689721232094
 30
0.0
 11
31.99999999999994
 21
38.63168972123201
 31
0.0
  0
LINE
  5
1B8
330
1F
100
AcDbEntity
  8
1
  6
CONTINUOUS
 62
     7
100
AcDbLine
 10
97.09805806756907
 20
74.63168972123209
 30
0.0
 11
97.99999999999997
 21
74.63168972123209
 31
0.0
  0
LINE
  5
1B9
330
1F
100
AcDbEntity
  8
1
  6
CONTINUOUS
 62
     7
100
AcDbLine
 10
97.99999999999997
 20
74.63168972123209
 30
0.0
 11
97.99999999999997
 21
95.80278062784724
 31
0.0
  0
LINE
  5
1BA
330
1F
100
AcDbEntity
  8
1
  6
CONTINUOUS
 62
     7
100
AcDbLine
 10
32.00003780360747
 20
95.82178776987284
 30
0.0
 11
31.99999999999994
 21
95.80278062784724
 31
0.0
  0
LINE
  5
1BB
330
1F
100
AcDbEntity
  8
1
  6
CONTINUOUS
 62
     7
100
AcDbLine
 10
97.09805806756907
 20
5.121980059077484
 30
0.0
 11
97.99999999999997
 21
9.631689721232037
 31
0.0
  0
LINE
  5
1BC
330
1F
100
AcDbEntity
  8
1
  6
CONTINUOUS
 62
     7
100
AcDbLine
 10
65.74999999999997
 20
57.63168972123207
 30
0.0
 11
64.99999999999997
 21
57.63168972123207
 31
0.0
  0
LINE
  5
1BD
330
1F
100
AcDbEntity
  8
1
  6
CONTINUOUS
 62
     7
100
AcDbLine
 10
96.49999999999997
 20
74.63168972123209
 30
0.0
 11
96.49954291141916
 21
74.63168972123209
 31
0.0
  0
LINE
  5
1BE
330
1F
100
AcDbEntity
  8
1
  6
CONTINUOUS
 62
     7
100
AcDbLine
 10
33.50045708858077
 20
74.63168972123209
 30
0.0
 11
33.49999999999993
 21
74.63168972123212
 31
0.0
  0
LINE
  5
1BF
330
1F
100
AcDbEntity
  8
1
  6
CONTINUOUS
 62
     7
100
AcDbLine
 10
54.99999999999995
 20
57.63168972123207
 30
0.0
 11
57.00550071509683
 21
57.63168972123207
 31
0.0
  0
LINE
  5
1C0
330
1F
100
AcDbEntity
  8
1
  6
CONTINUOUS
 62
     7
100
AcDbLine
 10
54.96268754209132
 20
58.1344325350618
 30
0.0
 11
54.99999999999996
 21
57.63168972123207
 31
0.0
  0
LINE
  5
1C1
330
1F
100
AcDbEntity
  8
1
  6
CONTINUOUS
 62
     7
100
AcDbLine
 10
74.40810751889437
 20
58.81206620931591
 30
0.0
 11
75.0373124579086
 21
58.1344325350618
 31
0.0
  0
LINE
  5
1C2
330
1F
100
AcDbEntity
  8
1
  6
CONTINUOUS
 62
     7
100
AcDbLine
 10
56.96308766863525
 20
58.8387877927778
 30
0.0
 11
56.96308766863525
 21
58.20315714836845
 31
0.0
  0
LINE
  5
1C3
330
1F
100
AcDbEntity
  8
1
  6
CONTINUOUS
 62
     7
100
AcDbLine
 10
55.59189248110555
 20
58.81206620931591
 30
0.0
 11
54.96268754209132
 21
58.1344325350618
 31
0.0
  0
LINE
  5
1C4
330
1F
100
AcDbEntity
  8
1
  6
CONTINUOUS
 62
     7
100
AcDbLine
 10
98.0
 20
179.631689721232
 30
0.0
 11
98.0
 21
200.8027806278473
 31
0.0
  0
LINE
  5
1C5
330
1F
100
AcDbEntity
  8
1
  6
CONTINUOUS
 62
     7
100
AcDbLine
 10
33.39599579625924
 20
54.63168972123206
 30
0.0
 11
33.9942361075039
 21
54.63168972123206
 31
0.0
  0
LINE
  5
1C6
330
1F
100
AcDbEntity
  8
1
  6
CONTINUOUS
 62
     7
100
AcDbLine
 10
65.74999999999994
 20
58.20315714836845
 30
0.0
 11
73.03691233136466
 21
58.20315714836845
 31
0.0
  0
ARC
  5
1C7
330
1F
100
AcDbEntity
  8
1
  6
CONTINUOUS
 62
     7
100
AcDbCircle
 10
-73.67524474796397
 20
58.13168972123196
 30
0.0
 40
1.000000000000114
210
0.0
220
0.0
230
-1.0
100
AcDbArc
 50
90.0136327901664
 51
137.1315681339754
  0
LINE
  5
1C8
330
1F
100
AcDbEntity
  8
1
  6
CONTINUOUS
 62
     7
100
AcDbLine
 10
76.99999999999993
 20
54.63168972123206
 30
0.0
 11
76.99999999999993
 21
57.13168972123206
 31
0.0
  0
LINE
  5
1C9
330
1F
100
AcDbEntity
  8
1
  6
CONTINUOUS
 62
     7
100
AcDbLine
 10
56.95606851184219
 20
59.13168972062522
 30
0.0
 11
56.96308766863525
 21
58.83877908292233
 31
0.0
  0
LINE
  5
1CA
330
1F
100
AcDbEntity
  8
1
  6
CONTINUOUS
 62
     7
100
AcDbLine
 10
32.37079146472443
 20
201.3040812751286
 30
0.0
 11
32.40475010212567
 21
201.3120781077182
 31
0.0
  0
LINE
  5
1CB
330
1F
100
AcDbEntity
  8
1
  6
CONTINUOUS
 62
     7
100
AcDbLine
 10
98.0
 20
200.8027806278472
 30
0.0
 11
97.99996219639247
 21
200.8217877698728
 31
0.0
  0
LINE
  5
1CC
330
1F
100
AcDbEntity
  8
1
  6
CONTINUOUS
 62
     7
100
AcDbLine
 10
64.99999999999997
 20
57.63168972123207
 30
0.0
 11
64.24999999999999
 21
57.63168972123207
 31
0.0
  0
LINE
  5
1CD
330
1F
100
AcDbEntity
  8
1
  6
CONTINUOUS
 62
     7
100
AcDbLine
 10
32.00003780360744
 20
200.8217877698728
 30
0.0
 11
31.99999999999992
 21
200.8027806278472
 31
0.0
  0
LINE
  5
1CE
330
1F
100
AcDbEntity
  8
1
  6
CONTINUOUS
 62
     7
100
AcDbLine
 10
56.96308766863525
 20
58.20315714836845
 30
0.0
 11
64.24999999999999
 21
58.20315714836845
 31
0.0
  0
LINE
  5
1CF
330
1F
100
AcDbEntity
  8
1
  6
CONTINUOUS
 62
     7
100
AcDbLine
 10
64.61698655216841
 20
58.83879650241865
 30
0.0
 11
64.24999999999999
 21
58.20315714836839
 31
0.0
  0
LINE
  5
1D0
330
1F
100
AcDbEntity
  8
1
  6
CONTINUOUS
 62
     7
100
AcDbLine
 10
34.7468424954562
 20
54.63168972123206
 30
0.0
 11
34.49999999999994
 21
74.63168972123205
 31
0.0
  0
LINE
  5
1D1
330
1F
100
AcDbEntity
  8
1
  6
CONTINUOUS
 62
     7
100
AcDbLine
 10
96.00576389249602
 20
54.63168972123206
 30
0.0
 11
96.60400420374069
 21
54.63168972123206
 31
0.0
  0
LINE
  5
1D2
330
1F
100
AcDbEntity
  8
1
  6
CONTINUOUS
 62
     7
100
AcDbLine
 10
96.60400420374069
 20
54.63168972123206
 30
0.0
 11
97.50622098107681
 21
54.63168972123206
 31
0.0
  0
LINE
  5
1D3
330
1F
100
AcDbEntity
  8
1
  6
CONTINUOUS
 62
     7
100
AcDbLine
 10
54.96268754209132
 20
58.1344325350618
 30
0.0
 11
56.96308766863525
 21
58.20315714836842
 31
0.0
  0
LINE
  5
1D4
330
1F
100
AcDbEntity
  8
1
  6
CONTINUOUS
 62
     7
100
AcDbLine
 10
95.25315750454372
 20
54.63168972123206
 30
0.0
 11
95.49999999999997
 21
74.63168972123205
 31
0.0
  0
LINE
  5
1D5
330
1F
100
AcDbEntity
  8
1
  6
CONTINUOUS
 62
     7
100
AcDbLine
 10
72.99449928490309
 20
57.63168972123207
 30
0.0
 11
74.99999999999996
 21
57.63168972123207
 31
0.0
  0
LINE
  5
1D6
330
1F
100
AcDbEntity
  8
1
  6
CONTINUOUS
 62
     7
100
AcDbLine
 10
33.9942361075039
 20
54.63168972123206
 30
0.0
 11
33.50045708858077
 21
74.63168972123205
 31
0.0
  0
LINE
  5
1D7
330
1F
100
AcDbEntity
  8
1
  6
CONTINUOUS
 62
     7
100
AcDbLine
 10
34.49999999999994
 20
74.63168972123209
 30
0.0
 11
33.50045708858077
 21
74.63168972123209
 31
0.0
  0
LINE
  5
1D8
330
1F
100
AcDbEntity
  8
1
  6
CONTINUOUS
 62
     7
100
AcDbLine
 10
97.50622098107681
 20
54.63168972123206
 30
0.0
 11
97.99999999999997
 21
74.63168972123208
 31
0.0
  0
ARC
  5
1D9
330
1F
100
AcDbEntity
  8
1
  6
CONTINUOUS
 62
     7
100
AcDbCircle
 10
56.32475525203584
 20
58.13168972123218
 30
0.0
 40
0.9999999999998899
100
AcDbArc
 50
89.99999999999682
 51
137.1222918952802
  0
LINE
  5
1DA
330
1F
100
AcDbEntity
  8
1
  6
CONTINUOUS
 62
     7
100
AcDbLine
 10
56.95606851184219
 20
59.13168972123207
 30
0.0
 11
56.32474474142715
 21
59.13168972123207
 31
0.0
  0
LINE
  5
1DB
330
1F
100
AcDbEntity
  8
1
  6
CONTINUOUS
 62
     7
100
AcDbLine
 10
64.24999999999999
 20
58.20315714836839
 30
0.0
 11
64.24999999999999
 21
57.63168972123207
 31
0.0
  0
LINE
  5
1DC
330
1F
100
AcDbEntity
  8
1
  6
CONTINUOUS
 62
     7
100
AcDbLine
 10
96.00576389249602
 20
54.63168972123206
 30
0.0
 11
95.25315750454372
 21
54.63168972123206
 31
0.0
  0
LINE
  5
1DD
330
1F
100
AcDbEntity
  8
1
  6
CONTINUOUS
 62
     7
100
AcDbLine
 10
73.03691233136466
 20
58.20315714836845
 30
0.0
 11
75.0373124579086
 21
58.13443253506183
 31
0.0
  0
LINE
  5
1DE
330
1F
100
AcDbEntity
  8
1
  6
CONTINUOUS
 62
     7
100
AcDbLine
 10
96.49954291141916
 20
74.63168972123209
 30
0.0
 11
95.49999999999997
 21
74.63168972123209
 31
0.0
  0
LINE
  5
1DF
330
1F
100
AcDbEntity
  8
1
  6
CONTINUOUS
 62
     7
100
AcDbLine
 10
74.99999999999996
 20
57.63168972123207
 30
0.0
 11
75.0373124579086
 21
58.1344325350618
 31
0.0
  0
LINE
  5
1E0
330
1F
100
AcDbEntity
  8
1
  6
CONTINUOUS
 62
     7
100
AcDbLine
 10
65.74999999999997
 20
58.20315714836839
 30
0.0
 11
65.74999999999997
 21
57.6316897212321
 31
0.0
  0
LINE
  5
1E1
330
1F
100
AcDbEntity
  8
1
  6
CONTINUOUS
 62
     7
100
AcDbLine
 10
64.24999999999999
 20
57.63168972123207
 30
0.0
 11
57.00550071509683
 21
57.63168972123207
 31
0.0
  0
LINE
  5
1E2
330
1F
100
AcDbEntity
  8
1
  6
CONTINUOUS
 62
     7
100
AcDbLine
 10
96.49954291141916
 20
74.63168972123209
 30
0.0
 11
96.00576389249602
 21
54.6316897212321
 31
0.0
  0
LINE
  5
1E3
330
1F
100
AcDbEntity
  8
1
  6
CONTINUOUS
 62
     7
100
AcDbLine
 10
31.99999999999994
 20
74.63168972123209
 30
0.0
 11
32.49377901892311
 21
54.63168972123207
 31
0.0
  0
LINE
  5
1E4
330
1F
100
AcDbEntity
  8
1
  6
CONTINUOUS
 62
     7
100
AcDbLine
 10
65.74999999999997
 20
58.20315714836839
 30
0.0
 11
65.38301344783154
 21
58.83879650241867
 31
0.0
  0
LINE
  5
1E5
330
1F
100
AcDbEntity
  8
1
  6
CONTINUOUS
 62
     7
100
AcDbLine
 10
34.7468424954562
 20
54.63168972123206
 30
0.0
 11
33.9942361075039
 21
54.63168972123206
 31
0.0
  0
LINE
  5
1E6
330
1F
100
AcDbEntity
  8
1
  6
CONTINUOUS
 62
     7
100
AcDbLine
 10
32.49377901892311
 20
54.63168972123206
 30
0.0
 11
33.39599579625924
 21
54.63168972123206
 31
0.0
  0
LINE
  5
1E7
330
1F
100
AcDbEntity
  8
1
  6
CONTINUOUS
 62
     7
100
AcDbLine
 10
31.99999999999993
 20
200.8027806278472
 30
0.0
 11
31.99999999999993
 21
179.631689721232
 31
0.0
  0
LINE
  5
1E8
330
1F
100
AcDbEntity
  8
1
  6
CONTINUOUS
 62
     7
100
AcDbLine
 10
56.32474474142715
 20
59.13168972123207
 30
0.0
 11
56.32499307605336
 21
59.13168972123207
 31
0.0
  0
LINE
  5
1E9
330
1F
100
AcDbEntity
  8
1
  6
CONTINUOUS
 62
     7
100
AcDbLine
 10
64.99999999999997
 20
59.13073406867215
 30
0.0
 11
64.99999999999996
 21
57.63168972123207
 31
0.0
  0
LINE
  5
1EA
330
1F
100
AcDbEntity
  8
1
  6
CONTINUOUS
 62
     7
100
AcDbLine
 10
72.99449928490309
 20
57.63168972123207
 30
0.0
 11
65.74999999999997
 21
57.63168972123207
 31
0.0
  0
LINE
  5
1EB
330
1F
100
AcDbEntity
  8
1
  6
CONTINUOUS
 62
     7
100
AcDbLine
 10
73.03691233136466
 20
59.13168972123207
 30
0.0
 11
56.95606851184219
 21
59.13168972123207
 31
0.0
  0
LINE
  5
1EC
330
1F
100
AcDbEntity
  8
1
  6
CONTINUOUS
 62
     7
100
AcDbLine
 10
73.03691233136466
 20
59.13168972123207
 30
0.0
 11
73.03691233136466
 21
58.83879650241862
 31
0.0
  0
LINE
  5
1ED
330
1F
100
AcDbEntity
  8
1
  6
CONTINUOUS
 62
     7
100
AcDbLine
 10
73.03691233136466
 20
58.83878779277775
 30
0.0
 11
73.03691233136466
 21
58.20315714836842
 31
0.0
  0
LINE
  5
1EE
330
1F
100
AcDbEntity
  8
1
  6
CONTINUOUS
 62
     7
100
AcDbLine
 10
73.67560157911699
 20
59.13168972123207
 30
0.0
 11
73.03691267682883
 21
59.13168972123207
 31
0.0
  0
LINE
  5
1EF
330
1F
100
AcDbEntity
  8
1
  6
CONTINUOUS
 62
     7
100
AcDbLine
 10
132.131689721232
 20
74.63168972123209
 30
0.0
 11
132.6219800590774
 21
74.63168972123209
 31
0.0
  0
LINE
  5
1F0
330
1F
100
AcDbEntity
  8
1
  6
CONTINUOUS
 62
     7
100
AcDbLine
 10
205.1590601174283
 20
48.34206537891827
 30
0.0
 11
205.1590601174283
 21
36.92131406354579
 31
0.0
  0
LINE
  5
1F1
330
1F
100
AcDbEntity
  8
1
  6
CONTINUOUS
 62
     7
100
AcDbLine
 10
221.8791344808132
 20
4.631689721232006
 30
0.0
 11
202.131689721232
 21
4.631689721232034
 31
0.0
  0
LINE
  5
1F2
330
1F
100
AcDbEntity
  8
1
  6
CONTINUOUS
 62
     7
100
AcDbLine
 10
202.131689721232
 20
4.631689721232034
 30
0.0
 11
202.131689721232
 21
5.121980059077484
 31
0.0
  0
LINE
  5
1F3
330
1F
100
AcDbEntity
  8
1
  6
CONTINUOUS
 62
     7
100
AcDbLine
 10
204.131689721232
 20
46.63168972123201
 30
0.0
 11
203.1408131866307
 21
46.63168972123201
 31
0.0
  0
LINE
  5
1F4
330
1F
100
AcDbEntity
  8
1
  6
CONTINUOUS
 62
     7
100
AcDbLine
 10
203.1408131866308
 20
38.63168972123201
 30
0.0
 11
204.131689721232
 21
38.63168972123201
 31
0.0
  0
LINE
  5
1F5
330
1F
100
AcDbEntity
  8
1
  6
CONTINUOUS
 62
     7
100
AcDbLine
 10
205.1590601174283
 20
48.34206537891827
 30
0.0
 11
206.131689721232
 21
48.20311829266057
 31
0.0
  0
LINE
  5
1F6
330
1F
100
AcDbEntity
  8
1
  6
CONTINUOUS
 62
     7
100
AcDbLine
 10
206.131689721232
 20
37.06026114980345
 30
0.0
 11
206.131689721232
 21
48.20311829266057
 31
0.0
  0
ARC
  5
1F7
330
1F
100
AcDbEntity
  8
1
  6
CONTINUOUS
 62
     7
100
AcDbCircle
 10
-197.131689721232
 20
60.84489315682846
 30
0.0
 40
5.000000000000002
210
0.0
220
0.0
230
-1.0
100
AcDbArc
 50
159.4706620052673
 51
180.0
  0
LINE
  5
1F8
330
1F
100
AcDbEntity
  8
1
  6
CONTINUOUS
 62
     7
100
AcDbLine
 10
132.6219800590774
 20
74.63168972123209
 30
0.0
 11
132.6219800590774
 21
94.89085211837617
 31
0.0
  0
ELLIPSE
  5
1F9
330
1F
100
AcDbEntity
  8
1
  6
CONTINUOUS
 62
     7
100
AcDbEllipse
 10
223.0365639067539
 20
6.359327485218079
 30
0.0
 11
0.9922876187192194
 21
1.119950590175034
 31
0.0
210
0.0
220
0.0
230
1.0
 40
0.5301489052840452
 41
3.580721985253655
 42
3.591110259726295
  0
LINE
  5
1FA
330
1F
100
AcDbEntity
  8
1
  6
CONTINUOUS
 62
     7
100
AcDbLine
 10
207.1773070482258
 20
48.05374438880433
 30
0.0
 11
208.131689721232
 21
47.91740400694629
 31
0.0
  0
ELLIPSE
  5
1FB
330
1F
100
AcDbEntity
  8
1
  6
CONTINUOUS
 62
     7
100
AcDbEllipse
 10
133.8593274852181
 20
95.53656390675398
 30
0.0
 11
1.119950590175036
 21
0.9922876187192181
 31
0.0
210
0.0
220
0.0
230
-1.0
 40
0.5301489052840453
 41
3.580721985253655
 42
3.591110259726295
  0
LINE
  5
1FC
330
1F
100
AcDbEntity
  8
1
  6
CONTINUOUS
 62
     7
100
AcDbLine
 10
202.131689721232
 20
5.121980059077484
 30
0.0
 11
222.390852118376
 21
5.121980059077456
 31
0.0
  0
LINE
  5
1FD
330
1F
100
AcDbEntity
  8
1
  6
CONTINUOUS
 62
     7
100
AcDbLine
 10
206.168183582827
 20
48.1979048838613
 30
0.0
 11
207.131689721232
 21
48.06026114980343
 31
0.0
  0
LINE
  5
1FE
330
1F
100
AcDbEntity
  8
1
  6
CONTINUOUS
 62
     7
100
AcDbLine
 10
207.131689721232
 20
37.20311829266059
 30
0.0
 11
207.131689721232
 21
48.06026114980343
 31
0.0
  0
LINE
  5
1FF
330
1F
100
AcDbEntity
  8
1
  6
CONTINUOUS
 62
     7
100
AcDbLine
 10
207.1773070482258
 20
48.05374438880433
 30
0.0
 11
207.1773070482259
 21
37.2096350536597
 31
0.0
  0
ARC
  5
200
330
1F
100
AcDbEntity
  8
1
  6
CONTINUOUS
 62
     7
100
AcDbCircle
 10
-208.131689721232
 20
45.89709891784187
 30
0.0
 40
2.000000000000001
210
0.0
220
0.0
230
-1.0
100
AcDbArc
 50
98.13010235415588
 51
119.9999999999999
  0
LINE
  5
201
330
1F
100
AcDbEntity
  8
1
  6
CONTINUOUS
 62
     7
100
AcDbLine
 10
208.131689721232
 20
37.34597543551773
 30
0.0
 11
208.131689721232
 21
47.91740400694629
 31
0.0
  0
LINE
  5
202
330
1F
100
AcDbEntity
  8
1
  6
CONTINUOUS
 62
     7
100
AcDbLine
 10
207.131689721232
 20
37.20311829266059
 30
0.0
 11
206.168183582827
 21
37.06547455860273
 31
0.0
  0
LINE
  5
203
330
1F
100
AcDbEntity
  8
1
  6
CONTINUOUS
 62
     7
100
AcDbLine
 10
166.131689721232
 20
75.64081318663081
 30
0.0
 11
166.131689721232
 21
76.63168972123206
 31
0.0
  0
LINE
  5
204
330
1F
100
AcDbEntity
  8
1
  6
CONTINUOUS
 62
     7
100
AcDbLine
 10
132.6183933954243
 20
95.38298393765506
 30
0.0
 11
132.6183933954243
 21
96.62712493113372
 31
0.0
  0
LINE
  5
205
330
1F
100
AcDbEntity
  8
1
  6
CONTINUOUS
 62
     7
100
AcDbLine
 10
210.131689721232
 20
39.36628052462215
 30
0.0
 11
210.131689721232
 21
45.89709891784187
 31
0.0
  0
LINE
  5
206
330
1F
100
AcDbEntity
  8
1
  6
CONTINUOUS
 62
     7
100
AcDbLine
 10
205.131689721232
 20
36.91740400694631
 30
0.0
 11
204.1499366520295
 21
36.77715356848881
 31
0.0
  0
ELLIPSE
  5
207
330
1F
100
AcDbEntity
  8
1
  6
CONTINUOUS
 62
     7
100
AcDbEllipse
 10
220.131689721232
 20
-11.07890473809107
 30
0.0
 11
4.912906150488908
 21
20.81669951024428
 31
0.0
210
0.0
220
0.0
230
1.0
 40
0.0446357017871695
 41
6.271935611148945
 42
6.293660696675208
  0
LINE
  5
208
330
1F
100
AcDbEntity
  8
1
  6
CONTINUOUS
 62
     7
100
AcDbLine
 10
222.882983937655
 20
5.118393395424324
 30
0.0
 11
224.1271249311336
 21
5.118393395424324
 31
0.0
  0
LINE
  5
209
330
1F
100
AcDbEntity
  8
1
  6
CONTINUOUS
 62
     7
100
AcDbLine
 10
137.2389497517528
 20
97.53459309968672
 30
0.0
 11
137.2404706757453
 21
96.31207810771829
 31
0.0
  0
ELLIPSE
  5
20A
330
1F
100
AcDbEntity
  8
1
  6
CONTINUOUS
 62
     7
100
AcDbEllipse
 10
145.1612150977181
 20
99.40663828407044
 30
0.0
 11
-12.53830330770634
 21
-2.820691815886228
 31
0.0
210
0.0
220
0.0
230
-1.0
 40
0.1193465709282278
 41
0.0268424707872824
 42
0.0296983123516508
  0
LINE
  5
20B
330
1F
100
AcDbEntity
  8
1
  6
CONTINUOUS
 62
     7
100
AcDbLine
 10
204.1499366520295
 20
48.48622587397524
 30
0.0
 11
204.1499366520295
 21
36.77715356848881
 31
0.0
  0
LINE
  5
20C
330
1F
100
AcDbEntity
  8
1
  6
CONTINUOUS
 62
     7
100
AcDbLine
 10
225.0345930996867
 20
9.738949751752845
 30
0.0
 11
223.8120781077182
 21
9.740470675745314
 31
0.0
  0
LINE
  5
20D
330
1F
100
AcDbEntity
  8
1
  6
CONTINUOUS
 62
     7
100
AcDbLine
 10
212.1423303201293
 20
84.64233032012932
 30
0.0
 11
212.5804726315482
 21
84.33017453106704
 31
0.0
  0
LINE
  5
20E
330
1F
100
AcDbEntity
  8
1
  6
CONTINUOUS
 62
     7
100
AcDbLine
 10
206.131689721232
 20
37.06026114980345
 30
0.0
 11
205.1590601174283
 21
36.92131406354579
 31
0.0
  0
LINE
  5
20F
330
1F
100
AcDbEntity
  8
1
  6
CONTINUOUS
 62
     7
100
AcDbLine
 10
208.4145324337066
 20
37.38638153729983
 30
0.0
 11
208.1864305136246
 21
37.35379554871667
 31
0.0
  0
LINE
  5
210
330
1F
100
AcDbEntity
  8
1
  6
CONTINUOUS
 62
     7
100
AcDbLine
 10
222.8806897475483
 20
5.118491766554787
 30
0.0
 11
222.882983937655
 21
5.118393395424324
 31
0.0
  0
LINE
  5
211
330
1F
100
AcDbEntity
  8
1
  6
CONTINUOUS
 62
     7
100
AcDbLine
 10
202.131689721232
 20
5.121980059077484
 30
0.0
 11
202.131689721232
 21
9.631689721232037
 31
0.0
  0
LINE
  5
212
330
1F
100
AcDbEntity
  8
1
  6
CONTINUOUS
 62
     7
100
AcDbLine
 10
202.1316897212302
 20
46.63168972123201
 30
0.0
 11
202.131689721232
 21
60.84489315682847
 31
0.0
  0
LINE
  5
213
330
1F
100
AcDbEntity
  8
1
  6
CONTINUOUS
 62
     7
100
AcDbLine
 10
137.131689721232
 20
74.63168972123209
 30
0.0
 11
137.131689721232
 21
95.80278062784726
 31
0.0
  0
LINE
  5
214
330
1F
100
AcDbEntity
  8
1
  6
CONTINUOUS
 62
     7
100
AcDbLine
 10
174.131689721232
 20
76.63168972123209
 30
0.0
 11
174.131689721232
 21
75.64081318663081
 31
0.0
  0
ARC
  5
215
330
1F
100
AcDbEntity
  8
1
  6
CONTINUOUS
 62
     7
100
AcDbCircle
 10
-208.131689721232
 20
45.89709891784187
 30
0.0
 40
2.000000000000001
210
0.0
220
0.0
230
-1.0
100
AcDbArc
 50
122.1360941798461
 51
180.0
  0
LINE
  5
216
330
1F
100
AcDbEntity
  8
1
  6
CONTINUOUS
 62
     7
100
AcDbLine
 10
208.1864305136246
 20
47.90958389374735
 30
0.0
 11
208.4145324337066
 21
47.87699790516422
 31
0.0
  0
LINE
  5
217
330
1F
100
AcDbEntity
  8
1
  6
CONTINUOUS
 62
     7
100
AcDbLine
 10
208.1864305136246
 20
47.90958389374735
 30
0.0
 11
208.1864305136246
 21
37.35379554871667
 31
0.0
  0
LINE
  5
218
330
1F
100
AcDbEntity
  8
1
  6
CONTINUOUS
 62
     7
100
AcDbLine
 10
204.1499366520295
 20
48.48622587397524
 30
0.0
 11
205.131689721232
 21
48.34597543551774
 31
0.0
  0
LINE
  5
219
330
1F
100
AcDbEntity
  8
1
  6
CONTINUOUS
 62
     7
100
AcDbLine
 10
132.6219800590774
 20
74.63168972123209
 30
0.0
 11
137.131689721232
 21
74.63168972123209
 31
0.0
  0
LINE
  5
21A
330
1F
100
AcDbEntity
  8
1
  6
CONTINUOUS
 62
     7
100
AcDbLine
 10
202.1316897212302
 20
46.63168972123201
 30
0.0
 11
203.1408131866307
 21
46.63168972123201
 31
0.0
  0
ELLIPSE
  5
21B
330
1F
100
AcDbEntity
  8
1
  6
CONTINUOUS
 62
     7
100
AcDbEllipse
 10
226.9066382840705
 20
17.66121509771808
 30
0.0
 11
-2.82069181588624
 21
-12.53830330770634
 31
0.0
210
0.0
220
0.0
230
1.0
 40
0.1193465709282278
 41
0.0268424707872824
 42
0.0296983123516508
  0
LINE
  5
21C
330
1F
100
AcDbEntity
  8
1
  6
CONTINUOUS
 62
     7
100
AcDbLine
 10
205.131689721232
 20
36.91740400694631
 30
0.0
 11
205.131689721232
 21
48.34597543551771
 31
0.0
  0
ELLIPSE
  5
21D
330
1F
100
AcDbEntity
  8
1
  6
CONTINUOUS
 62
     7
100
AcDbEllipse
 10
116.4210952619089
 20
92.6316897212321
 30
0.0
 11
20.81669951024429
 21
4.912906150488889
 31
0.0
210
0.0
220
0.0
230
-1.0
 40
0.0446357017871695
 41
6.271935611148945
 42
6.293660696675208
  0
ARC
  5
21E
330
1F
100
AcDbEntity
  8
1
  6
CONTINUOUS
 62
     7
100
AcDbCircle
 10
-208.131689721232
 20
39.36628052462215
 30
0.0
 40
2.000000000000002
210
0.0
220
0.0
230
-1.0
100
AcDbArc
 50
239.9999999999997
 51
261.8698976458441
  0
LINE
  5
21F
330
1F
100
AcDbEntity
  8
1
  6
CONTINUOUS
 62
     7
100
AcDbLine
 10
132.6184917665548
 20
95.38068974754833
 30
0.0
 11
132.6183933954243
 21
95.382983937655
 31
0.0
  0
LINE
  5
220
330
1F
100
AcDbEntity
  8
1
  6
CONTINUOUS
 62
     7
100
AcDbLine
 10
132.131689721232
 20
94.875009712739
 30
0.0
 11
132.131689721232
 21
94.37913448081332
 31
0.0
  0
LINE
  5
221
330
1F
100
AcDbEntity
  8
1
  6
CONTINUOUS
 62
     7
100
AcDbLine
 10
222.375009712739
 20
4.631689721232006
 30
0.0
 11
221.8791344808133
 21
4.631689721232006
 31
0.0
  0
ARC
  5
222
330
1F
100
AcDbEntity
  8
1
  6
CONTINUOUS
 62
     7
100
AcDbCircle
 10
-208.131689721232
 20
39.36628052462215
 30
0.0
 40
2.000000000000002
210
0.0
220
0.0
230
-1.0
100
AcDbArc
 50
179.9999999999992
 51
237.8639058201529
  0
LINE
  5
223
330
1F
100
AcDbEntity
  8
1
  6
CONTINUOUS
 62
     7
100
AcDbLine
 10
208.131689721232
 20
37.34597543551773
 30
0.0
 11
207.1773070482258
 21
37.2096350536597
 31
0.0
  0
LINE
  5
224
330
1F
100
AcDbEntity
  8
1
  6
CONTINUOUS
 62
     7
100
AcDbLine
 10
209.1955539790234
 20
47.59067290234746
 30
0.0
 11
209.1955539790234
 21
37.67270654011659
 31
0.0
  0
LINE
  5
225
330
1F
100
AcDbEntity
  8
1
  6
CONTINUOUS
 62
     7
100
AcDbLine
 10
209.131689721232
 20
37.63422971705329
 30
0.0
 11
209.131689721232
 21
47.62914972541076
 31
0.0
  0
LINE
  5
226
330
1F
100
AcDbEntity
  8
1
  6
CONTINUOUS
 62
     7
100
AcDbLine
 10
206.168183582827
 20
48.1979048838613
 30
0.0
 11
206.1681835828271
 21
37.06547455860273
 31
0.0
  0
LINE
  5
227
330
1F
100
AcDbEntity
  8
1
  6
CONTINUOUS
 62
     7
100
AcDbLine
 10
202.131689721232
 20
9.631689721232037
 30
0.0
 11
223.3027806278471
 21
9.63168972123201
 31
0.0
  0
LINE
  5
228
330
1F
100
AcDbEntity
  8
1
  6
CONTINUOUS
 62
     7
100
AcDbLine
 10
212.1423303201293
 20
84.64233032012932
 30
0.0
 11
211.8301745310671
 21
85.08047263154818
 31
0.0
  0
LINE
  5
229
330
1F
100
AcDbEntity
  8
1
  6
CONTINUOUS
 62
     7
100
AcDbLine
 10
132.131689721232
 20
94.37913448081332
 30
0.0
 11
132.131689721232
 21
74.63168972123206
 31
0.0
  0
ELLIPSE
  5
22A
330
1F
100
AcDbEntity
  8
1
  6
CONTINUOUS
 62
     7
100
AcDbEllipse
 10
91.01394133370124
 20
93.9210952619089
 30
0.0
 11
0.4946254228597265
 21
20.81752875155653
 31
0.0
210
0.0
220
0.0
230
-1.0
 40
0.2354577991235856
 41
6.255807191669018
 42
6.277532277195284
  0
LINE
  5
22B
330
1F
100
AcDbEntity
  8
1
  6
CONTINUOUS
 62
     7
100
AcDbLine
 10
159.9366141965268
 20
97.6316897212321
 30
0.0
 11
137.140564120564
 21
97.6316897212321
 31
0.0
  0
LINE
  5
22C
330
1F
100
AcDbEntity
  8
1
  6
CONTINUOUS
 62
     7
100
AcDbLine
 10
90.36626668057355
 20
114.631689721232
 30
0.0
 11
39.63373331942641
 21
114.631689721232
 31
0.0
  0
LINE
  5
22D
330
1F
100
AcDbEntity
  8
1
  6
CONTINUOUS
 62
     7
100
AcDbLine
 10
38.62579976986301
 20
114.7340106452505
 30
0.0
 11
39.49760061658048
 21
114.640564120564
 31
0.0
  0
LINE
  5
22E
330
1F
100
AcDbEntity
  8
1
  6
CONTINUOUS
 62
     7
100
AcDbLine
 10
137.140564120564
 20
97.6316897212321
 30
0.0
 11
137.2340106452505
 21
97.554737633947
 31
0.0
  0
LINE
  5
22F
330
1F
100
AcDbEntity
  8
1
  6
CONTINUOUS
 62
     7
100
AcDbLine
 10
159.936614196527
 20
97.6316897212321
 30
0.0
 11
159.9486563972073
 21
97.5355742720505
 31
0.0
  0
LINE
  5
230
330
1F
100
AcDbEntity
  8
1
  6
CONTINUOUS
 62
     7
100
AcDbLine
 10
31.99999999999993
 20
143.631689721232
 30
0.0
 11
31.99999999999993
 21
151.631689721232
 31
0.0
  0
ELLIPSE
  5
231
330
1F
100
AcDbEntity
  8
1
  6
CONTINUOUS
 62
     7
100
AcDbEllipse
 10
38.98605866629871
 20
93.9210952619089
 30
0.0
 11
0.4946254228597492
 21
-20.81752875155655
 31
0.0
210
0.0
220
0.0
230
-1.0
 40
0.2354577991235856
 41
3.147245683574088
 42
3.168970769100352
  0
LINE
  5
232
330
1F
100
AcDbEntity
  8
1
  6
CONTINUOUS
 62
     7
100
AcDbLine
 10
91.48084982924112
 20
114.7389497517528
 30
0.0
 11
97.59524989787427
 21
114.7404706757453
 31
0.0
  0
LINE
  5
233
330
1F
100
AcDbEntity
  8
1
  6
CONTINUOUS
 62
     7
100
AcDbLine
 10
224.1316244136882
 20
5.118444543956844
 30
0.0
 11
224.2297409876914
 21
5.121974483501122
 31
0.0
  0
LINE
  5
234
330
1F
100
AcDbEntity
  8
1
  6
CONTINUOUS
 62
     7
100
AcDbLine
 10
97.62920853527551
 20
114.735449404457
 30
0.0
 11
97.99996219639247
 21
114.6332209166076
 31
0.0
  0
LINE
  5
235
330
1F
100
AcDbEntity
  8
1
  6
CONTINUOUS
 62
     7
100
AcDbLine
 10
223.5334418898863
 20
4.631689721232006
 30
0.0
 11
222.375009712739
 21
4.631689721232006
 31
0.0
  0
ELLIPSE
  5
236
330
1F
100
AcDbEntity
  8
1
  6
CONTINUOUS
 62
     7
100
AcDbEllipse
 10
32.45144095167965
 20
112.658685226761
 30
0.0
 11
-0.04946254228597315
 21
2.081752875155655
 31
0.0
210
0.0
220
0.0
230
-1.0
 40
0.2354577991235854
 41
6.219310689494633
 42
6.288838337163891
  0
LINE
  5
237
330
1F
100
AcDbEntity
  8
1
  6
CONTINUOUS
 62
     7
100
AcDbLine
 10
98.0
 20
178.1672236271648
 30
0.0
 11
98.0
 21
169.3804270627612
 31
0.0
  0
LINE
  5
238
330
1F
100
AcDbEntity
  8
1
  6
CONTINUOUS
 62
     7
100
AcDbLine
 10
90.4510870098782
 20
110.1184445439568
 30
0.0
 11
89.4719326313452
 21
110.1219744835011
 31
0.0
  0
LINE
  5
239
330
1F
100
AcDbEntity
  8
1
  6
CONTINUOUS
 62
     7
100
AcDbLine
 10
132.131689721232
 20
96.03344188988645
 30
0.0
 11
132.131689721232
 21
94.87500971273903
 31
0.0
  0
LINE
  5
23A
330
1F
100
AcDbEntity
  8
1
  6
CONTINUOUS
 62
     7
100
AcDbLine
 10
224.2297409876913
 20
5.121974483501122
 30
0.0
 11
223.631689721232
 21
4.631689721232006
 31
0.0
  0
LINE
  5
23B
330
1F
100
AcDbEntity
  8
1
  6
CONTINUOUS
 62
     7
100
AcDbLine
 10
223.6316897212321
 20
4.631689721232006
 30
0.0
 11
223.5334418898864
 21
4.631689721232006
 31
0.0
  0
LINE
  5
23C
330
1F
100
AcDbEntity
  8
1
  6
CONTINUOUS
 62
     7
100
AcDbLine
 10
132.6219744835011
 20
96.7297409876914
 30
0.0
 11
132.131689721232
 21
96.13168972123208
 31
0.0
  0
LINE
  5
23D
330
1F
100
AcDbEntity
  8
1
  6
CONTINUOUS
 62
     7
100
AcDbLine
 10
31.99999999999993
 20
151.631689721232
 30
0.0
 11
31.99999999999993
 21
165.8448931568285
 31
0.0
  0
LINE
  5
23E
330
1F
100
AcDbEntity
  8
1
  6
CONTINUOUS
 62
     7
100
AcDbLine
 10
98.00783963755863
 20
167.5983279231703
 30
0.0
 11
98.0
 21
165.8448931568284
 31
0.0
  0
LINE
  5
23F
330
1F
100
AcDbEntity
  8
1
  6
CONTINUOUS
 62
     7
100
AcDbLine
 10
98.0
 20
151.631689721232
 30
0.0
 11
98.0
 21
165.8448931568285
 31
0.0
  0
LINE
  5
240
330
1F
100
AcDbEntity
  8
1
  6
CONTINUOUS
 62
     7
100
AcDbLine
 10
32.00003780360744
 20
114.6332209166076
 30
0.0
 11
32.37079146472441
 21
114.735449404457
 31
0.0
  0
ELLIPSE
  5
241
330
1F
100
AcDbEntity
  8
1
  6
CONTINUOUS
 62
     7
100
AcDbEllipse
 10
88.26820861300446
 20
105.1219800590775
 30
0.0
 11
4.394811306297695
 21
3.602883460614406
 31
0.0
210
0.0
220
0.0
230
-1.0
 40
0.7888566731954406
 41
5.517022657485791
 42
5.518516053263371
  0
LWPOLYLINE
  5
242
330
1F
100
AcDbEntity
  8
1
  6
CONTINUOUS
 62
     7
100
AcDbPolyline
 90
        4
 70
     0
 43
0.0
 10
212.5804726315481
 20
84.33017453106707
 10
212.593389887511
 20
84.43315723562213
 10
212.540937888507
 20
84.52327223378008
 42
0.0433805837474113
 10
212.3044295360029
 20
84.80442953600289
  0
LINE
  5
243
330
1F
100
AcDbEntity
  8
1
  6
CONTINUOUS
 62
     7
100
AcDbLine
 10
212.5372813122536
 20
85.03728131225358
 30
0.0
 11
202.2860186537827
 21
95.28854397072446
 31
0.0
  0
LINE
  5
244
330
1F
100
AcDbEntity
  8
1
  6
CONTINUOUS
 62
     7
100
AcDbLine
 10
40.52806736865476
 20
110.1219744835011
 30
0.0
 11
39.54891299012174
 21
110.1184445439568
 31
0.0
  0
LINE
  5
245
330
1F
100
AcDbEntity
  8
1
  6
CONTINUOUS
 62
     7
100
AcDbLine
 10
225.131689721232
 20
32.43661419652688
 30
0.0
 11
225.131689721232
 21
9.640564120563994
 31
0.0
  0
LINE
  5
246
330
1F
100
AcDbEntity
  8
1
  6
CONTINUOUS
 62
     7
100
AcDbLine
 10
89.46432474814264
 20
110.1219800590774
 30
0.0
 11
40.53567525185732
 21
110.1219800590774
 31
0.0
  0
ELLIPSE
  5
247
330
1F
100
AcDbEntity
  8
1
  6
CONTINUOUS
 62
     7
100
AcDbEllipse
 10
38.37265767751884
 20
122.661215097718
 30
0.0
 11
-1.874614816934568
 21
12.48921320746023
 31
0.0
210
0.0
220
0.0
230
-1.0
 40
0.6179492925708338
 41
3.231225577850604
 42
3.234081419414973
  0
LINE
  5
248
330
1F
100
AcDbEntity
  8
1
  6
CONTINUOUS
 62
     7
100
AcDbLine
 10
137.140564120564
 20
97.6316897212321
 30
0.0
 11
137.131689721232
 21
97.6316897212321
 31
0.0
  0
LINE
  5
249
330
1F
100
AcDbEntity
  8
1
  6
CONTINUOUS
 62
     7
100
AcDbLine
 10
31.99999999999993
 20
178.1672236271648
 30
0.0
 11
31.99999999999993
 21
169.3804270627612
 31
0.0
  0
ARC
  5
24A
330
1F
100
AcDbEntity
  8
1
  6
CONTINUOUS
 62
     7
100
AcDbCircle
 10
196.6291644042903
 20
89.63168972123188
 30
0.0
 40
8.000000000000206
100
AcDbArc
 50
45.00000000000055
 51
89.99999999999919
  0
ELLIPSE
  5
24B
330
1F
100
AcDbEntity
  8
1
  6
CONTINUOUS
 62
     7
100
AcDbEllipse
 10
97.5485590483203
 20
112.658685226761
 30
0.0
 11
-0.04946254228597298
 21
-2.081752875155654
 31
0.0
210
0.0
220
0.0
230
-1.0
 40
0.2354577991235857
 41
3.135939623605474
 42
3.205467271274745
  0
LINE
  5
24C
330
1F
100
AcDbEntity
  8
1
  6
CONTINUOUS
 62
     7
100
AcDbLine
 10
225.131689721232
 20
9.640564120564042
 30
0.0
 11
225.131689721232
 21
9.631689721231982
 31
0.0
  0
LWPOLYLINE
  5
24D
330
1F
100
AcDbEntity
  8
1
  6
CONTINUOUS
 62
     7
100
AcDbPolyline
 90
        4
 70
     0
 43
0.0
 10
-211.830174531067
 20
85.08047263154818
 10
-211.9331572356221
 20
85.09338988751104
 10
-212.02327223378
 20
85.04093788850693
 42
0.043380583747462
 10
-212.3044295360028
 20
84.80442953600284
210
0.0
220
0.0
230
-1.0
  0
LINE
  5
24E
330
1F
100
AcDbEntity
  8
1
  6
CONTINUOUS
 62
     7
100
AcDbLine
 10
137.131689721232
 20
97.6316897212321
 30
0.0
 11
132.6219800590774
 21
96.7297477888012
 31
0.0
  0
LINE
  5
24F
330
1F
100
AcDbEntity
  8
1
  6
CONTINUOUS
 62
     7
100
AcDbLine
 10
196.6291644042904
 20
97.63168972123205
 30
0.0
 11
159.9366141965268
 21
97.63168972123208
 31
0.0
  0
LINE
  5
250
330
1F
100
AcDbEntity
  8
1
  6
CONTINUOUS
 62
     7
100
AcDbLine
 10
225.131689721232
 20
69.12916440429035
 30
0.0
 11
225.131689721232
 21
32.43661419652687
 31
0.0
  0
LINE
  5
251
330
1F
100
AcDbEntity
  8
1
  6
CONTINUOUS
 62
     7
100
AcDbLine
 10
132.131689721232
 20
96.1316897212321
 30
0.0
 11
132.131689721232
 21
96.03344188988645
 31
0.0
  0
LINE
  5
252
330
1F
100
AcDbEntity
  8
1
  6
CONTINUOUS
 62
     7
100
AcDbLine
 10
225.131689721232
 20
9.640564120563987
 30
0.0
 11
225.0547376339469
 21
9.7340106452505
 31
0.0
  0
LINE
  5
253
330
1F
100
AcDbEntity
  8
1
  6
CONTINUOUS
 62
     7
100
AcDbLine
 10
31.99999999999993
 20
114.631689721232
 30
0.0
 11
31.99999999999993
 21
143.631689721232
 31
0.0
  0
LINE
  5
254
330
1F
100
AcDbEntity
  8
1
  6
CONTINUOUS
 62
     7
100
AcDbLine
 10
98.0
 20
143.631689721232
 30
0.0
 11
98.0
 21
151.631689721232
 31
0.0
  0
ELLIPSE
  5
255
330
1F
100
AcDbEntity
  8
1
  6
CONTINUOUS
 62
     7
100
AcDbEllipse
 10
95.2691700590281
 20
140.1267872891958
 30
0.0
 11
5.095246653650654
 21
25.47623326825324
 31
0.0
210
0.0
220
0.0
230
-1.0
 40
0.1924500897298762
 41
3.07673591886997
 42
3.103121626182465
  0
ELLIPSE
  5
256
330
1F
100
AcDbEntity
  8
1
  6
CONTINUOUS
 62
     7
100
AcDbEllipse
 10
34.73082994097184
 20
140.1267872891957
 30
0.0
 11
-5.095246653650644
 21
25.47623326825324
 31
0.0
210
0.0
220
0.0
230
-1.0
 40
0.1924500897298772
 41
3.180063680997119
 42
3.206449388309608
  0
ELLIPSE
  5
257
330
1F
100
AcDbEntity
  8
1
  6
CONTINUOUS
 62
     7
100
AcDbEllipse
 10
14.43678297401753
 20
-900.4215054350498
 30
0.0
 11
-24.64823032329351
 21
-1037.870157066488
 31
0.0
210
0.0
220
0.0
230
1.0
 40
0.0047236707608883
 41
3.141646517229527
 42
3.142649636423393
  0
LINE
  5
258
330
1F
100
AcDbEntity
  8
1
  6
CONTINUOUS
 62
     7
100
AcDbLine
 10
31.99999999999993
 20
151.631689721232
 30
0.0
 11
31.99999999999993
 21
165.8448931568285
 31
0.0
  0
LINE
  5
259
330
1F
100
AcDbEntity
  8
1
  6
CONTINUOUS
 62
     7
100
AcDbLine
 10
98.0
 20
114.631689721232
 30
0.0
 11
98.0
 21
143.631689721232
 31
0.0
  0
LINE
  5
25A
330
1F
100
AcDbEntity
  8
1
  6
CONTINUOUS
 62
     7
100
AcDbLine
 10
90.50239938341947
 20
114.640564120564
 30
0.0
 11
91.37420023013695
 21
114.7340106452505
 31
0.0
  0
LINE
  5
25B
330
1F
100
AcDbEntity
  8
1
  6
CONTINUOUS
 62
     7
100
AcDbLine
 10
32.40475010212567
 20
114.7404706757454
 30
0.0
 11
38.51915017075884
 21
114.7389497517529
 31
0.0
  0
LINE
  5
25C
330
1F
100
AcDbEntity
  8
1
  6
CONTINUOUS
 62
     7
100
AcDbLine
 10
31.99999999999993
 20
114.6316897212321
 30
0.0
 11
31.99999999999993
 21
143.631689721232
 31
0.0
  0
ELLIPSE
  5
25D
330
1F
100
AcDbEntity
  8
1
  6
CONTINUOUS
 62
     7
100
AcDbEllipse
 10
41.73179138699548
 20
105.1219800590775
 30
0.0
 11
-4.394811306297694
 21
3.602883460614407
 31
0.0
210
0.0
220
0.0
230
-1.0
 40
0.7888566731954413
 41
0.764669253916215
 42
0.7661626496937967
  0
ARC
  5
25E
330
1F
100
AcDbEntity
  8
1
  6
CONTINUOUS
 62
     7
100
AcDbCircle
 10
-217.1316897212321
 20
69.1291644042904
 30
0.0
 40
7.999999999999894
210
0.0
220
0.0
230
-1.0
100
AcDbArc
 50
134.9999999999997
 51
180.0000000000004
  0
LINE
  5
25F
330
1F
100
AcDbEntity
  8
1
  6
CONTINUOUS
 62
     7
100
AcDbLine
 10
132.6184445439568
 20
96.63162441368823
 30
0.0
 11
132.6219744835011
 21
96.7297409876914
 31
0.0
  0
LINE
  5
260
330
1F
100
AcDbEntity
  8
1
  6
CONTINUOUS
 62
     7
100
AcDbLine
 10
225.131689721232
 20
9.631689721231982
 30
0.0
 11
224.2297477888011
 21
5.121980059077456
 31
0.0
  0
LINE
  5
261
330
1F
100
AcDbEntity
  8
1
  6
CONTINUOUS
 62
     7
100
AcDbLine
 10
212.5372813122536
 20
85.03728131225358
 30
0.0
 11
222.7885439707244
 21
74.78601865378275
 31
0.0
  0
LINE
  5
262
330
1F
100
AcDbEntity
  8
1
  6
CONTINUOUS
 62
     7
100
AcDbLine
 10
98.0
 20
114.631689721232
 30
0.0
 11
98.0
 21
143.631689721232
 31
0.0
  0
LINE
  5
263
330
1F
100
AcDbEntity
  8
1
  6
CONTINUOUS
 62
     7
100
AcDbLine
 10
98.0
 20
151.631689721232
 30
0.0
 11
98.0
 21
165.8448931568285
 31
0.0
  0
LINE
  5
264
330
1F
100
AcDbEntity
  8
1
  6
CONTINUOUS
 62
     7
100
AcDbLine
 10
31.99999999999992
 20
165.8448931568285
 30
0.0
 11
31.99216036244129
 21
167.5983279231703
 31
0.0
  0
LINE
  5
265
330
1F
100
AcDbEntity
  8
1
  6
CONTINUOUS
 62
     7
100
AcDbLine
 10
96.69422801180521
 20
110.1183933954243
 30
0.0
 11
90.47352304441186
 21
110.1183933954243
 31
0.0
  0
LINE
  5
266
330
1F
100
AcDbEntity
  8
1
  6
CONTINUOUS
 62
     7
100
AcDbLine
 10
38.62579976986299
 20
202.5547376339469
 30
0.0
 11
39.49760061658048
 21
202.6316897212321
 31
0.0
  0
LINE
  5
267
330
1F
100
AcDbEntity
  8
1
  6
CONTINUOUS
 62
     7
100
AcDbLine
 10
33.29418299230485
 20
110.1184917665548
 30
0.0
 11
32.90192857956194
 21
110.122046823422
 31
0.0
  0
LINE
  5
268
330
1F
100
AcDbEntity
  8
1
  6
CONTINUOUS
 62
     7
100
AcDbLine
 10
97.59524989787427
 20
201.3120781077182
 30
0.0
 11
97.62920853527548
 21
201.3040812751286
 31
0.0
  0
LINE
  5
269
330
1F
100
AcDbEntity
  8
1
  6
CONTINUOUS
 62
     7
100
AcDbLine
 10
31.99999999999993
 20
178.1672236271648
 30
0.0
 11
31.99999999999993
 21
169.3804270627612
 31
0.0
  0
LINE
  5
26A
330
1F
100
AcDbEntity
  8
1
  6
CONTINUOUS
 62
     7
100
AcDbLine
 10
97.09807142043799
 20
110.122046823422
 30
0.0
 11
96.70581700769506
 21
110.1184917665548
 31
0.0
  0
LINE
  5
26B
330
1F
100
AcDbEntity
  8
1
  6
CONTINUOUS
 62
     7
100
AcDbLine
 10
31.99999999999993
 20
114.631689721232
 30
0.0
 11
32.90192857956194
 21
110.122046823422
 31
0.0
  0
LINE
  5
26C
330
1F
100
AcDbEntity
  8
1
  6
CONTINUOUS
 62
     7
100
AcDbLine
 10
33.49999999999991
 20
109.631689721232
 30
0.0
 11
33.89945502944196
 21
109.631689721232
 31
0.0
  0
ELLIPSE
  5
26D
330
1F
100
AcDbEntity
  8
1
  6
CONTINUOUS
 62
     7
100
AcDbEllipse
 10
91.01394133370124
 20
197.6316897212321
 30
0.0
 11
-3.412432673976074
 21
3.941684048849439
 31
0.0
210
0.0
220
0.0
230
-1.0
 40
0.9014740704167403
 41
0.8383658074381718
 42
0.8600908929644364
  0
LINE
  5
26E
330
1F
100
AcDbEntity
  8
1
  6
CONTINUOUS
 62
     7
100
AcDbLine
 10
96.10054497055795
 20
109.631689721232
 30
0.0
 11
96.5
 21
109.631689721232
 31
0.0
  0
LINE
  5
26F
330
1F
100
AcDbEntity
  8
1
  6
CONTINUOUS
 62
     7
100
AcDbLine
 10
39.52647695558809
 20
110.1183933954243
 30
0.0
 11
33.30577198819473
 21
110.1183933954243
 31
0.0
  0
ELLIPSE
  5
270
330
1F
100
AcDbEntity
  8
1
  6
CONTINUOUS
 62
     7
100
AcDbEllipse
 10
91.62734232248057
 20
122.6612150977181
 30
0.0
 11
-1.874614816933698
 21
-12.48921320746039
 31
0.0
210
0.0
220
0.0
230
-1.0
 40
0.6179492925708344
 41
6.19069654135445
 42
6.193552382918816
  0
LINE
  5
271
330
1F
100
AcDbEntity
  8
1
  6
CONTINUOUS
 62
     7
100
AcDbLine
 10
32.00003780360744
 20
114.6332209166076
 30
0.0
 11
31.99999999999992
 21
114.631689721232
 31
0.0
  0
LINE
  5
272
330
1F
100
AcDbEntity
  8
1
  6
CONTINUOUS
 62
     7
100
AcDbLine
 10
39.69161591517906
 20
109.631689721232
 30
0.0
 11
40.69442139439497
 21
109.631689721232
 31
0.0
  0
LINE
  5
273
330
1F
100
AcDbEntity
  8
1
  6
CONTINUOUS
 62
     7
100
AcDbLine
 10
90.30838408482091
 20
109.631689721232
 30
0.0
 11
96.10054497055795
 21
109.631689721232
 31
0.0
  0
LINE
  5
274
330
1F
100
AcDbEntity
  8
1
  6
CONTINUOUS
 62
     7
100
AcDbLine
 10
96.5
 20
109.631689721232
 30
0.0
 11
97.0980580675691
 21
110.1219800590775
 31
0.0
  0
ELLIPSE
  5
275
330
1F
100
AcDbEntity
  8
1
  6
CONTINUOUS
 62
     7
100
AcDbEllipse
 10
31.91272467535886
 20
165.8448931568284
 30
0.0
 11
0.0617223745001299
 21
4.999999941981589
 31
0.0
210
0.0
220
0.0
230
1.0
 40
0.012340714510321
 41
5.070845861288658
 42
5.497939483423242
  0
ELLIPSE
  5
276
330
1F
100
AcDbEntity
  8
1
  6
CONTINUOUS
 62
     7
100
AcDbEllipse
 10
98.0872753246411
 20
174.631689721232
 30
0.0
 11
0.06172237450012987
 21
-4.999999941981589
 31
0.0
210
0.0
220
0.0
230
-1.0
 40
0.0123407145103208
 41
2.356346829833446
 42
2.783440451968073
  0
LINE
  5
277
330
1F
100
AcDbEntity
  8
1
  6
CONTINUOUS
 62
     7
100
AcDbLine
 10
98.0
 20
114.631689721232
 30
0.0
 11
97.99996219639247
 21
114.6332209166076
 31
0.0
  0
LINE
  5
278
330
1F
100
AcDbEntity
  8
1
  6
CONTINUOUS
 62
     7
100
AcDbLine
 10
89.30557860560504
 20
109.631689721232
 30
0.0
 11
90.30838408482091
 21
109.631689721232
 31
0.0
  0
LINE
  5
279
330
1F
100
AcDbEntity
  8
1
  6
CONTINUOUS
 62
     7
100
AcDbLine
 10
98.0
 20
178.1672236271648
 30
0.0
 11
98.0
 21
169.3804270627612
 31
0.0
  0
ELLIPSE
  5
27A
330
1F
100
AcDbEntity
  8
1
  6
CONTINUOUS
 62
     7
100
AcDbEllipse
 10
31.91272467535886
 20
174.631689721232
 30
0.0
 11
0.0617223745001299
 21
4.999999941981589
 31
0.0
210
0.0
220
0.0
230
-1.0
 40
0.012340714510321
 41
0.3581522016217488
 42
0.7852458237563373
  0
LINE
  5
27B
330
1F
100
AcDbEntity
  8
1
  6
CONTINUOUS
 62
     7
100
AcDbLine
 10
32.90194193243084
 20
110.1219800590775
 30
0.0
 11
33.49999999999991
 21
109.631689721232
 31
0.0
  0
LINE
  5
27C
330
1F
100
AcDbEntity
  8
1
  6
CONTINUOUS
 62
     7
100
AcDbLine
 10
91.48084982924112
 20
202.5345930996867
 30
0.0
 11
97.59524989787427
 21
201.3120781077182
 31
0.0
  0
LINE
  5
27D
330
1F
100
AcDbEntity
  8
1
  6
CONTINUOUS
 62
     7
100
AcDbLine
 10
40.69442139439497
 20
109.631689721232
 30
0.0
 11
89.30557860560504
 21
109.631689721232
 31
0.0
  0
LINE
  5
27E
330
1F
100
AcDbEntity
  8
1
  6
CONTINUOUS
 62
     7
100
AcDbLine
 10
32.40475010212567
 20
201.3120781077182
 30
0.0
 11
38.51915017075884
 21
202.5345930996867
 31
0.0
  0
LINE
  5
27F
330
1F
100
AcDbEntity
  8
1
  6
CONTINUOUS
 62
     7
100
AcDbLine
 10
97.09807142043799
 20
110.122046823422
 30
0.0
 11
98.0
 21
114.631689721232
 31
0.0
  0
ELLIPSE
  5
280
330
1F
100
AcDbEntity
  8
1
  6
CONTINUOUS
 62
     7
100
AcDbEllipse
 10
32.6381904065936
 20
111.3726755656537
 30
0.0
 11
-0.9765913899046061
 21
1.152762964674582
 31
0.0
210
0.0
220
0.0
230
-1.0
 40
0.5061780765375454
 41
3.546695400494947
 42
3.559219717251844
  0
ELLIPSE
  5
281
330
1F
100
AcDbEntity
  8
1
  6
CONTINUOUS
 62
     7
100
AcDbEllipse
 10
98.0872753246411
 20
165.8448931568284
 30
0.0
 11
0.06172237450012987
 21
-4.999999941981589
 31
0.0
210
0.0
220
0.0
230
1.0
 40
0.0123407145103208
 41
3.926838477346094
 42
4.353932099480705
  0
LINE
  5
282
330
1F
100
AcDbEntity
  8
1
  6
CONTINUOUS
 62
     7
100
AcDbLine
 10
90.50239938341947
 20
202.6316897212321
 30
0.0
 11
91.37420023013692
 21
202.5547376339469
 31
0.0
  0
ELLIPSE
  5
283
330
1F
100
AcDbEntity
  8
1
  6
CONTINUOUS
 62
     7
100
AcDbEllipse
 10
97.36180959340638
 20
111.3726755656537
 30
0.0
 11
0.9765913899046568
 21
1.152762964674588
 31
0.0
210
0.0
220
0.0
230
-1.0
 40
0.5061780765375324
 41
2.723965589927723
 42
2.736489906684621
  0
LINE
  5
284
330
1F
100
AcDbEntity
  8
1
  6
CONTINUOUS
 62
     7
100
AcDbLine
 10
33.89945502944197
 20
109.631689721232
 30
0.0
 11
39.69161591517906
 21
109.631689721232
 31
0.0
  0
ELLIPSE
  5
285
330
1F
100
AcDbEntity
  8
1
  6
CONTINUOUS
 62
     7
100
AcDbEllipse
 10
38.98605866629871
 20
197.6316897212321
 30
0.0
 11
-3.412432673976077
 21
-3.941684048849435
 31
0.0
210
0.0
220
0.0
230
-1.0
 40
0.9014740704167429
 41
2.281501760625354
 42
2.303226846151616
  0
LINE
  5
286
330
1F
100
AcDbEntity
  8
1
  6
CONTINUOUS
 62
     7
100
AcDbLine
 10
200.6672236271647
 20
64.38042706276121
 30
0.0
 11
191.8804270627612
 21
73.1672236271648
 31
0.0
  0
LINE
  5
287
330
1F
100
AcDbEntity
  8
1
  6
CONTINUOUS
 62
     7
100
AcDbLine
 10
132.6219800590774
 20
54.63168972123206
 30
0.0
 11
132.6219800590774
 21
74.63168972123208
 31
0.0
  0
LINE
  5
288
330
1F
100
AcDbEntity
  8
1
  6
CONTINUOUS
 62
     7
100
AcDbLine
 10
137.131689721232
 20
74.63168972123209
 30
0.0
 11
132.6219800590774
 21
74.63168972123209
 31
0.0
  0
LINE
  5
289
330
1F
100
AcDbEntity
  8
1
  6
CONTINUOUS
 62
     7
100
AcDbLine
 10
170.4098659900652
 20
54.63168972123206
 30
0.0
 11
137.131689721232
 21
54.63168972123209
 31
0.0
  0
LINE
  5
28A
330
1F
100
AcDbEntity
  8
1
  6
CONTINUOUS
 62
     7
100
AcDbLine
 10
182.131689721232
 20
5.121980059077484
 30
0.0
 11
202.131689721232
 21
5.121980059077456
 31
0.0
  0
LINE
  5
28B
330
1F
100
AcDbEntity
  8
1
  6
CONTINUOUS
 62
     7
100
AcDbLine
 10
132.131689721232
 20
54.63168972123206
 30
0.0
 11
132.6219800590774
 21
54.63168972123206
 31
0.0
  0
LINE
  5
28C
330
1F
100
AcDbEntity
  8
1
  6
CONTINUOUS
 62
     7
100
AcDbLine
 10
182.131689721232
 20
42.90986599006526
 30
0.0
 11
182.131689721232
 21
9.631689721232037
 31
0.0
  0
LINE
  5
28D
330
1F
100
AcDbEntity
  8
1
  6
CONTINUOUS
 62
     7
100
AcDbLine
 10
182.131689721232
 20
54.63168972123206
 30
0.0
 11
170.4098659900652
 21
54.63168972123206
 31
0.0
  0
LINE
  5
28E
330
1F
100
AcDbEntity
  8
1
  6
CONTINUOUS
 62
     7
100
AcDbLine
 10
182.131689721232
 20
9.631689721232037
 30
0.0
 11
202.131689721232
 21
9.63168972123201
 31
0.0
  0
LINE
  5
28F
330
1F
100
AcDbEntity
  8
1
  6
CONTINUOUS
 62
     7
100
AcDbLine
 10
137.131689721232
 20
74.63168972123209
 30
0.0
 11
166.131689721232
 21
74.63168972123206
 31
0.0
  0
LINE
  5
290
330
1F
100
AcDbEntity
  8
1
  6
CONTINUOUS
 62
     7
100
AcDbLine
 10
132.131689721232
 20
74.63168972123209
 30
0.0
 11
132.131689721232
 21
54.63168972123207
 31
0.0
  0
LINE
  5
291
330
1F
100
AcDbEntity
  8
1
  6
CONTINUOUS
 62
     7
100
AcDbLine
 10
137.131689721232
 20
54.63168972123206
 30
0.0
 11
137.131689721232
 21
74.63168972123208
 31
0.0
  0
LINE
  5
292
330
1F
100
AcDbEntity
  8
1
  6
CONTINUOUS
 62
     7
100
AcDbLine
 10
202.131689721232
 20
4.631689721232006
 30
0.0
 11
182.131689721232
 21
4.631689721232034
 31
0.0
  0
LINE
  5
293
330
1F
100
AcDbEntity
  8
1
  6
CONTINUOUS
 62
     7
100
AcDbLine
 10
182.131689721232
 20
4.631689721232034
 30
0.0
 11
182.131689721232
 21
5.121980059077484
 31
0.0
  0
LINE
  5
294
330
1F
100
AcDbEntity
  8
1
  6
CONTINUOUS
 62
     7
100
AcDbLine
 10
202.131689721232
 20
9.63168972123201
 30
0.0
 11
202.131689721232
 21
38.63168972123201
 31
0.0
  0
ELLIPSE
  5
295
330
1F
100
AcDbEntity
  8
1
  6
CONTINUOUS
 62
     7
100
AcDbEllipse
 10
223.737042646492
 20
11.90105788202541
 30
0.0
 11
0.4559866740180167
 21
2.267225795623588
 31
0.0
210
0.0
220
0.0
230
1.0
 40
0.2162019235983445
 41
3.185048022418002
 42
3.221784900382572
  0
LINE
  5
296
330
1F
100
AcDbEntity
  8
1
  6
CONTINUOUS
 62
     7
100
AcDbLine
 10
202.131689721232
 20
46.63168972123201
 30
0.0
 11
202.131689721232
 21
60.84489315682847
 31
0.0
  0
LINE
  5
297
330
1F
100
AcDbEntity
  8
1
  6
CONTINUOUS
 62
     7
100
AcDbLine
 10
223.8040812751288
 20
9.735449404457023
 30
0.0
 11
223.3217877698727
 21
9.633220916607558
 31
0.0
  0
LINE
  5
298
330
1F
100
AcDbEntity
  8
1
  6
CONTINUOUS
 62
     7
100
AcDbLine
 10
222.4008520482851
 20
5.122046823421981
 30
0.0
 11
222.8806897475482
 21
5.11849176655476
 31
0.0
  0
LINE
  5
299
330
1F
100
AcDbEntity
  8
1
  6
CONTINUOUS
 62
     7
100
AcDbLine
 10
137.235449404457
 20
96.30408127512881
 30
0.0
 11
137.1332209166075
 21
95.82178776987281
 31
0.0
  0
LINE
  5
29A
330
1F
100
AcDbEntity
  8
1
  6
CONTINUOUS
 62
     7
100
AcDbLine
 10
202.131689721232
 20
9.63168972123201
 30
0.0
 11
202.131689721232
 21
5.121980059077457
 31
0.0
  0
LINE
  5
29B
330
1F
100
AcDbEntity
  8
1
  6
CONTINUOUS
 62
     7
100
AcDbLine
 10
137.2404706757454
 20
96.31207810771826
 30
0.0
 11
137.2354494044562
 21
96.30408127512861
 31
0.0
  0
LINE
  5
29C
330
1F
100
AcDbEntity
  8
1
  6
CONTINUOUS
 62
     7
100
AcDbLine
 10
202.131689721232
 20
38.63168972123201
 30
0.0
 11
202.131689721232
 21
46.63168972123201
 31
0.0
  0
LINE
  5
29D
330
1F
100
AcDbEntity
  8
1
  6
CONTINUOUS
 62
     7
100
AcDbLine
 10
132.6219800590774
 20
54.63168972123206
 30
0.0
 11
137.131689721232
 21
54.63168972123206
 31
0.0
  0
LINE
  5
29E
330
1F
100
AcDbEntity
  8
1
  6
CONTINUOUS
 62
     7
100
AcDbLine
 10
166.131689721232
 20
74.63168972123209
 30
0.0
 11
174.131689721232
 21
74.63168972123209
 31
0.0
  0
LINE
  5
29F
330
1F
100
AcDbEntity
  8
1
  6
CONTINUOUS
 62
     7
100
AcDbLine
 10
182.131689721232
 20
54.63168972123206
 30
0.0
 11
182.131689721232
 21
42.90986599006528
 31
0.0
  0
LINE
  5
2A0
330
1F
100
AcDbEntity
  8
1
  6
CONTINUOUS
 62
     7
100
AcDbLine
 10
182.131689721232
 20
5.121980059077484
 30
0.0
 11
182.131689721232
 21
9.631689721232037
 31
0.0
  0
LINE
  5
2A1
330
1F
100
AcDbEntity
  8
1
  6
CONTINUOUS
 62
     7
100
AcDbLine
 10
174.131689721232
 20
74.63168972123209
 30
0.0
 11
188.3448931568284
 21
74.63168972123206
 31
0.0
  0
LINE
  5
2A2
330
1F
100
AcDbEntity
  8
1
  6
CONTINUOUS
 62
     7
100
AcDbLine
 10
175.8420653789182
 20
77.6590601174283
 30
0.0
 11
164.4213140635458
 21
77.65906011742835
 31
0.0
  0
LINE
  5
2A3
330
1F
100
AcDbEntity
  8
1
  6
CONTINUOUS
 62
     7
100
AcDbLine
 10
175.9862258739752
 20
76.64993665202952
 30
0.0
 11
175.8459754355177
 21
77.63168972123206
 31
0.0
  0
LINE
  5
2A4
330
1F
100
AcDbEntity
  8
1
  6
CONTINUOUS
 62
     7
100
AcDbLine
 10
164.4174040069463
 20
77.63168972123209
 30
0.0
 11
175.8459754355177
 21
77.63168972123209
 31
0.0
  0
LINE
  5
2A5
330
1F
100
AcDbEntity
  8
1
  6
CONTINUOUS
 62
     7
100
AcDbLine
 10
176.1303863690322
 20
75.64081318663075
 30
0.0
 11
175.9888325783749
 21
76.63168972123206
 31
0.0
  0
ARC
  5
2A6
330
1F
100
AcDbEntity
  8
1
  6
CONTINUOUS
 62
     7
100
AcDbCircle
 10
188.3448931568284
 20
69.63168972123202
 30
0.0
 40
5.000000000000002
100
AcDbArc
 50
69.47066200526695
 51
90.00000000000001
  0
LINE
  5
2A7
330
1F
100
AcDbEntity
  8
1
  6
CONTINUOUS
 62
     7
100
AcDbLine
 10
202.131689721232
 20
9.631689721232037
 30
0.0
 11
202.131689721232
 21
38.63168972123201
 31
0.0
  0
LINE
  5
2A8
330
1F
100
AcDbEntity
  8
1
  6
CONTINUOUS
 62
     7
100
AcDbLine
 10
203.1408131866308
 20
38.63168972123201
 30
0.0
 11
202.131689721232
 21
38.63168972123201
 31
0.0
  0
LINE
  5
2A9
330
1F
100
AcDbEntity
  8
1
  6
CONTINUOUS
 62
     7
100
AcDbLine
 10
204.131689721232
 20
36.77454686408917
 30
0.0
 11
204.131689721232
 21
48.48883257837488
 31
0.0
  0
LINE
  5
2AA
330
1F
100
AcDbEntity
  8
1
  6
CONTINUOUS
 62
     7
100
AcDbLine
 10
203.1408131866307
 20
48.63038636903218
 30
0.0
 11
203.1408131866307
 21
46.63168972123201
 31
0.0
  0
LINE
  5
2AB
330
1F
100
AcDbEntity
  8
1
  6
CONTINUOUS
 62
     7
100
AcDbLine
 10
166.131689721232
 20
75.64081318663081
 30
0.0
 11
164.1329930734318
 21
75.64081318663084
 31
0.0
  0
LINE
  5
2AC
330
1F
100
AcDbEntity
  8
1
  6
CONTINUOUS
 62
     7
100
AcDbLine
 10
223.8120781077182
 20
9.740470675745398
 30
0.0
 11
223.8040812751286
 21
9.735449404456219
 31
0.0
  0
LINE
  5
2AD
330
1F
100
AcDbEntity
  8
1
  6
CONTINUOUS
 62
     7
100
AcDbLine
 10
174.131689721232
 20
74.63168972123032
 30
0.0
 11
174.131689721232
 21
75.64081318663081
 31
0.0
  0
LINE
  5
2AE
330
1F
100
AcDbEntity
  8
1
  6
CONTINUOUS
 62
     7
100
AcDbLine
 10
175.0906729023474
 20
81.6955539790234
 30
0.0
 11
165.1727065401166
 21
81.69555397902346
 31
0.0
  0
LINE
  5
2AF
330
1F
100
AcDbEntity
  8
1
  6
CONTINUOUS
 62
     7
100
AcDbLine
 10
166.8662805246221
 20
82.63168972123209
 30
0.0
 11
173.3970989178418
 21
82.63168972123209
 31
0.0
  0
LINE
  5
2B0
330
1F
100
AcDbEntity
  8
1
  6
CONTINUOUS
 62
     7
100
AcDbLine
 10
164.8863815372998
 20
80.91453243370674
 30
0.0
 11
164.8537955487166
 21
80.68643051362471
 31
0.0
  0
LINE
  5
2B1
330
1F
100
AcDbEntity
  8
1
  6
CONTINUOUS
 62
     7
100
AcDbLine
 10
165.1342297170533
 20
81.63168972123209
 30
0.0
 11
175.1291497254107
 21
81.63168972123206
 31
0.0
  0
ARC
  5
2B2
330
1F
100
AcDbEntity
  8
1
  6
CONTINUOUS
 62
     7
100
AcDbCircle
 10
166.8662805246221
 20
80.63168972123209
 30
0.0
 40
2.000000000000002
100
AcDbArc
 50
90.0
 51
147.8639058201528
  0
LINE
  5
2B3
330
1F
100
AcDbEntity
  8
1
  6
CONTINUOUS
 62
     7
100
AcDbLine
 10
175.4095838937473
 20
80.68643051362463
 30
0.0
 11
175.3769979051642
 21
80.91453243370668
 31
0.0
  0
LINE
  5
2B4
330
1F
100
AcDbEntity
  8
1
  6
CONTINUOUS
 62
     7
100
AcDbLine
 10
175.5537443888043
 20
79.67730704822586
 30
0.0
 11
175.4174040069463
 21
80.63168972123209
 31
0.0
  0
LINE
  5
2B5
330
1F
100
AcDbEntity
  8
1
  6
CONTINUOUS
 62
     7
100
AcDbLine
 10
164.8459754355177
 20
80.63168972123209
 30
0.0
 11
175.4174040069463
 21
80.63168972123206
 31
0.0
  0
LINE
  5
2B6
330
1F
100
AcDbEntity
  8
1
  6
CONTINUOUS
 62
     7
100
AcDbLine
 10
166.131689721232
 20
75.64081318663081
 30
0.0
 11
166.131689721232
 21
74.63168972123209
 31
0.0
  0
LINE
  5
2B7
330
1F
100
AcDbEntity
  8
1
  6
CONTINUOUS
 62
     7
100
AcDbLine
 10
164.7031182926606
 20
79.63168972123209
 30
0.0
 11
164.5654745586027
 21
78.66818358282714
 31
0.0
  0
LINE
  5
2B8
330
1F
100
AcDbEntity
  8
1
  6
CONTINUOUS
 62
     7
100
AcDbLine
 10
132.622046823422
 20
94.9008520482852
 30
0.0
 11
132.6184917665548
 21
95.38068974754836
 31
0.0
  0
LINE
  5
2B9
330
1F
100
AcDbEntity
  8
1
  6
CONTINUOUS
 62
     7
100
AcDbLine
 10
175.6979048838613
 20
78.66818358282708
 30
0.0
 11
175.5602611498034
 21
79.63168972123206
 31
0.0
  0
LINE
  5
2BA
330
1F
100
AcDbEntity
  8
1
  6
CONTINUOUS
 62
     7
100
AcDbLine
 10
175.5537443888043
 20
79.67730704822586
 30
0.0
 11
164.7096350536597
 21
79.67730704822591
 31
0.0
  0
ELLIPSE
  5
2BB
330
1F
100
AcDbEntity
  8
1
  6
CONTINUOUS
 62
     7
100
AcDbEllipse
 10
138.0636421746625
 20
95.82178776987284
 30
0.0
 11
-20.26431501097485
 21
-0.01234446860027507
 31
0.0
210
0.0
220
0.0
230
1.0
 40
0.0246663946250205
 41
3.116901207536979
 42
3.137608095776534
  0
LINE
  5
2BC
330
1F
100
AcDbEntity
  8
1
  6
CONTINUOUS
 62
     7
100
AcDbLine
 10
164.7031182926606
 20
79.63168972123209
 30
0.0
 11
175.5602611498034
 21
79.63168972123206
 31
0.0
  0
LINE
  5
2BD
330
1F
100
AcDbEntity
  8
1
  6
CONTINUOUS
 62
     7
100
AcDbLine
 10
164.5602611498034
 20
78.63168972123209
 30
0.0
 11
164.4213140635458
 21
77.65906011742838
 31
0.0
  0
LINE
  5
2BE
330
1F
100
AcDbEntity
  8
1
  6
CONTINUOUS
 62
     7
100
AcDbLine
 10
137.131689721232
 20
74.63168972123209
 30
0.0
 11
166.131689721232
 21
74.63168972123212
 31
0.0
  0
LINE
  5
2BF
330
1F
100
AcDbEntity
  8
1
  6
CONTINUOUS
 62
     7
100
AcDbLine
 10
164.8459754355177
 20
80.63168972123209
 30
0.0
 11
164.7096350536597
 21
79.67730704822588
 31
0.0
  0
LINE
  5
2C0
330
1F
100
AcDbEntity
  8
1
  6
CONTINUOUS
 62
     7
100
AcDbLine
 10
175.6979048838613
 20
78.66818358282708
 30
0.0
 11
164.5654745586027
 21
78.66818358282714
 31
0.0
  0
LINE
  5
2C1
330
1F
100
AcDbEntity
  8
1
  6
CONTINUOUS
 62
     7
100
AcDbLine
 10
174.131689721232
 20
74.63168972123032
 30
0.0
 11
188.3448931568284
 21
74.63168972123206
 31
0.0
  0
LINE
  5
2C2
330
1F
100
AcDbEntity
  8
1
  6
CONTINUOUS
 62
     7
100
AcDbLine
 10
164.2745468640892
 20
76.63168972123209
 30
0.0
 11
175.9888325783749
 21
76.63168972123206
 31
0.0
  0
ELLIPSE
  5
2C3
330
1F
100
AcDbEntity
  8
1
  6
CONTINUOUS
 62
     7
100
AcDbEllipse
 10
139.4010578820254
 20
96.23704264649209
 30
0.0
 11
2.267225795623589
 21
0.4559866740180145
 31
0.0
210
0.0
220
0.0
230
-1.0
 40
0.2162019235983445
 41
3.185048022418002
 42
3.221784900382572
  0
LINE
  5
2C4
330
1F
100
AcDbEntity
  8
1
  6
CONTINUOUS
 62
     7
100
AcDbLine
 10
176.1303863690322
 20
75.64081318663075
 30
0.0
 11
174.131689721232
 21
75.64081318663078
 31
0.0
  0
ARC
  5
2C5
330
1F
100
AcDbEntity
  8
1
  6
CONTINUOUS
 62
     7
100
AcDbCircle
 10
188.3448931568284
 20
69.63168972123202
 30
0.0
 40
5.000000000000002
100
AcDbArc
 50
45.00000000000001
 51
69.47066200526699
  0
ARC
  5
2C6
330
1F
100
AcDbEntity
  8
1
  6
CONTINUOUS
 62
     7
100
AcDbCircle
 10
173.3970989178418
 20
80.63168972123209
 30
0.0
 40
2.000000000000001
100
AcDbArc
 50
32.13609417984608
 51
90.00000000000001
  0
ARC
  5
2C7
330
1F
100
AcDbEntity
  8
1
  6
CONTINUOUS
 62
     7
100
AcDbCircle
 10
173.3970989178418
 20
80.63168972123209
 30
0.0
 40
2.000000000000001
100
AcDbArc
 50
8.130102354155916
 51
30.0
  0
LINE
  5
2C8
330
1F
100
AcDbEntity
  8
1
  6
CONTINUOUS
 62
     7
100
AcDbLine
 10
175.8420653789182
 20
77.6590601174283
 30
0.0
 11
175.7031182926605
 21
78.63168972123206
 31
0.0
  0
LINE
  5
2C9
330
1F
100
AcDbEntity
  8
1
  6
CONTINUOUS
 62
     7
100
AcDbLine
 10
164.4174040069463
 20
77.63168972123209
 30
0.0
 11
164.2771535684888
 21
76.64993665202964
 31
0.0
  0
LINE
  5
2CA
330
1F
100
AcDbEntity
  8
1
  6
CONTINUOUS
 62
     7
100
AcDbLine
 10
175.9862258739752
 20
76.64993665202952
 30
0.0
 11
164.2771535684888
 21
76.64993665202961
 31
0.0
  0
LINE
  5
2CB
330
1F
100
AcDbEntity
  8
1
  6
CONTINUOUS
 62
     7
100
AcDbLine
 10
203.1408131866308
 20
38.63168972123201
 30
0.0
 11
203.1408131866308
 21
36.63299307343184
 31
0.0
  0
LINE
  5
2CC
330
1F
100
AcDbEntity
  8
1
  6
CONTINUOUS
 62
     7
100
AcDbLine
 10
204.131689721232
 20
36.77454686408917
 30
0.0
 11
203.1408131866307
 21
36.63299307343184
 31
0.0
  0
LINE
  5
2CD
330
1F
100
AcDbEntity
  8
1
  6
CONTINUOUS
 62
     7
100
AcDbLine
 10
164.2745468640892
 20
76.63168972123209
 30
0.0
 11
164.1329930734318
 21
75.64081318663084
 31
0.0
  0
LINE
  5
2CE
330
1F
100
AcDbEntity
  8
1
  6
CONTINUOUS
 62
     7
100
AcDbLine
 10
175.4095838937473
 20
80.68643051362463
 30
0.0
 11
164.8537955487166
 21
80.68643051362469
 31
0.0
  0
ARC
  5
2CF
330
1F
100
AcDbEntity
  8
1
  6
CONTINUOUS
 62
     7
100
AcDbCircle
 10
166.8662805246221
 20
80.63168972123209
 30
0.0
 40
2.000000000000002
100
AcDbArc
 50
149.9999999999999
 51
171.8698976458442
  0
LINE
  5
2D0
330
1F
100
AcDbEntity
  8
1
  6
CONTINUOUS
 62
     7
100
AcDbLine
 10
203.1408131866307
 20
48.63038636903218
 30
0.0
 11
204.131689721232
 21
48.48883257837488
 31
0.0
  0
LINE
  5
2D1
330
1F
100
AcDbEntity
  8
1
  6
CONTINUOUS
 62
     7
100
AcDbLine
 10
164.5602611498034
 20
78.63168972123209
 30
0.0
 11
175.7031182926605
 21
78.63168972123209
 31
0.0
  0
ARC
  5
2D2
330
1F
100
AcDbEntity
  8
1
  6
CONTINUOUS
 62
     7
100
AcDbCircle
 10
-197.131689721232
 20
60.84489315682846
 30
0.0
 40
5.000000000000002
210
0.0
220
0.0
230
-1.0
100
AcDbArc
 50
135.0000000000002
 51
159.4706620052673
  0
LINE
  5
2D3
330
1F
100
AcDbEntity
  8
1
  6
CONTINUOUS
 62
     7
100
AcDbLine
 10
200.6672236271647
 20
64.38042706276121
 30
0.0
 11
191.8804270627612
 21
73.1672236271648
 31
0.0
  0
ENDSEC
  0
SECTION
  2
OBJECTS
  0
DICTIONARY
  5
C
330
0
100
AcDbDictionary
  3
ACAD_GROUP
350
D
  3
ACAD_LAYOUT
350
1A
  3
ACAD_MATERIAL
350
43
  3
ACAD_MLEADERSTYLE
350
6B
  3
ACAD_MLINESTYLE
350
17
  3
ACAD_PLOTSETTINGS
350
19
  3
ACAD_SCALELIST
350
47
  3
ACAD_VISUALSTYLE
350
2A
  3
ACDBHEADERROUNDTRIPXREC
350
2D4
  3
ACDBVARIABLEDICTIONARY
350
2F5
  0
DICTIONARY
  5
2FC
330
8
100
AcDbDictionary
280
     1
  3
ACAD_XREC_ROUNDTRIP
360
2FD
  0
DICTIONARY
  5
D
102
{ACAD_REACTORS
330
C
102
}
330
C
100
AcDbDictionary
  0
DICTIONARY
  5
1A
102
{ACAD_REACTORS
330
C
102
}
330
C
100
AcDbDictionary
  0
DICTIONARY
  5
43
102
{ACAD_REACTORS
330
C
102
}
330
C
100
AcDbDictionary
  3
BYBLOCK
350
45
  3
BYLAYER
350
44
  3
GLOBAL
350
46
  0
DICTIONARY
  5
6B
102
{ACAD_REACTORS
330
C
102
}
330
C
100
AcDbDictionary
  3
STANDARD
350
6C
  0
DICTIONARY
  5
17
102
{ACAD_REACTORS
330
C
102
}
330
C
100
AcDbDictionary
  3
STANDARD
350
18
  0
DICTIONARY
  5
19
102
{ACAD_REACTORS
330
C
102
}
330
C
100
AcDbDictionary
  0
DICTIONARY
  5
47
102
{ACAD_REACTORS
330
C
102
}
330
C
100
AcDbDictionary
  3
A0
350
48
  3
A1
350
49
  3
A2
350
4A
  3
A3
350
4B
  3
A4
350
4C
  3
A5
350
4D
  3
A6
350
4E
  3
A7
350
4F
  3
A8
350
50
  3
A9
350
51
  3
B0
350
52
  3
B1
350
53
  3
B2
350
54
  3
B3
350
55
  3
B4
350
56
  3
B5
350
57
  3
B6
350
58
  3
B7
350
59
  3
B8
350
5A
  3
B9
350
5B
  3
C0
350
5C
  3
C1
350
5D
  3
C2
350
5E
  3
C3
350
5F
  3
C4
350
60
  3
C5
350
61
  3
C6
350
62
  3
C7
350
63
  3
C8
350
64
  3
C9
350
65
  3
D0
350
66
  3
D1
350
67
  3
D2
350
68
  0
DICTIONARY
  5
2A
102
{ACAD_REACTORS
330
C
102
}
330
C
100
AcDbDictionary
  3
2DWIREFRAME
350
2F
  3
BASIC
350
32
  3
BRIGHTEN
350
36
  3
COLORCHANGE
350
3A
  3
CONCEPTUAL
350
34
  3
DIM
350
35
  3
EDGECOLOROFF
350
3D
  3
FACEPATTERN
350
39
  3
FLAT
350
2B
  3
FLATWITHEDGES
350
2C
  3
GOURAUD
350
2D
  3
GOURAUDWITHEDGES
350
2E
  3
HIDDEN
350
31
  3
JITTEROFF
350
3B
  3
LINEPATTERN
350
38
  3
OVERHANGOFF
350
3C
  3
REALISTIC
350
33
  3
SHADED
350
42
  3
SHADED_WITH_EDGES
350
41
  3
SHADES_OF_GRAY
350
3E
  3
SKETCHY
350
3F
  3
THICKEN
350
37
  3
WIREFRAME
350
30
  3
X-RAY
350
40
  0
DICTIONARY
  5
2D4
102
{ACAD_REACTORS
330
C
102
}
330
C
100
AcDbDictionary
  3
CEPSNID
350
2DE
  3
CEPSNTYPE
350
2DD
  3
DIMSTYLEDATA
350
2F4
  3
FINGERPRINTGUID
350
2DF
  3
HYPERLINKBASE
350
2D7
  3
INSUNITS
350
2DC
  3
LAYOUTDICT
350
2D9
  3
LWETCUNION
350
2DB
  3
PLOTSETDICT
350
2DA
  3
PSVPSCALE
350
2E1
  3
PUCSBASE
350
2E4
  3
PUCSORGBACK
350
2EA
  3
PUCSORGBOTTOM
350
2E6
  3
PUCSORGFRONT
350
2E9
  3
PUCSORGLEFT
350
2E7
  3
PUCSORGRIGHT
350
2E8
  3
PUCSORGTOP
350
2E5
  3
PUCSORTHOREF
350
2E2
  3
PUCSORTHOVIEW
350
2E3
  3
STYLESHEET
350
2D8
  3
TSTACKALIGN
350
2D5
  3
TSTACKSIZE
350
2D6
  3
UCSBASE
350
2ED
  3
UCSORGBACK
350
2F3
  3
UCSORGBOTTOM
350
2EF
  3
UCSORGFRONT
350
2F2
  3
UCSORGLEFT
350
2F0
  3
UCSORGRIGHT
350
2F1
  3
UCSORGTOP
350
2EE
  3
UCSORTHOREF
350
2EB
  3
UCSORTHOVIEW
350
2EC
  3
VERSIONGUID
350
2E0
  0
DICTIONARY
  5
2F5
102
{ACAD_REACTORS
330
C
102
}
330
C
100
AcDbDictionary
  3
CANNOSCALE
350
2FE
  3
CMLEADERSTYLE
350
2F7
  3
CTABLESTYLE
350
2F6
  3
DIMASSOC
350
2FA
  3
HIDETEXT
350
2FB
  3
MSLTSCALE
350
2FF
  0
XRECORD
  5
2FD
102
{ACAD_REACTORS
330
2FC
102
}
330
2FC
100
AcDbXrecord
102
VTR_0.000_0.000_1.000_1.000_VISUALSTYLE
340
2F
102
VTR_0.000_0.000_1.000_1.000_GRIDDISPLAY
 70
     3
102
VTR_0.000_0.000_1.000_1.000_GRIDMAJOR
 70
     5
102
VTR_0.000_0.000_1.000_1.000_DEFAULTLIGHTING
280
     1
102
VTR_0.000_0.000_1.000_1.000_DEFAULTLIGHTINGTYPE
 70
     1
102
VTR_0.000_0.000_1.000_1.000_BRIGHTNESS
141
0.0
102
VTR_0.000_0.000_1.000_1.000_CONTRAST
142
0.0
  0
MATERIAL
  5
45
102
{ACAD_REACTORS
330
43
102
}
102
{ACAD_XDICTIONARY
360
302
102
}
330
43
100
AcDbMaterial
  1
BYBLOCK
  0
MATERIAL
  5
44
102
{ACAD_REACTORS
330
43
102
}
102
{ACAD_XDICTIONARY
360
300
102
}
330
43
100
AcDbMaterial
  1
BYLAYER
  0
MATERIAL
  5
46
102
{ACAD_REACTORS
330
43
102
}
102
{ACAD_XDICTIONARY
360
304
102
}
330
43
100
AcDbMaterial
  1
GLOBAL
  0
ACAD_PROXY_OBJECT
  5
6C
102
{ACAD_REACTORS
330
6B
102
}
330
6B
100
AcDbProxyObject
 90
      499
 91
      505
 93
      610
310
40901902A4063FBFFFFFE056BD1B81E855B9FC0AD7A3703D0AD73F4214DD185B99185C9900AD7A3703D0AC73F90141901A02B5E8DC0F42B1CFC02B5E8DC0F42B1CFE5764000000000000300FC0
340
14
340
0
340
11
340
0
 94
        0
1001
ACAD_MLEADERVER
1070
     2
  0
MLINESTYLE
  5
18
102
{ACAD_REACTORS
330
17
102
}
330
17
100
AcDbMlineStyle
  2
Standard
 70
     0
  3

 62
   256
 51
90.0
 52
90.0
 71
     2
 49
0.5
 62
   256
  6
BYLAYER
 49
-0.5
 62
   256
  6
BYLAYER
  0
ACAD_PROXY_OBJECT
  5
48
102
{ACAD_REACTORS
330
47
102
}
330
47
100
AcDbProxyObject
 90
      499
 91
      503
 93
       41
310
903313A31580
  0
ACAD_PROXY_OBJECT
  5
49
102
{ACAD_REACTORS
330
47
102
}
330
47
100
AcDbProxyObject
 90
      499
 91
      503
 93
      105
310
903313A324000000000000004000
  0
ACAD_PROXY_OBJECT
  5
4A
102
{ACAD_REACTORS
330
47
102
}
330
47
100
AcDbProxyObject
 90
      499
 91
      503
 93
      105
310
903313A344000000000000104000
  0
ACAD_PROXY_OBJECT
  5
4B
102
{ACAD_REACTORS
330
47
102
}
330
47
100
AcDbProxyObject
 90
      499
 91
      503
 93
      105
310
903313A354000000000000144000
  0
ACAD_PROXY_OBJECT
  5
4C
102
{ACAD_REACTORS
330
47
102
}
330
47
100
AcDbProxyObject
 90
      499
 91
      503
 93
      105
310
903313A384000000000000204000
  0
ACAD_PROXY_OBJECT
  5
4D
102
{ACAD_REACTORS
330
47
102
}
330
47
100
AcDbProxyObject
 90
      499
 91
      503
 93
      113
310
904313A31304000000000000244000
  0
ACAD_PROXY_OBJECT
  5
4E
102
{ACAD_REACTORS
330
47
102
}
330
47
100
AcDbProxyObject
 90
      499
 91
      503
 93
      113
310
904313A31364000000000000304000
  0
ACAD_PROXY_OBJECT
  5
4F
102
{ACAD_REACTORS
330
47
102
}
330
47
100
AcDbProxyObject
 90
      499
 91
      503
 93
      113
310
904313A32304000000000000344000
  0
ACAD_PROXY_OBJECT
  5
50
102
{ACAD_REACTORS
330
47
102
}
330
47
100
AcDbProxyObject
 90
      499
 91
      503
 93
      113
310
904313A333040000000000003E4000
  0
ACAD_PROXY_OBJECT
  5
51
102
{ACAD_REACTORS
330
47
102
}
330
47
100
AcDbProxyObject
 90
      499
 91
      503
 93
      113
310
904313A34304000000000000444000
  0
ACAD_PROXY_OBJECT
  5
52
102
{ACAD_REACTORS
330
47
102
}
330
47
100
AcDbProxyObject
 90
      499
 91
      503
 93
      113
310
904313A35304000000000000494000
  0
ACAD_PROXY_OBJECT
  5
53
102
{ACAD_REACTORS
330
47
102
}
330
47
100
AcDbProxyObject
 90
      499
 91
      503
 93
      121
310
905313A3130304000000000000594000
  0
ACAD_PROXY_OBJECT
  5
54
102
{ACAD_REACTORS
330
47
102
}
330
47
100
AcDbProxyObject
 90
      499
 91
      503
 93
      105
310
903323A310000000000000010100
  0
ACAD_PROXY_OBJECT
  5
55
102
{ACAD_REACTORS
330
47
102
}
330
47
100
AcDbProxyObject
 90
      499
 91
      503
 93
      105
310
903343A310000000000000410100
  0
ACAD_PROXY_OBJECT
  5
56
102
{ACAD_REACTORS
330
47
102
}
330
47
100
AcDbProxyObject
 90
      499
 91
      503
 93
      105
310
903383A310000000000000810100
  0
ACAD_PROXY_OBJECT
  5
57
102
{ACAD_REACTORS
330
47
102
}
330
47
100
AcDbProxyObject
 90
      499
 91
      503
 93
      113
310
90431303A310000000000000910100
  0
ACAD_PROXY_OBJECT
  5
58
102
{ACAD_REACTORS
330
47
102
}
330
47
100
AcDbProxyObject
 90
      499
 91
      503
 93
      121
310
9053130303A310000000000001650100
  0
ACAD_PROXY_OBJECT
  5
59
102
{ACAD_REACTORS
330
47
102
}
330
47
100
AcDbProxyObject
 90
      499
 91
      503
 93
      257
310
90E312F31323822203D2031272D3022000000000000200FC000000000000284000
  0
ACAD_PROXY_OBJECT
  5
5A
102
{ACAD_REACTORS
330
47
102
}
330
47
100
AcDbProxyObject
 90
      499
 91
      503
 93
      249
310
90D312F363422203D2031272D3022000000000000240FC000000000000284000
  0
ACAD_PROXY_OBJECT
  5
5B
102
{ACAD_REACTORS
330
47
102
}
330
47
100
AcDbProxyObject
 90
      499
 91
      503
 93
      249
310
90D312F333222203D2031272D3022000000000000280FC000000000000284000
  0
ACAD_PROXY_OBJECT
  5
5C
102
{ACAD_REACTORS
330
47
102
}
330
47
100
AcDbProxyObject
 90
      499
 91
      503
 93
      249
310
90D312F313622203D2031272D30220000000000002C0FC000000000000284000
  0
ACAD_PROXY_OBJECT
  5
5D
102
{ACAD_REACTORS
330
47
102
}
330
47
100
AcDbProxyObject
 90
      499
 91
      503
 93
      249
310
90D332F333222203D2031272D30220000000000002E0FC000000000000284000
  0
ACAD_PROXY_OBJECT
  5
5E
102
{ACAD_REACTORS
330
47
102
}
330
47
100
AcDbProxyObject
 90
      499
 91
      503
 93
      241
310
90C312F3822203D2031272D3022000000000000300FC000000000000284000
  0
ACAD_PROXY_OBJECT
  5
5F
102
{ACAD_REACTORS
330
47
102
}
330
47
100
AcDbProxyObject
 90
      499
 91
      503
 93
      249
310
90D332F313622203D2031272D3022000000000000320FC000000000000284000
  0
ACAD_PROXY_OBJECT
  5
60
102
{ACAD_REACTORS
330
47
102
}
330
47
100
AcDbProxyObject
 90
      499
 91
      503
 93
      241
310
90C312F3422203D2031272D3022000000000000340FC000000000000284000
  0
ACAD_PROXY_OBJECT
  5
61
102
{ACAD_REACTORS
330
47
102
}
330
47
100
AcDbProxyObject
 90
      499
 91
      503
 93
      241
310
90C332F3822203D2031272D3022000000000000360FC000000000000284000
  0
ACAD_PROXY_OBJECT
  5
62
102
{ACAD_REACTORS
330
47
102
}
330
47
100
AcDbProxyObject
 90
      499
 91
      503
 93
      241
310
90C312F3222203D2031272D3022000000000000380FC000000000000284000
  0
ACAD_PROXY_OBJECT
  5
63
102
{ACAD_REACTORS
330
47
102
}
330
47
100
AcDbProxyObject
 90
      499
 91
      503
 93
      241
310
90C332F3422203D2031272D30220000000000003A0FC000000000000284000
  0
ACAD_PROXY_OBJECT
  5
64
102
{ACAD_REACTORS
330
47
102
}
330
47
100
AcDbProxyObject
 90
      499
 91
      503
 93
      161
310
90A3122203D2031272D30224000000000000284000
  0
ACAD_PROXY_OBJECT
  5
65
102
{ACAD_REACTORS
330
47
102
}
330
47
100
AcDbProxyObject
 90
      499
 91
      503
 93
      257
310
90E312D312F3222203D2031272D30220000000000003E0FC000000000000284000
  0
ACAD_PROXY_OBJECT
  5
66
102
{ACAD_REACTORS
330
47
102
}
330
47
100
AcDbProxyObject
 90
      499
 91
      503
 93
      225
310
90A3322203D2031272D302200000000000002100000000000000284000
  0
ACAD_PROXY_OBJECT
  5
67
102
{ACAD_REACTORS
330
47
102
}
330
47
100
AcDbProxyObject
 90
      499
 91
      503
 93
      225
310
90A3622203D2031272D302200000000000006100000000000000284000
  0
ACAD_PROXY_OBJECT
  5
68
102
{ACAD_REACTORS
330
47
102
}
330
47
100
AcDbProxyObject
 90
      499
 91
      503
 93
      249
310
90D31272D3022203D2031272D30220000000000000A100000000000000284000
  0
ACAD_PROXY_OBJECT
  5
2F
102
{ACAD_REACTORS
330
2A
102
}
330
2A
100
AcDbProxyObject
 90
      499
 91
      501
 93
      436
310
42CC9915DA5C99599C985B595049028333333333333E33F0000000000000F90107901411070040501600405405064090741402480A0340
1001
ACAD
1000
AcDbSavedByObjectVersion
1070
     0
  0
ACAD_PROXY_OBJECT
  5
32
102
{ACAD_REACTORS
330
2A
102
}
330
2A
100
AcDbProxyObject
 90
      499
 91
      501
 93
      388
310
4150985CDA58D07406404333333333333E33F0000000000000F90107A41107004050150841D405064090741402480A0350
1001
ACAD
1000
AcDbSavedByObjectVersion
1070
     0
  0
ACAD_PROXY_OBJECT
  5
36
102
{ACAD_REACTORS
330
2A
102
}
330
2A
100
AcDbProxyObject
 90
      499
 91
      501
 93
      428
310
42109C9A59DA1D195B90C409028333333333333E33F0000000000000F9010790141107004050150841D405064090741402480A029950
1001
ACAD
1000
AcDbSavedByObjectVersion
1070
     0
  0
ACAD_PROXY_OBJECT
  5
3A
102
{ACAD_REACTORS
330
2A
102
}
330
2A
100
AcDbProxyObject
 90
      499
 91
      501
 93
      452
310
42D0DBDB1BDC90DA185B99D95104090240C333333333333E33F0000000000000F90108901411070040501508421405064090741402480A0350
1001
ACAD
1000
AcDbSavedByObjectVersion
1070
     0
  0
ACAD_PROXY_OBJECT
  5
34
102
{ACAD_REACTORS
330
2A
102
}
330
2A
100
AcDbProxyObject
 90
      499
 91
      501
 93
      500
310
4290DBDB98D95C1D1D585B10940D028333333333333E33F0000000000000F90107902409070040501000000000018199010841D405064090740C02480A0340
1001
ACAD
1000
AcDbSavedByObjectVersion
1070
     0
  0
ACAD_PROXY_OBJECT
  5
35
102
{ACAD_REACTORS
330
2A
102
}
330
2A
100
AcDbProxyObject
 90
      499
 91
      501
 93
      412
310
40D11A5B50B409028333333333333E33F0000000000000F9010790141107004050150841D405064090741402480A02677FFFFFD0
1001
ACAD
1000
AcDbSavedByObjectVersion
1070
     0
  0
ACAD_PROXY_OBJECT
  5
3D
102
{ACAD_REACTORS
330
2A
102
}
330
2A
100
AcDbProxyObject
 90
      499
 91
      501
 93
      452
310
43115919D950DBDB1BDC93D999916409028333333333333E33F0000000000000F9010790141107004050150841D405064090741402480A0350
1001
ACAD
1000
AcDbSavedByObjectVersion
1070
     0
  0
ACAD_PROXY_OBJECT
  5
39
102
{ACAD_REACTORS
330
2A
102
}
330
2A
100
AcDbProxyObject
 90
      499
 91
      501
 93
      444
310
42D19858D95C185D1D195C9B90F409028333333333333E33F0000000000000F9010790141107004050150841D405064090741402480A0350
1001
ACAD
1000
AcDbSavedByObjectVersion
1070
     0
  0
ACAD_PROXY_OBJECT
  5
2B
102
{ACAD_REACTORS
330
2A
102
}
330
2A
100
AcDbProxyObject
 90
      499
 91
      501
 93
      380
310
41119B185D240901404333333333333E33F0000000000000F9010740A907004050150841D405064090741402480A1B50
1001
ACAD
1000
AcDbSavedByObjectVersion
1070
     0
  0
ACAD_PROXY_OBJECT
  5
2C
102
{ACAD_REACTORS
330
2A
102
}
330
2A
100
AcDbProxyObject
 90
      499
 91
      501
 93
      468
310
43519B185D15DA5D1A115919D95CD0140901404333333333333E33F0000000000000F90107409019070040501600405405064090741402480A1B50
1001
ACAD
1000
AcDbSavedByObjectVersion
1070
     0
  0
ACAD_PROXY_OBJECT
  5
2D
102
{ACAD_REACTORS
330
2A
102
}
330
2A
100
AcDbProxyObject
 90
      499
 91
      501
 93
      404
310
41D1DBDD5C985D5910240902404333333333333E33F0000000000000F9010740A9070040501641D405064090741402480A1B50
1001
ACAD
1000
AcDbSavedByObjectVersion
1070
     0
  0
ACAD_PROXY_OBJECT
  5
2E
102
{ACAD_REACTORS
330
2A
102
}
330
2A
100
AcDbProxyObject
 90
      499
 91
      501
 93
      492
310
4411DBDD5C985D5915DA5D1A115919D95CD0340902404333333333333E33F0000000000000F90107409019070040501600405405064090741402480A1B50
1001
ACAD
1000
AcDbSavedByObjectVersion
1070
     0
  0
ACAD_PROXY_OBJECT
  5
31
102
{ACAD_REACTORS
330
2A
102
}
330
2A
100
AcDbProxyObject
 90
      499
 91
      501
 93
      476
310
41921A5919195B90640502408333333333333E33F0000000000000F901079024090700405020000000000001110200405405064090740C02480A0340
1001
ACAD
1000
AcDbSavedByObjectVersion
1070
     0
  0
ACAD_PROXY_OBJECT
  5
3B
102
{ACAD_REACTORS
330
2A
102
}
330
2A
100
AcDbProxyObject
 90
      499
 91
      501
 93
      428
310
42529A5D1D195C93D999914409028333333333333E33F0000000000000F9010790141107004050150A41D405064090741402480A0350
1001
ACAD
1000
AcDbSavedByObjectVersion
1070
     0
  0
ACAD_PROXY_OBJECT
  5
38
102
{ACAD_REACTORS
330
2A
102
}
330
2A
100
AcDbProxyObject
 90
      499
 91
      501
 93
      444
310
42D31A5B995C185D1D195C9B90E409028333333333333E33F0000000000000F9010790141107004050750841D405064090741402483A0350
1001
ACAD
1000
AcDbSavedByObjectVersion
1070
     0
  0
ACAD_PROXY_OBJECT
  5
3C
102
{ACAD_REACTORS
330
2A
102
}
330
2A
100
AcDbProxyObject
 90
      499
 91
      501
 93
      444
310
42D3DD995C9A185B99D3D999915409028333333333333E33F0000000000000F9010790141107004050150941D405064090741402480A0350
1001
ACAD
1000
AcDbSavedByObjectVersion
1070
     0
  0
ACAD_PROXY_OBJECT
  5
33
102
{ACAD_REACTORS
330
2A
102
}
330
2A
100
AcDbProxyObject
 90
      499
 91
      501
 93
      428
310
425499585B1A5CDD1A58D08409038333333333333E33F0000000000000F9010740A907004050150800405405064090740C02480A1B40
1001
ACAD
1000
AcDbSavedByObjectVersion
1070
     0
  0
ACAD_PROXY_OBJECT
  5
42
102
{ACAD_REACTORS
330
2A
102
}
330
2A
100
AcDbProxyObject
 90
      499
 91
      501
 93
      420
310
4194DA1859195911B40902404333333333333E33F0000000000000F9010740A41107004050150800405405064090840C02480A0B40
1001
ACAD
1000
AcDbSavedByObjectVersion
1070
     0
  0
ACAD_PROXY_OBJECT
  5
41
102
{ACAD_REACTORS
330
2A
102
}
330
2A
100
AcDbProxyObject
 90
      499
 91
      501
 93
      516
310
4454DA18591959081DDA5D1A08195919D95CD1A40902404333333333333E33F0000000000000F901074090142907004050250800405405064090740C02480A0B40
1001
ACAD
1000
AcDbSavedByObjectVersion
1070
     0
  0
ACAD_PROXY_OBJECT
  5
3E
102
{ACAD_REACTORS
330
2A
102
}
330
2A
100
AcDbProxyObject
 90
      499
 91
      501
 93
      532
310
4394DA1859195CC81BD98811DC985E5174090240C333333333333E33F0000000000000F901079024090741D01000000000000111010841D405064090740C02480A0340
1001
ACAD
1000
AcDbSavedByObjectVersion
1070
     0
  0
ACAD_PROXY_OBJECT
  5
3F
102
{ACAD_REACTORS
330
2A
102
}
330
2A
100
AcDbProxyObject
 90
      499
 91
      501
 93
      476
310
41D4DAD95D18DA1E51840502408333333333333E33F0000000000000F901079024090741D01000000000000111010B41D405064090741802480A0340
1001
ACAD
1000
AcDbSavedByObjectVersion
1070
     0
  0
ACAD_PROXY_OBJECT
  5
37
102
{ACAD_REACTORS
330
2A
102
}
330
2A
100
AcDbProxyObject
 90
      499
 91
      501
 93
      412
310
41D51A1A58DAD95B90D409028333333333333E33F0000000000000F9010790141107004050150C41D405064090741402480A0350
1001
ACAD
1000
AcDbSavedByObjectVersion
1070
     0
  0
ACAD_PROXY_OBJECT
  5
30
102
{ACAD_REACTORS
330
2A
102
}
330
2A
100
AcDbProxyObject
 90
      499
 91
      501
 93
      420
310
4255DA5C99599C985B595059028333333333333E33F0000000000000F90107901411070040501600405405064090740C02480A0340
1001
ACAD
1000
AcDbSavedByObjectVersion
1070
     0
  0
ACAD_PROXY_OBJECT
  5
40
102
{ACAD_REACTORS
330
2A
102
}
330
2A
100
AcDbProxyObject
 90
      499
 91
      501
 93
      404
310
41560B54985E51940902404000000000000E03F0000000000000F9010740501907004050150841D405064090740C02480A1B40
1001
ACAD
1000
AcDbSavedByObjectVersion
1070
     0
  0
XRECORD
  5
2DE
102
{ACAD_REACTORS
330
2D4
102
}
330
2D4
100
AcDbXrecord
340
0
  0
XRECORD
  5
2DD
102
{ACAD_REACTORS
330
2D4
102
}
330
2D4
100
AcDbXrecord
 90
        0
  0
XRECORD
  5
2F4
102
{ACAD_REACTORS
330
2D4
102
}
330
2D4
100
AcDbXrecord
1000
DSTYLE
1002
{
1070
   179
 70
     2
1070
   171
 70
     2
1070
   143
 40
25.4
1070
   274
 70
     2
1070
    41
 40
3.0
1070
   141
 40
0.09
1070
    43
 40
0.38
1070
   278
 70
    46
1070
    44
 40
1.5
1070
    42
 40
0.0625
1070
   147
 40
1.5
1070
   272
 70
     4
1070
    73
 70
     1
1070
   172
 70
     0
1070
    74
 70
     1
1070
   283
 70
     1
1070
   340
340
6F
1070
   140
 40
3.0
1070
   284
 70
     0
1070
    78
 70
     0
1002
}
  0
XRECORD
  5
2DF
102
{ACAD_REACTORS
330
2D4
102
}
330
2D4
100
AcDbXrecord
  1
{F6CB325A-03F7-42A3-9F35-87F36951BB25}
  0
XRECORD
  5
2D7
102
{ACAD_REACTORS
330
2D4
102
}
330
2D4
100
AcDbXrecord
  1

  0
XRECORD
  5
2DC
102
{ACAD_REACTORS
330
2D4
102
}
330
2D4
100
AcDbXrecord
 90
        4
  0
XRECORD
  5
2D9
102
{ACAD_REACTORS
330
2D4
102
}
330
2D4
100
AcDbXrecord
340
1A
  0
XRECORD
  5
2DB
102
{ACAD_REACTORS
330
2D4
102
}
330
2D4
100
AcDbXrecord
 90
    10269
  0
XRECORD
  5
2DA
102
{ACAD_REACTORS
330
2D4
102
}
330
2D4
100
AcDbXrecord
340
19
  0
XRECORD
  5
2E1
102
{ACAD_REACTORS
330
2D4
102
}
330
2D4
100
AcDbXrecord
 40
0.0
  0
XRECORD
  5
2E4
102
{ACAD_REACTORS
330
2D4
102
}
330
2D4
100
AcDbXrecord
340
0
  0
XRECORD
  5
2EA
102
{ACAD_REACTORS
330
2D4
102
}
330
2D4
100
AcDbXrecord
 10
0.0
 20
0.0
 30
0.0
  0
XRECORD
  5
2E6
102
{ACAD_REACTORS
330
2D4
102
}
330
2D4
100
AcDbXrecord
 10
0.0
 20
0.0
 30
0.0
  0
XRECORD
  5
2E9
102
{ACAD_REACTORS
330
2D4
102
}
330
2D4
100
AcDbXrecord
 10
0.0
 20
0.0
 30
0.0
  0
XRECORD
  5
2E7
102
{ACAD_REACTORS
330
2D4
102
}
330
2D4
100
AcDbXrecord
 10
0.0
 20
0.0
 30
0.0
  0
XRECORD
  5
2E8
102
{ACAD_REACTORS
330
2D4
102
}
330
2D4
100
AcDbXrecord
 10
0.0
 20
0.0
 30
0.0
  0
XRECORD
  5
2E5
102
{ACAD_REACTORS
330
2D4
102
}
330
2D4
100
AcDbXrecord
 10
0.0
 20
0.0
 30
0.0
  0
XRECORD
  5
2E2
102
{ACAD_REACTORS
330
2D4
102
}
330
2D4
100
AcDbXrecord
340
0
  0
XRECORD
  5
2E3
102
{ACAD_REACTORS
330
2D4
102
}
330
2D4
100
AcDbXrecord
 70
     0
  0
XRECORD
  5
2D8
102
{ACAD_REACTORS
330
2D4
102
}
330
2D4
100
AcDbXrecord
  1

  0
XRECORD
  5
2D5
102
{ACAD_REACTORS
330
2D4
102
}
330
2D4
100
AcDbXrecord
 90
        1
  0
XRECORD
  5
2D6
102
{ACAD_REACTORS
330
2D4
102
}
330
2D4
100
AcDbXrecord
 90
       70
  0
XRECORD
  5
2ED
102
{ACAD_REACTORS
330
2D4
102
}
330
2D4
100
AcDbXrecord
340
0
  0
XRECORD
  5
2F3
102
{ACAD_REACTORS
330
2D4
102
}
330
2D4
100
AcDbXrecord
 10
0.0
 20
0.0
 30
0.0
  0
XRECORD
  5
2EF
102
{ACAD_REACTORS
330
2D4
102
}
330
2D4
100
AcDbXrecord
 10
0.0
 20
0.0
 30
0.0
  0
XRECORD
  5
2F2
102
{ACAD_REACTORS
330
2D4
102
}
330
2D4
100
AcDbXrecord
 10
0.0
 20
0.0
 30
0.0
  0
XRECORD
  5
2F0
102
{ACAD_REACTORS
330
2D4
102
}
330
2D4
100
AcDbXrecord
 10
0.0
 20
0.0
 30
0.0
  0
XRECORD
  5
2F1
102
{ACAD_REACTORS
330
2D4
102
}
330
2D4
100
AcDbXrecord
 10
0.0
 20
0.0
 30
0.0
  0
XRECORD
  5
2EE
102
{ACAD_REACTORS
330
2D4
102
}
330
2D4
100
AcDbXrecord
 10
0.0
 20
0.0
 30
0.0
  0
XRECORD
  5
2EB
102
{ACAD_REACTORS
330
2D4
102
}
330
2D4
100
AcDbXrecord
340
0
  0
XRECORD
  5
2EC
102
{ACAD_REACTORS
330
2D4
102
}
330
2D4
100
AcDbXrecord
 70
     0
  0
XRECORD
  5
2E0
102
{ACAD_REACTORS
330
2D4
102
}
330
2D4
100
AcDbXrecord
  1
{FAEB1C32-E019-11D5-929B-00C0DF256EC4}
  0
DICTIONARYVAR
  5
2FE
102
{ACAD_REACTORS
330
2F5
102
}
330
2F5
100
DictionaryVariables
280
     0
  1
1:1
  0
DICTIONARYVAR
  5
2F7
102
{ACAD_REACTORS
330
2F5
102
}
330
2F5
100
DictionaryVariables
280
     0
  1
Standard
  0
DICTIONARYVAR
  5
2F6
102
{ACAD_REACTORS
330
2F5
102
}
330
2F5
100
DictionaryVariables
280
     0
  1
Standard
  0
DICTIONARYVAR
  5
2FA
102
{ACAD_REACTORS
330
2F5
102
}
330
2F5
100
DictionaryVariables
280
     0
  1
2
  0
DICTIONARYVAR
  5
2FB
102
{ACAD_REACTORS
330
2F5
102
}
330
2F5
100
DictionaryVariables
280
     0
  1
1
  0
DICTIONARYVAR
  5
2FF
102
{ACAD_REACTORS
330
2F5
102
}
330
2F5
100
DictionaryVariables
280
     0
  1
1
  0
DICTIONARY
  5
302
330
45
100
AcDbDictionary
280
     1
  3
ACAD_XREC_ROUNDTRIP
360
303
  0
DICTIONARY
  5
300
330
44
100
AcDbDictionary
280
     1
  3
ACAD_XREC_ROUNDTRIP
360
301
  0
DICTIONARY
  5
304
330
46
100
AcDbDictionary
280
     1
  3
ACAD_XREC_ROUNDTRIP
360
305
  0
XRECORD
  5
303
102
{ACAD_REACTORS
330
302
102
}
330
302
100
AcDbXrecord
102
MATERIAL
148
0.0
149
0.0
149
0.0
 93
        0
 94
      127
282
     0
 72
     1
 77
     1
171
     1
175
     1
179
     1
273
     0
  0
XRECORD
  5
301
102
{ACAD_REACTORS
330
300
102
}
330
300
100
AcDbXrecord
102
MATERIAL
148
0.0
149
0.0
149
0.0
 93
        0
 94
      127
282
     0
 72
     1
 77
     1
171
     1
175
     1
179
     1
273
     0
  0
XRECORD
  5
305
102
{ACAD_REACTORS
330
304
102
}
330
304
100
AcDbXrecord
102
MATERIAL
148
0.0
149
0.0
149
0.0
 93
        0
 94
      127
282
     0
 72
     1
 77
     1
171
     1
175
     1
179
     1
273
     0
  0
ENDSEC
  0
EOF
