  0
SECTION
  2
HEADER
  9
$ACADVER
  1
AC1004
  9
$INSBASE
 10
0.0
 20
0.0
  9
$EXTMIN
 10
0.0
 20
0.0
  9
$EXTMAX
 10
784.5316055508433
 20
394.5316055508434
  9
$LIMMIN
 10
0.0
 20
0.0
  9
$LIMMAX
 10
12.0
 20
9.0
  9
$ORTHOMODE
 70
     0
  9
$REGENMODE
 70
     1
  9
$FILLMODE
 70
     1
  9
$QTEXTMODE
 70
     0
  9
$DRAGMODE
 70
     2
  9
$LTSCALE
 40
1.0
  9
$OSMODE
 70
    37
  9
$ATTMODE
 70
     1
  9
$TEXTSIZE
 40
0.2
  9
$TRACEWID
 40
0.05
  9
$TEXTSTYLE
  7
STANDARD
  9
$CLAYER
  8
0
  9
$CELTYPE
  6
BYLAYER
  9
$CECOLOR
 62
   256
  9
$DIMSCALE
 40
1.0
  9
$DIMASZ
 40
3.0
  9
$DIMEXO
 40
0.0625
  9
$DIMDLI
 40
0.38
  9
$DIMRND
 40
0.0
  9
$DIMDLE
 40
0.0
  9
$DIMEXE
 40
1.5
  9
$DIMTP
 40
0.0
  9
$DIMTM
 40
0.0
  9
$DIMTXT
 40
3.0
  9
$DIMCEN
 40
0.09
  9
$DIMTSZ
 40
0.0
  9
$DIMTOL
 70
     0
  9
$DIMLIM
 70
     0
  9
$DIMTIH
 70
     1
  9
$DIMTOH
 70
     1
  9
$DIMSE1
 70
     0
  9
$DIMSE2
 70
     0
  9
$DIMTAD
 70
     1
  9
$DIMZIN
 70
     0
  9
$DIMBLK
  1

  9
$DIMASO
 70
     1
  9
$DIMSHO
 70
     1
  9
$DIMPOST
  1

  9
$DIMAPOST
  1

  9
$DIMALT
 70
     0
  9
$DIMALTD
 70
     2
  9
$DIMALTF
 40
25.4
  9
$DIMLFAC
 40
1.0
  9
$DIMTOFL
 70
     0
  9
$DIMTVP
 40
0.0
  9
$DIMTIX
 70
     0
  9
$DIMSOXD
 70
     0
  9
$DIMSAH
 70
     0
  9
$DIMBLK1
  1

  9
$DIMBLK2
  1

  9
$LUNITS
 70
     2
  9
$LUPREC
 70
     4
  9
$SKETCHINC
 40
0.1
  9
$FILLETRAD
 40
0.5
  9
$AUNITS
 70
     0
  9
$AUPREC
 70
     0
  9
$MENU
  1
.
  9
$ELEVATION
 40
0.0
  9
$THICKNESS
 40
0.0
  9
$LIMCHECK
 70
     0
  9
$CHAMFERA
 40
0.0
  9
$CHAMFERB
 40
0.0
  9
$SKPOLY
 70
     0
  9
$TDCREATE
 40
2460258.587059896
  9
$TDUPDATE
 40
2460258.587060162
  9
$TDINDWG
 40
0.0000000116
  9
$TDUSRTIMER
 40
0.0000000116
  9
$USRTIMER
 70
     1
  9
$ANGBASE
 50
0.0
  9
$ANGDIR
 70
     0
  9
$PDMODE
 70
     0
  9
$PDSIZE
 40
0.0
  9
$PLINEWID
 40
0.0
  9
$COORDS
 70
     1
  9
$SPLFRAME
 70
     0
  9
$SPLINETYPE
 70
     6
  9
$SPLINESEGS
 70
     8
  9
$ATTDIA
 70
     0
  9
$ATTREQ
 70
     1
  9
$SURFTAB1
 70
     6
  9
$SURFTAB2
 70
     6
  9
$SURFTYPE
 70
     6
  9
$SURFU
 70
     6
  9
$SURFV
 70
     6
  9
$UCSNAME
  2

  9
$UCSORG
 10
0.0
 20
0.0
 30
0.0
  9
$UCSXDIR
 10
1.0
 20
0.0
 30
0.0
  9
$UCSYDIR
 10
0.0
 20
1.0
 30
0.0
  9
$USERI1
 70
     0
  9
$USERI2
 70
     0
  9
$USERI3
 70
     0
  9
$USERI4
 70
     0
  9
$USERI5
 70
     0
  9
$USERR1
 40
0.0
  9
$USERR2
 40
0.0
  9
$USERR3
 40
0.0
  9
$USERR4
 40
0.0
  9
$USERR5
 40
0.0
  9
$WORLDVIEW
 70
     1
  0
ENDSEC
  0
SECTION
  2
TABLES
  0
TABLE
  2
LTYPE
 70
     2
  0
LTYPE
  2
CONTINUOUS
 70
     0
  3
Solid line
 72
    65
 73
     0
 40
0.0
  0
LTYPE
  2
CENTER
 70
     0
  3

 72
    65
 73
     0
 40
0.0
  0
ENDTAB
  0
TABLE
  2
LAYER
 70
     1
  0
LAYER
  2
0
 70
     0
 62
     7
  6
CONTINUOUS
  0
ENDTAB
  0
TABLE
  2
STYLE
 70
     2
  0
STYLE
  2
STANDARD
 70
     0
 40
0.0
 41
1.0
 50
0.0
 71
     0
 42
0.2
  3
txt
  4

  0
STYLE
  2
ＭＳ_ゴシック
 70
     0
 40
0.0
 41
1.0
 50
0.0
 71
     0
 42
0.2
  3
ＭＳ ゴシック.shx
  4

  0
ENDTAB
  0
TABLE
  2
VIEW
 70
     0
  0
ENDTAB
  0
ENDSEC
  0
SECTION
  2
BLOCKS
  0
BLOCK
  8
0
  2
D_FRAME_DRAWING_17
 70
     0
 10
0.0
 20
0.0
  0
LINE
  8
0
  6
CONTINUOUS
 62
     7
 10
0.0
 20
0.0
 11
210.0
 21
0.0
  0
LINE
  8
0
  6
CONTINUOUS
 62
     7
 10
210.0
 20
0.0
 11
210.0
 21
297.0
  0
LINE
  8
0
  6
CONTINUOUS
 62
     7
 10
210.0
 20
297.0
 11
0.0
 21
297.0
  0
LINE
  8
0
  6
CONTINUOUS
 62
     7
 10
0.0
 20
297.0
 11
0.0
 21
0.0
  0
ENDBLK
  8
0
  0
BLOCK
  8
0
  2
D_FRAME_VIEW_2296
 70
     0
 10
0.0
 20
0.0
  0
LINE
  8
0
  6
CONTINUOUS
 62
     7
 10
456.45
 20
273.0316055508434
 11
456.45
 21
312.0316055508434
  0
LINE
  8
0
  6
CONTINUOUS
 62
     7
 10
456.45
 20
312.0316055508434
 11
456.45
 21
320.0316055508434
  0
LINE
  8
0
  6
CONTINUOUS
 62
     7
 10
456.45
 20
320.0316055508434
 11
456.45
 21
337.5585174854245
  0
LINE
  8
0
  6
CONTINUOUS
 62
     7
 10
543.55
 20
273.0316055508434
 11
543.55
 21
312.0316055508434
  0
LINE
  8
0
  6
CONTINUOUS
 62
     7
 10
543.55
 20
312.0316055508434
 11
543.55
 21
320.0316055508434
  0
LINE
  8
0
  6
CONTINUOUS
 62
     7
 10
543.55
 20
320.0316055508434
 11
543.55
 21
337.5585174854245
  0
LINE
  8
0
  6
CONTINUOUS
 62
     7
 10
543.55
 20
354.5671394567761
 11
543.55
 21
341.0940513913573
  0
LINE
  8
0
  6
CONTINUOUS
 62
     7
 10
456.45
 20
354.5671394567761
 11
456.45
 21
341.0940513913573
  0
LINE
  8
0
  6
CONTINUOUS
 62
     7
 10
457.6535416853138
 20
351.0204582625501
 11
465.2645184220369
 21
351.0204582625501
  0
LINE
  8
0
  6
CONTINUOUS
 62
     7
 10
457.6111729005786
 20
355.1830091095035
 11
465.2068874629784
 21
356.5716937623321
  0
LINE
  8
0
  6
CONTINUOUS
 62
     9
 10
466.4035052185206
 20
351.0204582625502
 11
466.3788658862041
 21
356.6773125120425
  0
LINE
  8
0
  6
CONTINUOUS
 62
     7
 10
465.2647362465435
 20
351.0204582625501
 11
466.4033357720286
 21
351.0204582625502
  0
LINE
  8
0
  6
CONTINUOUS
 62
     7
 10
465.2066874153488
 20
356.5716571447867
 11
466.3788658862041
 21
356.6773125118968
  0
LINE
  8
0
  6
CONTINUOUS
 62
     7
 10
533.5966642279715
 20
351.0204582625502
 11
534.7352637534565
 21
351.0204582625502
  0
LINE
  8
0
  6
CONTINUOUS
 62
     9
 10
533.621134113796
 20
356.6773125120425
 11
533.5964947814794
 21
351.0204582625502
  0
LINE
  8
0
  6
CONTINUOUS
 62
     7
 10
533.6211341156169
 20
356.6773123936959
 11
534.7933125856108
 21
356.5716571761736
  0
LINE
  8
0
  6
CONTINUOUS
 62
     7
 10
534.7931125370216
 20
356.5716937623321
 11
542.3888270994214
 21
355.1830091095035
  0
LINE
  8
0
  6
CONTINUOUS
 62
     7
 10
534.7354815779631
 20
351.0204582625502
 11
542.3464583146861
 21
351.0204582625502
  0
LINE
  8
0
  6
CONTINUOUS
 62
     7
 10
464.5182421466287
 20
273.1730921454572
 11
465.5333960559843
 21
273.0444678148434
  0
LINE
  8
0
  6
CONTINUOUS
 62
     7
 10
465.5333960559843
 20
273.0444678148437
 11
465.6976983626163
 21
273.0316055508434
  0
LINE
  8
0
  6
CONTINUOUS
 62
     9
 10
466.5996402950473
 20
268.5218958886888
 11
465.6976983626164
 21
273.0316055508434
  0
LINE
  8
0
  6
CONTINUOUS
 62
     7
 10
466.5996402950473
 20
268.5218958886888
 11
466.5943974442414
 21
268.5218932411057
  0
LINE
  8
0
  6
CONTINUOUS
 62
     9
 10
465.5333960559843
 20
273.0444678148434
 11
466.4033357720286
 21
308.2804613546831
  0
LINE
  8
0
  6
CONTINUOUS
 62
     7
 10
464.5182421466287
 20
273.1730921454572
 11
464.3911971015811
 21
273.1800217762848
  0
LINE
  8
0
  6
CONTINUOUS
 62
     7
 10
535.6088028984188
 20
273.1800217762848
 11
535.4817578533713
 21
273.1730921454572
  0
LINE
  8
0
  6
CONTINUOUS
 62
     7
 10
534.4666039440157
 20
273.0444678148434
 11
535.4817578533713
 21
273.1730921454572
  0
LINE
  8
0
  6
CONTINUOUS
 62
     9
 10
533.5966642279715
 20
308.2804613546852
 11
534.4666039440157
 21
273.0444678148434
  0
LINE
  8
0
  6
CONTINUOUS
 62
     7
 10
533.4056025557585
 20
268.5218932411056
 11
533.4003597049527
 21
268.5218958886888
  0
LINE
  8
0
  6
CONTINUOUS
 62
     9
 10
534.3023016373837
 20
273.0316055508434
 11
533.4003597049527
 21
268.5218958886888
  0
LINE
  8
0
  6
CONTINUOUS
 62
     7
 10
534.3023016373837
 20
273.0316055508433
 11
534.4666039440158
 21
273.0444678148436
  0
LINE
  8
0
  6
CONTINUOUS
 62
     9
 10
466.4033357720286
 20
308.2804613546831
 11
466.4033357720286
 21
351.0204582625502
  0
LINE
  8
0
  6
CONTINUOUS
 62
     9
 10
466.4034204952746
 20
351.0204582625502
 11
533.5965795047254
 21
351.0204582625502
  0
LINE
  8
0
  6
CONTINUOUS
 62
     9
 10
533.6211568206043
 20
356.6773125120425
 11
466.3788431793956
 21
356.6773125120425
  0
LINE
  8
0
  6
CONTINUOUS
 62
     7
 10
534.3023016373837
 20
273.0316055508434
 11
465.6976983626164
 21
273.0316055508434
  0
LINE
  8
0
  6
CONTINUOUS
 62
     9
 10
533.5966642279715
 20
351.0204582625502
 11
533.5966642279715
 21
308.2804613546852
  0
LINE
  8
0
  6
CONTINUOUS
 62
     7
 10
535.6088028984188
 20
273.1800217762848
 11
543.1606851089762
 21
273.1821624587668
  0
LINE
  8
0
  6
CONTINUOUS
 62
     7
 10
543.1606851089762
 20
273.1821624587668
 11
543.2033573380893
 21
273.1742644819851
  0
LINE
  8
0
  6
CONTINUOUS
 62
     7
 10
456.7966426619107
 20
273.174264481985
 11
456.8393148910238
 21
273.1821624587667
  0
LINE
  8
0
  6
CONTINUOUS
 62
     7
 10
456.8393148910238
 20
273.1821624587667
 11
464.3911971015812
 21
273.1800217762848
  0
LINE
  8
0
  6
CONTINUOUS
 62
     9
 10
533.4056025557585
 20
268.5218932411057
 11
533.230874300698
 21
268.0316055508434
  0
LINE
  8
0
  6
CONTINUOUS
 62
     7
 10
533.230874300698
 20
268.0316055508434
 11
534.3994532685834
 21
268.0316055508434
  0
LINE
  8
0
  6
CONTINUOUS
 62
     9
 10
466.7691256993018
 20
268.0316055508434
 11
466.5943974442414
 21
268.5218932411056
  0
LINE
  8
0
  6
CONTINUOUS
 62
     7
 10
465.6005467314166
 20
268.0316055508434
 11
466.7691256993018
 21
268.0316055508434
  0
LINE
  8
0
  6
CONTINUOUS
 62
     7
 10
466.7691256993018
 20
268.0316055508434
 11
533.2308743006981
 21
268.0316055508434
  0
LINE
  8
0
  6
CONTINUOUS
 62
     7
 10
534.3994532685834
 20
268.0316055508434
 11
541.6680216200806
 21
268.0316055508434
  0
LINE
  8
0
  6
CONTINUOUS
 62
     7
 10
458.3319783799193
 20
268.0316055508434
 11
465.6005467314166
 21
268.0316055508434
  0
LINE
  8
0
  6
CONTINUOUS
 62
     7
 10
457.2675529800134
 20
351.0204582625501
 11
457.6535407110194
 21
351.0204582625501
  0
POLYLINE
  8
0
  6
CONTINUOUS
 62
     7
 66
     1
  0
VERTEX
  8
0
  6
CONTINUOUS
 62
     7
 10
457.2285153000114
 20
354.8393397993932
  0
VERTEX
  8
0
  6
CONTINUOUS
 62
     7
 10
457.2294770576676
 20
354.856013567355
  0
VERTEX
  8
0
  6
CONTINUOUS
 62
     7
 10
457.2315419732929
 20
354.8726505704198
  0
VERTEX
  8
0
  6
CONTINUOUS
 62
     7
 10
457.2347054780954
 20
354.8892141314165
  0
VERTEX
  8
0
  6
CONTINUOUS
 62
     7
 10
457.2389605740292
 20
354.9056677355723
  0
VERTEX
  8
0
  6
CONTINUOUS
 62
     7
 10
457.2442978492688
 20
354.9219751112569
  0
VERTEX
  8
0
  6
CONTINUOUS
 62
     7
 10
457.2507054990213
 20
354.9381003101871
  0
VERTEX
  8
0
  6
CONTINUOUS
 62
     7
 10
457.2581693516291
 20
354.954007786918
  0
VERTEX
  8
0
  6
CONTINUOUS
 62
     7
 10
457.2666728999079
 20
354.9696624774426
  0
VERTEX
  8
0
  6
CONTINUOUS
 62
     7
 10
457.2761973376471
 20
354.9850298767271
  0
VERTEX
  8
0
  6
CONTINUOUS
 62
     7
 10
457.286721601196
 20
355.0000761150101
  0
VERTEX
  8
0
  6
CONTINUOUS
 62
     7
 10
457.29822241604
 20
355.014768032697
  0
VERTEX
  8
0
  6
CONTINUOUS
 62
     7
 10
457.310674348267
 20
355.0290732536843
  0
VERTEX
  8
0
  6
CONTINUOUS
 62
     7
 10
457.3240498608074
 20
355.0429602569508
  0
VERTEX
  8
0
  6
CONTINUOUS
 62
     7
 10
457.3383193743262
 20
355.0563984462592
  0
VERTEX
  8
0
  6
CONTINUOUS
 62
     7
 10
457.3534513326296
 20
355.0693582178109
  0
VERTEX
  8
0
  6
CONTINUOUS
 62
     7
 10
457.3694122724439
 20
355.0818110257086
  0
VERTEX
  8
0
  6
CONTINUOUS
 62
     7
 10
457.3861668974109
 20
355.0937294450773
  0
VERTEX
  8
0
  6
CONTINUOUS
 62
     7
 10
457.4036781561376
 20
355.105087232708
  0
VERTEX
  8
0
  6
CONTINUOUS
 62
     7
 10
457.421907324125
 20
355.1158593850881
  0
VERTEX
  8
0
  6
CONTINUOUS
 62
     7
 10
457.4408140893984
 20
355.1260221936902
  0
VERTEX
  8
0
  6
CONTINUOUS
 62
     7
 10
457.4603566416471
 20
355.1355532973974
  0
VERTEX
  8
0
  6
CONTINUOUS
 62
     7
 10
457.480491764677
 20
355.1444317319495
  0
VERTEX
  8
0
  6
CONTINUOUS
 62
     7
 10
457.5011749319726
 20
355.1526379763004
  0
VERTEX
  8
0
  6
CONTINUOUS
 62
     7
 10
457.5223604051562
 20
355.1601539957834
  0
VERTEX
  8
0
  6
CONTINUOUS
 62
     7
 10
457.5440013351272
 20
355.1669632819908
  0
VERTEX
  8
0
  6
CONTINUOUS
 62
     7
 10
457.5660498656563
 20
355.173050889278
  0
VERTEX
  8
0
  6
CONTINUOUS
 62
     7
 10
457.5884572392083
 20
355.178403467812
  0
VERTEX
  8
0
  6
CONTINUOUS
 62
     7
 10
457.6111739047564
 20
355.1830092930913
  0
SEQEND
  8
0
  6
CONTINUOUS
 62
     7
  0
LINE
  8
0
  6
CONTINUOUS
 62
     7
 10
542.3464592889806
 20
351.0204582625502
 11
542.7324470199866
 21
351.0204582625501
  0
POLYLINE
  8
0
  6
CONTINUOUS
 62
     7
 66
     1
  0
VERTEX
  8
0
  6
CONTINUOUS
 62
     7
 10
542.3888260952436
 20
355.1830092930913
  0
VERTEX
  8
0
  6
CONTINUOUS
 62
     7
 10
542.4115427607917
 20
355.178403467812
  0
VERTEX
  8
0
  6
CONTINUOUS
 62
     7
 10
542.4339501343437
 20
355.173050889278
  0
VERTEX
  8
0
  6
CONTINUOUS
 62
     7
 10
542.4559986648728
 20
355.1669632819908
  0
VERTEX
  8
0
  6
CONTINUOUS
 62
     7
 10
542.4776395948437
 20
355.1601539957833
  0
VERTEX
  8
0
  6
CONTINUOUS
 62
     7
 10
542.4988250680275
 20
355.1526379763004
  0
VERTEX
  8
0
  6
CONTINUOUS
 62
     7
 10
542.519508235323
 20
355.1444317319495
  0
VERTEX
  8
0
  6
CONTINUOUS
 62
     7
 10
542.5396433583529
 20
355.1355532973974
  0
VERTEX
  8
0
  6
CONTINUOUS
 62
     7
 10
542.5591859106016
 20
355.1260221936902
  0
VERTEX
  8
0
  6
CONTINUOUS
 62
     7
 10
542.5780926758749
 20
355.1158593850881
  0
VERTEX
  8
0
  6
CONTINUOUS
 62
     7
 10
542.5963218438624
 20
355.105087232708
  0
VERTEX
  8
0
  6
CONTINUOUS
 62
     7
 10
542.6138331025891
 20
355.0937294450773
  0
VERTEX
  8
0
  6
CONTINUOUS
 62
     7
 10
542.6305877275561
 20
355.0818110257086
  0
VERTEX
  8
0
  6
CONTINUOUS
 62
     7
 10
542.6465486673703
 20
355.0693582178109
  0
VERTEX
  8
0
  6
CONTINUOUS
 62
     7
 10
542.6616806256737
 20
355.0563984462592
  0
VERTEX
  8
0
  6
CONTINUOUS
 62
     7
 10
542.6759501391925
 20
355.0429602569508
  0
VERTEX
  8
0
  6
CONTINUOUS
 62
     7
 10
542.689325651733
 20
355.0290732536842
  0
VERTEX
  8
0
  6
CONTINUOUS
 62
     7
 10
542.7017775839599
 20
355.014768032697
  0
VERTEX
  8
0
  6
CONTINUOUS
 62
     7
 10
542.713278398804
 20
355.0000761150101
  0
VERTEX
  8
0
  6
CONTINUOUS
 62
     7
 10
542.7238026623529
 20
354.9850298767271
  0
VERTEX
  8
0
  6
CONTINUOUS
 62
     7
 10
542.7333271000921
 20
354.9696624774426
  0
VERTEX
  8
0
  6
CONTINUOUS
 62
     7
 10
542.7418306483709
 20
354.954007786918
  0
VERTEX
  8
0
  6
CONTINUOUS
 62
     7
 10
542.7492945009787
 20
354.9381003101871
  0
VERTEX
  8
0
  6
CONTINUOUS
 62
     7
 10
542.7557021507312
 20
354.9219751112569
  0
VERTEX
  8
0
  6
CONTINUOUS
 62
     7
 10
542.7610394259708
 20
354.9056677355723
  0
VERTEX
  8
0
  6
CONTINUOUS
 62
     7
 10
542.7652945219046
 20
354.8892141314165
  0
VERTEX
  8
0
  6
CONTINUOUS
 62
     7
 10
542.7684580267071
 20
354.8726505704198
  0
VERTEX
  8
0
  6
CONTINUOUS
 62
     7
 10
542.7705229423324
 20
354.856013567355
  0
VERTEX
  8
0
  6
CONTINUOUS
 62
     7
 10
542.7714846999886
 20
354.8393397993932
  0
SEQEND
  8
0
  6
CONTINUOUS
 62
     7
  0
LINE
  8
0
  6
CONTINUOUS
 62
     7
 10
543.2033573380893
 20
273.1742644819851
 11
543.5499024977432
 21
273.0355547772396
  0
LINE
  8
0
  6
CONTINUOUS
 62
     7
 10
542.7326971488314
 20
306.1355982215325
 11
542.7324470199866
 21
306.1415703543553
  0
LINE
  8
0
  6
CONTINUOUS
 62
     7
 10
456.4500975022568
 20
273.0355547772396
 11
456.7966426619107
 21
273.174264481985
  0
LINE
  8
0
  6
CONTINUOUS
 62
     7
 10
456.45
 20
273.0316055508434
 11
457.3519312654284
 21
268.5219492237015
  0
LINE
  8
0
  6
CONTINUOUS
 62
     7
 10
456.4500975022568
 20
273.0355547772402
 11
456.45
 21
273.0316055508434
  0
LINE
  8
0
  6
CONTINUOUS
 62
     7
 10
543.55
 20
273.0316055508434
 11
543.5499024977432
 21
273.0355547772402
  0
LINE
  8
0
  6
CONTINUOUS
 62
     7
 10
542.6480687345716
 20
268.5219492237015
 11
543.55
 21
273.0316055508433
  0
LINE
  8
0
  6
CONTINUOUS
 62
     7
 10
456.45
 20
273.0316055508434
 11
456.45
 21
312.0316055508434
  0
LINE
  8
0
  6
CONTINUOUS
 62
     7
 10
456.45
 20
320.0316055508434
 11
456.45
 21
337.5585174854246
  0
LINE
  8
0
  6
CONTINUOUS
 62
     7
 10
456.45
 20
337.5585174854246
 11
456.4421603624413
 21
339.3119522517665
  0
LINE
  8
0
  6
CONTINUOUS
 62
     7
 10
543.5578396375587
 20
339.3119522517665
 11
543.55
 21
337.5585174854246
  0
LINE
  8
0
  6
CONTINUOUS
 62
     7
 10
543.55
 20
320.0316055508434
 11
543.55
 21
337.5585174854246
  0
LINE
  8
0
  6
CONTINUOUS
 62
     7
 10
543.55
 20
273.0316055508434
 11
543.55
 21
312.0316055508434
  0
LINE
  8
0
  6
CONTINUOUS
 62
     9
 10
534.0225125877147
 20
372.9328861561891
 11
533.6211795274127
 21
356.6773125120425
  0
LINE
  8
0
  6
CONTINUOUS
 62
     9
 10
466.3788204725873
 20
356.6773125120425
 11
465.9774874122853
 21
372.9328861561891
  0
LINE
  8
0
  6
CONTINUOUS
 62
     9
 10
534.0225125877147
 20
372.9328861561891
 11
533.6211795274127
 21
389.1884598003357
  0
LINE
  8
0
  6
CONTINUOUS
 62
     9
 10
466.3788204725873
 20
389.1884598003357
 11
465.9774874122853
 21
372.9328861561891
  0
LINE
  8
0
  6
CONTINUOUS
 62
     7
 10
457.3519419324309
 20
268.5218958886888
 11
457.95
 21
268.0316055508434
  0
POLYLINE
  8
0
  6
CONTINUOUS
 62
     7
 10
0.0
 20
0.0
 30
0.0
 66
     1
 70
     8
  0
VERTEX
  8
0
  6
CONTINUOUS
 62
     7
 10
457.3519312654284
 20
268.5219492237015
 30
0.0
 70
    32
  0
VERTEX
  8
0
  6
CONTINUOUS
 62
     7
 10
457.3519419324309
 20
268.5218958886888
 30
0.0
 70
    32
  0
SEQEND
  8
0
  6
CONTINUOUS
 62
     7
  0
LINE
  8
0
  6
CONTINUOUS
 62
     7
 10
457.95
 20
268.0316055508434
 11
458.3319783799193
 21
268.0316055508434
  0
LINE
  8
0
  6
CONTINUOUS
 62
     7
 10
542.0500000000001
 20
268.0316055508434
 11
542.6480580675691
 21
268.5218958886888
  0
POLYLINE
  8
0
  6
CONTINUOUS
 62
     7
 10
0.0
 20
0.0
 30
0.0
 66
     1
 70
     8
  0
VERTEX
  8
0
  6
CONTINUOUS
 62
     7
 10
542.6480580675691
 20
268.5218958886888
 30
0.0
 70
    32
  0
VERTEX
  8
0
  6
CONTINUOUS
 62
     7
 10
542.6480687345716
 20
268.5219492237015
 30
0.0
 70
    32
  0
SEQEND
  8
0
  6
CONTINUOUS
 62
     7
  0
LINE
  8
0
  6
CONTINUOUS
 62
     7
 10
541.6680216200806
 20
268.0316055508434
 11
542.0500000000001
 21
268.0316055508434
  0
POLYLINE
  8
0
  6
CONTINUOUS
 62
     7
 66
     1
  0
VERTEX
  8
0
  6
CONTINUOUS
 62
     7
 10
456.45
 20
354.567139456776
  0
VERTEX
  8
0
  6
CONTINUOUS
 62
     7
 10
456.4480175756186
 20
355.2361079702055
  0
VERTEX
  8
0
  6
CONTINUOUS
 62
     7
 10
456.4421603624414
 20
355.7140692741607
  0
SEQEND
  8
0
  6
CONTINUOUS
 62
     7
  0
POLYLINE
  8
0
  6
CONTINUOUS
 62
     7
 66
     1
  0
VERTEX
  8
0
  6
CONTINUOUS
 62
     7
 10
456.4421603624414
 20
339.3119522517665
  0
VERTEX
  8
0
  6
CONTINUOUS
 62
     7
 10
456.4480175756186
 20
340.264466377325
  0
VERTEX
  8
0
  6
CONTINUOUS
 62
     7
 10
456.45
 20
341.0940513913573
  0
SEQEND
  8
0
  6
CONTINUOUS
 62
     7
  0
LINE
  8
0
  6
CONTINUOUS
 62
     7
 10
456.45
 20
354.5671394567761
 11
456.45
 21
341.0940513913573
  0
POLYLINE
  8
0
  6
CONTINUOUS
 62
     7
 66
     1
  0
VERTEX
  8
0
  6
CONTINUOUS
 62
     7
 10
543.5578396375587
 20
355.7140692741608
  0
VERTEX
  8
0
  6
CONTINUOUS
 62
     7
 10
543.5519824243813
 20
355.2361079702056
  0
VERTEX
  8
0
  6
CONTINUOUS
 62
     7
 10
543.55
 20
354.5671394567761
  0
SEQEND
  8
0
  6
CONTINUOUS
 62
     7
  0
LINE
  8
0
  6
CONTINUOUS
 62
     7
 10
543.55
 20
354.5671394567761
 11
543.55
 21
341.0940513913573
  0
POLYLINE
  8
0
  6
CONTINUOUS
 62
     7
 66
     1
  0
VERTEX
  8
0
  6
CONTINUOUS
 62
     7
 10
543.55
 20
341.0940513913574
  0
VERTEX
  8
0
  6
CONTINUOUS
 62
     7
 10
543.5519824243814
 20
340.264466377325
  0
VERTEX
  8
0
  6
CONTINUOUS
 62
     7
 10
543.5578396375587
 20
339.3119522517665
  0
SEQEND
  8
0
  6
CONTINUOUS
 62
     7
  0
LINE
  8
0
  6
CONTINUOUS
 62
     9
 10
533.621134113796
 20
389.1884598003357
 11
533.5964947814794
 21
391.5316055508434
  0
LINE
  8
0
  6
CONTINUOUS
 62
     9
 10
466.4035052185206
 20
391.5316055508434
 11
466.3788658862041
 21
389.1884598003357
  0
LINE
  8
0
  6
CONTINUOUS
 62
     7
 10
466.4034204952746
 20
391.5316055508434
 11
533.5965795047254
 21
391.5316055508434
  0
LINE
  8
0
  6
CONTINUOUS
 62
     7
 10
534.4666039440157
 20
391.5316055508434
 11
535.4817578533713
 21
391.4268723178474
  0
LINE
  8
0
  6
CONTINUOUS
 62
     7
 10
535.6088028984188
 20
391.3986913925113
 11
535.4817578533713
 21
391.4268723178474
  0
LINE
  8
0
  6
CONTINUOUS
 62
     7
 10
533.5966642279715
 20
391.5316055508434
 11
534.4666039440157
 21
391.5316055508434
  0
LINE
  8
0
  6
CONTINUOUS
 62
     7
 10
464.5182421466287
 20
391.4268723178474
 11
464.3911971015812
 21
391.3986913925112
  0
LINE
  8
0
  6
CONTINUOUS
 62
     7
 10
464.5182421466287
 20
391.4268723178474
 11
465.5333960559843
 21
391.5316055508434
  0
LINE
  8
0
  6
CONTINUOUS
 62
     7
 10
465.5333960559843
 20
391.5316055508434
 11
466.4033357720286
 21
391.5316055508434
  0
LINE
  8
0
  6
CONTINUOUS
 62
     7
 10
456.8393148910238
 20
389.6223068056992
 11
464.3911971015812
 21
391.3986913925112
  0
LINE
  8
0
  6
CONTINUOUS
 62
     7
 10
535.6088028984188
 20
391.3986913925112
 11
543.1606851089762
 21
389.6223068056992
  0
LINE
  8
0
  6
CONTINUOUS
 62
     7
 10
543.1606851089762
 20
389.6223068056992
 11
543.2033573380894
 21
389.61031501635
  0
POLYLINE
  8
0
  6
CONTINUOUS
 62
     7
 66
     1
  0
VERTEX
  8
0
  6
CONTINUOUS
 62
     7
 10
543.2033573380894
 20
389.61031501635
  0
VERTEX
  8
0
  6
CONTINUOUS
 62
     7
 10
543.221145657075
 20
389.6041190955773
  0
VERTEX
  8
0
  6
CONTINUOUS
 62
     7
 10
543.2387923651874
 20
389.5972245570302
  0
VERTEX
  8
0
  6
CONTINUOUS
 62
     7
 10
543.2562438818209
 20
389.5896399744461
  0
VERTEX
  8
0
  6
CONTINUOUS
 62
     7
 10
543.2736425470737
 20
389.5812779748349
  0
VERTEX
  8
0
  6
CONTINUOUS
 62
     7
 10
543.2907780005066
 20
389.5722191152105
  0
VERTEX
  8
0
  6
CONTINUOUS
 62
     7
 10
543.3076008761408
 20
389.5624800338352
  0
VERTEX
  8
0
  6
CONTINUOUS
 62
     7
 10
543.3207943688308
 20
389.5542164712047
  0
VERTEX
  8
0
  6
CONTINUOUS
 62
     7
 10
543.3337529754533
 20
389.5455305844967
  0
VERTEX
  8
0
  6
CONTINUOUS
 62
     7
 10
543.3549708671734
 20
389.5299899918632
  0
VERTEX
  8
0
  6
CONTINUOUS
 62
     7
 10
543.3754023325802
 20
389.5133155900467
  0
VERTEX
  8
0
  6
CONTINUOUS
 62
     7
 10
543.3913777507615
 20
389.4989574697183
  0
VERTEX
  8
0
  6
CONTINUOUS
 62
     7
 10
543.406749680784
 20
389.4839047830066
  0
VERTEX
  8
0
  6
CONTINUOUS
 62
     7
 10
543.4216268324717
 20
389.468023781912
  0
VERTEX
  8
0
  6
CONTINUOUS
 62
     7
 10
543.4358190301836
 20
389.4514926023704
  0
VERTEX
  8
0
  6
CONTINUOUS
 62
     7
 10
543.4456363885859
 20
389.439151092381
  0
VERTEX
  8
0
  6
CONTINUOUS
 62
     7
 10
543.4550671974808
 20
389.4264988480869
  0
VERTEX
  8
0
  6
CONTINUOUS
 62
     7
 10
543.4700252364083
 20
389.4045555612078
  0
VERTEX
  8
0
  6
CONTINUOUS
 62
     7
 10
543.483811100271
 20
389.3818358993587
  0
VERTEX
  8
0
  6
CONTINUOUS
 62
     7
 10
543.4924694517554
 20
389.3660198512804
  0
VERTEX
  8
0
  6
CONTINUOUS
 62
     7
 10
543.500558102683
 20
389.3498949470051
  0
VERTEX
  8
0
  6
CONTINUOUS
 62
     7
 10
543.5080603983313
 20
389.3334940074232
  0
VERTEX
  8
0
  6
CONTINUOUS
 62
     7
 10
543.5143603289495
 20
389.31836964899
  0
VERTEX
  8
0
  6
CONTINUOUS
 62
     7
 10
543.5201624006907
 20
389.303050449248
  0
VERTEX
  8
0
  6
CONTINUOUS
 62
     7
 10
543.5252855151969
 20
389.288092284304
  0
VERTEX
  8
0
  6
CONTINUOUS
 62
     7
 10
543.5299334613978
 20
389.2729865797331
  0
VERTEX
  8
0
  6
CONTINUOUS
 62
     7
 10
543.534573235797
 20
389.2558972071722
  0
VERTEX
  8
0
  6
CONTINUOUS
 62
     7
 10
543.5386065763305
 20
389.2386641148633
  0
VERTEX
  8
0
  6
CONTINUOUS
 62
     7
 10
543.5420271353382
 20
389.2213236128687
  0
VERTEX
  8
0
  6
CONTINUOUS
 62
     7
 10
543.5453655017624
 20
389.2000652321062
  0
VERTEX
  8
0
  6
CONTINUOUS
 62
     7
 10
543.5477890068444
 20
389.1787288969518
  0
VERTEX
  8
0
  6
CONTINUOUS
 62
     7
 10
543.5493087899289
 20
389.157148263285
  0
VERTEX
  8
0
  6
CONTINUOUS
 62
     7
 10
543.5499024977432
 20
389.1355982215323
  0
SEQEND
  8
0
  6
CONTINUOUS
 62
     7
  0
POLYLINE
  8
0
  6
CONTINUOUS
 62
     7
 66
     1
  0
VERTEX
  8
0
  6
CONTINUOUS
 62
     7
 10
456.4500975022568
 20
389.1355982215323
  0
VERTEX
  8
0
  6
CONTINUOUS
 62
     7
 10
456.4506577636652
 20
389.1564368560543
  0
VERTEX
  8
0
  6
CONTINUOUS
 62
     7
 10
456.4520841299569
 20
389.177315550426
  0
VERTEX
  8
0
  6
CONTINUOUS
 62
     7
 10
456.4543807888177
 20
389.1981639062333
  0
VERTEX
  8
0
  6
CONTINUOUS
 62
     7
 10
456.457611714853
 20
389.2192806068303
  0
VERTEX
  8
0
  6
CONTINUOUS
 62
     7
 10
456.4617430974322
 20
389.2402758078564
  0
VERTEX
  8
0
  6
CONTINUOUS
 62
     7
 10
456.4668517733123
 20
389.2614058064393
  0
VERTEX
  8
0
  6
CONTINUOUS
 62
     7
 10
456.472875141013
 20
389.28231458164
  0
VERTEX
  8
0
  6
CONTINUOUS
 62
     7
 10
456.4798375993093
 20
389.303050449248
  0
VERTEX
  8
0
  6
CONTINUOUS
 62
     7
 10
456.4874110718211
 20
389.3227630812208
  0
VERTEX
  8
0
  6
CONTINUOUS
 62
     7
 10
456.4958117547841
 20
389.3421517708368
  0
VERTEX
  8
0
  6
CONTINUOUS
 62
     7
 10
456.5050164267056
 20
389.3611617951694
  0
VERTEX
  8
0
  6
CONTINUOUS
 62
     7
 10
456.5151774761597
 20
389.3800559037772
  0
VERTEX
  8
0
  6
CONTINUOUS
 62
     7
 10
456.526132820038
 20
389.3984922250543
  0
VERTEX
  8
0
  6
CONTINUOUS
 62
     7
 10
456.5380529327629
 20
389.4167138169436
  0
VERTEX
  8
0
  6
CONTINUOUS
 62
     7
 10
456.5507488317455
 20
389.4343976482326
  0
VERTEX
  8
0
  6
CONTINUOUS
 62
     7
 10
456.5641809698166
 20
389.4514926023704
  0
VERTEX
  8
0
  6
CONTINUOUS
 62
     7
 10
456.5779018582495
 20
389.4674966092023
  0
VERTEX
  8
0
  6
CONTINUOUS
 62
     7
 10
456.592270995992
 20
389.4828997193216
  0
VERTEX
  8
0
  6
CONTINUOUS
 62
     7
 10
456.6072453209486
 20
389.4976611580475
  0
VERTEX
  8
0
  6
CONTINUOUS
 62
     7
 10
456.6230531492995
 20
389.5119802393778
  0
VERTEX
  8
0
  6
CONTINUOUS
 62
     7
 10
456.639423383847
 20
389.5255916590796
  0
VERTEX
  8
0
  6
CONTINUOUS
 62
     7
 10
456.6565681118818
 20
389.5386525222513
  0
VERTEX
  8
0
  6
CONTINUOUS
 62
     7
 10
456.6742125982612
 20
389.5509385567652
  0
VERTEX
  8
0
  6
CONTINUOUS
 62
     7
 10
456.6923991238592
 20
389.5624800338352
  0
VERTEX
  8
0
  6
CONTINUOUS
 62
     7
 10
456.7048166062359
 20
389.5697526230907
  0
VERTEX
  8
0
  6
CONTINUOUS
 62
     7
 10
456.7174068988579
 20
389.5766521903591
  0
VERTEX
  8
0
  6
CONTINUOUS
 62
     7
 10
456.7345814052889
 20
389.5853322018322
  0
VERTEX
  8
0
  6
CONTINUOUS
 62
     7
 10
456.7520117873549
 20
389.5933249622316
  0
VERTEX
  8
0
  6
CONTINUOUS
 62
     7
 10
456.7696467622155
 20
389.6006176976528
  0
VERTEX
  8
0
  6
CONTINUOUS
 62
     7
 10
456.7831046419402
 20
389.605667840975
  0
VERTEX
  8
0
  6
CONTINUOUS
 62
     7
 10
456.7966426619107
 20
389.61031501635
  0
SEQEND
  8
0
  6
CONTINUOUS
 62
     7
  0
LINE
  8
0
  6
CONTINUOUS
 62
     7
 10
456.7966426619107
 20
389.61031501635
 11
456.8393148910238
 21
389.6223068056992
  0
LINE
  8
0
  6
CONTINUOUS
 62
     7
 10
543.55
 20
389.1047959474681
 11
543.5499024977432
 21
389.1355982215325
  0
LINE
  8
0
  6
CONTINUOUS
 62
     7
 10
543.55
 20
356.0316055508433
 11
543.55
 21
389.1047959474681
  0
LINE
  8
0
  6
CONTINUOUS
 62
     7
 10
456.45
 20
389.1047959474681
 11
456.45
 21
356.0316055508433
  0
LINE
  8
0
  6
CONTINUOUS
 62
     7
 10
456.4500975022568
 20
389.1355982215325
 11
456.45
 21
389.1047959474681
  0
ENDBLK
  8
0
  0
BLOCK
  8
0
  2
D_FRAME_VIEW_2012
 70
     0
 10
0.0
 20
0.0
  0
LINE
  8
0
  6
CONTINUOUS
 62
     7
 10
457.9504570885808
 20
141.0316055508434
 11
457.95
 21
141.0316055508434
  0
LINE
  8
0
  6
CONTINUOUS
 62
     7
 10
458.0435074038285
 20
113.0316055508434
 11
458.6417477150732
 21
113.0316055508434
  0
LINE
  8
0
  6
CONTINUOUS
 62
     7
 10
542.05
 20
141.0316055508434
 11
542.0495429114192
 21
141.0316055508434
  0
LINE
  8
0
  6
CONTINUOUS
 62
     7
 10
541.3582522849267
 20
113.0316055508434
 11
541.9564925961713
 21
113.0316055508434
  0
LINE
  8
0
  6
CONTINUOUS
 62
     7
 10
459.25
 20
141.0316055508434
 11
457.9504570885808
 21
141.0316055508434
  0
LINE
  8
0
  6
CONTINUOUS
 62
     7
 10
459.5955794936387
 20
113.0316055508434
 11
459.25
 21
141.0316055508434
  0
LINE
  8
0
  6
CONTINUOUS
 62
     7
 10
459.5955794936387
 20
113.0316055508434
 11
458.6417477150732
 21
113.0316055508434
  0
LINE
  8
0
  6
CONTINUOUS
 62
     7
 10
542.0495429114192
 20
141.0316055508434
 11
540.7499999999999
 21
141.0316055508434
  0
LINE
  8
0
  6
CONTINUOUS
 62
     7
 10
540.4044205063611
 20
113.0316055508434
 11
540.7499999999999
 21
141.0316055508434
  0
LINE
  8
0
  6
CONTINUOUS
 62
     7
 10
541.3582522849267
 20
113.0316055508434
 11
540.4044205063611
 21
113.0316055508434
  0
LINE
  8
0
  6
CONTINUOUS
 62
     7
 10
541.9564925961714
 20
113.0316055508434
 11
542.8587093735075
 21
113.0316055508434
  0
LINE
  8
0
  6
CONTINUOUS
 62
     7
 10
457.1412906264924
 20
113.0316055508434
 11
458.0435074038285
 21
113.0316055508434
  0
LINE
  8
0
  6
CONTINUOUS
 62
     7
 10
486.3235056119674
 20
117.5643543167791
 11
485.5373124579086
 21
116.8343483646731
  0
LINE
  8
0
  6
CONTINUOUS
 62
     7
 10
513.6764943880326
 20
117.5643543167791
 11
514.4626875420913
 21
116.8343483646731
  0
LINE
  8
0
  6
CONTINUOUS
 62
     7
 10
500.75
 20
116.7546374086101
 11
500.2973141318988
 21
117.5387123320299
  0
LINE
  8
0
  6
CONTINUOUS
 62
     7
 10
499.7026858681012
 20
117.5387123320299
 11
499.25
 21
116.7546374086102
  0
LINE
  8
0
  6
CONTINUOUS
 62
     7
 10
512.4944992849032
 20
116.3316055508433
 11
500.75
 21
116.3316055508434
  0
LINE
  8
0
  6
CONTINUOUS
 62
     7
 10
500.75
 20
116.7546374086101
 11
500.75
 21
116.3316055508434
  0
LINE
  8
0
  6
CONTINUOUS
 62
     7
 10
514.5
 20
116.3316055508433
 11
514.4626875420912
 21
116.8343483646731
  0
LINE
  8
0
  6
CONTINUOUS
 62
     7
 10
512.4944992849032
 20
116.3316055508433
 11
514.5000000000001
 21
116.3316055508433
  0
LINE
  8
0
  6
CONTINUOUS
 62
     7
 10
485.5
 20
116.3316055508433
 11
487.5055007150969
 21
116.3316055508433
  0
LINE
  8
0
  6
CONTINUOUS
 62
     7
 10
485.5373124579086
 20
116.8343483646731
 11
485.5
 21
116.3316055508433
  0
LINE
  8
0
  6
CONTINUOUS
 62
     7
 10
499.25
 20
116.3316055508434
 11
487.5055007150969
 21
116.3316055508433
  0
LINE
  8
0
  6
CONTINUOUS
 62
     7
 10
499.25
 20
116.7546374086102
 11
499.25
 21
116.3316055508434
  0
LINE
  8
0
  6
CONTINUOUS
 62
     7
 10
500.75
 20
116.3316055508434
 11
500.0
 21
116.3316055508434
  0
LINE
  8
0
  6
CONTINUOUS
 62
     7
 10
500.2973141318987
 20
117.5387123320299
 11
499.9999999999999
 21
117.812972371859
  0
LINE
  8
0
  6
CONTINUOUS
 62
     7
 10
500.0
 20
117.812972371859
 11
499.7026858681012
 21
117.5387123320299
  0
LINE
  8
0
  6
CONTINUOUS
 62
     7
 10
500.0
 20
116.3316055508434
 11
499.25
 21
116.3316055508434
  0
LINE
  8
0
  6
CONTINUOUS
 62
     7
 10
512.9962672984942
 20
117.8316055508433
 11
512.463132029681
 21
117.8316055508434
  0
LINE
  8
0
  6
CONTINUOUS
 62
     7
 10
512.996231462063
 20
117.8316055229146
 11
513.5601866677457
 21
117.6572494799554
  0
LINE
  8
0
  6
CONTINUOUS
 62
     7
 10
513.5601866677457
 20
117.6572494799554
 11
513.6765578364573
 21
117.5642953823837
  0
LINE
  8
0
  6
CONTINUOUS
 62
     7
 10
512.4631027975686
 20
117.8316055508433
 11
487.506072054052
 21
117.8316055508433
  0
POLYLINE
  8
0
  6
CONTINUOUS
 62
     7
 66
     1
  0
VERTEX
  8
0
  6
CONTINUOUS
 62
     7
 10
487.0040048797985
 20
117.8316055508434
  0
VERTEX
  8
0
  6
CONTINUOUS
 62
     7
 10
486.957249607631
 20
117.830511925097
  0
VERTEX
  8
0
  6
CONTINUOUS
 62
     7
 10
486.9105966010023
 20
117.8272334398924
  0
VERTEX
  8
0
  6
CONTINUOUS
 62
     7
 10
486.8641479017708
 20
117.8217772661013
  0
VERTEX
  8
0
  6
CONTINUOUS
 62
     7
 10
486.8180051049233
 20
117.814155337748
  0
VERTEX
  8
0
  6
CONTINUOUS
 62
     7
 10
486.772269136361
 20
117.8043843259066
  0
VERTEX
  8
0
  6
CONTINUOUS
 62
     7
 10
486.7270400321495
 20
117.7924856022373
  0
VERTEX
  8
0
  6
CONTINUOUS
 62
     7
 10
486.6824167197145
 20
117.7784851922412
  0
VERTEX
  8
0
  6
CONTINUOUS
 62
     7
 10
486.6384968014626
 20
117.7624137183361
  0
VERTEX
  8
0
  6
CONTINUOUS
 62
     7
 10
486.5953763413007
 20
117.7443063328772
  0
VERTEX
  8
0
  6
CONTINUOUS
 62
     7
 10
486.5531496545195
 20
117.7242026412703
  0
VERTEX
  8
0
  6
CONTINUOUS
 62
     7
 10
486.5119091015029
 20
117.702146615345
  0
VERTEX
  8
0
  6
CONTINUOUS
 62
     7
 10
486.4717448857119
 20
117.6781864971769
  0
VERTEX
  8
0
  6
CONTINUOUS
 62
     7
 10
486.4327448563876
 20
117.6523746935702
  0
VERTEX
  8
0
  6
CONTINUOUS
 62
     7
 10
486.3949943164021
 20
117.6247676614308
  0
VERTEX
  8
0
  6
CONTINUOUS
 62
     7
 10
486.3585758356805
 20
117.5954257842812
  0
VERTEX
  8
0
  6
CONTINUOUS
 62
     7
 10
486.3235690705992
 20
117.5644132401857
  0
SEQEND
  8
0
  6
CONTINUOUS
 62
     7
  0
LINE
  8
0
  6
CONTINUOUS
 62
     7
 10
487.506072054052
 20
117.8316055508433
 11
487.0039132761885
 21
117.8316055508434
  0
LINE
  8
0
  6
CONTINUOUS
 62
     7
 10
487.0039132761885
 20
117.8316055508434
 11
487.0042410954421
 21
117.8316055508434
  0
LINE
  8
0
  6
CONTINUOUS
 62
     7
 10
503.0371088923424
 20
115.8316055508433
 11
503.0000000000001
 21
116.3316055508433
  0
LINE
  8
0
  6
CONTINUOUS
 62
     7
 10
514.5
 20
116.3316055508433
 11
514.5371088923423
 21
115.8316055508433
  0
LINE
  8
0
  6
CONTINUOUS
 62
     7
 10
497.0
 20
116.3316055508433
 11
496.9628911076576
 21
115.8316055508433
  0
LINE
  8
0
  6
CONTINUOUS
 62
     7
 10
485.4628911076576
 20
115.8316055508433
 11
485.5
 21
116.3316055508433
  0
LINE
  8
0
  6
CONTINUOUS
 62
     7
 10
503.1410137909011
 20
114.4316055508433
 11
503.0371088923424
 21
115.8316055508433
  0
LINE
  8
0
  6
CONTINUOUS
 62
     7
 10
514.6410137909011
 20
114.4316055508433
 11
514.5371088923424
 21
115.8316055508433
  0
LINE
  8
0
  6
CONTINUOUS
 62
     7
 10
503.2449186894597
 20
113.0316055508434
 11
514.7449186894597
 21
113.0316055508434
  0
LINE
  8
0
  6
CONTINUOUS
 62
     7
 10
503.1410137909011
 20
114.4316055508433
 11
503.2449186894598
 21
113.0316055508434
  0
LINE
  8
0
  6
CONTINUOUS
 62
     7
 10
514.7449186894597
 20
113.0316055508434
 11
514.641013790901
 21
114.4316055508433
  0
LINE
  8
0
  6
CONTINUOUS
 62
     7
 10
496.8589862090989
 20
114.4316055508433
 11
496.9628911076576
 21
115.8316055508433
  0
LINE
  8
0
  6
CONTINUOUS
 62
     7
 10
485.3589862090989
 20
114.4316055508433
 11
485.4628911076576
 21
115.8316055508433
  0
LINE
  8
0
  6
CONTINUOUS
 62
     7
 10
483.4305662116302
 20
115.8316055508433
 11
483.4996952742794
 21
113.0316055508434
  0
LINE
  8
0
  6
CONTINUOUS
 62
     7
 10
459.5610215442749
 20
115.8316055508433
 11
483.4305662116302
 21
115.8316055508433
  0
LINE
  8
0
  6
CONTINUOUS
 62
     7
 10
459.5955794936387
 20
113.0316055508434
 11
483.4996952742794
 21
113.0316055508434
  0
LINE
  8
0
  6
CONTINUOUS
 62
     7
 10
484.5
 20
113.0316055508434
 11
484.4308709373507
 21
115.8316055508433
  0
LINE
  8
0
  6
CONTINUOUS
 62
     7
 10
484.4308709373507
 20
115.8316055508433
 11
483.4305662116302
 21
115.8316055508433
  0
LINE
  8
0
  6
CONTINUOUS
 62
     7
 10
483.4996952742794
 20
113.0316055508434
 11
484.5
 21
113.0316055508434
  0
LINE
  8
0
  6
CONTINUOUS
 62
     7
 10
516.5003047257205
 20
113.0316055508434
 11
516.5694337883697
 21
115.8316055508433
  0
LINE
  8
0
  6
CONTINUOUS
 62
     7
 10
515.5691290626492
 20
115.8316055508433
 11
515.5
 21
113.0316055508434
  0
LINE
  8
0
  6
CONTINUOUS
 62
     7
 10
516.5694337883697
 20
115.8316055508433
 11
515.5691290626492
 21
115.8316055508433
  0
LINE
  8
0
  6
CONTINUOUS
 62
     7
 10
515.5000000000001
 20
113.0316055508434
 11
516.5003047257206
 21
113.0316055508434
  0
LINE
  8
0
  6
CONTINUOUS
 62
     7
 10
516.5694337883697
 20
115.8316055508433
 11
540.4389784557251
 21
115.8316055508433
  0
LINE
  8
0
  6
CONTINUOUS
 62
     7
 10
516.5003047257205
 20
113.0316055508434
 11
540.4044205063611
 21
113.0316055508434
  0
LINE
  8
0
  6
CONTINUOUS
 62
     7
 10
485.2550813105402
 20
113.0316055508434
 11
496.7550813105402
 21
113.0316055508434
  0
LINE
  8
0
  6
CONTINUOUS
 62
     7
 10
496.7550813105402
 20
113.0316055508434
 11
496.8589862090989
 21
114.4316055508433
  0
LINE
  8
0
  6
CONTINUOUS
 62
     7
 10
485.3589862090989
 20
114.4316055508433
 11
485.2550813105402
 21
113.0316055508434
  0
LINE
  8
0
  6
CONTINUOUS
 62
     7
 10
465.8799385955516
 20
115.8316055508434
 11
462.8588949315645
 21
140.1548623842758
  0
LINE
  8
0
  6
CONTINUOUS
 62
     7
 10
537.1411050684354
 20
140.1548623842758
 11
534.1200614044483
 21
115.8316055508434
  0
LINE
  8
0
  6
CONTINUOUS
 62
     7
 10
484.4308709373507
 20
115.8316055508433
 11
484.9221434276889
 21
115.8316055508433
  0
LINE
  8
0
  6
CONTINUOUS
 62
     7
 10
484.9912724903382
 20
113.0316055508434
 11
484.5
 21
113.0316055508434
  0
LINE
  8
0
  6
CONTINUOUS
 62
     7
 10
515.077856572311
 20
115.8316055508433
 11
515.5691290626492
 21
115.8316055508433
  0
LINE
  8
0
  6
CONTINUOUS
 62
     7
 10
515.5000000000001
 20
113.0316055508434
 11
515.0087275096619
 21
113.0316055508434
  0
LINE
  8
0
  6
CONTINUOUS
 62
     7
 10
484.9221434276889
 20
115.8316055508433
 11
485.4628911076576
 21
115.8316055508433
  0
LINE
  8
0
  6
CONTINUOUS
 62
     7
 10
484.9912724903382
 20
113.0316055508434
 11
485.2550813105402
 21
113.0316055508433
  0
LINE
  8
0
  6
CONTINUOUS
 62
     7
 10
515.077856572311
 20
115.8316055508433
 11
514.5371088923424
 21
115.8316055508433
  0
LINE
  8
0
  6
CONTINUOUS
 62
     7
 10
515.0087275096618
 20
113.0316055508434
 11
514.7449186894597
 21
113.0316055508433
  0
LINE
  8
0
  6
CONTINUOUS
 62
     7
 10
496.9628911076576
 20
115.8316055508433
 11
497.4642662864318
 21
115.8316055508433
  0
LINE
  8
0
  6
CONTINUOUS
 62
     7
 10
497.2564564893144
 20
113.0316055508434
 11
496.7550813105402
 21
113.0316055508434
  0
LINE
  8
0
  6
CONTINUOUS
 62
     7
 10
502.5357337135682
 20
115.8316055508433
 11
503.0371088923424
 21
115.8316055508433
  0
LINE
  8
0
  6
CONTINUOUS
 62
     7
 10
503.2449186894597
 20
113.0316055508434
 11
502.7435435106855
 21
113.0316055508434
  0
LINE
  8
0
  6
CONTINUOUS
 62
     7
 10
500.5767949192431
 20
115.8316055508433
 11
500.5767949192431
 21
113.0316055508434
  0
LINE
  8
0
  6
CONTINUOUS
 62
     7
 10
500.5767949192431
 20
115.8316055508433
 11
500.0
 21
115.8316055508433
  0
LINE
  8
0
  6
CONTINUOUS
 62
     7
 10
500.5767949192431
 20
113.0316055508434
 11
500.0
 21
113.0316055508433
  0
LINE
  8
0
  6
CONTINUOUS
 62
     7
 10
500.5767949192431
 20
115.8316055508433
 11
502.5357337135682
 21
115.8316055508433
  0
LINE
  8
0
  6
CONTINUOUS
 62
     7
 10
502.7435435106855
 20
113.0316055508434
 11
500.576794919243
 21
113.0316055508434
  0
LINE
  8
0
  6
CONTINUOUS
 62
     7
 10
499.4232050807569
 20
113.0316055508434
 11
499.4232050807569
 21
115.8316055508433
  0
LINE
  8
0
  6
CONTINUOUS
 62
     7
 10
497.4642662864318
 20
115.8316055508433
 11
499.4232050807569
 21
115.8316055508433
  0
LINE
  8
0
  6
CONTINUOUS
 62
     7
 10
499.4232050807569
 20
113.0316055508434
 11
497.2564564893144
 21
113.0316055508434
  0
LINE
  8
0
  6
CONTINUOUS
 62
     7
 10
500.0
 20
115.8316055508433
 11
499.4232050807569
 21
115.8316055508433
  0
LINE
  8
0
  6
CONTINUOUS
 62
     7
 10
500.0
 20
113.0316055508433
 11
499.4232050807569
 21
113.0316055508434
  0
POLYLINE
  8
0
  6
CONTINUOUS
 62
     7
 66
     1
  0
VERTEX
  8
0
  6
CONTINUOUS
 62
     7
 10
538.1334798731399
 20
141.0316055508434
  0
VERTEX
  8
0
  6
CONTINUOUS
 62
     7
 10
538.0882694997964
 20
141.0305830391493
  0
VERTEX
  8
0
  6
CONTINUOUS
 62
     7
 10
538.0431515827237
 20
141.0275175951276
  0
VERTEX
  8
0
  6
CONTINUOUS
 62
     7
 10
537.9982183891174
 20
141.0224154876829
  0
VERTEX
  8
0
  6
CONTINUOUS
 62
     7
 10
537.9535618084096
 20
141.0152871507443
  0
VERTEX
  8
0
  6
CONTINUOUS
 62
     7
 10
537.9092731643519
 20
141.0061471619275
  0
VERTEX
  8
0
  6
CONTINUOUS
 62
     7
 10
537.8654430282577
 20
140.9950142127234
  0
VERTEX
  8
0
  6
CONTINUOUS
 62
     7
 10
537.8221610337798
 20
140.9819110702736
  0
VERTEX
  8
0
  6
CONTINUOUS
 62
     7
 10
537.7795156936098
 20
140.9668645308107
  0
VERTEX
  8
0
  6
CONTINUOUS
 62
     7
 10
537.7375942184655
 20
140.94990536486
  0
VERTEX
  8
0
  6
CONTINUOUS
 62
     7
 10
537.6964823387437
 20
140.9310682543124
  0
VERTEX
  8
0
  6
CONTINUOUS
 62
     7
 10
537.6562641292006
 20
140.9103917214994
  0
VERTEX
  8
0
  6
CONTINUOUS
 62
     7
 10
537.6170218370148
 20
140.8879180504145
  0
VERTEX
  8
0
  6
CONTINUOUS
 62
     7
 10
537.5788357135917
 20
140.8636932002404
  0
VERTEX
  8
0
  6
CONTINUOUS
 62
     7
 10
537.5417838504471
 20
140.8377667113625
  0
VERTEX
  8
0
  6
CONTINUOUS
 62
     7
 10
537.5059420195075
 20
140.8101916040567
  0
VERTEX
  8
0
  6
CONTINUOUS
 62
     7
 10
537.4713835181554
 20
140.7810242700626
  0
VERTEX
  8
0
  6
CONTINUOUS
 62
     7
 10
537.4381790193344
 20
140.7503243572602
  0
VERTEX
  8
0
  6
CONTINUOUS
 62
     7
 10
537.406396427021
 20
140.7181546476893
  0
VERTEX
  8
0
  6
CONTINUOUS
 62
     7
 10
537.3761007373602
 20
140.6845809291583
  0
VERTEX
  8
0
  6
CONTINUOUS
 62
     7
 10
537.3473539057456
 20
140.6496718607068
  0
VERTEX
  8
0
  6
CONTINUOUS
 62
     7
 10
537.3202147201201
 20
140.6134988321964
  0
VERTEX
  8
0
  6
CONTINUOUS
 62
     7
 10
537.2947386807534
 20
140.5761358183161
  0
VERTEX
  8
0
  6
CONTINUOUS
 62
     7
 10
537.2709778867414
 20
140.5376592273035
  0
VERTEX
  8
0
  6
CONTINUOUS
 62
     7
 10
537.248980929464
 20
140.4981477446869
  0
VERTEX
  8
0
  6
CONTINUOUS
 62
     7
 10
537.2287927932131
 20
140.4576821723724
  0
VERTEX
  8
0
  6
CONTINUOUS
 62
     7
 10
537.2104547631996
 20
140.4163452634017
  0
VERTEX
  8
0
  6
CONTINUOUS
 62
     7
 10
537.1940043411234
 20
140.3742215527205
  0
VERTEX
  8
0
  6
CONTINUOUS
 62
     7
 10
537.1794751684829
 20
140.3313971843025
  0
VERTEX
  8
0
  6
CONTINUOUS
 62
     7
 10
537.1668969577754
 20
140.2879597349824
  0
VERTEX
  8
0
  6
CONTINUOUS
 62
     7
 10
537.1562954317366
 20
140.2439980353602
  0
VERTEX
  8
0
  6
CONTINUOUS
 62
     7
 10
537.1476922707348
 20
140.1996019881397
  0
VERTEX
  8
0
  6
CONTINUOUS
 62
     7
 10
537.1411050684354
 20
140.1548623842758
  0
SEQEND
  8
0
  6
CONTINUOUS
 62
     7
  0
ARC
  8
0
  6
CONTINUOUS
 62
     7
 10
461.8665201268601
 20
140.0316055508434
 40
1.000000000000003
 50
7.080101234740781
 51
90.00000000000001
  0
LINE
  8
0
  6
CONTINUOUS
 62
     7
 10
540.75
 20
141.0316055508434
 11
538.13347987314
 21
141.0316055508434
  0
LINE
  8
0
  6
CONTINUOUS
 62
     7
 10
461.8665201268601
 20
141.0316055508434
 11
459.25
 21
141.0316055508434
  0
LINE
  8
0
  6
CONTINUOUS
 62
     7
 10
543.55
 20
126.0940513913573
 11
543.55
 21
139.5671394567761
  0
POLYLINE
  8
0
  6
CONTINUOUS
 62
     7
 66
     1
  0
VERTEX
  8
0
  6
CONTINUOUS
 62
     7
 10
543.5421603624413
 20
124.3119522517665
  0
VERTEX
  8
0
  6
CONTINUOUS
 62
     7
 10
543.5480175756186
 20
125.264466377325
  0
VERTEX
  8
0
  6
CONTINUOUS
 62
     7
 10
543.5500000000001
 20
126.0940513913573
  0
SEQEND
  8
0
  6
CONTINUOUS
 62
     7
  0
LINE
  8
0
  6
CONTINUOUS
 62
     7
 10
543.0612581820099
 20
113.0316055508434
 11
542.8587093735075
 21
113.0316055508434
  0
LINE
  8
0
  6
CONTINUOUS
 62
     7
 10
456.4499999999999
 20
126.0940513913573
 11
456.4499999999999
 21
139.5671394567761
  0
LINE
  8
0
  6
CONTINUOUS
 62
     7
 10
456.9387418179901
 20
113.0316055508434
 11
457.1412906264924
 21
113.0316055508434
  0
POLYLINE
  8
0
  6
CONTINUOUS
 62
     7
 66
     1
  0
VERTEX
  8
0
  6
CONTINUOUS
 62
     7
 10
536.1500000000001
 20
113.0316055508433
  0
VERTEX
  8
0
  6
CONTINUOUS
 62
     7
 10
536.1996053408377
 20
112.2541501144678
  0
VERTEX
  8
0
  6
CONTINUOUS
 62
     7
 10
536.3560806863018
 20
111.5055608326157
  0
VERTEX
  8
0
  6
CONTINUOUS
 62
     7
 10
536.6133459922653
 20
110.8149250727119
  0
VERTEX
  8
0
  6
CONTINUOUS
 62
     7
 10
536.9614048953532
 20
110.2090783460204
  0
VERTEX
  8
0
  6
CONTINUOUS
 62
     7
 10
537.386733134071
 20
109.7115615804836
  0
VERTEX
  8
0
  6
CONTINUOUS
 62
     7
 10
537.8728040508032
 20
109.3417064086935
  0
VERTEX
  8
0
  6
CONTINUOUS
 62
     7
 10
538.4007307556459
 20
109.113884013269
  0
VERTEX
  8
0
  6
CONTINUOUS
 62
     7
 10
538.95
 20
109.0369467166838
  0
VERTEX
  8
0
  6
CONTINUOUS
 62
     7
 10
539.4992692443542
 20
109.113884013269
  0
VERTEX
  8
0
  6
CONTINUOUS
 62
     7
 10
540.0271959491969
 20
109.3417064086935
  0
VERTEX
  8
0
  6
CONTINUOUS
 62
     7
 10
540.513266865929
 20
109.7115615804835
  0
VERTEX
  8
0
  6
CONTINUOUS
 62
     7
 10
540.9385951046469
 20
110.2090783460204
  0
VERTEX
  8
0
  6
CONTINUOUS
 62
     7
 10
541.2866540077348
 20
110.8149250727119
  0
VERTEX
  8
0
  6
CONTINUOUS
 62
     7
 10
541.5439193136983
 20
111.5055608326157
  0
VERTEX
  8
0
  6
CONTINUOUS
 62
     7
 10
541.7003946591624
 20
112.2541501144678
  0
VERTEX
  8
0
  6
CONTINUOUS
 62
     7
 10
541.75
 20
113.0316055508433
  0
SEQEND
  8
0
  6
CONTINUOUS
 62
     7
  0
POLYLINE
  8
0
  6
CONTINUOUS
 62
     7
 66
     1
  0
VERTEX
  8
0
  6
CONTINUOUS
 62
     7
 10
458.25
 20
113.0316055508433
  0
VERTEX
  8
0
  6
CONTINUOUS
 62
     7
 10
458.2996053408377
 20
112.2541501144678
  0
VERTEX
  8
0
  6
CONTINUOUS
 62
     7
 10
458.4560806863017
 20
111.5055608326157
  0
VERTEX
  8
0
  6
CONTINUOUS
 62
     7
 10
458.7133459922653
 20
110.8149250727119
  0
VERTEX
  8
0
  6
CONTINUOUS
 62
     7
 10
459.0614048953532
 20
110.2090783460204
  0
VERTEX
  8
0
  6
CONTINUOUS
 62
     7
 10
459.486733134071
 20
109.7115615804836
  0
VERTEX
  8
0
  6
CONTINUOUS
 62
     7
 10
459.9728040508032
 20
109.3417064086935
  0
VERTEX
  8
0
  6
CONTINUOUS
 62
     7
 10
460.5007307556459
 20
109.113884013269
  0
VERTEX
  8
0
  6
CONTINUOUS
 62
     7
 10
461.05
 20
109.0369467166838
  0
VERTEX
  8
0
  6
CONTINUOUS
 62
     7
 10
461.5992692443542
 20
109.113884013269
  0
VERTEX
  8
0
  6
CONTINUOUS
 62
     7
 10
462.1271959491968
 20
109.3417064086935
  0
VERTEX
  8
0
  6
CONTINUOUS
 62
     7
 10
462.6132668659291
 20
109.7115615804835
  0
VERTEX
  8
0
  6
CONTINUOUS
 62
     7
 10
463.0385951046468
 20
110.2090783460204
  0
VERTEX
  8
0
  6
CONTINUOUS
 62
     7
 10
463.3866540077347
 20
110.8149250727119
  0
VERTEX
  8
0
  6
CONTINUOUS
 62
     7
 10
463.6439193136983
 20
111.5055608326157
  0
VERTEX
  8
0
  6
CONTINUOUS
 62
     7
 10
463.8003946591624
 20
112.2541501144678
  0
VERTEX
  8
0
  6
CONTINUOUS
 62
     7
 10
463.85
 20
113.0316055508433
  0
SEQEND
  8
0
  6
CONTINUOUS
 62
     7
  0
LINE
  8
0
  6
CONTINUOUS
 62
     7
 10
534.8953197643372
 20
122.0735583021216
 11
535.3074806774882
 21
155.349391863486
  0
LINE
  8
0
  6
CONTINUOUS
 62
     7
 10
464.6925193225118
 20
155.349391863486
 11
465.1046798521768
 21
122.0735892666655
  0
LINE
  8
0
  6
CONTINUOUS
 62
     7
 10
541.3582522849267
 20
53.03160555084333
 11
540.4044205063611
 21
53.03160555084333
  0
LINE
  8
0
  6
CONTINUOUS
 62
     7
 10
540.4044205063611
 20
67.03160555084334
 11
540.4044205063611
 21
53.03160555084333
  0
LINE
  8
0
  6
CONTINUOUS
 62
     7
 10
516.5003047257205
 20
67.03160555084334
 11
540.4044205063611
 21
67.03160555084334
  0
LINE
  8
0
  6
CONTINUOUS
 62
     7
 10
515.5000000000001
 20
68.03160555084334
 11
516.5003047257206
 21
67.03160555084334
  0
LINE
  8
0
  6
CONTINUOUS
 62
     7
 10
515.5000000000001
 20
68.03160555084334
 11
515.5000000000001
 21
71.1246064654445
  0
POLYLINE
  8
0
  6
CONTINUOUS
 62
     7
 66
     1
  0
VERTEX
  8
0
  6
CONTINUOUS
 62
     7
 10
515.5
 20
71.12460646544449
  0
VERTEX
  8
0
  6
CONTINUOUS
 62
     7
 10
515.4906050627918
 20
71.263199176032
  0
VERTEX
  8
0
  6
CONTINUOUS
 62
     7
 10
515.4627732029946
 20
71.39610510173468
  0
VERTEX
  8
0
  6
CONTINUOUS
 62
     7
 10
515.4175500162889
 20
71.51833119275696
  0
VERTEX
  8
0
  6
CONTINUOUS
 62
     7
 10
515.3566344609565
 20
71.6252856225451
  0
VERTEX
  8
0
  6
CONTINUOUS
 62
     7
 10
515.2823150309036
 20
71.71295029490842
  0
VERTEX
  8
0
  6
CONTINUOUS
 62
     7
 10
515.1973837808343
 20
71.7780317970656
  0
VERTEX
  8
0
  6
CONTINUOUS
 62
     7
 10
515.1050314334988
 20
71.81808512756673
  0
VERTEX
  8
0
  6
CONTINUOUS
 62
     7
 10
515.0087275096619
 20
71.83160555084332
  0
SEQEND
  8
0
  6
CONTINUOUS
 62
     7
  0
LINE
  8
0
  6
CONTINUOUS
 62
     7
 10
515.0087275096618
 20
71.83160555084334
 11
514.7449186894597
 21
71.83160555084329
  0
LINE
  8
0
  6
CONTINUOUS
 62
     7
 10
514.7449186894597
 20
71.83160555084329
 11
503.2449186894597
 21
71.83160555084328
  0
LINE
  8
0
  6
CONTINUOUS
 62
     7
 10
502.7435435106855
 20
72.83160555084334
 11
500.576794919243
 21
72.83160555084334
  0
LINE
  8
0
  6
CONTINUOUS
 62
     7
 10
500.5767949192431
 20
72.83160555084334
 11
500.0
 21
73.83064365652
  0
LINE
  8
0
  6
CONTINUOUS
 62
     7
 10
500.0
 20
73.83064365652
 11
499.4232050807569
 21
72.83160555084334
  0
LINE
  8
0
  6
CONTINUOUS
 62
     7
 10
499.4232050807569
 20
72.83160555084334
 11
497.2564564893144
 21
72.83160555084334
  0
LINE
  8
0
  6
CONTINUOUS
 62
     7
 10
496.7550813105402
 20
71.83160555084328
 11
485.2550813105402
 21
71.83160555084329
  0
LINE
  8
0
  6
CONTINUOUS
 62
     7
 10
484.9912724903382
 20
71.83160555084334
 11
485.2550813105402
 21
71.83160555084329
  0
POLYLINE
  8
0
  6
CONTINUOUS
 62
     7
 66
     1
  0
VERTEX
  8
0
  6
CONTINUOUS
 62
     7
 10
484.9912724903382
 20
71.83160555084332
  0
VERTEX
  8
0
  6
CONTINUOUS
 62
     7
 10
484.8949685665012
 20
71.81808512756673
  0
VERTEX
  8
0
  6
CONTINUOUS
 62
     7
 10
484.8026162191657
 20
71.7780317970656
  0
VERTEX
  8
0
  6
CONTINUOUS
 62
     7
 10
484.7176849690964
 20
71.71295029490842
  0
VERTEX
  8
0
  6
CONTINUOUS
 62
     7
 10
484.6433655390435
 20
71.6252856225451
  0
VERTEX
  8
0
  6
CONTINUOUS
 62
     7
 10
484.582449983711
 20
71.51833119275696
  0
VERTEX
  8
0
  6
CONTINUOUS
 62
     7
 10
484.5372267970054
 20
71.39610510173468
  0
VERTEX
  8
0
  6
CONTINUOUS
 62
     7
 10
484.5093949372081
 20
71.263199176032
  0
VERTEX
  8
0
  6
CONTINUOUS
 62
     7
 10
484.5
 20
71.12460646544449
  0
SEQEND
  8
0
  6
CONTINUOUS
 62
     7
  0
LINE
  8
0
  6
CONTINUOUS
 62
     7
 10
484.5
 20
68.03160555084334
 11
484.5
 21
71.1246064654445
  0
LINE
  8
0
  6
CONTINUOUS
 62
     7
 10
483.4996952742794
 20
67.03160555084334
 11
484.5
 21
68.03160555084334
  0
LINE
  8
0
  6
CONTINUOUS
 62
     7
 10
459.5955794936387
 20
67.03160555084334
 11
483.4996952742794
 21
67.03160555084334
  0
LINE
  8
0
  6
CONTINUOUS
 62
     7
 10
459.5955794936387
 20
67.03160555084334
 11
459.5955794936388
 21
53.03160555084333
  0
LINE
  8
0
  6
CONTINUOUS
 62
     7
 10
459.5955794936388
 20
53.03160555084333
 11
458.6417477150732
 21
53.03160555084333
  0
CIRCLE
  8
0
  6
CONTINUOUS
 62
     7
 10
485.0000000000001
 20
91.03160555084335
 40
2.500000000000002
  0
CIRCLE
  8
0
  6
CONTINUOUS
 62
     7
 10
514.9999999999999
 20
91.03160555084335
 40
2.500000000000002
  0
CIRCLE
  8
0
  6
CONTINUOUS
 62
     7
 10
500.0
 20
91.03160555084332
 40
2.500000000000002
  0
LINE
  8
0
  6
CONTINUOUS
 62
     7
 10
541.35
 20
68.98944264942399
 11
541.35
 21
87.54595615431334
  0
LINE
  8
0
  6
CONTINUOUS
 62
     7
 10
537.3494366350561
 20
87.54595615431334
 11
541.35
 21
87.54595615431334
  0
LINE
  8
0
  6
CONTINUOUS
 62
     7
 10
537.3494366350562
 20
68.98944264942399
 11
537.3494366350561
 21
87.54595615431334
  0
LINE
  8
0
  6
CONTINUOUS
 62
     7
 10
541.35
 20
68.98944264942399
 11
537.3494366350562
 21
68.98944264942399
  0
LINE
  8
0
  6
CONTINUOUS
 62
     7
 10
462.6505633649438
 20
87.54595615431334
 11
458.65
 21
87.54595615431334
  0
LINE
  8
0
  6
CONTINUOUS
 62
     7
 10
458.65
 20
68.98944264942399
 11
458.65
 21
87.54595615431334
  0
LINE
  8
0
  6
CONTINUOUS
 62
     7
 10
458.65
 20
68.98944264942399
 11
462.6505633649437
 21
68.98944264942399
  0
LINE
  8
0
  6
CONTINUOUS
 62
     7
 10
462.6505633649437
 20
68.98944264942399
 11
462.6505633649438
 21
87.54595615431334
  0
LINE
  8
0
  6
CONTINUOUS
 62
     7
 10
458.6417477150732
 20
53.03160555084333
 11
457.9504570885808
 21
53.03160555084335
  0
LINE
  8
0
  6
CONTINUOUS
 62
     7
 10
457.9504570885808
 20
53.03160555084335
 11
457.3522167773361
 21
53.52189588868882
  0
LINE
  8
0
  6
CONTINUOUS
 62
     7
 10
457.3522167773361
 20
53.52189588868882
 11
456.4499999999999
 21
58.03160555084336
  0
LINE
  8
0
  6
CONTINUOUS
 62
     7
 10
543.55
 20
58.03160555084336
 11
542.6477832226639
 21
53.52189588868882
  0
LINE
  8
0
  6
CONTINUOUS
 62
     7
 10
543.55
 20
122.5585174854245
 11
543.5421603624413
 21
124.3119522517665
  0
LINE
  8
0
  6
CONTINUOUS
 62
     7
 10
543.55
 20
58.03160555084336
 11
543.55
 21
97.03160555084337
  0
LINE
  8
0
  6
CONTINUOUS
 62
     7
 10
543.55
 20
97.03160555084337
 11
543.55
 21
105.0316055508434
  0
LINE
  8
0
  6
CONTINUOUS
 62
     7
 10
543.55
 20
105.0316055508434
 11
543.55
 21
122.5585174854245
  0
LINE
  8
0
  6
CONTINUOUS
 62
     7
 10
542.0495429114192
 20
53.03160555084335
 11
541.3582522849267
 21
53.03160555084333
  0
LINE
  8
0
  6
CONTINUOUS
 62
     7
 10
542.6477832226639
 20
53.52189588868882
 11
542.0495429114192
 21
53.03160555084335
  0
LINE
  8
0
  6
CONTINUOUS
 62
     7
 10
514.6410137909011
 20
67.03160555084334
 11
503.1410137909011
 21
67.03160555084332
  0
LINE
  8
0
  6
CONTINUOUS
 62
     7
 10
514.7449186894597
 20
68.43160555084334
 11
514.641013790901
 21
67.03160555084334
  0
LINE
  8
0
  6
CONTINUOUS
 62
     9
 10
514.7449186894597
 20
68.66999506050922
 11
503.2449186894597
 21
68.66999506050922
  0
LINE
  8
0
  6
CONTINUOUS
 62
     9
 10
503.2157567198845
 20
69.64251677915183
 11
514.7157567198844
 21
69.64251677915183
  0
LINE
  8
0
  6
CONTINUOUS
 62
     7
 10
514.7157567198846
 20
69.64251677915183
 11
514.7449186894598
 21
68.66999506050924
  0
LINE
  8
0
  6
CONTINUOUS
 62
     7
 10
514.7449186894597
 20
68.43160555084334
 11
514.7449186894597
 21
68.66999506050922
  0
POLYLINE
  8
0
  6
CONTINUOUS
 62
     7
 66
     1
  0
VERTEX
  8
0
  6
CONTINUOUS
 62
     7
 10
503.0371088923424
 20
72.33160555084334
  0
VERTEX
  8
0
  6
CONTINUOUS
 62
     7
 10
503.0274751088695
 20
72.4291507118514
  0
VERTEX
  8
0
  6
CONTINUOUS
 62
     7
 10
502.9989439793468
 20
72.52294726702588
  0
VERTEX
  8
0
  6
CONTINUOUS
 62
     7
 10
502.9526119390817
 20
72.60939066735314
  0
VERTEX
  8
0
  6
CONTINUOUS
 62
     7
 10
502.8902595023981
 20
72.68515894143661
  0
VERTEX
  8
0
  6
CONTINUOUS
 62
     7
 10
502.81428283847
 20
72.74734035699461
  0
VERTEX
  8
0
  6
CONTINUOUS
 62
     7
 10
502.7276016878841
 20
72.79354531709897
  0
VERTEX
  8
0
  6
CONTINUOUS
 62
     7
 10
502.6335471586461
 20
72.82199819104495
  0
VERTEX
  8
0
  6
CONTINUOUS
 62
     7
 10
502.5357337135682
 20
72.83160555084334
  0
SEQEND
  8
0
  6
CONTINUOUS
 62
     7
  0
LINE
  8
0
  6
CONTINUOUS
 62
     7
 10
503.0371088923424
 20
68.03160555084334
 11
502.9871024551393
 21
67.91469368120936
  0
ARC
  8
0
  6
CONTINUOUS
 62
     7
 10
515.9368051481188
 20
66.29369541296448
 40
13.05076377926653
 50
172.8650275741037
 51
181.1507106219582
  0
LINE
  8
0
  6
CONTINUOUS
 62
     7
 10
503.0371088923424
 20
68.03160555084334
 11
503.1410137909011
 21
68.03160555084332
  0
LINE
  8
0
  6
CONTINUOUS
 62
     7
 10
503.170700904775
 20
68.43160555084332
 11
503.1410137909011
 21
68.03160555084334
  0
LINE
  8
0
  6
CONTINUOUS
 62
     7
 10
503.170700904775
 20
68.43160555084332
 11
503.170700904775
 21
68.66999506050928
  0
LINE
  8
0
  6
CONTINUOUS
 62
     7
 10
503.1623689134678
 20
68.94785840869287
 11
503.170700904775
 21
68.66999506050928
  0
LINE
  8
0
  6
CONTINUOUS
 62
     7
 10
503.1623689134678
 20
68.94785840869287
 11
503.0662708619177
 21
70.28867511319298
  0
LINE
  8
0
  6
CONTINUOUS
 62
     7
 10
503.0371088923424
 20
71.26119683183559
 11
503.0662708619178
 21
70.28867511319298
  0
LINE
  8
0
  6
CONTINUOUS
 62
     7
 10
503.0371088923424
 20
72.33160555084334
 11
503.0371088923424
 21
71.26119683183559
  0
LINE
  8
0
  6
CONTINUOUS
 62
     7
 10
503.1410137909011
 20
67.03160555084332
 11
503.0371088923424
 21
67.03160555084334
  0
LINE
  8
0
  6
CONTINUOUS
 62
     7
 10
503.0
 20
66.53160555084334
 11
503.0371088923424
 21
67.03160555084334
  0
LINE
  8
0
  6
CONTINUOUS
 62
     7
 10
503.0
 20
66.53160555084334
 11
503.0
 21
64.1844477960756
  0
LINE
  8
0
  6
CONTINUOUS
 62
     7
 10
502.8886733229728
 20
66.03160555084334
 11
502.8886733229728
 21
65.85036656831939
  0
LINE
  8
0
  6
CONTINUOUS
 62
     7
 10
503.1410137909011
 20
71.83160555084328
 11
503.2449186894598
 21
71.83160555084328
  0
POLYLINE
  8
0
  6
CONTINUOUS
 62
     7
 66
     1
  0
VERTEX
  8
0
  6
CONTINUOUS
 62
     7
 10
497.4642662864318
 20
72.83160555084334
  0
VERTEX
  8
0
  6
CONTINUOUS
 62
     7
 10
497.3664528413538
 20
72.82199819104495
  0
VERTEX
  8
0
  6
CONTINUOUS
 62
     7
 10
497.2723983121158
 20
72.79354531709897
  0
VERTEX
  8
0
  6
CONTINUOUS
 62
     7
 10
497.1857171615299
 20
72.74734035699461
  0
VERTEX
  8
0
  6
CONTINUOUS
 62
     7
 10
497.1097404976019
 20
72.68515894143661
  0
VERTEX
  8
0
  6
CONTINUOUS
 62
     7
 10
497.0473880609183
 20
72.60939066735314
  0
VERTEX
  8
0
  6
CONTINUOUS
 62
     7
 10
497.0010560206531
 20
72.52294726702588
  0
VERTEX
  8
0
  6
CONTINUOUS
 62
     7
 10
496.9725248911305
 20
72.4291507118514
  0
VERTEX
  8
0
  6
CONTINUOUS
 62
     7
 10
496.9628911076575
 20
72.33160555084335
  0
SEQEND
  8
0
  6
CONTINUOUS
 62
     7
  0
LINE
  8
0
  6
CONTINUOUS
 62
     7
 10
496.9628911076576
 20
67.03160555084334
 11
497.0
 21
66.53160555084334
  0
LINE
  8
0
  6
CONTINUOUS
 62
     7
 10
496.8589862090989
 20
67.03160555084334
 11
496.9628911076576
 21
67.03160555084334
  0
LINE
  8
0
  6
CONTINUOUS
 62
     7
 10
496.9628911076576
 20
72.33160555084334
 11
496.9628911076576
 21
71.26119683183559
  0
LINE
  8
0
  6
CONTINUOUS
 62
     7
 10
496.9337291380823
 20
70.28867511319298
 11
496.9628911076576
 21
71.2611968318356
  0
LINE
  8
0
  6
CONTINUOUS
 62
     7
 10
496.8376310865322
 20
68.94785840869287
 11
496.9337291380823
 21
70.28867511319298
  0
LINE
  8
0
  6
CONTINUOUS
 62
     7
 10
496.829299095225
 20
68.66999506050928
 11
496.8376310865322
 21
68.94785840869287
  0
LINE
  8
0
  6
CONTINUOUS
 62
     7
 10
496.829299095225
 20
68.43160555084332
 11
496.829299095225
 21
68.66999506050928
  0
LINE
  8
0
  6
CONTINUOUS
 62
     7
 10
496.8589862090989
 20
68.03160555084334
 11
496.829299095225
 21
68.43160555084332
  0
LINE
  8
0
  6
CONTINUOUS
 62
     7
 10
496.9628911076576
 20
68.03160555084334
 11
496.8589862090989
 21
68.03160555084332
  0
ARC
  8
0
  6
CONTINUOUS
 62
     7
 10
484.0631948518811
 20
66.29369541296448
 40
13.05076377926653
 50
358.8492893780419
 51
7.134972425896422
  0
POLYLINE
  8
0
  6
CONTINUOUS
 62
     7
 66
     1
  0
VERTEX
  8
0
  6
CONTINUOUS
 62
     7
 10
497.0128975448607
 20
67.91469368120936
  0
VERTEX
  8
0
  6
CONTINUOUS
 62
     7
 10
496.9774403376904
 20
68.02197500418772
  0
VERTEX
  8
0
  6
CONTINUOUS
 62
     7
 10
496.9628911076576
 20
68.03160555084334
  0
SEQEND
  8
0
  6
CONTINUOUS
 62
     7
  0
LINE
  8
0
  6
CONTINUOUS
 62
     7
 10
497.1113266770272
 20
66.03160555084334
 11
497.1113266770272
 21
65.8503665683194
  0
LINE
  8
0
  6
CONTINUOUS
 62
     7
 10
497.0
 20
66.53160555084334
 11
497.0
 21
64.1844477960756
  0
LINE
  8
0
  6
CONTINUOUS
 62
     7
 10
496.8589862090989
 20
71.83160555084328
 11
496.7550813105402
 21
71.83160555084328
  0
LINE
  8
0
  6
CONTINUOUS
 62
     9
 10
496.7550813105402
 20
68.66999506050922
 11
485.2550813105402
 21
68.66999506050922
  0
LINE
  8
0
  6
CONTINUOUS
 62
     9
 10
485.2842432801155
 20
69.64251677915183
 11
496.7842432801155
 21
69.64251677915183
  0
LINE
  8
0
  6
CONTINUOUS
 62
     7
 10
485.2550813105402
 20
68.66999506050922
 11
485.2842432801155
 21
69.64251677915183
  0
LINE
  8
0
  6
CONTINUOUS
 62
     7
 10
496.8589862090989
 20
67.03160555084334
 11
485.3589862090989
 21
67.03160555084334
  0
LINE
  8
0
  6
CONTINUOUS
 62
     7
 10
485.3589862090989
 20
67.03160555084334
 11
485.2550813105402
 21
68.43160555084334
  0
LINE
  8
0
  6
CONTINUOUS
 62
     7
 10
485.2550813105402
 20
68.43160555084334
 11
485.2550813105402
 21
68.66999506050922
  0
LINE
  8
0
  6
CONTINUOUS
 62
     7
 10
456.4499999999999
 20
58.03160555084336
 11
456.4499999999999
 21
97.03160555084337
  0
LINE
  8
0
  6
CONTINUOUS
 62
     7
 10
456.4499999999999
 20
97.03160555084337
 11
456.4499999999999
 21
105.0316055508433
  0
LINE
  8
0
  6
CONTINUOUS
 62
     7
 10
456.4499999999999
 20
105.0316055508433
 11
456.4499999999999
 21
122.5585174854245
  0
LINE
  8
0
  6
CONTINUOUS
 62
     7
 10
456.4578396375587
 20
124.3119522517665
 11
456.4499999999999
 21
122.5585174854245
  0
LINE
  8
0
  6
CONTINUOUS
 62
     7
 10
514.7157567198846
 20
69.64251677915183
 11
514.6196586683345
 21
70.98333348365195
  0
LINE
  8
0
  6
CONTINUOUS
 62
     7
 10
485.2842432801155
 20
69.64251677915183
 11
485.3803413316656
 21
70.98333348365195
  0
LINE
  8
0
  6
CONTINUOUS
 62
     7
 10
514.6410137909011
 20
71.83160555084328
 11
514.6113266770271
 21
71.43160555084329
  0
LINE
  8
0
  6
CONTINUOUS
 62
     7
 10
485.3886733229728
 20
71.43160555084329
 11
485.3589862090989
 21
71.83160555084328
  0
LINE
  8
0
  6
CONTINUOUS
 62
     7
 10
514.6113266770271
 20
71.26119683183555
 11
514.6196586683343
 21
70.98333348365195
  0
LINE
  8
0
  6
CONTINUOUS
 62
     7
 10
485.3803413316656
 20
70.98333348365195
 11
485.3886733229728
 21
71.26119683183555
  0
LINE
  8
0
  6
CONTINUOUS
 62
     7
 10
514.6113266770271
 20
71.26119683183555
 11
514.6113266770271
 21
71.43160555084329
  0
LINE
  8
0
  6
CONTINUOUS
 62
     7
 10
485.3886733229728
 20
71.26119683183555
 11
485.3886733229728
 21
71.43160555084329
  0
LINE
  8
0
  6
CONTINUOUS
 62
     7
 10
485.5
 20
66.53160555084334
 11
485.4628911076576
 21
67.03160555084334
  0
LINE
  8
0
  6
CONTINUOUS
 62
     7
 10
514.5371088923424
 20
67.03160555084334
 11
514.5
 21
66.53160555084334
  0
POLYLINE
  8
0
  6
CONTINUOUS
 62
     7
 66
     1
  0
VERTEX
  8
0
  6
CONTINUOUS
 62
     7
 10
512.4944992849032
 20
55.03160555084334
  0
VERTEX
  8
0
  6
CONTINUOUS
 62
     7
 10
512.885753065215
 20
55.07003499003688
  0
VERTEX
  8
0
  6
CONTINUOUS
 62
     7
 10
513.2619711821671
 20
55.18384648582077
  0
VERTEX
  8
0
  6
CONTINUOUS
 62
     7
 10
513.6086957845106
 20
55.36866632623825
  0
VERTEX
  8
0
  6
CONTINUOUS
 62
     7
 10
513.9126024402227
 20
55.61739198847025
  0
VERTEX
  8
0
  6
CONTINUOUS
 62
     7
 10
514.1620121869573
 20
55.92046508480414
  0
VERTEX
  8
0
  6
CONTINUOUS
 62
     7
 10
514.347340348018
 20
56.26623868611316
  0
VERTEX
  8
0
  6
CONTINUOUS
 62
     7
 10
514.4614648661084
 20
56.64142490681108
  0
VERTEX
  8
0
  6
CONTINUOUS
 62
     7
 10
514.5000000000001
 20
57.03160555084334
  0
SEQEND
  8
0
  6
CONTINUOUS
 62
     7
  0
POLYLINE
  8
0
  6
CONTINUOUS
 62
     7
 66
     1
  0
VERTEX
  8
0
  6
CONTINUOUS
 62
     7
 10
485.5
 20
57.03160555084334
  0
VERTEX
  8
0
  6
CONTINUOUS
 62
     7
 10
485.5385351338917
 20
56.64142490681108
  0
VERTEX
  8
0
  6
CONTINUOUS
 62
     7
 10
485.6526596519821
 20
56.26623868611316
  0
VERTEX
  8
0
  6
CONTINUOUS
 62
     7
 10
485.8379878130428
 20
55.92046508480413
  0
VERTEX
  8
0
  6
CONTINUOUS
 62
     7
 10
486.0873975597774
 20
55.61739198847024
  0
VERTEX
  8
0
  6
CONTINUOUS
 62
     7
 10
486.3913042154895
 20
55.36866632623824
  0
VERTEX
  8
0
  6
CONTINUOUS
 62
     7
 10
486.7380288178329
 20
55.18384648582076
  0
VERTEX
  8
0
  6
CONTINUOUS
 62
     7
 10
487.114246934785
 20
55.07003499003687
  0
VERTEX
  8
0
  6
CONTINUOUS
 62
     7
 10
487.5055007150968
 20
55.03160555084334
  0
SEQEND
  8
0
  6
CONTINUOUS
 62
     7
  0
POLYLINE
  8
0
  6
CONTINUOUS
 62
     7
 66
     1
  0
VERTEX
  8
0
  6
CONTINUOUS
 62
     7
 10
497.0000000000001
 20
64.1844477960756
  0
VERTEX
  8
0
  6
CONTINUOUS
 62
     7
 10
497.0089725759477
 20
64.04466222665975
  0
VERTEX
  8
0
  6
CONTINUOUS
 62
     7
 10
497.0355691585784
 20
63.91135090883803
  0
VERTEX
  8
0
  6
CONTINUOUS
 62
     7
 10
497.0788378066404
 20
63.78928530308347
  0
VERTEX
  8
0
  6
CONTINUOUS
 62
     7
 10
497.1372298545941
 20
63.68283436487932
  0
VERTEX
  8
0
  6
CONTINUOUS
 62
     7
 10
497.2086553422374
 20
63.59580817166129
  0
VERTEX
  8
0
  6
CONTINUOUS
 62
     7
 10
497.2905578182755
 20
63.53132155304657
  0
VERTEX
  8
0
  6
CONTINUOUS
 62
     7
 10
497.3800058404764
 20
63.49168260527776
  0
VERTEX
  8
0
  6
CONTINUOUS
 62
     7
 10
497.4737978974508
 20
63.47831008015748
  0
SEQEND
  8
0
  6
CONTINUOUS
 62
     7
  0
LINE
  8
0
  6
CONTINUOUS
 62
     7
 10
502.5262021025492
 20
63.47831008015747
 11
497.4737978974507
 21
63.47831008015747
  0
POLYLINE
  8
0
  6
CONTINUOUS
 62
     7
 66
     1
  0
VERTEX
  8
0
  6
CONTINUOUS
 62
     7
 10
502.5262021025492
 20
63.47831008015748
  0
VERTEX
  8
0
  6
CONTINUOUS
 62
     7
 10
502.6199941595236
 20
63.49168260527776
  0
VERTEX
  8
0
  6
CONTINUOUS
 62
     7
 10
502.7094421817245
 20
63.53132155304657
  0
VERTEX
  8
0
  6
CONTINUOUS
 62
     7
 10
502.7913446577626
 20
63.59580817166129
  0
VERTEX
  8
0
  6
CONTINUOUS
 62
     7
 10
502.8627701454059
 20
63.68283436487933
  0
VERTEX
  8
0
  6
CONTINUOUS
 62
     7
 10
502.9211621933596
 20
63.78928530308348
  0
VERTEX
  8
0
  6
CONTINUOUS
 62
     7
 10
502.9644308414216
 20
63.91135090883803
  0
VERTEX
  8
0
  6
CONTINUOUS
 62
     7
 10
502.9910274240523
 20
64.04466222665975
  0
VERTEX
  8
0
  6
CONTINUOUS
 62
     7
 10
502.9999999999999
 20
64.1844477960756
  0
SEQEND
  8
0
  6
CONTINUOUS
 62
     7
  0
LINE
  8
0
  6
CONTINUOUS
 62
     7
 10
500.75
 20
55.03160555084332
 11
500.0
 21
56.33064365651997
  0
LINE
  8
0
  6
CONTINUOUS
 62
     7
 10
500.0
 20
56.33064365651997
 11
499.25
 21
55.03160555084333
  0
LINE
  8
0
  6
CONTINUOUS
 62
     7
 10
499.25
 20
55.03160555084333
 11
487.5055007150969
 21
55.03160555084334
  0
LINE
  8
0
  6
CONTINUOUS
 62
     7
 10
512.4944992849032
 20
55.03160555084334
 11
500.75
 21
55.03160555084332
  0
LINE
  8
0
  6
CONTINUOUS
 62
     7
 10
485.5
 20
66.53160555084334
 11
485.5
 21
57.03160555084334
  0
LINE
  8
0
  6
CONTINUOUS
 62
     7
 10
514.5
 20
66.53160555084334
 11
514.5
 21
57.03160555084334
  0
POLYLINE
  8
0
  6
CONTINUOUS
 62
     7
 66
     1
  0
VERTEX
  8
0
  6
CONTINUOUS
 62
     7
 10
497.1113266770271
 20
65.8503665683194
  0
VERTEX
  8
0
  6
CONTINUOUS
 62
     7
 10
497.1202992529748
 20
65.71058099890355
  0
VERTEX
  8
0
  6
CONTINUOUS
 62
     7
 10
497.1468958356054
 20
65.57726968108182
  0
VERTEX
  8
0
  6
CONTINUOUS
 62
     7
 10
497.1901644836674
 20
65.45520407532727
  0
VERTEX
  8
0
  6
CONTINUOUS
 62
     7
 10
497.2485565316212
 20
65.34875313712313
  0
VERTEX
  8
0
  6
CONTINUOUS
 62
     7
 10
497.3199820192645
 20
65.26172694390509
  0
VERTEX
  8
0
  6
CONTINUOUS
 62
     7
 10
497.4018844953026
 20
65.19724032529037
  0
VERTEX
  8
0
  6
CONTINUOUS
 62
     7
 10
497.4913325175035
 20
65.15760137752154
  0
VERTEX
  8
0
  6
CONTINUOUS
 62
     7
 10
497.5851245744779
 20
65.14422885240128
  0
SEQEND
  8
0
  6
CONTINUOUS
 62
     7
  0
LINE
  8
0
  6
CONTINUOUS
 62
     7
 10
502.414875425522
 20
65.14422885240127
 11
497.5851245744779
 21
65.14422885240127
  0
POLYLINE
  8
0
  6
CONTINUOUS
 62
     7
 66
     1
  0
VERTEX
  8
0
  6
CONTINUOUS
 62
     7
 10
502.414875425522
 20
65.14422885240126
  0
VERTEX
  8
0
  6
CONTINUOUS
 62
     7
 10
502.5086674824964
 20
65.15760137752152
  0
VERTEX
  8
0
  6
CONTINUOUS
 62
     7
 10
502.5981155046973
 20
65.19724032529034
  0
VERTEX
  8
0
  6
CONTINUOUS
 62
     7
 10
502.6800179807354
 20
65.26172694390506
  0
VERTEX
  8
0
  6
CONTINUOUS
 62
     7
 10
502.7514434683787
 20
65.3487531371231
  0
VERTEX
  8
0
  6
CONTINUOUS
 62
     7
 10
502.8098355163324
 20
65.45520407532725
  0
VERTEX
  8
0
  6
CONTINUOUS
 62
     7
 10
502.8531041643945
 20
65.5772696810818
  0
VERTEX
  8
0
  6
CONTINUOUS
 62
     7
 10
502.8797007470251
 20
65.71058099890354
  0
VERTEX
  8
0
  6
CONTINUOUS
 62
     7
 10
502.8886733229727
 20
65.85036656831939
  0
SEQEND
  8
0
  6
CONTINUOUS
 62
     7
  0
LINE
  8
0
  6
CONTINUOUS
 62
     7
 10
540.75
 20
171.831168419686
 11
540.75
 21
141.0316055508434
  0
LINE
  8
0
  6
CONTINUOUS
 62
     7
 10
459.25
 20
171.831168419686
 11
459.25
 21
141.0316055508434
  0
LINE
  8
0
  6
CONTINUOUS
 62
     7
 10
542.05
 20
141.0316055508434
 11
542.648058067569
 21
141.0316055508434
  0
LINE
  8
0
  6
CONTINUOUS
 62
     7
 10
457.3519419324309
 20
141.0316055508434
 11
457.95
 21
141.0316055508434
  0
POLYLINE
  8
0
  6
CONTINUOUS
 62
     7
 66
     1
  0
VERTEX
  8
0
  6
CONTINUOUS
 62
     7
 10
540.7500000000001
 20
171.831168419686
  0
VERTEX
  8
0
  6
CONTINUOUS
 62
     7
 10
540.7407221105121
 20
171.9270387321094
  0
VERTEX
  8
0
  6
CONTINUOUS
 62
     7
 10
540.7132327327603
 20
172.0193514188303
  0
VERTEX
  8
0
  6
CONTINUOUS
 62
     7
 10
540.6685519626883
 20
172.1046808731238
  0
VERTEX
  8
0
  6
CONTINUOUS
 62
     7
 10
540.6083378470054
 20
172.1798606271635
  0
VERTEX
  8
0
  6
CONTINUOUS
 62
     7
 10
540.5348248551754
 20
172.2421008556271
  0
VERTEX
  8
0
  6
CONTINUOUS
 62
     7
 10
540.4507409610894
 20
172.2890919025747
  0
VERTEX
  8
0
  6
CONTINUOUS
 62
     7
 10
540.359206411414
 20
172.3190899898526
  0
SEQEND
  8
0
  6
CONTINUOUS
 62
     7
  0
LINE
  8
0
  6
CONTINUOUS
 62
     7
 10
540.359206411414
 20
172.3190899898526
 11
534.0494897204848
 21
173.7316055508433
  0
LINE
  8
0
  6
CONTINUOUS
 62
     7
 10
534.0494897204846
 20
173.7316055508433
 11
465.9505102795154
 21
173.7316055508433
  0
LINE
  8
0
  6
CONTINUOUS
 62
     7
 10
465.9505102795154
 20
173.7316055508433
 11
459.6407935885861
 21
172.3190899898526
  0
POLYLINE
  8
0
  6
CONTINUOUS
 62
     7
 66
     1
  0
VERTEX
  8
0
  6
CONTINUOUS
 62
     7
 10
459.6407935885861
 20
172.3190899898526
  0
VERTEX
  8
0
  6
CONTINUOUS
 62
     7
 10
459.5492590389107
 20
172.2890919025747
  0
VERTEX
  8
0
  6
CONTINUOUS
 62
     7
 10
459.4651751448247
 20
172.2421008556271
  0
VERTEX
  8
0
  6
CONTINUOUS
 62
     7
 10
459.3916621529947
 20
172.1798606271636
  0
VERTEX
  8
0
  6
CONTINUOUS
 62
     7
 10
459.3314480373118
 20
172.1046808731238
  0
VERTEX
  8
0
  6
CONTINUOUS
 62
     7
 10
459.2867672672398
 20
172.0193514188303
  0
VERTEX
  8
0
  6
CONTINUOUS
 62
     7
 10
459.2592778894879
 20
171.9270387321095
  0
VERTEX
  8
0
  6
CONTINUOUS
 62
     7
 10
459.25
 20
171.831168419686
  0
SEQEND
  8
0
  6
CONTINUOUS
 62
     7
  0
LINE
  8
0
  6
CONTINUOUS
 62
     7
 10
459.25
 20
141.0316055508434
 11
457.9504570885808
 21
141.0316055508434
  0
LINE
  8
0
  6
CONTINUOUS
 62
     7
 10
457.9504570885808
 20
141.0316055508434
 11
457.95
 21
141.0316055508434
  0
LINE
  8
0
  6
CONTINUOUS
 62
     7
 10
542.05
 20
141.0316055508434
 11
542.0495429114192
 21
141.0316055508434
  0
LINE
  8
0
  6
CONTINUOUS
 62
     7
 10
542.0495429114192
 20
141.0316055508434
 11
540.75
 21
141.0316055508434
  0
LINE
  8
0
  6
CONTINUOUS
 62
     7
 10
464.5182421466287
 20
176.4268723178474
 11
465.5333960559843
 21
176.5316055508434
  0
LINE
  8
0
  6
CONTINUOUS
 62
     7
 10
465.6976983626164
 20
176.5316055508434
 11
465.5333960559843
 21
176.5316055508434
  0
LINE
  8
0
  6
CONTINUOUS
 62
     7
 10
534.4666039440158
 20
176.5316055508433
 11
534.3023016373837
 21
176.5316055508433
  0
LINE
  8
0
  6
CONTINUOUS
 62
     7
 10
534.4666039440158
 20
176.5316055508434
 11
535.4817578533714
 21
176.4268723178474
  0
LINE
  8
0
  6
CONTINUOUS
 62
     7
 10
456.4500975022568
 20
174.1355982215325
 11
456.4499999999999
 21
174.1047959474681
  0
POLYLINE
  8
0
  6
CONTINUOUS
 62
     7
 66
     1
  0
VERTEX
  8
0
  6
CONTINUOUS
 62
     7
 10
456.4500975022568
 20
174.1355982215323
  0
VERTEX
  8
0
  6
CONTINUOUS
 62
     7
 10
456.450654932366
 20
174.1563961052177
  0
VERTEX
  8
0
  6
CONTINUOUS
 62
     7
 10
456.4520747936726
 20
174.1772243463461
  0
VERTEX
  8
0
  6
CONTINUOUS
 62
     7
 10
456.4543835170804
 20
174.1981825408978
  0
VERTEX
  8
0
  6
CONTINUOUS
 62
     7
 10
456.4575746525066
 20
174.2190698971855
  0
VERTEX
  8
0
  6
CONTINUOUS
 62
     7
 10
456.4617476051516
 20
174.240295101992
  0
VERTEX
  8
0
  6
CONTINUOUS
 62
     7
 10
456.4668361522158
 20
174.2613478515652
  0
VERTEX
  8
0
  6
CONTINUOUS
 62
     7
 10
456.4728813925827
 20
174.28233373879
  0
VERTEX
  8
0
  6
CONTINUOUS
 62
     7
 10
456.4798375993093
 20
174.3030504492479
  0
VERTEX
  8
0
  6
CONTINUOUS
 62
     7
 10
456.487395523927
 20
174.3227267889283
  0
VERTEX
  8
0
  6
CONTINUOUS
 62
     7
 10
456.4957742296783
 20
174.3420720567255
  0
VERTEX
  8
0
  6
CONTINUOUS
 62
     7
 10
456.5050250126752
 20
174.361178117816
  0
VERTEX
  8
0
  6
CONTINUOUS
 62
     7
 10
456.5150736136272
 20
174.3798726791889
  0
VERTEX
  8
0
  6
CONTINUOUS
 62
     7
 10
456.5261434397848
 20
174.3985087959532
  0
VERTEX
  8
0
  6
CONTINUOUS
 62
     7
 10
456.5380013762585
 20
174.4166403516641
  0
VERTEX
  8
0
  6
CONTINUOUS
 62
     7
 10
456.5507182999625
 20
174.434358242575
  0
VERTEX
  8
0
  6
CONTINUOUS
 62
     7
 10
456.5641809698165
 20
174.4514926023704
  0
VERTEX
  8
0
  6
CONTINUOUS
 62
     7
 10
456.5778749245977
 20
174.4674674930893
  0
VERTEX
  8
0
  6
CONTINUOUS
 62
     7
 10
456.5922087478427
 20
174.4828369989023
  0
VERTEX
  8
0
  6
CONTINUOUS
 62
     7
 10
456.6072588853025
 20
174.4976736651345
  0
VERTEX
  8
0
  6
CONTINUOUS
 62
     7
 10
456.6228941891683
 20
174.5118425342137
  0
VERTEX
  8
0
  6
CONTINUOUS
 62
     7
 10
456.6394388634233
 20
174.5256036599373
  0
VERTEX
  8
0
  6
CONTINUOUS
 62
     7
 10
456.6565200310704
 20
174.5386178140915
  0
VERTEX
  8
0
  6
CONTINUOUS
 62
     7
 10
456.6742293235426
 20
174.5509493555704
  0
VERTEX
  8
0
  6
CONTINUOUS
 62
     7
 10
456.6923991238592
 20
174.5624800338352
  0
VERTEX
  8
0
  6
CONTINUOUS
 62
     7
 10
456.7090211420254
 20
174.5721079209491
  0
VERTEX
  8
0
  6
CONTINUOUS
 62
     7
 10
456.7259487327175
 20
174.5810716554306
  0
VERTEX
  8
0
  6
CONTINUOUS
 62
     7
 10
456.7431342912494
 20
174.5893551408149
  0
VERTEX
  8
0
  6
CONTINUOUS
 62
     7
 10
456.7607879961304
 20
174.5970512121242
  0
VERTEX
  8
0
  6
CONTINUOUS
 62
     7
 10
456.7786426146814
 20
174.6040408156042
  0
VERTEX
  8
0
  6
CONTINUOUS
 62
     7
 10
456.7966426619107
 20
174.61031501635
  0
SEQEND
  8
0
  6
CONTINUOUS
 62
     7
  0
POLYLINE
  8
0
  6
CONTINUOUS
 62
     7
 66
     1
  0
VERTEX
  8
0
  6
CONTINUOUS
 62
     7
 10
543.2033573380894
 20
174.61031501635
  0
VERTEX
  8
0
  6
CONTINUOUS
 62
     7
 10
543.2247724588714
 20
174.6027578731132
  0
VERTEX
  8
0
  6
CONTINUOUS
 62
     7
 10
543.2459930538753
 20
174.5941740060992
  0
VERTEX
  8
0
  6
CONTINUOUS
 62
     7
 10
543.2669304422934
 20
174.584585212452
  0
VERTEX
  8
0
  6
CONTINUOUS
 62
     7
 10
543.2874959433178
 20
174.574013289316
  0
VERTEX
  8
0
  6
CONTINUOUS
 62
     7
 10
543.3076008761408
 20
174.5624800338352
  0
VERTEX
  8
0
  6
CONTINUOUS
 62
     7
 10
543.3251910419898
 20
174.5513320281238
  0
VERTEX
  8
0
  6
CONTINUOUS
 62
     7
 10
543.3423658218883
 20
174.5394227351279
  0
VERTEX
  8
0
  6
CONTINUOUS
 62
     7
 10
543.3590722903779
 20
174.5267821327309
  0
VERTEX
  8
0
  6
CONTINUOUS
 62
     7
 10
543.3752575220003
 20
174.5134401988164
  0
VERTEX
  8
0
  6
CONTINUOUS
 62
     7
 10
543.3913428932171
 20
174.4989874078182
  0
VERTEX
  8
0
  6
CONTINUOUS
 62
     7
 10
543.4068305497423
 20
174.4838163660453
  0
VERTEX
  8
0
  6
CONTINUOUS
 62
     7
 10
543.4216720694423
 20
174.4679703415464
  0
VERTEX
  8
0
  6
CONTINUOUS
 62
     7
 10
543.4358190301836
 20
174.4514926023704
  0
VERTEX
  8
0
  6
CONTINUOUS
 62
     7
 10
543.4488594680224
 20
174.4349166372143
  0
VERTEX
  8
0
  6
CONTINUOUS
 62
     7
 10
543.4612124575237
 20
174.4177779615865
  0
VERTEX
  8
0
  6
CONTINUOUS
 62
     7
 10
543.4728429662282
 20
174.4001240613071
  0
VERTEX
  8
0
  6
CONTINUOUS
 62
     7
 10
543.4837159616769
 20
174.3820024221966
  0
VERTEX
  8
0
  6
CONTINUOUS
 62
     7
 10
543.4940965244527
 20
174.3628861564846
  0
VERTEX
  8
0
  6
CONTINUOUS
 62
     7
 10
543.5036491295426
 20
174.3433161295449
  0
VERTEX
  8
0
  6
CONTINUOUS
 62
     7
 10
543.512346760453
 20
174.323351255694
  0
VERTEX
  8
0
  6
CONTINUOUS
 62
     7
 10
543.5201624006907
 20
174.3030504492479
  0
VERTEX
  8
0
  6
CONTINUOUS
 62
     7
 10
543.5269045941365
 20
174.2830121793892
  0
VERTEX
  8
0
  6
CONTINUOUS
 62
     7
 10
543.5327992214425
 20
174.2627029206573
  0
VERTEX
  8
0
  6
CONTINUOUS
 62
     7
 10
543.5378331373889
 20
174.2421830552224
  0
VERTEX
  8
0
  6
CONTINUOUS
 62
     7
 10
543.5419931967554
 20
174.2215129652546
  0
VERTEX
  8
0
  6
CONTINUOUS
 62
     7
 10
543.5453569978138
 20
174.200108367841
  0
VERTEX
  8
0
  6
CONTINUOUS
 62
     7
 10
543.547795208232
 20
174.1786041458153
  0
VERTEX
  8
0
  6
CONTINUOUS
 62
     7
 10
543.5493097381586
 20
174.1570756475786
  0
VERTEX
  8
0
  6
CONTINUOUS
 62
     7
 10
543.5499024977432
 20
174.1355982215323
  0
SEQEND
  8
0
  6
CONTINUOUS
 62
     7
  0
LINE
  8
0
  6
CONTINUOUS
 62
     7
 10
543.55
 20
174.1047959474681
 11
543.5499024977431
 21
174.1355982215325
  0
LINE
  8
0
  6
CONTINUOUS
 62
     7
 10
456.7966426619107
 20
174.61031501635
 11
456.8393148910238
 21
174.6223068056991
  0
LINE
  8
0
  6
CONTINUOUS
 62
     7
 10
456.8393148910238
 20
174.6223068056991
 11
464.3911971015812
 21
176.3986913925112
  0
LINE
  8
0
  6
CONTINUOUS
 62
     7
 10
464.5182421466287
 20
176.4268723178473
 11
464.3911971015812
 21
176.3986913925112
  0
LINE
  8
0
  6
CONTINUOUS
 62
     7
 10
535.6088028984188
 20
176.3986913925112
 11
535.4817578533713
 21
176.4268723178474
  0
LINE
  8
0
  6
CONTINUOUS
 62
     7
 10
535.608802898419
 20
176.3986913925112
 11
543.1606851089763
 21
174.6223068056991
  0
LINE
  8
0
  6
CONTINUOUS
 62
     7
 10
543.1606851089762
 20
174.6223068056991
 11
543.2033573380894
 21
174.61031501635
  0
LINE
  8
0
  6
CONTINUOUS
 62
     7
 10
456.45
 20
174.1047959474681
 11
456.45
 21
141.0316055508434
  0
LINE
  8
0
  6
CONTINUOUS
 62
     7
 10
456.45
 20
141.0316055508434
 11
457.3519419324309
 21
141.0316055508434
  0
LINE
  8
0
  6
CONTINUOUS
 62
     7
 10
543.55
 20
141.0316055508434
 11
543.55
 21
174.1047959474681
  0
LINE
  8
0
  6
CONTINUOUS
 62
     7
 10
542.6480580675691
 20
141.0316055508434
 11
543.55
 21
141.0316055508434
  0
LINE
  8
0
  6
CONTINUOUS
 62
     7
 10
534.3023016373837
 20
176.5316055508434
 11
465.6976983626164
 21
176.5316055508434
  0
LINE
  8
0
  6
CONTINUOUS
 62
     9
 10
537.1439050958353
 20
140.8270501501295
 11
537.1439050958353
 21
140.1756255498796
  0
LINE
  8
0
  6
CONTINUOUS
 62
     7
 10
537.645636567542
 20
141.0316055508434
 11
537.6438670181744
 21
141.0316010835348
  0
LINE
  8
0
  6
CONTINUOUS
 62
     9
 10
462.8560949041647
 20
140.1756255498795
 11
462.8560949041647
 21
140.8270501501296
  0
LINE
  8
0
  6
CONTINUOUS
 62
     7
 10
462.3561329818256
 20
141.0316010835348
 11
462.3543634324581
 21
141.0316055508434
  0
LINE
  8
0
  6
CONTINUOUS
 62
     7
 10
536.753232042347
 20
173.0380182599608
 11
537.1439050958353
 21
140.8270501501295
  0
LINE
  8
0
  6
CONTINUOUS
 62
     7
 10
462.8560949041647
 20
140.8270501501296
 11
463.2467679576529
 21
173.0380182599608
  0
POLYLINE
  8
0
  6
CONTINUOUS
 62
     7
 66
     1
  0
VERTEX
  8
0
  6
CONTINUOUS
 62
     7
 10
543.5578396375587
 20
140.7140692741609
  0
VERTEX
  8
0
  6
CONTINUOUS
 62
     7
 10
543.5519824243813
 20
140.2361079702057
  0
VERTEX
  8
0
  6
CONTINUOUS
 62
     7
 10
543.55
 20
139.5671394567761
  0
SEQEND
  8
0
  6
CONTINUOUS
 62
     7
  0
LINE
  8
0
  6
CONTINUOUS
 62
     7
 10
543.55
 20
141.0316055508434
 11
543.5578396375587
 21
140.7140692741608
  0
POLYLINE
  8
0
  6
CONTINUOUS
 62
     7
 66
     1
  0
VERTEX
  8
0
  6
CONTINUOUS
 62
     7
 10
456.45
 20
139.5671394567761
  0
VERTEX
  8
0
  6
CONTINUOUS
 62
     7
 10
456.4480175756186
 20
140.2361079702056
  0
VERTEX
  8
0
  6
CONTINUOUS
 62
     7
 10
456.4421603624414
 20
140.7140692741608
  0
SEQEND
  8
0
  6
CONTINUOUS
 62
     7
  0
LINE
  8
0
  6
CONTINUOUS
 62
     7
 10
456.4421603624413
 20
140.7140692741608
 11
456.4499999999999
 21
141.0316055508434
  0
LINE
  8
0
  6
CONTINUOUS
 62
     7
 10
543.55
 20
126.0940513913573
 11
543.55
 21
139.5671394567761
  0
LINE
  8
0
  6
CONTINUOUS
 62
     7
 10
456.45
 20
126.0940513913573
 11
456.45
 21
139.5671394567761
  0
LINE
  8
0
  6
CONTINUOUS
 62
     7
 10
533.6464125199291
 20
173.7316055508433
 11
533.6594884019629
 21
172.2085608130134
  0
LINE
  8
0
  6
CONTINUOUS
 62
     7
 10
466.340511598037
 20
172.2085608130134
 11
466.3535874800709
 21
173.7316055508433
  0
LINE
  8
0
  6
CONTINUOUS
 62
     7
 10
466.1398832798674
 20
155.9529871688668
 11
466.3405115980371
 21
172.2085608130134
  0
LINE
  8
0
  6
CONTINUOUS
 62
     7
 10
464.5482537082208
 20
155.6976846993995
 11
466.1398832798674
 21
155.9529871688668
  0
LINE
  8
0
  6
CONTINUOUS
 62
     7
 10
533.8601167201326
 20
155.9529871688668
 11
535.4517462917793
 21
155.6976846993995
  0
LINE
  8
0
  6
CONTINUOUS
 62
     7
 10
533.659488401963
 20
172.2085608130134
 11
533.8601167201326
 21
155.9529871688668
  0
POLYLINE
  8
0
  6
CONTINUOUS
 62
     7
 66
     1
  0
VERTEX
  8
0
  6
CONTINUOUS
 62
     7
 10
456.4421603624414
 20
124.3119522517664
  0
VERTEX
  8
0
  6
CONTINUOUS
 62
     7
 10
456.4480175756186
 20
125.264466377325
  0
VERTEX
  8
0
  6
CONTINUOUS
 62
     7
 10
456.45
 20
126.0940513913573
  0
SEQEND
  8
0
  6
CONTINUOUS
 62
     7
  0
LINE
  8
0
  6
CONTINUOUS
 62
     7
 10
466.1398832798674
 20
155.9529871688668
 11
466.3405115980371
 21
139.6974135247202
  0
LINE
  8
0
  6
CONTINUOUS
 62
     7
 10
533.659488401963
 20
139.6974135247202
 11
533.8601167201326
 21
155.9529871688668
  0
LINE
  8
0
  6
CONTINUOUS
 62
     9
 10
466.340511598037
 20
139.6974135247202
 11
533.659488401963
 21
139.6974135247202
  0
LINE
  8
0
  6
CONTINUOUS
 62
     7
 10
542.6480580675691
 20
53.52189588868881
 11
543.5500000000001
 21
58.03160555084336
  0
LINE
  8
0
  6
CONTINUOUS
 62
     7
 10
542.05
 20
53.03160555084336
 11
542.648058067569
 21
53.52189588868881
  0
LINE
  8
0
  6
CONTINUOUS
 62
     7
 10
542.05
 20
53.03160555084336
 11
542.0495429114192
 21
53.03160555084335
  0
LINE
  8
0
  6
CONTINUOUS
 62
     7
 10
543.55
 20
58.03160555084336
 11
543.55
 21
97.03160555084337
  0
LINE
  8
0
  6
CONTINUOUS
 62
     7
 10
543.55
 20
105.0316055508434
 11
543.55
 21
122.5585174854246
  0
LINE
  8
0
  6
CONTINUOUS
 62
     7
 10
457.9504570885808
 20
53.03160555084335
 11
457.95
 21
53.03160555084336
  0
LINE
  8
0
  6
CONTINUOUS
 62
     7
 10
457.3519419324309
 20
53.5218958886888
 11
457.95
 21
53.03160555084336
  0
LINE
  8
0
  6
CONTINUOUS
 62
     7
 10
456.45
 20
58.03160555084336
 11
457.3519419324309
 21
53.5218958886888
  0
LINE
  8
0
  6
CONTINUOUS
 62
     7
 10
456.45
 20
105.0316055508434
 11
456.45
 21
122.5585174854246
  0
LINE
  8
0
  6
CONTINUOUS
 62
     7
 10
456.45
 20
58.03160555084336
 11
456.45
 21
97.03160555084337
  0
LINE
  8
0
  6
CONTINUOUS
 62
     7
 10
535.1106065959367
 20
139.4556768600995
 11
533.659488401963
 21
139.6974135247202
  0
LINE
  8
0
  6
CONTINUOUS
 62
     7
 10
466.340511598037
 20
139.6974135247202
 11
464.8893912979754
 21
139.4556765092537
  0
LINE
  8
0
  6
CONTINUOUS
 62
     7
 10
466.340511598037
 20
139.6974135247202
 11
466.353587480071
 21
136.0204582625502
  0
LINE
  8
0
  6
CONTINUOUS
 62
     7
 10
466.353587480071
 20
136.0204582625502
 11
464.9319415853877
 21
136.0204582625502
  0
LINE
  8
0
  6
CONTINUOUS
 62
     7
 10
533.6464125199291
 20
136.0204582625502
 11
533.659488401963
 21
139.6974135247202
  0
LINE
  8
0
  6
CONTINUOUS
 62
     7
 10
535.0680599029838
 20
136.0204582625502
 11
533.646412519929
 21
136.0204582625502
  0
LINE
  8
0
  6
CONTINUOUS
 62
     9
 10
533.646412519929
 20
136.0204582625502
 11
466.3535874800709
 21
136.0204582625502
  0
LINE
  8
0
  6
CONTINUOUS
 62
     7
 10
533.646412519929
 20
115.8316055508433
 11
533.646412519929
 21
136.0204582625502
  0
LINE
  8
0
  6
CONTINUOUS
 62
     7
 10
466.353587480071
 20
136.0204582625502
 11
466.353587480071
 21
115.8316055508433
  0
LINE
  8
0
  6
CONTINUOUS
 62
     7
 10
466.1233000263347
 20
67.03160555084334
 11
465.9505102795154
 21
53.03160555084339
  0
LINE
  8
0
  6
CONTINUOUS
 62
     7
 10
465.9505102795154
 20
53.03160555084339
 11
459.6407935885861
 21
53.03160555084338
  0
LINE
  8
0
  6
CONTINUOUS
 62
     7
 10
534.0494897204846
 20
53.03160555084339
 11
533.8766999736653
 21
67.03160555084332
  0
LINE
  8
0
  6
CONTINUOUS
 62
     7
 10
540.359206411414
 20
53.03160555084338
 11
534.0494897204848
 21
53.03160555084339
  0
LINE
  8
0
  6
CONTINUOUS
 62
     7
 10
534.0494897204846
 20
53.03160555084339
 11
465.9505102795154
 21
53.03160555084339
  0
ARC
  8
0
  6
CONTINUOUS
 62
     7
 10
537.81063240145
 20
152.3281377645657
 40
4.122416415198542
 50
104.218189781293
 51
123.6364721401479
  0
ARC
  8
0
  6
CONTINUOUS
 62
     7
 10
462.1821331454979
 20
152.3118368386498
 40
4.139996469217811
 50
56.40513315577645
 51
75.74111363597183
  0
ARC
  8
0
  6
CONTINUOUS
 62
     7
 10
535.8074616390203
 20
155.3463065672724
 40
0.4999999999999827
 50
124.1007478381237
 51
179.2902668233529
  0
ARC
  8
0
  6
CONTINUOUS
 62
     7
 10
464.1925383609797
 20
155.3463065672724
 40
0.5000000000000074
 50
0.7097331766471502
 51
55.89925216187404
  0
ENDBLK
  8
0
  0
BLOCK
  8
0
  2
D_FRAME_VIEW_1288
 70
     0
 10
0.0
 20
0.0
  0
LINE
  8
0
  6
CONTINUOUS
 62
     7
 10
718.0316055508433
 20
113.0316055508434
 11
718.0316055508433
 21
96.62105232720994
  0
LINE
  8
0
  6
CONTINUOUS
 62
     7
 10
718.0316055508433
 20
113.0316055508434
 11
701.6210523272099
 21
113.0316055508434
  0
LINE
  8
0
  6
CONTINUOUS
 62
     7
 10
744.5671394567761
 20
126.0940513913573
 11
731.0940513913573
 21
139.5671394567761
  0
LINE
  8
0
  6
CONTINUOUS
 62
     7
 10
701.6210523272099
 20
113.0316055508434
 11
663.0316055508434
 21
113.0316055508434
  0
LINE
  8
0
  6
CONTINUOUS
 62
     7
 10
663.0316055508433
 20
113.0316055508434
 11
663.0316055508433
 21
141.0316055508434
  0
LINE
  8
0
  6
CONTINUOUS
 62
     7
 10
663.0316055508433
 20
141.0316055508434
 11
702.0316055508433
 21
141.0316055508434
  0
LINE
  8
0
  6
CONTINUOUS
 62
     7
 10
702.0316055508433
 20
141.0316055508434
 11
710.0316055508433
 21
141.0316055508434
  0
LINE
  8
0
  6
CONTINUOUS
 62
     7
 10
710.0316055508433
 20
141.0316055508434
 11
727.5585174854244
 21
141.0316055508434
  0
LINE
  8
0
  6
CONTINUOUS
 62
     7
 10
658.5218958886888
 20
113.0316055508434
 11
663.0316055508434
 21
113.0316055508434
  0
LINE
  8
0
  6
CONTINUOUS
 62
     7
 10
663.0316055508433
 20
141.0316055508434
 11
658.5218958886887
 21
141.0316055508434
  0
LINE
  8
0
  6
CONTINUOUS
 62
     7
 10
718.0316055508433
 20
58.03160555084335
 11
746.0316055508433
 21
58.03160555084336
  0
LINE
  8
0
  6
CONTINUOUS
 62
     7
 10
718.0316055508433
 20
53.5218958886888
 11
718.0316055508433
 21
58.03160555084335
  0
LINE
  8
0
  6
CONTINUOUS
 62
     7
 10
746.0316055508433
 20
58.03160555084336
 11
746.0316055508433
 21
53.52189588868882
  0
LINE
  8
0
  6
CONTINUOUS
 62
     7
 10
718.0316055508433
 20
96.62105232720994
 11
718.0316055508433
 21
58.03160555084335
  0
LINE
  8
0
  6
CONTINUOUS
 62
     7
 10
746.0316055508433
 20
58.03160555084336
 11
746.0316055508433
 21
97.03160555084337
  0
LINE
  8
0
  6
CONTINUOUS
 62
     7
 10
746.0316055508433
 20
97.03160555084337
 11
746.0316055508433
 21
105.0316055508434
  0
LINE
  8
0
  6
CONTINUOUS
 62
     7
 10
746.0316055508433
 20
105.0316055508434
 11
746.0316055508433
 21
122.5585174854245
  0
LINE
  8
0
  6
CONTINUOUS
 62
     7
 10
746.0316055508433
 20
53.03160555084335
 11
718.0316055508433
 21
53.03160555084332
  0
LINE
  8
0
  6
CONTINUOUS
 62
     7
 10
718.0316055508433
 20
53.03160555084332
 11
718.0316055508433
 21
53.5218958886888
  0
LINE
  8
0
  6
CONTINUOUS
 62
     7
 10
658.0316055508432
 20
141.0316055508434
 11
658.0316055508432
 21
113.0316055508434
  0
LINE
  8
0
  6
CONTINUOUS
 62
     7
 10
658.0316055508432
 20
113.0316055508434
 11
658.5218958886887
 21
113.0316055508434
  0
LINE
  8
0
  6
CONTINUOUS
 62
     7
 10
779.622306805699
 20
58.18216245876675
 11
779.6103150163499
 21
58.17426448198503
  0
LINE
  8
0
  6
CONTINUOUS
 62
     7
 10
779.6103150163499
 20
58.17426448198505
 11
779.1355982215323
 21
58.03555477723961
  0
LINE
  8
0
  6
CONTINUOUS
 62
     7
 10
779.104795947468
 20
58.03160555084337
 11
779.1355982215324
 21
58.03555477724018
  0
LINE
  8
0
  6
CONTINUOUS
 62
     7
 10
663.174264481985
 20
174.61031501635
 11
663.0355547772396
 21
174.1355982215323
  0
LINE
  8
0
  6
CONTINUOUS
 62
     7
 10
663.0355547772401
 20
174.1355982215324
 11
663.0316055508433
 21
174.1047959474681
  0
LINE
  8
0
  6
CONTINUOUS
 62
     7
 10
663.1821624587667
 20
174.6223068056991
 11
663.174264481985
 21
174.61031501635
  0
ARC
  8
0
  6
CONTINUOUS
 62
     7
 10
741.0316055508433
 20
122.5585174854246
 40
5.000000000000003
 50
20.52933799473266
 51
45.0
  0
LINE
  8
0
  6
CONTINUOUS
 62
     7
 10
744.567139456776
 20
126.0940513913573
 11
731.0940513913572
 21
139.5671394567761
  0
ARC
  8
0
  6
CONTINUOUS
 62
     7
 10
727.5585174854245
 20
136.0316055508434
 40
5.000000000000003
 50
44.99999999999998
 51
69.47066200526734
  0
LINE
  8
0
  6
CONTINUOUS
 62
     7
 10
746.0316055508433
 20
58.03160555084336
 11
746.0316055508433
 21
97.03160555084337
  0
LINE
  8
0
  6
CONTINUOUS
 62
     7
 10
747.040729016242
 20
97.03160555084335
 11
746.0316055508433
 21
97.03160555084337
  0
LINE
  8
0
  6
CONTINUOUS
 62
     7
 10
747.040729016242
 20
97.03160555084335
 11
747.040729016242
 21
95.03290890304316
  0
LINE
  8
0
  6
CONTINUOUS
 62
     7
 10
748.0316055508433
 20
95.17446269370049
 11
747.0407290162422
 21
95.03290890304316
  0
LINE
  8
0
  6
CONTINUOUS
 62
     7
 10
748.0316055508433
 20
95.17446269370049
 11
748.0316055508433
 21
106.8887484079862
  0
LINE
  8
0
  6
CONTINUOUS
 62
     7
 10
747.040729016242
 20
107.0303021986435
 11
748.0316055508433
 21
106.8887484079862
  0
LINE
  8
0
  6
CONTINUOUS
 62
     7
 10
747.040729016242
 20
107.0303021986435
 11
747.040729016242
 21
105.0316055508433
  0
LINE
  8
0
  6
CONTINUOUS
 62
     7
 10
746.031605550841
 20
105.0316055508433
 11
747.0407290162419
 21
105.0316055508433
  0
LINE
  8
0
  6
CONTINUOUS
 62
     7
 10
746.031605550841
 20
105.0316055508433
 11
746.0316055508432
 21
122.5585174854246
  0
ARC
  8
0
  6
CONTINUOUS
 62
     7
 10
741.0316055508433
 20
122.5585174854246
 40
5.000000000000001
 50
0.0000000000001137
 51
20.52933799473271
  0
ARC
  8
0
  6
CONTINUOUS
 62
     7
 10
752.0316055508432
 20
104.2970147474532
 40
2.000000000000001
 50
0.0000000000001137
 51
57.86390582015344
  0
LINE
  8
0
  6
CONTINUOUS
 62
     7
 10
753.0954698086346
 20
105.9905887319588
 11
753.0954698086346
 21
96.07262236972794
  0
ARC
  8
0
  6
CONTINUOUS
 62
     7
 10
752.0316055508433
 20
97.76619635423347
 40
2.0
 50
302.1360941798476
 51
0.0000000000001705
  0
LINE
  8
0
  6
CONTINUOUS
 62
     7
 10
754.0316055508433
 20
97.76619635423349
 11
754.0316055508433
 21
104.2970147474532
  0
LINE
  8
0
  6
CONTINUOUS
 62
     7
 10
753.0316055508432
 20
96.03414554666462
 11
753.0316055508432
 21
106.0290655550221
  0
ARC
  8
0
  6
CONTINUOUS
 62
     7
 10
752.0316055508432
 20
104.2970147474532
 40
2.000000000000001
 50
60.00000000000045
 51
81.86989764584382
  0
LINE
  8
0
  6
CONTINUOUS
 62
     7
 10
752.0863463432358
 20
106.3094997233587
 11
752.3144482633179
 21
106.2769137347755
  0
LINE
  8
0
  6
CONTINUOUS
 62
     7
 10
752.0863463432358
 20
106.3094997233587
 11
752.0863463432358
 21
95.75371137832799
  0
LINE
  8
0
  6
CONTINUOUS
 62
     7
 10
752.3144482633179
 20
95.78629736691114
 11
752.0863463432358
 21
95.75371137832799
  0
ARC
  8
0
  6
CONTINUOUS
 62
     7
 10
752.0316055508433
 20
97.76619635423347
 40
2.0
 50
278.1301023541558
 51
300.0000000000005
  0
LINE
  8
0
  6
CONTINUOUS
 62
     7
 10
751.077222877837
 20
106.4536602184157
 11
752.0316055508432
 21
106.3173198365576
  0
LINE
  8
0
  6
CONTINUOUS
 62
     7
 10
751.077222877837
 20
106.4536602184157
 11
751.077222877837
 21
95.60955088327104
  0
LINE
  8
0
  6
CONTINUOUS
 62
     7
 10
752.0316055508433
 20
95.74589126512907
 11
751.0772228778371
 21
95.60955088327104
  0
LINE
  8
0
  6
CONTINUOUS
 62
     7
 10
752.0316055508433
 20
95.74589126512907
 11
752.0316055508433
 21
106.3173198365576
  0
LINE
  8
0
  6
CONTINUOUS
 62
     7
 10
750.0680994124383
 20
106.5978207134726
 11
751.0316055508432
 21
106.4601769794148
  0
LINE
  8
0
  6
CONTINUOUS
 62
     7
 10
750.0680994124383
 20
106.5978207134726
 11
750.0680994124383
 21
95.46539038821406
  0
LINE
  8
0
  6
CONTINUOUS
 62
     7
 10
751.0316055508433
 20
95.60303412227192
 11
750.0680994124384
 21
95.46539038821406
  0
LINE
  8
0
  6
CONTINUOUS
 62
     7
 10
751.0316055508433
 20
95.60303412227192
 11
751.0316055508433
 21
106.4601769794148
  0
LINE
  8
0
  6
CONTINUOUS
 62
     7
 10
749.0589759470395
 20
106.7419812085296
 11
750.0316055508432
 21
106.6030341222719
  0
LINE
  8
0
  6
CONTINUOUS
 62
     7
 10
749.0589759470395
 20
106.7419812085296
 11
749.0589759470395
 21
95.32122989315711
  0
LINE
  8
0
  6
CONTINUOUS
 62
     7
 10
750.0316055508433
 20
95.46017697941478
 11
749.0589759470396
 21
95.32122989315711
  0
LINE
  8
0
  6
CONTINUOUS
 62
     7
 10
750.0316055508433
 20
95.46017697941478
 11
750.0316055508433
 21
106.6030341222719
  0
LINE
  8
0
  6
CONTINUOUS
 62
     7
 10
748.0498524816408
 20
106.8861417035866
 11
749.0316055508432
 21
106.7458912651291
  0
LINE
  8
0
  6
CONTINUOUS
 62
     7
 10
748.0498524816408
 20
106.8861417035866
 11
748.0498524816408
 21
95.17706939810014
  0
LINE
  8
0
  6
CONTINUOUS
 62
     7
 10
749.0316055508433
 20
95.31731983655764
 11
748.0498524816409
 21
95.17706939810014
  0
LINE
  8
0
  6
CONTINUOUS
 62
     7
 10
749.0316055508433
 20
95.31731983655764
 11
749.0316055508433
 21
106.7458912651291
  0
ARC
  8
0
  6
CONTINUOUS
 62
     7
 10
727.5585174854245
 20
136.0316055508434
 40
5.000000000000001
 50
69.4706620052673
 51
89.9999999999999
  0
LINE
  8
0
  6
CONTINUOUS
 62
     7
 10
710.0316055508433
 20
141.0316055508411
 11
727.5585174854245
 21
141.0316055508433
  0
LINE
  8
0
  6
CONTINUOUS
 62
     7
 10
710.0316055508433
 20
141.0316055508411
 11
710.0316055508433
 21
142.0407290162421
  0
LINE
  8
0
  6
CONTINUOUS
 62
     7
 10
712.0303021986434
 20
142.0407290162421
 11
710.0316055508433
 21
142.0407290162421
  0
LINE
  8
0
  6
CONTINUOUS
 62
     7
 10
712.0303021986434
 20
142.0407290162421
 11
711.8887484079862
 21
143.0316055508433
  0
LINE
  8
0
  6
CONTINUOUS
 62
     7
 10
700.1744626937004
 20
143.0316055508434
 11
711.8887484079861
 21
143.0316055508433
  0
LINE
  8
0
  6
CONTINUOUS
 62
     7
 10
700.1744626937004
 20
143.0316055508434
 11
700.0329089030431
 21
142.0407290162421
  0
LINE
  8
0
  6
CONTINUOUS
 62
     7
 10
702.0316055508433
 20
142.0407290162421
 11
700.0329089030431
 21
142.0407290162421
  0
LINE
  8
0
  6
CONTINUOUS
 62
     7
 10
702.0316055508433
 20
142.0407290162421
 11
702.0316055508433
 21
141.0316055508434
  0
LINE
  8
0
  6
CONTINUOUS
 62
     7
 10
663.0316055508433
 20
141.0316055508434
 11
702.0316055508433
 21
141.0316055508434
  0
ARC
  8
0
  6
CONTINUOUS
 62
     7
 10
702.7661963542334
 20
147.0316055508433
 40
2.0
 50
89.99999999999982
 51
147.8639058201524
  0
LINE
  8
0
  6
CONTINUOUS
 62
     7
 10
710.9905887319587
 20
148.0954698086346
 11
701.0726223697279
 21
148.0954698086347
  0
ARC
  8
0
  6
CONTINUOUS
 62
     7
 10
709.2970147474532
 20
147.0316055508433
 40
2.000000000000001
 50
32.13609417984659
 51
89.99999999999991
  0
LINE
  8
0
  6
CONTINUOUS
 62
     7
 10
702.7661963542334
 20
149.0316055508433
 11
709.2970147474532
 21
149.0316055508433
  0
LINE
  8
0
  6
CONTINUOUS
 62
     7
 10
700.7862973669111
 20
147.314448263318
 11
700.7537113783279
 21
147.086346343236
  0
LINE
  8
0
  6
CONTINUOUS
 62
     7
 10
711.3094997233586
 20
147.0863463432359
 11
700.7537113783279
 21
147.086346343236
  0
LINE
  8
0
  6
CONTINUOUS
 62
     7
 10
711.3094997233586
 20
147.0863463432359
 11
711.2769137347755
 21
147.314448263318
  0
ARC
  8
0
  6
CONTINUOUS
 62
     7
 10
709.2970147474532
 20
147.0316055508433
 40
2.000000000000001
 50
8.13010235415623
 51
29.99999999999961
  0
LINE
  8
0
  6
CONTINUOUS
 62
     7
 10
701.0341455466645
 20
148.0316055508433
 11
711.0290655550219
 21
148.0316055508433
  0
ARC
  8
0
  6
CONTINUOUS
 62
     7
 10
702.7661963542334
 20
147.0316055508433
 40
2.0
 50
149.9999999999995
 51
171.8698976458442
  0
LINE
  8
0
  6
CONTINUOUS
 62
     7
 10
700.745891265129
 20
147.0316055508434
 11
700.6095508832709
 21
146.0772228778372
  0
LINE
  8
0
  6
CONTINUOUS
 62
     7
 10
711.4536602184156
 20
146.0772228778371
 11
700.609550883271
 21
146.0772228778372
  0
LINE
  8
0
  6
CONTINUOUS
 62
     7
 10
711.4536602184156
 20
146.0772228778371
 11
711.3173198365575
 21
147.0316055508433
  0
LINE
  8
0
  6
CONTINUOUS
 62
     7
 10
700.745891265129
 20
147.0316055508434
 11
711.3173198365575
 21
147.0316055508433
  0
LINE
  8
0
  6
CONTINUOUS
 62
     7
 10
700.6030341222719
 20
146.0316055508434
 11
700.465390388214
 21
145.0680994124384
  0
LINE
  8
0
  6
CONTINUOUS
 62
     7
 10
711.5978207134725
 20
145.0680994124384
 11
700.465390388214
 21
145.0680994124384
  0
LINE
  8
0
  6
CONTINUOUS
 62
     7
 10
711.5978207134725
 20
145.0680994124384
 11
711.4601769794147
 21
146.0316055508433
  0
LINE
  8
0
  6
CONTINUOUS
 62
     7
 10
700.6030341222719
 20
146.0316055508434
 11
711.4601769794148
 21
146.0316055508433
  0
LINE
  8
0
  6
CONTINUOUS
 62
     7
 10
700.4601769794148
 20
145.0316055508434
 11
700.321229893157
 21
144.0589759470396
  0
LINE
  8
0
  6
CONTINUOUS
 62
     7
 10
711.7419812085296
 20
144.0589759470396
 11
700.3212298931571
 21
144.0589759470396
  0
LINE
  8
0
  6
CONTINUOUS
 62
     7
 10
711.7419812085296
 20
144.0589759470396
 11
711.6030341222719
 21
145.0316055508433
  0
LINE
  8
0
  6
CONTINUOUS
 62
     7
 10
700.4601769794148
 20
145.0316055508434
 11
711.6030341222719
 21
145.0316055508433
  0
LINE
  8
0
  6
CONTINUOUS
 62
     7
 10
700.3173198365577
 20
144.0316055508434
 11
700.1770693981002
 21
143.0498524816409
  0
LINE
  8
0
  6
CONTINUOUS
 62
     7
 10
711.8861417035865
 20
143.0498524816408
 11
700.1770693981001
 21
143.0498524816409
  0
LINE
  8
0
  6
CONTINUOUS
 62
     7
 10
711.8861417035865
 20
143.0498524816408
 11
711.745891265129
 21
144.0316055508433
  0
LINE
  8
0
  6
CONTINUOUS
 62
     7
 10
700.3173198365577
 20
144.0316055508434
 11
711.7458912651291
 21
144.0316055508433
  0
LINE
  8
0
  6
CONTINUOUS
 62
     7
 10
746.0316055508433
 20
53.5218958886888
 11
746.0316055508433
 21
58.03160555084336
  0
LINE
  8
0
  6
CONTINUOUS
 62
     7
 10
746.0316055508433
 20
58.03160555084336
 11
779.104795947468
 21
58.03160555084337
  0
LINE
  8
0
  6
CONTINUOUS
 62
     7
 10
663.0316055508433
 20
141.0316055508434
 11
663.0316055508433
 21
174.1047959474681
  0
LINE
  8
0
  6
CONTINUOUS
 62
     7
 10
658.5218958886888
 20
141.0316055508434
 11
663.0316055508434
 21
141.0316055508434
  0
LINE
  8
0
  6
CONTINUOUS
 62
     7
 10
747.040729016242
 20
97.03160555084335
 11
748.0316055508433
 21
97.03160555084337
  0
LINE
  8
0
  6
CONTINUOUS
 62
     7
 10
702.0316055508433
 20
142.0407290162421
 11
702.0316055508433
 21
143.0316055508434
  0
LINE
  8
0
  6
CONTINUOUS
 62
     7
 10
748.0316055508432
 20
105.0316055508433
 11
747.0407290162419
 21
105.0316055508433
  0
LINE
  8
0
  6
CONTINUOUS
 62
     7
 10
710.0316055508433
 20
143.0316055508433
 11
710.0316055508433
 21
142.0407290162421
  0
LINE
  8
0
  6
CONTINUOUS
 62
     7
 10
663.1800217762848
 20
176.3986913925112
 11
663.1730921454571
 21
176.4268723178474
  0
LINE
  8
0
  6
CONTINUOUS
 62
     7
 10
663.1800217762848
 20
176.3986913925112
 11
663.1821624587668
 21
174.6223068056991
  0
LINE
  8
0
  6
CONTINUOUS
 62
     7
 10
658.5178380130012
 20
173.6790297225532
 11
658.517744949577
 21
173.6816080688534
  0
LINE
  8
0
  6
CONTINUOUS
 62
     7
 10
781.3986913925112
 20
58.18002177628475
 11
779.622306805699
 21
58.18216245876677
  0
LINE
  8
0
  6
CONTINUOUS
 62
     7
 10
781.4268723178474
 20
58.17309214545723
 11
781.3986913925112
 21
58.18002177628479
  0
LINE
  8
0
  6
CONTINUOUS
 62
     7
 10
778.1873768259354
 20
53.03160555084337
 11
777.6955492827951
 21
53.03160555084337
  0
LINE
  8
0
  6
CONTINUOUS
 62
     7
 10
658.0316055508432
 20
173.1873768259355
 11
658.0316055508432
 21
172.6955492827952
  0
LINE
  8
0
  6
CONTINUOUS
 62
     7
 10
777.6955492827951
 20
53.03160555084337
 11
746.0316055508432
 21
53.03160555084335
  0
LINE
  8
0
  6
CONTINUOUS
 62
     7
 10
746.0316055508433
 20
53.03160555084335
 11
746.0316055508433
 21
53.5218958886888
  0
LINE
  8
0
  6
CONTINUOUS
 62
     7
 10
658.0316055508432
 20
172.6955492827952
 11
658.0316055508432
 21
141.0316055508433
  0
LINE
  8
0
  6
CONTINUOUS
 62
     7
 10
658.0316055508432
 20
141.0316055508434
 11
658.5218958886887
 21
141.0316055508434
  0
LINE
  8
0
  6
CONTINUOUS
 62
     7
 10
779.8976282027583
 20
53.03160555084338
 11
778.1873768259354
 21
53.03160555084337
  0
LINE
  8
0
  6
CONTINUOUS
 62
     7
 10
658.0316055508433
 20
174.8976282027584
 11
658.0316055508433
 21
173.1873768259355
  0
LINE
  8
0
  6
CONTINUOUS
 62
     7
 10
663.0444678148434
 20
176.5316055508434
 11
663.1730921454573
 21
176.4268723178474
  0
LINE
  8
0
  6
CONTINUOUS
 62
     7
 10
698.2804613546851
 20
176.5316055508434
 11
663.0444678148433
 21
176.5316055508434
  0
LINE
  8
0
  6
CONTINUOUS
 62
     7
 10
781.5316055508433
 20
93.2804613546852
 11
781.5316055508433
 21
58.04446781484339
  0
LINE
  8
0
  6
CONTINUOUS
 62
     7
 10
781.5316055508433
 20
58.04446781484339
 11
781.4268723178474
 21
58.17309214545724
  0
LINE
  8
0
  6
CONTINUOUS
 62
     7
 10
663.0316055508433
 20
176.5316055508434
 11
658.5218958886887
 21
175.6296636184125
  0
LINE
  8
0
  6
CONTINUOUS
 62
     7
 10
663.0444678148435
 20
176.5316055508433
 11
663.0316055508432
 21
176.5316055508433
  0
LINE
  8
0
  6
CONTINUOUS
 62
     7
 10
781.5316055508433
 20
58.04446781484359
 11
781.5316055508433
 21
58.0316055508433
  0
LINE
  8
0
  6
CONTINUOUS
 62
     7
 10
781.5316055508433
 20
58.03160555084336
 11
780.6296636184125
 21
53.52189588868883
  0
ARC
  8
0
  6
CONTINUOUS
 62
     7
 10
773.531088521038
 20
136.0202441017926
 40
8.000517032671683
 50
0.0015337143206011
 51
44.99846628567963
  0
ARC
  8
0
  6
CONTINUOUS
 62
     7
 10
741.0202441017925
 20
168.531088521038
 40
8.000517032671683
 50
45.00153371432035
 51
89.9984662856794
  0
LINE
  8
0
  6
CONTINUOUS
 62
     7
 10
762.932886156189
 20
157.9328861561891
 11
779.1884598003355
 21
141.6773125120425
  0
LINE
  8
0
  6
CONTINUOUS
 62
     7
 10
762.932886156189
 20
157.9328861561891
 11
746.6773125120424
 21
174.1884598003357
  0
LINE
  8
0
  6
CONTINUOUS
 62
     7
 10
781.5316055508433
 20
136.0204582625502
 11
781.5316055508433
 21
93.2804613546852
  0
LINE
  8
0
  6
CONTINUOUS
 62
     7
 10
741.0204582625502
 20
176.5316055508434
 11
698.2804613546853
 21
176.5316055508434
  0
LINE
  8
0
  6
CONTINUOUS
 62
     7
 10
780.62966038888
 20
53.52189324110559
 11
780.0316055508432
 21
53.03160555084338
  0
LINE
  8
0
  6
CONTINUOUS
 62
     7
 10
780.0316055508433
 20
53.03160555084338
 11
779.8976282027584
 21
53.03160555084338
  0
LINE
  8
0
  6
CONTINUOUS
 62
     7
 10
658.5218932411055
 20
175.6296603888801
 11
658.0316055508432
 21
175.0316055508434
  0
LINE
  8
0
  6
CONTINUOUS
 62
     7
 10
658.0316055508433
 20
175.0316055508434
 11
658.0316055508433
 21
174.8976282027584
  0
ENDBLK
  8
0
  0
ENDSEC
  0
SECTION
  2
ENTITIES
  0
TEXT
  8
0
  6
CONTINUOUS
 62
     7
 10
598.8463923971489
 20
0.5424534200325173
 40
8.0
  1
MIDD-80
  0
INSERT
  8
0
 62
     7
  2
D_FRAME_DRAWING_17
 10
0.0
 20
0.0
 30
0.0
  0
LINE
  8
0
  6
CENTER
 62
     1
 10
500.0
 20
265.0316055508434
 11
500.0
 21
394.5316055508434
  0
LINE
  8
0
  6
CENTER
 62
     1
 10
500.0
 20
50.03160555084334
 11
500.0
 21
179.5316055508434
  0
LINE
  8
0
  6
CENTER
 62
     1
 10
655.0316055508432
 20
50.03160555084332
 11
784.5316055508433
 21
179.5316055508434
  0
INSERT
  8
0
  6
CONTINUOUS
 62
     7
  2
D_FRAME_VIEW_2296
 10
0.0
 20
0.0
 30
0.0
  0
INSERT
  8
0
  6
CONTINUOUS
 62
     7
  2
D_FRAME_VIEW_2012
 10
0.0
 20
0.0
 30
0.0
  0
INSERT
  8
0
  6
CONTINUOUS
 62
     7
  2
D_FRAME_VIEW_1288
 10
0.0
 20
0.0
 30
0.0
  0
ENDSEC
  0
EOF
