  0
SECTION
  2
HEADER
  9
$ACADVER
  1
AC1014
  9
$ACADMAINTVER
 70
     9
  9
$DWGCODEPAGE
  3
ANSI_932
  9
$INSBASE
 10
0.0
 20
0.0
 30
0.0
  9
$EXTMIN
 10
626.0
 20
73.02956733775167
 30
0.0
  9
$EXTMAX
 10
785.0
 20
137.5
 30
0.0
  9
$LIMMIN
 10
0.0
 20
0.0
  9
$LIMMAX
 10
12.0
 20
9.0
  9
$ORTHOMODE
 70
     0
  9
$REGENMODE
 70
     1
  9
$FILLMODE
 70
     1
  9
$QTEXTMODE
 70
     0
  9
$MIRRTEXT
 70
     1
  9
$DRAGMODE
 70
     2
  9
$LTSCALE
 40
1.0
  9
$OSMODE
 70
    37
  9
$ATTMODE
 70
     1
  9
$TEXTSIZE
 40
0.2
  9
$TRACEWID
 40
0.05
  9
$TEXTSTYLE
  7
STANDARD
  9
$CLAYER
  8
0
  9
$CELTYPE
  6
BYLAYER
  9
$CECOLOR
 62
   256
  9
$CELTSCALE
 40
1.0
  9
$DELOBJ
 70
     1
  9
$DISPSILH
 70
     0
  9
$DIMSCALE
 40
1.0
  9
$DIMASZ
 40
3.0
  9
$DIMEXO
 40
0.0625
  9
$DIMDLI
 40
0.38
  9
$DIMRND
 40
0.0
  9
$DIMDLE
 40
0.0
  9
$DIMEXE
 40
1.5
  9
$DIMTP
 40
0.0
  9
$DIMTM
 40
0.0
  9
$DIMTXT
 40
3.0
  9
$DIMCEN
 40
0.09
  9
$DIMTSZ
 40
0.0
  9
$DIMTOL
 70
     0
  9
$DIMLIM
 70
     0
  9
$DIMTIH
 70
     1
  9
$DIMTOH
 70
     1
  9
$DIMSE1
 70
     0
  9
$DIMSE2
 70
     0
  9
$DIMTAD
 70
     1
  9
$DIMZIN
 70
     0
  9
$DIMBLK
  1

  9
$DIMASO
 70
     1
  9
$DIMSHO
 70
     1
  9
$DIMPOST
  1

  9
$DIMAPOST
  1

  9
$DIMALT
 70
     0
  9
$DIMALTD
 70
     2
  9
$DIMALTF
 40
25.4
  9
$DIMLFAC
 40
1.0
  9
$DIMTOFL
 70
     0
  9
$DIMTVP
 40
0.0
  9
$DIMTIX
 70
     0
  9
$DIMSOXD
 70
     0
  9
$DIMSAH
 70
     0
  9
$DIMBLK1
  1

  9
$DIMBLK2
  1

  9
$DIMSTYLE
  2
STANDARD
  9
$DIMCLRD
 70
     0
  9
$DIMCLRE
 70
     0
  9
$DIMCLRT
 70
     0
  9
$DIMTFAC
 40
1.0
  9
$DIMGAP
 40
1.5
  9
$DIMJUST
 70
     0
  9
$DIMSD1
 70
     0
  9
$DIMSD2
 70
     0
  9
$DIMTOLJ
 70
     1
  9
$DIMTZIN
 70
     0
  9
$DIMALTZ
 70
     0
  9
$DIMALTTZ
 70
     0
  9
$DIMFIT
 70
     3
  9
$DIMUPT
 70
     0
  9
$DIMUNIT
 70
     2
  9
$DIMDEC
 70
     2
  9
$DIMTDEC
 70
     4
  9
$DIMALTU
 70
     2
  9
$DIMALTTD
 70
     2
  9
$DIMTXSTY
  7
ＭＳ_ゴシック
  9
$DIMAUNIT
 70
     0
  9
$LUNITS
 70
     2
  9
$LUPREC
 70
     4
  9
$SKETCHINC
 40
0.1
  9
$FILLETRAD
 40
0.5
  9
$AUNITS
 70
     0
  9
$AUPREC
 70
     0
  9
$MENU
  1
.
  9
$ELEVATION
 40
0.0
  9
$PELEVATION
 40
0.0
  9
$THICKNESS
 40
0.0
  9
$LIMCHECK
 70
     0
  9
$CHAMFERA
 40
0.0
  9
$CHAMFERB
 40
0.0
  9
$CHAMFERC
 40
0.0
  9
$CHAMFERD
 40
0.0
  9
$SKPOLY
 70
     0
  9
$TDCREATE
 40
2459230.561937303
  9
$TDUPDATE
 40
2459230.561937489
  9
$TDINDWG
 40
0.0000000116
  9
$TDUSRTIMER
 40
0.0000000116
  9
$USRTIMER
 70
     1
  9
$ANGBASE
 50
0.0
  9
$ANGDIR
 70
     0
  9
$PDMODE
 70
     0
  9
$PDSIZE
 40
0.0
  9
$PLINEWID
 40
0.0
  9
$COORDS
 70
     1
  9
$SPLFRAME
 70
     0
  9
$SPLINETYPE
 70
     6
  9
$SPLINESEGS
 70
     8
  9
$ATTDIA
 70
     0
  9
$ATTREQ
 70
     1
  9
$HANDLING
 70
     1
  9
$HANDSEED
  5
153
  9
$SURFTAB1
 70
     6
  9
$SURFTAB2
 70
     6
  9
$SURFTYPE
 70
     6
  9
$SURFU
 70
     6
  9
$SURFV
 70
     6
  9
$UCSNAME
  2

  9
$UCSORG
 10
0.0
 20
0.0
 30
0.0
  9
$UCSXDIR
 10
1.0
 20
0.0
 30
0.0
  9
$UCSYDIR
 10
0.0
 20
1.0
 30
0.0
  9
$PUCSNAME
  2

  9
$PUCSORG
 10
0.0
 20
0.0
 30
0.0
  9
$PUCSXDIR
 10
1.0
 20
0.0
 30
0.0
  9
$PUCSYDIR
 10
0.0
 20
1.0
 30
0.0
  9
$USERI1
 70
     0
  9
$USERI2
 70
     0
  9
$USERI3
 70
     0
  9
$USERI4
 70
     0
  9
$USERI5
 70
     0
  9
$USERR1
 40
0.0
  9
$USERR2
 40
0.0
  9
$USERR3
 40
0.0
  9
$USERR4
 40
0.0
  9
$USERR5
 40
0.0
  9
$WORLDVIEW
 70
     1
  9
$SHADEDGE
 70
     3
  9
$SHADEDIF
 70
    70
  9
$TILEMODE
 70
     1
  9
$MAXACTVP
 70
    64
  9
$PINSBASE
 10
0.0
 20
0.0
 30
0.0
  9
$PLIMCHECK
 70
     0
  9
$PEXTMIN
 10
1.000000000000000E+20
 20
1.000000000000000E+20
 30
1.000000000000000E+20
  9
$PEXTMAX
 10
-1.000000000000000E+20
 20
-1.000000000000000E+20
 30
-1.000000000000000E+20
  9
$PLIMMIN
 10
0.0
 20
0.0
  9
$PLIMMAX
 10
12.0
 20
9.0
  9
$UNITMODE
 70
     0
  9
$VISRETAIN
 70
     1
  9
$PLINEGEN
 70
     0
  9
$PSLTSCALE
 70
     1
  9
$TREEDEPTH
 70
  3020
  9
$PICKSTYLE
 70
     1
  9
$CMLSTYLE
  2
STANDARD
  9
$CMLJUST
 70
     0
  9
$CMLSCALE
 40
1.0
  9
$PROXYGRAPHICS
 70
     1
  9
$MEASUREMENT
 70
     1
  0
ENDSEC
  0
SECTION
  2
CLASSES
  0
CLASS
  1
ACDBDICTIONARYWDFLT
  2
AcDbDictionaryWithDefault
  3
ObjectDBX Classes
 90
        0
280
     0
281
     0
  0
CLASS
  1
VISUALSTYLE
  2
AcDbVisualStyle
  3
ObjectDBX Classes
 90
     4095
280
     0
281
     0
  0
CLASS
  1
MATERIAL
  2
AcDbMaterial
  3
ObjectDBX Classes
 90
     1153
280
     0
281
     0
  0
CLASS
  1
SCALE
  2
AcDbScale
  3
ObjectDBX Classes
 90
     1153
280
     0
281
     0
  0
CLASS
  1
TABLESTYLE
  2
AcDbTableStyle
  3
ObjectDBX Classes
 90
     4095
280
     0
281
     0
  0
CLASS
  1
MLEADERSTYLE
  2
AcDbMLeaderStyle
  3
ACDB_MLEADERSTYLE_CLASS
 90
     4095
280
     0
281
     0
  0
CLASS
  1
SUN
  2
AcDbSun
  3
SCENEOE
 90
     1153
280
     0
281
     0
  0
CLASS
  1
DICTIONARYVAR
  2
AcDbDictionaryVar
  3
ObjectDBX Classes
 90
        0
280
     0
281
     0
  0
CLASS
  1
XRECORD
  2
AcDbXrecord
  3
ObjectDBX Classes
 90
        0
280
     0
281
     0
  0
CLASS
  1
LWPOLYLINE
  2
AcDbPolyline
  3
ObjectDBX Classes
 90
        0
280
     0
281
     1
  0
CLASS
  1
HATCH
  2
AcDbHatch
  3
ObjectDBX Classes
 90
        0
280
     0
281
     1
  0
CLASS
  1
ACDBPLACEHOLDER
  2
AcDbPlaceHolder
  3
ObjectDBX Classes
 90
        0
280
     0
281
     0
  0
CLASS
  1
LAYOUT
  2
AcDbLayout
  3
ObjectDBX Classes
 90
        0
280
     0
281
     0
  0
ENDSEC
  0
SECTION
  2
TABLES
  0
TABLE
  2
VPORT
  5
8
102
{ACAD_XDICTIONARY
360
148
102
}
330
0
100
AcDbSymbolTable
 70
     1
  0
VPORT
  5
29
330
8
100
AcDbSymbolTableRecord
100
AcDbViewportTableRecord
  2
*ACTIVE
 70
     0
 10
0.0
 20
0.0
 11
1.0
 21
1.0
 12
705.5
 22
105.2647836688758
 13
0.0
 23
0.0
 14
0.5
 24
0.5
 15
0.5
 25
0.5
 16
0.0
 26
0.0
 36
1.0
 17
0.0
 27
0.0
 37
0.0
 40
64.47043266224833
 41
1.6
 42
50.0
 43
0.0
 44
0.0
 50
0.0
 51
0.0
 71
     0
 72
   100
 73
     1
 74
     3
 75
     0
 76
     0
 77
     0
 78
     0
  0
ENDTAB
  0
TABLE
  2
LTYPE
  5
5
330
0
100
AcDbSymbolTable
 70
     2
  0
LTYPE
  5
14
330
5
100
AcDbSymbolTableRecord
100
AcDbLinetypeTableRecord
  2
BYBLOCK
 70
     0
  3

 72
    65
 73
     0
 40
0.0
  0
LTYPE
  5
15
330
5
100
AcDbSymbolTableRecord
100
AcDbLinetypeTableRecord
  2
BYLAYER
 70
     0
  3

 72
    65
 73
     0
 40
0.0
  0
LTYPE
  5
16
330
5
100
AcDbSymbolTableRecord
100
AcDbLinetypeTableRecord
  2
CONTINUOUS
 70
     0
  3
Solid line
 72
    65
 73
     0
 40
0.0
  0
LTYPE
  5
75
330
5
100
AcDbSymbolTableRecord
100
AcDbLinetypeTableRecord
  2
CENTER
 70
     0
  3

 72
    65
 73
     0
 40
0.0
  0
ENDTAB
  0
TABLE
  2
LAYER
  5
2
330
0
100
AcDbSymbolTable
 70
     2
  0
LAYER
  5
10
330
2
100
AcDbSymbolTableRecord
100
AcDbLayerTableRecord
  2
0
 70
     0
 62
     7
  6
CONTINUOUS
  0
LAYER
  5
6E
330
2
100
AcDbSymbolTableRecord
100
AcDbLayerTableRecord
  2
2
 70
     0
 62
     7
  6
CONTINUOUS
  0
ENDTAB
  0
TABLE
  2
STYLE
  5
3
330
0
100
AcDbSymbolTable
 70
     2
  0
STYLE
  5
11
330
3
100
AcDbSymbolTableRecord
100
AcDbTextStyleTableRecord
  2
STANDARD
 70
     0
 40
0.0
 41
1.0
 50
0.0
 71
     0
 42
0.2
  3
txt
  4

  0
STYLE
  5
6F
330
3
100
AcDbSymbolTableRecord
100
AcDbTextStyleTableRecord
  2
ＭＳ_ゴシック
 70
     0
 40
0.0
 41
1.0
 50
0.0
 71
     0
 42
0.2
  3
ＭＳ ゴシック.shx
  4

  0
ENDTAB
  0
TABLE
  2
VIEW
  5
6
330
0
100
AcDbSymbolTable
 70
     0
  0
ENDTAB
  0
TABLE
  2
UCS
  5
7
330
0
100
AcDbSymbolTable
 70
     0
  0
ENDTAB
  0
TABLE
  2
APPID
  5
9
330
0
100
AcDbSymbolTable
 70
     2
  0
APPID
  5
12
330
9
100
AcDbSymbolTableRecord
100
AcDbRegAppTableRecord
  2
ACAD
 70
     0
  0
APPID
  5
152
330
9
100
AcDbSymbolTableRecord
100
AcDbRegAppTableRecord
  2
ACAD_MLEADERVER
 70
     0
  0
ENDTAB
  0
TABLE
  2
DIMSTYLE
  5
A
330
0
100
AcDbSymbolTable
 70
     1
  0
DIMSTYLE
105
27
330
A
100
AcDbSymbolTableRecord
100
AcDbDimStyleTableRecord
  2
STANDARD
 70
     0
  3

  4

  5

  6

  7

 40
1.0
 41
0.18
 42
0.0625
 43
0.38
 44
0.18
 45
0.0
 46
0.0
 47
0.0
 48
0.0
140
0.18
141
0.09
142
0.0
143
25.4
144
1.0
145
0.0
146
1.0
147
0.09
 71
     0
 72
     0
 73
     1
 74
     1
 75
     0
 76
     0
 77
     0
 78
     0
170
     0
171
     2
172
     0
173
     0
174
     0
175
     0
176
     0
177
     0
178
     0
270
     2
271
     4
272
     4
273
     2
274
     2
340
11
275
     0
280
     0
281
     0
282
     0
283
     1
284
     0
285
     0
286
     0
287
     3
288
     0
  0
ENDTAB
  0
TABLE
  2
BLOCK_RECORD
  5
1
330
0
100
AcDbSymbolTable
 70
     0
  0
BLOCK_RECORD
  5
1F
330
1
100
AcDbSymbolTableRecord
100
AcDbBlockTableRecord
  2
*MODEL_SPACE
  0
BLOCK_RECORD
  5
1B
330
1
100
AcDbSymbolTableRecord
100
AcDbBlockTableRecord
  2
*PAPER_SPACE
  0
ENDTAB
  0
ENDSEC
  0
SECTION
  2
BLOCKS
  0
BLOCK
  5
20
330
1F
100
AcDbEntity
  8
0
100
AcDbBlockBegin
  2
*MODEL_SPACE
 70
     0
 10
0.0
 20
0.0
 30
0.0
  3
*MODEL_SPACE
  1

  0
ENDBLK
  5
21
330
1F
100
AcDbEntity
  8
0
100
AcDbBlockEnd
  0
BLOCK
  5
1C
330
1B
100
AcDbEntity
 67
     1
  8
0
100
AcDbBlockBegin
  2
*PAPER_SPACE
 70
     0
 10
0.0
 20
0.0
 30
0.0
  3
*PAPER_SPACE
  1

  0
ENDBLK
  5
1D
330
1B
100
AcDbEntity
 67
     1
  8
0
100
AcDbBlockEnd
  0
ENDSEC
  0
SECTION
  2
ENTITIES
  0
LWPOLYLINE
  5
70
330
1F
100
AcDbEntity
  8
2
  6
CONTINUOUS
 62
     7
100
AcDbPolyline
 90
       30
 70
     0
 43
0.0
 10
691.4
 20
116.8812443011608
 10
691.3480842384005
 20
116.8799060906074
 10
691.298305003832
 20
116.8760996064126
 10
691.2487791407596
 20
116.8698323146021
 10
691.1996302184839
 20
116.8611198345158
 10
691.1509825429989
 20
116.8499843290402
 10
691.1029590654064
 20
116.8364543494331
 10
691.0556810195267
 20
116.8205647444875
 10
691.0092675684898
 20
116.8023565462343
 10
690.9638354607746
 20
116.7818768327555
 10
690.919498697631
 20
116.7591785690558
 10
690.8763682137327
 20
116.7343204271543
 10
690.8345515727727
 20
116.7073665867725
 10
690.794152679552
 20
116.6783865181864
 10
690.7552715099214
 20
116.647454748993
 10
690.7180038597106
 20
116.6146506166879
 10
690.6824411135276
 20
116.5800580090735
 10
690.6486700340452
 20
116.5437650945947
 10
690.6167725721016
 20
116.5058640447409
 10
690.5868256976579
 20
116.4664507506409
 10
690.5589012513627
 20
116.4256245359282
 10
690.533065816201
 20
116.3834878678496
 10
690.5093806084484
 20
116.3401460684489
 10
690.4879013869264
 20
116.2957070274703
 10
690.4686783793571
 20
116.2502809184139
 10
690.4517562244745
 20
116.2039799189277
 10
690.4371739284358
 20
116.1569179364601
 10
690.4249648340202
 20
116.109210339826
 10
690.415156601099
 20
116.0609736970631
 10
690.4125716933535
 20
116.0457117194547
  0
LWPOLYLINE
  5
71
330
1F
100
AcDbEntity
  8
2
  6
CONTINUOUS
 62
     7
100
AcDbPolyline
 90
       35
 70
     0
 43
0.0
 10
705.4809530981279
 20
107.9479055466999
 10
705.4820966711553
 20
107.936884223953
 10
705.4834686411135
 20
107.9259662810348
 10
705.4850701232514
 20
107.9151805897315
 10
705.4869022328179
 20
107.9045560218296
 10
705.4890352369714
 20
107.8937922581052
 10
705.4914224742396
 20
107.8832187479489
 10
705.4940644339014
 20
107.872863812854
 10
705.4969616052356
 20
107.8627557743138
 10
705.500023771431
 20
107.8531881685444
 10
705.5033359213172
 20
107.8438672116517
 10
705.506896450065
 20
107.8348137970233
 10
705.5107037528451
 20
107.8260488180465
 10
705.5148789255667
 20
107.8173464673104
 10
705.5193221778312
 20
107.8089562472157
 10
705.5240284974486
 20
107.8008933026306
 10
705.5289928722292
 20
107.7931727784234
 10
705.5360794281678
 20
107.7833441300367
 10
705.5436491359267
 20
107.7741234948676
 10
705.551678912219
 20
107.7655170361644
 10
705.5601456737579
 20
107.7575309171749
 10
705.5690263372563
 20
107.7501713011474
 10
705.5782978194275
 20
107.74344435133
 10
705.5882694783778
 20
107.7371422141611
 10
705.5986503833919
 20
107.7314435575262
 10
705.609411226346
 20
107.7263285047895
 10
705.6205226991161
 20
107.721777179315
 10
705.6363140635415
 20
107.7163955614245
 10
705.6527109192107
 20
107.7119316243469
 10
705.6696467124262
 20
107.7083127772776
 10
705.6903665029215
 20
107.7050069482611
 10
705.7117692119848
 20
107.7026402169738
 10
705.7337775180634
 20
107.701095122467
 10
705.7563140996041
 20
107.700254203792
 10
705.7793016350538
 20
107.7
  0
ARC
  5
72
330
1F
100
AcDbEntity
  8
2
  6
CONTINUOUS
 62
     7
100
AcDbCircle
 10
-743.3
 20
104.9497844066268
 30
0.0
 40
0.2999999999999874
210
0.0
220
0.0
230
-1.0
100
AcDbArc
 50
280.4374753511179
 51
0.0
  0
ARC
  5
73
330
1F
100
AcDbEntity
  8
2
  6
CONTINUOUS
 62
     7
100
AcDbCircle
 10
-747.0740106454529
 20
131.0
 30
0.0
 40
2.999999999999975
210
0.0
220
0.0
230
-1.0
100
AcDbArc
 50
79.56252464888185
 51
90.0
  0
LINE
  5
74
330
1F
100
AcDbEntity
  8
0
  6
CENTER
 62
     1
100
AcDbLine
 10
763.0
 20
100.0
 30
0.0
 11
763.0
 21
137.5
 31
0.0
  0
LINE
  5
76
330
1F
100
AcDbEntity
  8
2
  6
CONTINUOUS
 62
     7
100
AcDbLine
 10
743.0
 20
104.9497844066268
 30
0.0
 11
743.0
 21
133.0502155933733
 31
0.0
  0
ARC
  5
77
330
1F
100
AcDbEntity
  8
2
  6
CONTINUOUS
 62
     7
100
AcDbCircle
 10
-747.0740106454529
 20
107.0
 30
0.0
 40
3.000000000000003
210
0.0
220
0.0
230
-1.0
100
AcDbArc
 50
270.0
 51
280.4374753511181
  0
LINE
  5
78
330
1F
100
AcDbEntity
  8
0
  6
CENTER
 62
     1
100
AcDbLine
 10
740.0
 20
119.0
 30
0.0
 11
785.0
 21
119.0
 31
0.0
  0
LINE
  5
79
330
1F
100
AcDbEntity
  8
2
  6
CONTINUOUS
 62
     7
100
AcDbLine
 10
746.530523357022
 20
104.0496404342328
 30
0.0
 11
743.2456512711569
 21
104.6547484500501
 31
0.0
  0
ARC
  5
7A
330
1F
100
AcDbEntity
  8
2
  6
CONTINUOUS
 62
     7
100
AcDbCircle
 10
-778.9259893545471
 20
107.0
 30
0.0
 40
2.999999999999989
210
0.0
220
0.0
230
-1.0
100
AcDbArc
 50
259.5625246488819
 51
269.9999999999999
  0
ARC
  5
7B
330
1F
100
AcDbEntity
  8
2
  6
CONTINUOUS
 62
     7
100
AcDbCircle
 10
-778.9259893545471
 20
131.0
 30
0.0
 40
3.000000000000003
210
0.0
220
0.0
230
-1.0
100
AcDbArc
 50
90.0
 51
100.4374753511181
  0
ARC
  5
7C
330
1F
100
AcDbEntity
  8
2
  6
CONTINUOUS
 62
     7
100
AcDbCircle
 10
-743.3000000000001
 20
133.0502155933733
 30
0.0
 40
0.300000000000078
210
0.0
220
0.0
230
-1.0
100
AcDbArc
 50
0.0
 51
79.56252464888198
  0
LINE
  5
7D
330
1F
100
AcDbEntity
  8
2
  6
CONTINUOUS
 62
     7
100
AcDbLine
 10
782.7543487288431
 20
104.65474845005
 30
0.0
 11
779.469476642978
 21
104.0496404342328
 31
0.0
  0
LINE
  5
7E
330
1F
100
AcDbEntity
  8
2
  6
CONTINUOUS
 62
     7
100
AcDbLine
 10
743.2456512711569
 20
133.34525154995
 30
0.0
 11
746.530523357022
 21
133.9503595657672
 31
0.0
  0
LINE
  5
7F
330
1F
100
AcDbEntity
  8
2
  6
CONTINUOUS
 62
     7
100
AcDbLine
 10
747.0740106454529
 20
134.0
 30
0.0
 11
778.9259893545471
 21
134.0
 31
0.0
  0
LINE
  5
80
330
1F
100
AcDbEntity
  8
2
  6
CONTINUOUS
 62
     7
100
AcDbLine
 10
778.9259893545471
 20
104.0
 30
0.0
 11
747.0740106454529
 21
104.0
 31
0.0
  0
ARC
  5
81
330
1F
100
AcDbEntity
  8
2
  6
CONTINUOUS
 62
     7
100
AcDbCircle
 10
-782.7
 20
104.9497844066268
 30
0.0
 40
0.299999999999967
210
0.0
220
0.0
230
-1.0
100
AcDbArc
 50
180.0
 51
259.562524648882
  0
LINE
  5
82
330
1F
100
AcDbEntity
  8
2
  6
CONTINUOUS
 62
     7
100
AcDbLine
 10
783.0
 20
133.0502155933733
 30
0.0
 11
783.0
 21
104.9497844066268
 31
0.0
  0
ARC
  5
83
330
1F
100
AcDbEntity
  8
2
  6
CONTINUOUS
 62
     7
100
AcDbCircle
 10
-782.7
 20
133.0502155933733
 30
0.0
 40
0.3000000000000011
210
0.0
220
0.0
230
-1.0
100
AcDbArc
 50
100.4374753511179
 51
180.0
  0
LINE
  5
84
330
1F
100
AcDbEntity
  8
2
  6
CONTINUOUS
 62
     7
100
AcDbLine
 10
709.6
 20
133.0502155933733
 30
0.0
 11
709.6
 21
104.9497844066268
 31
0.0
  0
LINE
  5
85
330
1F
100
AcDbEntity
  8
2
  6
CONTINUOUS
 62
     7
100
AcDbLine
 10
707.4
 20
133.0502155933733
 30
0.0
 11
707.4
 21
133.34525154995
 31
0.0
  0
LINE
  5
86
330
1F
100
AcDbEntity
  8
2
  6
CONTINUOUS
 62
     7
100
AcDbLine
 10
779.469476642978
 20
133.9503595657673
 30
0.0
 11
782.7543487288431
 21
133.34525154995
 31
0.0
  0
LINE
  5
87
330
1F
100
AcDbEntity
  8
2
  6
CONTINUOUS
 62
     7
100
AcDbLine
 10
709.3000000000001
 20
104.9497844066268
 30
0.0
 11
709.3000000000001
 21
133.0502155933733
 31
0.0
  0
LINE
  5
88
330
1F
100
AcDbEntity
  8
2
  6
CONTINUOUS
 62
     7
100
AcDbLine
 10
690.4
 20
106.5263518223331
 30
0.0
 11
690.4
 21
115.7151922469878
 31
0.0
  0
LINE
  5
89
330
1F
100
AcDbEntity
  8
2
  6
CONTINUOUS
 62
     7
100
AcDbLine
 10
705.4
 20
106.5263518223331
 30
0.0
 11
705.4
 21
116.7
 31
0.0
  0
LINE
  5
8A
330
1F
100
AcDbEntity
  8
2
  6
CONTINUOUS
 62
     7
100
AcDbLine
 10
709.3000000000001
 20
104.6547484500501
 30
0.0
 11
709.3000000000001
 21
104.9497844066268
 31
0.0
  0
ELLIPSE
  5
8B
330
1F
100
AcDbEntity
  8
2
  6
CONTINUOUS
 62
   253
100
AcDbEllipse
 10
691.4
 20
115.8888404246547
 30
0.0
 11
1.000000000000001
 21
0.0
 31
0.0
210
0.0
220
0.0
230
1.0
 40
0.9848077530122078
 41
1.570796326794897
 42
3.141592653589793
  0
LINE
  5
8C
330
1F
100
AcDbEntity
  8
2
  6
CONTINUOUS
 62
     7
100
AcDbLine
 10
709.3000000000001
 20
104.0496404342328
 30
0.0
 11
709.3000000000001
 21
104.6547484500501
 31
0.0
  0
LINE
  5
8D
330
1F
100
AcDbEntity
  8
0
  6
CENTER
 62
     1
100
AcDbLine
 10
646.0
 20
137.5
 30
0.0
 11
646.0
 21
100.0
 31
0.0
  0
LINE
  5
8E
330
1F
100
AcDbEntity
  8
2
  6
CONTINUOUS
 62
     7
100
AcDbLine
 10
690.4
 20
115.7151922469878
 30
0.0
 11
690.4
 21
115.9714851236369
 31
0.0
  0
LINE
  5
8F
330
1F
100
AcDbEntity
  8
2
  6
CONTINUOUS
 62
     7
100
AcDbLine
 10
709.6
 20
104.9497844066268
 30
0.0
 11
709.6
 21
104.3446763908095
 31
0.0
  0
LINE
  5
90
330
1F
100
AcDbEntity
  8
2
  6
CONTINUOUS
 62
     7
100
AcDbLine
 10
709.3000000000001
 20
133.34525154995
 30
0.0
 11
709.3000000000001
 21
133.9503595657672
 31
0.0
  0
LINE
  5
91
330
1F
100
AcDbEntity
  8
2
  6
CONTINUOUS
 62
     7
100
AcDbLine
 10
707.4
 20
133.34525154995
 30
0.0
 11
707.4
 21
133.9503595657672
 31
0.0
  0
LINE
  5
92
330
1F
100
AcDbEntity
  8
2
  6
CONTINUOUS
 62
     7
100
AcDbLine
 10
707.4
 20
104.0496404342328
 30
0.0
 11
707.4
 21
104.6547484500501
 31
0.0
  0
LINE
  5
93
330
1F
100
AcDbEntity
  8
2
  6
CONTINUOUS
 62
     7
100
AcDbLine
 10
709.6
 20
133.6553236091905
 30
0.0
 11
709.6
 21
133.0502155933733
 31
0.0
  0
LINE
  5
94
330
1F
100
AcDbEntity
  8
2
  6
CONTINUOUS
 62
     7
100
AcDbLine
 10
705.4
 20
116.7
 30
0.0
 11
705.4
 21
116.8736481776669
 31
0.0
  0
LINE
  5
95
330
1F
100
AcDbEntity
  8
2
  6
CONTINUOUS
 62
     7
100
AcDbLine
 10
707.4
 20
104.9497844066268
 30
0.0
 11
707.4
 21
133.0502155933733
 31
0.0
  0
LINE
  5
96
330
1F
100
AcDbEntity
  8
2
  6
CONTINUOUS
 62
     7
100
AcDbLine
 10
707.4
 20
104.6547484500501
 30
0.0
 11
707.4
 21
104.9497844066268
 31
0.0
  0
LINE
  5
97
330
1F
100
AcDbEntity
  8
2
  6
CONTINUOUS
 62
     7
100
AcDbLine
 10
709.3000000000001
 20
133.0502155933733
 30
0.0
 11
709.3000000000001
 21
133.34525154995
 31
0.0
  0
LINE
  5
98
330
1F
100
AcDbEntity
  8
2
  6
CONTINUOUS
 62
     7
100
AcDbLine
 10
707.4
 20
130.5
 30
0.0
 11
700.4
 21
130.5
 31
0.0
  0
LINE
  5
99
330
1F
100
AcDbEntity
  8
2
  6
CONTINUOUS
 62
     7
100
AcDbLine
 10
691.4
 20
105.7
 30
0.0
 11
690.4
 21
105.7
 31
0.0
  0
LINE
  5
9A
330
1F
100
AcDbEntity
  8
2
  6
CONTINUOUS
 62
     7
100
AcDbLine
 10
705.4010928396119
 20
105.7
 30
0.0
 11
706.1
 21
105.7
 31
0.0
  0
LINE
  5
9B
330
1F
100
AcDbEntity
  8
2
  6
CONTINUOUS
 62
     7
100
AcDbLine
 10
705.4
 20
106.5263518223331
 30
0.0
 11
705.4
 21
105.7007646829491
 31
0.0
  0
LINE
  5
9C
330
1F
100
AcDbEntity
  8
2
  6
CONTINUOUS
 62
     7
100
AcDbLine
 10
707.4
 20
107.7
 30
0.0
 11
706.6999999999999
 21
107.7
 31
0.0
  0
LINE
  5
9D
330
1F
100
AcDbEntity
  8
2
  6
CONTINUOUS
 62
     7
100
AcDbLine
 10
705.4010928396119
 20
105.7
 30
0.0
 11
705.4
 21
105.7007646829491
 31
0.0
  0
LINE
  5
9E
330
1F
100
AcDbEntity
  8
2
  6
CONTINUOUS
 62
     7
100
AcDbLine
 10
690.4
 20
105.7
 30
0.0
 11
690.4
 21
106.5263518223331
 31
0.0
  0
LINE
  5
9F
330
1F
100
AcDbEntity
  8
2
  6
CONTINUOUS
 62
   253
100
AcDbLine
 10
691.4
 20
116.8736481776669
 30
0.0
 11
691.4
 21
116.8812443011608
 31
0.0
  0
LINE
  5
A0
330
1F
100
AcDbEntity
  8
2
  6
CONTINUOUS
 62
     7
100
AcDbLine
 10
705.4010928396119
 20
105.7
 30
0.0
 11
704.4
 21
105.7
 31
0.0
  0
LINE
  5
A1
330
1F
100
AcDbEntity
  8
2
  6
CONTINUOUS
 62
     7
100
AcDbLine
 10
704.4
 20
106.0
 30
0.0
 11
691.4
 21
106.0
 31
0.0
  0
LINE
  5
A2
330
1F
100
AcDbEntity
  8
2
  6
CONTINUOUS
 62
     7
100
AcDbLine
 10
691.4
 20
105.7
 30
0.0
 11
691.4
 21
106.0
 31
0.0
  0
LINE
  5
A3
330
1F
100
AcDbEntity
  8
2
  6
CONTINUOUS
 62
     7
100
AcDbLine
 10
706.6999999999999
 20
107.7
 30
0.0
 11
706.1
 21
107.7
 31
0.0
  0
LINE
  5
A4
330
1F
100
AcDbEntity
  8
2
  6
CONTINUOUS
 62
     7
100
AcDbLine
 10
706.1
 20
105.7
 30
0.0
 11
706.6999999999999
 21
105.7
 31
0.0
  0
LINE
  5
A5
330
1F
100
AcDbEntity
  8
2
  6
CONTINUOUS
 62
     7
100
AcDbLine
 10
707.4
 20
134.0
 30
0.0
 11
709.3000000000001
 21
134.0
 31
0.0
  0
LINE
  5
A6
330
1F
100
AcDbEntity
  8
2
  6
CONTINUOUS
 62
     7
100
AcDbLine
 10
707.4
 20
133.9503595657672
 30
0.0
 11
707.4
 21
134.0
 31
0.0
  0
LINE
  5
A7
330
1F
100
AcDbEntity
  8
2
  6
CONTINUOUS
 62
     7
100
AcDbLine
 10
709.3000000000001
 20
134.0
 30
0.0
 11
709.6
 21
133.7
 31
0.0
  0
LINE
  5
A8
330
1F
100
AcDbEntity
  8
2
  6
CONTINUOUS
 62
     7
100
AcDbLine
 10
709.3000000000001
 20
104.0
 30
0.0
 11
709.3000000000001
 21
104.0496404342328
 31
0.0
  0
LINE
  5
A9
330
1F
100
AcDbEntity
  8
2
  6
CONTINUOUS
 62
     7
100
AcDbLine
 10
709.6
 20
104.3446763908095
 30
0.0
 11
709.6
 21
104.3
 31
0.0
  0
LINE
  5
AA
330
1F
100
AcDbEntity
  8
2
  6
CONTINUOUS
 62
     7
100
AcDbLine
 10
709.3000000000001
 20
104.0
 30
0.0
 11
707.4
 21
104.0
 31
0.0
  0
LINE
  5
AB
330
1F
100
AcDbEntity
  8
2
  6
CONTINUOUS
 62
     7
100
AcDbLine
 10
706.1
 20
107.7
 30
0.0
 11
705.7793016350538
 21
107.7
 31
0.0
  0
LINE
  5
AC
330
1F
100
AcDbEntity
  8
2
  6
CONTINUOUS
 62
     7
100
AcDbLine
 10
706.6999999999999
 20
105.7
 30
0.0
 11
707.4
 21
105.7
 31
0.0
  0
LINE
  5
AD
330
1F
100
AcDbEntity
  8
2
  6
CONTINUOUS
 62
     7
100
AcDbLine
 10
709.6
 20
133.7
 30
0.0
 11
709.6
 21
133.6553236091905
 31
0.0
  0
LINE
  5
AE
330
1F
100
AcDbEntity
  8
2
  6
CONTINUOUS
 62
     7
100
AcDbLine
 10
709.3000000000001
 20
133.9503595657672
 30
0.0
 11
709.3000000000001
 21
134.0
 31
0.0
  0
LINE
  5
AF
330
1F
100
AcDbEntity
  8
2
  6
CONTINUOUS
 62
     7
100
AcDbLine
 10
691.4
 20
105.7
 30
0.0
 11
704.4
 21
105.7
 31
0.0
  0
LINE
  5
B0
330
1F
100
AcDbEntity
  8
2
  6
CONTINUOUS
 62
     7
100
AcDbLine
 10
707.4
 20
104.0
 30
0.0
 11
707.4
 21
104.0496404342328
 31
0.0
  0
ARC
  5
B1
330
1F
100
AcDbEntity
  8
2
  6
CONTINUOUS
 62
     7
100
AcDbCircle
 10
-699.8
 20
131.6
 30
0.0
 40
0.3999999999999559
210
0.0
220
0.0
230
-1.0
100
AcDbArc
 50
0.0
 51
90.0
  0
LINE
  5
B2
330
1F
100
AcDbEntity
  8
2
  6
CONTINUOUS
 62
     7
100
AcDbLine
 10
699.8
 20
132.0
 30
0.0
 11
700.4
 21
132.0
 31
0.0
  0
LINE
  5
B3
330
1F
100
AcDbEntity
  8
2
  6
CONTINUOUS
 62
     7
100
AcDbLine
 10
704.4
 20
105.7
 30
0.0
 11
704.4
 21
106.0
 31
0.0
  0
LINE
  5
B4
330
1F
100
AcDbEntity
  8
2
  6
CONTINUOUS
 62
     7
100
AcDbLine
 10
700.4
 20
130.5
 30
0.0
 11
699.8
 21
130.5
 31
0.0
  0
ARC
  5
B5
330
1F
100
AcDbEntity
  8
2
  6
CONTINUOUS
 62
     7
100
AcDbCircle
 10
-699.8
 20
130.9
 30
0.0
 40
0.3999999999999837
210
0.0
220
0.0
230
-1.0
100
AcDbArc
 50
270.0
 51
0.0
  0
LINE
  5
B6
330
1F
100
AcDbEntity
  8
2
  6
CONTINUOUS
 62
     7
100
AcDbLine
 10
705.4
 20
116.8812443011608
 30
0.0
 11
705.4
 21
116.8736481776669
 31
0.0
  0
LINE
  5
B7
330
1F
100
AcDbEntity
  8
2
  6
CONTINUOUS
 62
     7
100
AcDbLine
 10
709.6
 20
104.3
 30
0.0
 11
709.3000000000001
 21
104.0
 31
0.0
  0
ELLIPSE
  5
B8
330
1F
100
AcDbEntity
  8
2
  6
CONTINUOUS
 62
     7
100
AcDbEllipse
 10
706.1
 20
109.8011302690212
 30
0.0
 11
0.0
 21
-3.969897273732395
 31
0.0
210
0.0
220
0.0
230
1.0
 40
0.1763269807084652
 41
4.71238898038469
 42
5.198079704024769
  0
LINE
  5
B9
330
1F
100
AcDbEntity
  8
2
  6
CONTINUOUS
 62
     7
100
AcDbLine
 10
700.4
 20
132.0
 30
0.0
 11
707.4
 21
132.0
 31
0.0
  0
MTEXT
  5
BA
330
1F
100
AcDbEntity
  8
2
 62
     1
100
AcDbMText
 10
695.307521570589
 20
76.0568400650244
 30
0.0
 40
3.0
 41
0.0
 71
     1
 72
     1
  1
{\fＭＳ ゴシック;MIDE-40_}
  0
LINE
  5
BB
330
1F
100
AcDbEntity
  8
2
  6
CONTINUOUS
 62
     7
100
AcDbLine
 10
659.0
 20
105.7
 30
0.0
 11
663.1609003688228
 21
105.7
 31
0.0
  0
LINE
  5
BC
330
1F
100
AcDbEntity
  8
2
  6
CONTINUOUS
 62
     7
100
AcDbLine
 10
634.0
 20
130.5
 30
0.0
 11
633.4
 21
130.5
 31
0.0
  0
LINE
  5
BD
330
1F
100
AcDbEntity
  8
2
  6
CONTINUOUS
 62
     7
100
AcDbLine
 10
634.0
 20
105.7
 30
0.0
 11
633.0
 21
105.7
 31
0.0
  0
LINE
  5
BE
330
1F
100
AcDbEntity
  8
2
  6
CONTINUOUS
 62
     7
100
AcDbLine
 10
629.4222158457649
 20
107.7
 30
0.0
 11
633.0
 21
107.7
 31
0.0
  0
ARC
  5
BF
330
1F
100
AcDbEntity
  8
2
  6
CONTINUOUS
 62
     7
100
AcDbCircle
 10
661.9259893545471
 20
107.0
 30
0.0
 40
3.000000000000001
100
AcDbArc
 50
270.0
 51
280.4374753511181
  0
LINE
  5
C0
330
1F
100
AcDbEntity
  8
2
  6
CONTINUOUS
 62
     7
100
AcDbLine
 10
658.0
 20
105.7
 30
0.0
 11
658.0
 21
107.2
 31
0.0
  0
ARC
  5
C1
330
1F
100
AcDbEntity
  8
2
  6
CONTINUOUS
 62
     7
100
AcDbCircle
 10
658.5
 20
107.2
 30
0.0
 40
0.5000000000000004
100
AcDbArc
 50
90.0000000000002
 51
180.0
  0
ARC
  5
C2
330
1F
100
AcDbEntity
  8
2
  6
CONTINUOUS
 62
     7
100
AcDbCircle
 10
629.4222158457649
 20
108.0
 30
0.0
 40
0.2999999999999992
100
AcDbArc
 50
190.0
 51
270.0
  0
LINE
  5
C3
330
1F
100
AcDbEntity
  8
2
  6
CONTINUOUS
 62
     7
100
AcDbLine
 10
658.5999999999999
 20
130.5
 30
0.0
 11
657.9999999999999
 21
130.5
 31
0.0
  0
LINE
  5
C4
330
1F
100
AcDbEntity
  8
2
  6
CONTINUOUS
 62
   253
100
AcDbLine
 10
663.2
 20
105.7007646829491
 30
0.0
 11
663.2
 21
105.7
 31
0.0
  0
LINE
  5
C5
330
1F
100
AcDbEntity
  8
2
  6
CONTINUOUS
 62
     7
100
AcDbLine
 10
627.7112630193922
 20
115.9756645134882
 30
0.0
 11
629.1267735198612
 21
107.9479055466999
 31
0.0
  0
ARC
  5
C6
330
1F
100
AcDbEntity
  8
2
  6
CONTINUOUS
 62
     7
100
AcDbCircle
 10
661.9259893545471
 20
131.0
 30
0.0
 40
3.0
100
AcDbArc
 50
79.56252464888185
 51
90.0
  0
LINE
  5
C7
330
1F
100
AcDbEntity
  8
2
  6
CONTINUOUS
 62
     7
100
AcDbLine
 10
649.4278273002005
 20
129.7
 30
0.0
 11
642.5721726997995
 21
129.7
 31
0.0
  0
LINE
  5
C8
330
1F
100
AcDbEntity
  8
2
  6
CONTINUOUS
 62
     7
100
AcDbLine
 10
665.7543487288431
 20
133.34525154995
 30
0.0
 11
662.469476642978
 21
133.9503595657672
 31
0.0
  0
LINE
  5
C9
330
1F
100
AcDbEntity
  8
2
  6
CONTINUOUS
 62
     7
100
AcDbLine
 10
659.0
 20
107.7
 30
0.0
 11
662.5777841542351
 21
107.7
 31
0.0
  0
LINE
  5
CA
330
1F
100
AcDbEntity
  8
2
  6
CONTINUOUS
 62
     7
100
AcDbLine
 10
658.0
 20
130.5
 30
0.0
 11
634.0
 21
130.5
 31
0.0
  0
LINE
  5
CB
330
1F
100
AcDbEntity
  8
2
  6
CONTINUOUS
 62
     7
100
AcDbLine
 10
662.469476642978
 20
104.0496404342328
 30
0.0
 11
665.7543487288431
 21
104.65474845005
 31
0.0
  0
ARC
  5
CC
330
1F
100
AcDbEntity
  8
2
  6
CONTINUOUS
 62
     7
100
AcDbCircle
 10
662.5777841542351
 20
108.0
 30
0.0
 40
0.2999999999999999
100
AcDbArc
 50
270.0
 51
350.0000000000001
  0
ARC
  5
CD
330
1F
100
AcDbEntity
  8
2
  6
CONTINUOUS
 62
     7
100
AcDbCircle
 10
633.5
 20
107.2
 30
0.0
 40
0.5000000000000004
100
AcDbArc
 50
0.0
 51
90.0
  0
ARC
  5
CE
330
1F
100
AcDbEntity
  8
2
  6
CONTINUOUS
 62
     7
100
AcDbCircle
 10
646.0
 20
118.2
 30
0.0
 40
12.0
100
AcDbArc
 50
0.0
 51
73.40215786413341
  0
LINE
  5
CF
330
1F
100
AcDbEntity
  8
2
  6
CONTINUOUS
 62
   253
100
AcDbLine
 10
628.8000000000001
 20
105.7
 30
0.0
 11
628.8000000000001
 21
105.7007646829491
 31
0.0
  0
ARC
  5
D0
330
1F
100
AcDbEntity
  8
2
  6
CONTINUOUS
 62
     7
100
AcDbCircle
 10
630.0740106454529
 20
131.0
 30
0.0
 40
3.000000000000001
100
AcDbArc
 50
90.0
 51
100.4374753511181
  0
LINE
  5
D1
330
1F
100
AcDbEntity
  8
2
  6
CONTINUOUS
 62
     7
100
AcDbLine
 10
626.0604032122069
 20
116.7
 30
0.0
 11
627.0452109652191
 21
116.8736481776669
 31
0.0
  0
ARC
  5
D2
330
1F
100
AcDbEntity
  8
2
  6
CONTINUOUS
 62
     7
100
AcDbCircle
 10
646.0
 20
118.2
 30
0.0
 40
12.0
100
AcDbArc
 50
106.5978421358666
 51
180.0
  0
ARC
  5
D3
330
1F
100
AcDbEntity
  8
2
  6
CONTINUOUS
 62
     7
100
AcDbCircle
 10
665.7
 20
104.9497844066268
 30
0.0
 40
0.2999999999999993
100
AcDbArc
 50
280.4374753511179
 51
0.0
  0
LINE
  5
D4
330
1F
100
AcDbEntity
  8
2
  6
CONTINUOUS
 62
     7
100
AcDbLine
 10
664.1457081218349
 20
106.5263518223331
 30
0.0
 11
665.7659486101262
 21
115.7151922469878
 31
0.0
  0
ARC
  5
D5
330
1F
100
AcDbEntity
  8
2
  6
CONTINUOUS
 62
     7
100
AcDbCircle
 10
663.1609003688228
 20
106.7
 30
0.0
 40
0.9999999999999991
100
AcDbArc
 50
270.0
 51
350.0000000000001
  0
LINE
  5
D6
330
1F
100
AcDbEntity
  8
2
  6
CONTINUOUS
 62
     7
100
AcDbLine
 10
662.8732264801388
 20
107.9479055466999
 30
0.0
 11
664.2887369806078
 21
115.9756645134882
 31
0.0
  0
ARC
  5
D7
330
1F
100
AcDbEntity
  8
2
  6
CONTINUOUS
 62
     7
100
AcDbCircle
 10
627.1320350540526
 20
116.3812443011608
 30
0.0
 40
0.4999999999999986
100
AcDbArc
 50
9.999999999999865
 51
99.99999999999984
  0
LINE
  5
D8
330
1F
100
AcDbEntity
  8
2
  6
CONTINUOUS
 62
     7
100
AcDbLine
 10
633.0
 20
107.7
 30
0.0
 11
633.4999999999999
 21
107.7
 31
0.0
  0
LINE
  5
D9
330
1F
100
AcDbEntity
  8
2
  6
CONTINUOUS
 62
     7
100
AcDbLine
 10
633.0
 20
130.9
 30
0.0
 11
633.0
 21
131.6
 31
0.0
  0
LINE
  5
DA
330
1F
100
AcDbEntity
  8
2
  6
CONTINUOUS
 62
     7
100
AcDbLine
 10
664.2887369806078
 20
115.9756645134882
 30
0.0
 11
664.3755610694412
 21
116.4680683899943
 31
0.0
  0
LINE
  5
DB
330
1F
100
AcDbEntity
  8
2
  6
CONTINUOUS
 62
     7
100
AcDbLine
 10
658.0
 20
132.0
 30
0.0
 11
658.6
 21
132.0
 31
0.0
  0
LINE
  5
DC
330
1F
100
AcDbEntity
  8
2
  6
CONTINUOUS
 62
     7
100
AcDbLine
 10
633.0
 20
105.7
 30
0.0
 11
628.8390996311772
 21
105.7
 31
0.0
  0
ARC
  5
DD
330
1F
100
AcDbEntity
  8
2
  6
CONTINUOUS
 62
     7
100
AcDbCircle
 10
658.6
 20
131.6
 30
0.0
 40
0.3999999999999993
100
AcDbArc
 50
0.0
 51
90.00000000000026
  0
LINE
  5
DE
330
1F
100
AcDbEntity
  8
2
  6
CONTINUOUS
 62
     7
100
AcDbLine
 10
633.4000000000001
 20
132.0
 30
0.0
 11
634.0000000000001
 21
132.0
 31
0.0
  0
ARC
  5
DF
330
1F
100
AcDbEntity
  8
2
  6
CONTINUOUS
 62
     7
100
AcDbCircle
 10
633.4
 20
130.9
 30
0.0
 40
0.3999999999999993
100
AcDbArc
 50
180.0
 51
270.0000000000002
  0
ARC
  5
E0
330
1F
100
AcDbEntity
  8
2
  6
CONTINUOUS
 62
     7
100
AcDbCircle
 10
633.4
 20
131.6
 30
0.0
 40
0.3999999999999993
100
AcDbArc
 50
89.99999999999977
 51
180.0
  0
ARC
  5
E1
330
1F
100
AcDbEntity
  8
2
  6
CONTINUOUS
 62
     7
100
AcDbCircle
 10
626.3
 20
133.0502155933733
 30
0.0
 40
0.2999999999999993
100
AcDbArc
 50
100.4374753511179
 51
180.0
  0
LINE
  5
E2
330
1F
100
AcDbEntity
  8
2
  6
CONTINUOUS
 62
     7
100
AcDbLine
 10
661.9259893545471
 20
134.0
 30
0.0
 11
630.0740106454529
 21
134.0
 31
0.0
  0
LINE
  5
E3
330
1F
100
AcDbEntity
  8
2
  6
CONTINUOUS
 62
     7
100
AcDbLine
 10
627.8542918781651
 20
106.5263518223331
 30
0.0
 11
626.2340513898739
 21
115.7151922469878
 31
0.0
  0
LINE
  5
E4
330
1F
100
AcDbEntity
  8
2
  6
CONTINUOUS
 62
     7
100
AcDbLine
 10
705.4
 20
116.8812443011608
 30
0.0
 11
691.4
 21
116.8812443011608
 31
0.0
  0
LINE
  5
E5
330
1F
100
AcDbEntity
  8
2
  6
CONTINUOUS
 62
     7
100
AcDbLine
 10
659.0
 20
105.7
 30
0.0
 11
658.0
 21
105.7
 31
0.0
  0
LINE
  5
E6
330
1F
100
AcDbEntity
  8
2
  6
CONTINUOUS
 62
     7
100
AcDbLine
 10
664.9547890347809
 20
116.8736481776669
 30
0.0
 11
665.9395967877931
 21
116.7
 31
0.0
  0
ARC
  5
E7
330
1F
100
AcDbEntity
  8
2
  6
CONTINUOUS
 62
     7
100
AcDbCircle
 10
664.8679649459475
 20
116.3812443011608
 30
0.0
 40
0.5
100
AcDbArc
 50
80.00000000000053
 51
170.0000000000001
  0
LINE
  5
E8
330
1F
100
AcDbEntity
  8
2
  6
CONTINUOUS
 62
     7
100
AcDbLine
 10
665.9395967877931
 20
116.7
 30
0.0
 11
665.7659486101262
 21
115.7151922469878
 31
0.0
  0
LINE
  5
E9
330
1F
100
AcDbEntity
  8
2
  6
CONTINUOUS
 62
     7
100
AcDbLine
 10
658.5
 20
107.7
 30
0.0
 11
659.0
 21
107.7
 31
0.0
  0
ARC
  5
EA
330
1F
100
AcDbEntity
  8
2
  6
CONTINUOUS
 62
     7
100
AcDbCircle
 10
658.6
 20
130.9
 30
0.0
 40
0.3999999999999993
100
AcDbArc
 50
269.9999999999998
 51
0.0
  0
LINE
  5
EB
330
1F
100
AcDbEntity
  8
2
  6
CONTINUOUS
 62
     7
100
AcDbLine
 10
659.0
 20
131.6
 30
0.0
 11
659.0
 21
130.9
 31
0.0
  0
ARC
  5
EC
330
1F
100
AcDbEntity
  8
2
  6
CONTINUOUS
 62
     7
100
AcDbCircle
 10
628.8390996311772
 20
106.7
 30
0.0
 40
1.000000000000001
100
AcDbArc
 50
189.9999999999999
 51
270.0
  0
LINE
  5
ED
330
1F
100
AcDbEntity
  8
2
  6
CONTINUOUS
 62
     7
100
AcDbLine
 10
634.0
 20
107.2
 30
0.0
 11
634.0
 21
105.7
 31
0.0
  0
ARC
  5
EE
330
1F
100
AcDbEntity
  8
2
  6
CONTINUOUS
 62
     7
100
AcDbCircle
 10
630.0740106454529
 20
107.0
 30
0.0
 40
3.000000000000001
100
AcDbArc
 50
259.5625246488819
 51
269.9999999999999
  0
LINE
  5
EF
330
1F
100
AcDbEntity
  8
2
  6
CONTINUOUS
 62
     7
100
AcDbLine
 10
658.0
 20
104.0
 30
0.0
 11
661.9259893545471
 21
104.0
 31
0.0
  0
LINE
  5
F0
330
1F
100
AcDbEntity
  8
2
  6
CONTINUOUS
 62
     7
100
AcDbLine
 10
626.2340513898739
 20
115.7151922469878
 30
0.0
 11
626.0604032122069
 21
116.7
 31
0.0
  0
LINE
  5
F1
330
1F
100
AcDbEntity
  8
2
  6
CONTINUOUS
 62
     7
100
AcDbLine
 10
626.2456512711569
 20
104.65474845005
 30
0.0
 11
629.530523357022
 21
104.0496404342328
 31
0.0
  0
LINE
  5
F2
330
1F
100
AcDbEntity
  8
2
  6
CONTINUOUS
 62
     7
100
AcDbLine
 10
626.0
 20
133.0502155933733
 30
0.0
 11
626.0
 21
104.9497844066268
 31
0.0
  0
LINE
  5
F3
330
1F
100
AcDbEntity
  8
2
  6
CONTINUOUS
 62
     7
100
AcDbLine
 10
630.0740106454529
 20
104.0
 30
0.0
 11
634.0
 21
104.0
 31
0.0
  0
ARC
  5
F4
330
1F
100
AcDbEntity
  8
2
  6
CONTINUOUS
 62
     7
100
AcDbCircle
 10
665.6999999999999
 20
133.0502155933733
 30
0.0
 40
0.3000000000000017
100
AcDbArc
 50
0.0
 51
79.56252464888198
  0
LINE
  5
F5
330
1F
100
AcDbEntity
  8
2
  6
CONTINUOUS
 62
     7
100
AcDbLine
 10
666.0
 20
104.9497844066268
 30
0.0
 11
666.0
 21
133.0502155933733
 31
0.0
  0
LINE
  5
F6
330
1F
100
AcDbEntity
  8
2
  6
CONTINUOUS
 62
     7
100
AcDbLine
 10
634.0
 20
132.0
 30
0.0
 11
658.0
 21
132.0
 31
0.0
  0
LINE
  5
F7
330
1F
100
AcDbEntity
  8
2
  6
CONTINUOUS
 62
     7
100
AcDbLine
 10
699.4
 20
130.9
 30
0.0
 11
699.4
 21
131.6
 31
0.0
  0
LINE
  5
F8
330
1F
100
AcDbEntity
  8
2
  6
CONTINUOUS
 62
     7
100
AcDbLine
 10
627.6244389305587
 20
116.4680683899943
 30
0.0
 11
627.711263019392
 21
115.9756645134882
 31
0.0
  0
ARC
  5
F9
330
1F
100
AcDbEntity
  8
2
  6
CONTINUOUS
 62
     7
100
AcDbCircle
 10
626.3
 20
104.9497844066268
 30
0.0
 40
0.3000000000000017
100
AcDbArc
 50
180.0
 51
259.562524648882
  0
LINE
  5
FA
330
1F
100
AcDbEntity
  8
2
  6
CONTINUOUS
 62
     7
100
AcDbLine
 10
629.530523357022
 20
133.9503595657673
 30
0.0
 11
626.2456512711569
 21
133.34525154995
 31
0.0
  0
LINE
  5
FB
330
1F
100
AcDbEntity
  8
2
  6
CONTINUOUS
 62
     7
100
AcDbLine
 10
636.0
 20
117.2
 30
0.0
 11
636.0
 21
108.5
 31
0.0
  0
LINE
  5
FC
330
1F
100
AcDbEntity
  8
2
  6
CONTINUOUS
 62
     7
100
AcDbLine
 10
635.0
 20
104.0
 30
0.0
 11
634.0
 21
104.0
 31
0.0
  0
LINE
  5
FD
330
1F
100
AcDbEntity
  8
2
  6
CONTINUOUS
 62
     7
100
AcDbLine
 10
658.0
 20
104.0
 30
0.0
 11
658.0
 21
105.7
 31
0.0
  0
LINE
  5
FE
330
1F
100
AcDbEntity
  8
2
  6
CONTINUOUS
 62
     7
100
AcDbLine
 10
639.5
 20
108.5
 30
0.0
 11
639.5
 21
104.0
 31
0.0
  0
LINE
  5
FF
330
1F
100
AcDbEntity
  8
2
  6
CONTINUOUS
 62
     7
100
AcDbLine
 10
652.5
 20
104.0
 30
0.0
 11
652.5
 21
108.5
 31
0.0
  0
LINE
  5
100
330
1F
100
AcDbEntity
  8
2
  6
CONTINUOUS
 62
     7
100
AcDbLine
 10
634.0
 20
118.2
 30
0.0
 11
634.0
 21
107.2
 31
0.0
  0
LINE
  5
101
330
1F
100
AcDbEntity
  8
2
  6
CONTINUOUS
 62
     7
100
AcDbLine
 10
638.5
 20
104.0
 30
0.0
 11
636.0000000000001
 21
104.0
 31
0.0
  0
LINE
  5
102
330
1F
100
AcDbEntity
  8
2
  6
CONTINUOUS
 62
     7
100
AcDbLine
 10
656.0
 20
108.5
 30
0.0
 11
656.0
 21
117.2
 31
0.0
  0
LINE
  5
103
330
1F
100
AcDbEntity
  8
2
  6
CONTINUOUS
 62
     7
100
AcDbLine
 10
653.5
 20
108.0
 30
0.0
 11
652.5
 21
108.5
 31
0.0
  0
LINE
  5
104
330
1F
100
AcDbEntity
  8
2
  6
CONTINUOUS
 62
     7
100
AcDbLine
 10
656.0
 20
104.0
 30
0.0
 11
653.5000000000001
 21
104.0
 31
0.0
  0
LINE
  5
105
330
1F
100
AcDbEntity
  8
2
  6
CONTINUOUS
 62
     7
100
AcDbLine
 10
636.0
 20
108.5
 30
0.0
 11
636.0
 21
104.0
 31
0.0
  0
LINE
  5
106
330
1F
100
AcDbEntity
  8
2
  6
CONTINUOUS
 62
     7
100
AcDbLine
 10
650.5
 20
119.2
 30
0.0
 11
641.5
 21
119.2
 31
0.0
  0
LINE
  5
107
330
1F
100
AcDbEntity
  8
2
  6
CONTINUOUS
 62
     7
100
AcDbLine
 10
635.0
 20
104.0
 30
0.0
 11
636.0
 21
104.0
 31
0.0
  0
LINE
  5
108
330
1F
100
AcDbEntity
  8
2
  6
CONTINUOUS
 62
     7
100
AcDbLine
 10
634.0
 20
105.7
 30
0.0
 11
634.0
 21
104.0
 31
0.0
  0
LINE
  5
109
330
1F
100
AcDbEntity
  8
2
  6
CONTINUOUS
 62
     7
100
AcDbLine
 10
653.5
 20
104.0
 30
0.0
 11
653.5
 21
116.2
 31
0.0
  0
ARC
  5
10A
330
1F
100
AcDbEntity
  8
2
  6
CONTINUOUS
 62
     7
100
AcDbCircle
 10
650.5
 20
116.2
 30
0.0
 40
1.999999999999993
100
AcDbArc
 50
0.0000000000001118
 51
90.00000000000016
  0
LINE
  5
10B
330
1F
100
AcDbEntity
  8
2
  6
CONTINUOUS
 62
     7
100
AcDbLine
 10
639.5
 20
116.2
 30
0.0
 11
639.5
 21
108.5
 31
0.0
  0
LINE
  5
10C
330
1F
100
AcDbEntity
  8
2
  6
CONTINUOUS
 62
     7
100
AcDbLine
 10
653.5
 20
104.0
 30
0.0
 11
652.5
 21
104.0
 31
0.0
  0
LINE
  5
10D
330
1F
100
AcDbEntity
  8
2
  6
CONTINUOUS
 62
     7
100
AcDbLine
 10
638.5
 20
116.2
 30
0.0
 11
638.5
 21
104.0
 31
0.0
  0
ARC
  5
10E
330
1F
100
AcDbEntity
  8
2
  6
CONTINUOUS
 62
     7
100
AcDbCircle
 10
646.0
 20
117.2
 30
0.0
 40
11.0
100
AcDbArc
 50
0.0
 51
180.0
  0
LINE
  5
10F
330
1F
100
AcDbEntity
  8
2
  6
CONTINUOUS
 62
     7
100
AcDbLine
 10
657.0
 20
104.0
 30
0.0
 11
657.0
 21
117.2
 31
0.0
  0
LINE
  5
110
330
1F
100
AcDbEntity
  8
2
  6
CONTINUOUS
 62
     7
100
AcDbLine
 10
652.5000000000001
 20
108.5
 30
0.0
 11
652.5000000000001
 21
116.2
 31
0.0
  0
LINE
  5
111
330
1F
100
AcDbEntity
  8
2
  6
CONTINUOUS
 62
     7
100
AcDbLine
 10
652.5
 20
104.0
 30
0.0
 11
639.5
 21
104.0
 31
0.0
  0
ARC
  5
112
330
1F
100
AcDbEntity
  8
2
  6
CONTINUOUS
 62
     7
100
AcDbCircle
 10
646.0
 20
117.2
 30
0.0
 40
10.00000000000001
100
AcDbArc
 50
0.0
 51
180.0
  0
ARC
  5
113
330
1F
100
AcDbEntity
  8
2
  6
CONTINUOUS
 62
     7
100
AcDbCircle
 10
650.5
 20
116.2
 30
0.0
 40
2.999999999999993
100
AcDbArc
 50
0.0000000000000911
 51
90.00000000000006
  0
LINE
  5
114
330
1F
100
AcDbEntity
  8
2
  6
CONTINUOUS
 62
     7
100
AcDbLine
 10
638.5
 20
108.0
 30
0.0
 11
639.5
 21
108.5
 31
0.0
  0
ARC
  5
115
330
1F
100
AcDbEntity
  8
2
  6
CONTINUOUS
 62
     7
100
AcDbCircle
 10
641.5
 20
116.2
 30
0.0
 40
2.999999999999993
100
AcDbArc
 50
90.00000000000006
 51
180.0
  0
LINE
  5
116
330
1F
100
AcDbEntity
  8
2
  6
CONTINUOUS
 62
     7
100
AcDbLine
 10
657.0
 20
104.0
 30
0.0
 11
656.0
 21
104.0
 31
0.0
  0
LINE
  5
117
330
1F
100
AcDbEntity
  8
2
  6
CONTINUOUS
 62
     7
100
AcDbLine
 10
657.0
 20
108.0
 30
0.0
 11
656.0
 21
108.5
 31
0.0
  0
LINE
  5
118
330
1F
100
AcDbEntity
  8
2
  6
CONTINUOUS
 62
     7
100
AcDbLine
 10
635.0
 20
108.0
 30
0.0
 11
636.0
 21
108.5
 31
0.0
  0
LINE
  5
119
330
1F
100
AcDbEntity
  8
2
  6
CONTINUOUS
 62
     7
100
AcDbLine
 10
635.0
 20
117.2
 30
0.0
 11
635.0
 21
104.0
 31
0.0
  0
LINE
  5
11A
330
1F
100
AcDbEntity
  8
2
  6
CONTINUOUS
 62
     7
100
AcDbLine
 10
656.0
 20
104.0
 30
0.0
 11
656.0
 21
108.5
 31
0.0
  0
LINE
  5
11B
330
1F
100
AcDbEntity
  8
2
  6
CONTINUOUS
 62
     7
100
AcDbLine
 10
638.5
 20
104.0
 30
0.0
 11
639.5
 21
104.0
 31
0.0
  0
ARC
  5
11C
330
1F
100
AcDbEntity
  8
2
  6
CONTINUOUS
 62
     7
100
AcDbCircle
 10
641.5
 20
116.2
 30
0.0
 40
1.999999999999993
100
AcDbArc
 50
90.00000000000001
 51
180.0000000000001
  0
LINE
  5
11D
330
1F
100
AcDbEntity
  8
2
  6
CONTINUOUS
 62
     7
100
AcDbLine
 10
658.0
 20
107.2
 30
0.0
 11
658.0
 21
118.2
 31
0.0
  0
LINE
  5
11E
330
1F
100
AcDbEntity
  8
2
  6
CONTINUOUS
 62
     7
100
AcDbLine
 10
650.5
 20
118.2
 30
0.0
 11
641.5
 21
118.2
 31
0.0
  0
LINE
  5
11F
330
1F
100
AcDbEntity
  8
2
  6
CONTINUOUS
 62
     7
100
AcDbLine
 10
658.0
 20
104.0
 30
0.0
 11
657.0
 21
104.0
 31
0.0
  0
ENDSEC
  0
SECTION
  2
OBJECTS
  0
DICTIONARY
  5
C
330
0
100
AcDbDictionary
  3
ACAD_GROUP
350
D
  3
ACAD_LAYOUT
350
1A
  3
ACAD_MATERIAL
350
43
  3
ACAD_MLEADERSTYLE
350
6B
  3
ACAD_MLINESTYLE
350
17
  3
ACAD_PLOTSETTINGS
350
19
  3
ACAD_SCALELIST
350
47
  3
ACAD_VISUALSTYLE
350
2A
  3
ACDBHEADERROUNDTRIPXREC
350
120
  3
ACDBVARIABLEDICTIONARY
350
141
  0
DICTIONARY
  5
148
330
8
100
AcDbDictionary
280
     1
  3
ACAD_XREC_ROUNDTRIP
360
149
  0
DICTIONARY
  5
D
102
{ACAD_REACTORS
330
C
102
}
330
C
100
AcDbDictionary
  0
DICTIONARY
  5
1A
102
{ACAD_REACTORS
330
C
102
}
330
C
100
AcDbDictionary
  0
DICTIONARY
  5
43
102
{ACAD_REACTORS
330
C
102
}
330
C
100
AcDbDictionary
  3
BYBLOCK
350
45
  3
BYLAYER
350
44
  3
GLOBAL
350
46
  0
DICTIONARY
  5
6B
102
{ACAD_REACTORS
330
C
102
}
330
C
100
AcDbDictionary
  3
STANDARD
350
6C
  0
DICTIONARY
  5
17
102
{ACAD_REACTORS
330
C
102
}
330
C
100
AcDbDictionary
  3
STANDARD
350
18
  0
DICTIONARY
  5
19
102
{ACAD_REACTORS
330
C
102
}
330
C
100
AcDbDictionary
  0
DICTIONARY
  5
47
102
{ACAD_REACTORS
330
C
102
}
330
C
100
AcDbDictionary
  3
A0
350
48
  3
A1
350
49
  3
A2
350
4A
  3
A3
350
4B
  3
A4
350
4C
  3
A5
350
4D
  3
A6
350
4E
  3
A7
350
4F
  3
A8
350
50
  3
A9
350
51
  3
B0
350
52
  3
B1
350
53
  3
B2
350
54
  3
B3
350
55
  3
B4
350
56
  3
B5
350
57
  3
B6
350
58
  3
B7
350
59
  3
B8
350
5A
  3
B9
350
5B
  3
C0
350
5C
  3
C1
350
5D
  3
C2
350
5E
  3
C3
350
5F
  3
C4
350
60
  3
C5
350
61
  3
C6
350
62
  3
C7
350
63
  3
C8
350
64
  3
C9
350
65
  3
D0
350
66
  3
D1
350
67
  3
D2
350
68
  0
DICTIONARY
  5
2A
102
{ACAD_REACTORS
330
C
102
}
330
C
100
AcDbDictionary
  3
2DWIREFRAME
350
2F
  3
BASIC
350
32
  3
BRIGHTEN
350
36
  3
COLORCHANGE
350
3A
  3
CONCEPTUAL
350
34
  3
DIM
350
35
  3
EDGECOLOROFF
350
3D
  3
FACEPATTERN
350
39
  3
FLAT
350
2B
  3
FLATWITHEDGES
350
2C
  3
GOURAUD
350
2D
  3
GOURAUDWITHEDGES
350
2E
  3
HIDDEN
350
31
  3
JITTEROFF
350
3B
  3
LINEPATTERN
350
38
  3
OVERHANGOFF
350
3C
  3
REALISTIC
350
33
  3
SHADED
350
42
  3
SHADED_WITH_EDGES
350
41
  3
SHADES_OF_GRAY
350
3E
  3
SKETCHY
350
3F
  3
THICKEN
350
37
  3
WIREFRAME
350
30
  3
X-RAY
350
40
  0
DICTIONARY
  5
120
102
{ACAD_REACTORS
330
C
102
}
330
C
100
AcDbDictionary
  3
CEPSNID
350
12A
  3
CEPSNTYPE
350
129
  3
DIMSTYLEDATA
350
140
  3
FINGERPRINTGUID
350
12B
  3
HYPERLINKBASE
350
123
  3
INSUNITS
350
128
  3
LAYOUTDICT
350
125
  3
LWETCUNION
350
127
  3
PLOTSETDICT
350
126
  3
PSVPSCALE
350
12D
  3
PUCSBASE
350
130
  3
PUCSORGBACK
350
136
  3
PUCSORGBOTTOM
350
132
  3
PUCSORGFRONT
350
135
  3
PUCSORGLEFT
350
133
  3
PUCSORGRIGHT
350
134
  3
PUCSORGTOP
350
131
  3
PUCSORTHOREF
350
12E
  3
PUCSORTHOVIEW
350
12F
  3
STYLESHEET
350
124
  3
TSTACKALIGN
350
121
  3
TSTACKSIZE
350
122
  3
UCSBASE
350
139
  3
UCSORGBACK
350
13F
  3
UCSORGBOTTOM
350
13B
  3
UCSORGFRONT
350
13E
  3
UCSORGLEFT
350
13C
  3
UCSORGRIGHT
350
13D
  3
UCSORGTOP
350
13A
  3
UCSORTHOREF
350
137
  3
UCSORTHOVIEW
350
138
  3
VERSIONGUID
350
12C
  0
DICTIONARY
  5
141
102
{ACAD_REACTORS
330
C
102
}
330
C
100
AcDbDictionary
  3
CANNOSCALE
350
14A
  3
CMLEADERSTYLE
350
143
  3
CTABLESTYLE
350
142
  3
DIMASSOC
350
146
  3
HIDETEXT
350
147
  3
MSLTSCALE
350
14B
  0
XRECORD
  5
149
102
{ACAD_REACTORS
330
148
102
}
330
148
100
AcDbXrecord
102
VTR_0.000_0.000_1.000_1.000_VISUALSTYLE
340
2F
102
VTR_0.000_0.000_1.000_1.000_GRIDDISPLAY
 70
     3
102
VTR_0.000_0.000_1.000_1.000_GRIDMAJOR
 70
     5
102
VTR_0.000_0.000_1.000_1.000_DEFAULTLIGHTING
280
     1
102
VTR_0.000_0.000_1.000_1.000_DEFAULTLIGHTINGTYPE
 70
     1
102
VTR_0.000_0.000_1.000_1.000_BRIGHTNESS
141
0.0
102
VTR_0.000_0.000_1.000_1.000_CONTRAST
142
0.0
  0
MATERIAL
  5
45
102
{ACAD_REACTORS
330
43
102
}
102
{ACAD_XDICTIONARY
360
14E
102
}
330
43
100
AcDbMaterial
  1
BYBLOCK
  0
MATERIAL
  5
44
102
{ACAD_REACTORS
330
43
102
}
102
{ACAD_XDICTIONARY
360
14C
102
}
330
43
100
AcDbMaterial
  1
BYLAYER
  0
MATERIAL
  5
46
102
{ACAD_REACTORS
330
43
102
}
102
{ACAD_XDICTIONARY
360
150
102
}
330
43
100
AcDbMaterial
  1
GLOBAL
  0
ACAD_PROXY_OBJECT
  5
6C
102
{ACAD_REACTORS
330
6B
102
}
330
6B
100
AcDbProxyObject
 90
      499
 91
      505
 93
      610
310
40901902A4063FBFFFFFE056BD1B81E855B9FC0AD7A3703D0AD73F4214DD185B99185C9900AD7A3703D0AC73F90141901A02B5E8DC0F42B1CFC02B5E8DC0F42B1CFE5764000000000000300FC0
340
14
340
0
340
11
340
0
 94
        0
1001
ACAD_MLEADERVER
1070
     2
  0
MLINESTYLE
  5
18
102
{ACAD_REACTORS
330
17
102
}
330
17
100
AcDbMlineStyle
  2
Standard
 70
     0
  3

 62
   256
 51
90.0
 52
90.0
 71
     2
 49
0.5
 62
   256
  6
BYLAYER
 49
-0.5
 62
   256
  6
BYLAYER
  0
ACAD_PROXY_OBJECT
  5
48
102
{ACAD_REACTORS
330
47
102
}
330
47
100
AcDbProxyObject
 90
      499
 91
      503
 93
       41
310
903313A31580
  0
ACAD_PROXY_OBJECT
  5
49
102
{ACAD_REACTORS
330
47
102
}
330
47
100
AcDbProxyObject
 90
      499
 91
      503
 93
      105
310
903313A324000000000000004000
  0
ACAD_PROXY_OBJECT
  5
4A
102
{ACAD_REACTORS
330
47
102
}
330
47
100
AcDbProxyObject
 90
      499
 91
      503
 93
      105
310
903313A344000000000000104000
  0
ACAD_PROXY_OBJECT
  5
4B
102
{ACAD_REACTORS
330
47
102
}
330
47
100
AcDbProxyObject
 90
      499
 91
      503
 93
      105
310
903313A354000000000000144000
  0
ACAD_PROXY_OBJECT
  5
4C
102
{ACAD_REACTORS
330
47
102
}
330
47
100
AcDbProxyObject
 90
      499
 91
      503
 93
      105
310
903313A384000000000000204000
  0
ACAD_PROXY_OBJECT
  5
4D
102
{ACAD_REACTORS
330
47
102
}
330
47
100
AcDbProxyObject
 90
      499
 91
      503
 93
      113
310
904313A31304000000000000244000
  0
ACAD_PROXY_OBJECT
  5
4E
102
{ACAD_REACTORS
330
47
102
}
330
47
100
AcDbProxyObject
 90
      499
 91
      503
 93
      113
310
904313A31364000000000000304000
  0
ACAD_PROXY_OBJECT
  5
4F
102
{ACAD_REACTORS
330
47
102
}
330
47
100
AcDbProxyObject
 90
      499
 91
      503
 93
      113
310
904313A32304000000000000344000
  0
ACAD_PROXY_OBJECT
  5
50
102
{ACAD_REACTORS
330
47
102
}
330
47
100
AcDbProxyObject
 90
      499
 91
      503
 93
      113
310
904313A333040000000000003E4000
  0
ACAD_PROXY_OBJECT
  5
51
102
{ACAD_REACTORS
330
47
102
}
330
47
100
AcDbProxyObject
 90
      499
 91
      503
 93
      113
310
904313A34304000000000000444000
  0
ACAD_PROXY_OBJECT
  5
52
102
{ACAD_REACTORS
330
47
102
}
330
47
100
AcDbProxyObject
 90
      499
 91
      503
 93
      113
310
904313A35304000000000000494000
  0
ACAD_PROXY_OBJECT
  5
53
102
{ACAD_REACTORS
330
47
102
}
330
47
100
AcDbProxyObject
 90
      499
 91
      503
 93
      121
310
905313A3130304000000000000594000
  0
ACAD_PROXY_OBJECT
  5
54
102
{ACAD_REACTORS
330
47
102
}
330
47
100
AcDbProxyObject
 90
      499
 91
      503
 93
      105
310
903323A310000000000000010100
  0
ACAD_PROXY_OBJECT
  5
55
102
{ACAD_REACTORS
330
47
102
}
330
47
100
AcDbProxyObject
 90
      499
 91
      503
 93
      105
310
903343A310000000000000410100
  0
ACAD_PROXY_OBJECT
  5
56
102
{ACAD_REACTORS
330
47
102
}
330
47
100
AcDbProxyObject
 90
      499
 91
      503
 93
      105
310
903383A310000000000000810100
  0
ACAD_PROXY_OBJECT
  5
57
102
{ACAD_REACTORS
330
47
102
}
330
47
100
AcDbProxyObject
 90
      499
 91
      503
 93
      113
310
90431303A310000000000000910100
  0
ACAD_PROXY_OBJECT
  5
58
102
{ACAD_REACTORS
330
47
102
}
330
47
100
AcDbProxyObject
 90
      499
 91
      503
 93
      121
310
9053130303A310000000000001650100
  0
ACAD_PROXY_OBJECT
  5
59
102
{ACAD_REACTORS
330
47
102
}
330
47
100
AcDbProxyObject
 90
      499
 91
      503
 93
      257
310
90E312F31323822203D2031272D3022000000000000200FC000000000000284000
  0
ACAD_PROXY_OBJECT
  5
5A
102
{ACAD_REACTORS
330
47
102
}
330
47
100
AcDbProxyObject
 90
      499
 91
      503
 93
      249
310
90D312F363422203D2031272D3022000000000000240FC000000000000284000
  0
ACAD_PROXY_OBJECT
  5
5B
102
{ACAD_REACTORS
330
47
102
}
330
47
100
AcDbProxyObject
 90
      499
 91
      503
 93
      249
310
90D312F333222203D2031272D3022000000000000280FC000000000000284000
  0
ACAD_PROXY_OBJECT
  5
5C
102
{ACAD_REACTORS
330
47
102
}
330
47
100
AcDbProxyObject
 90
      499
 91
      503
 93
      249
310
90D312F313622203D2031272D30220000000000002C0FC000000000000284000
  0
ACAD_PROXY_OBJECT
  5
5D
102
{ACAD_REACTORS
330
47
102
}
330
47
100
AcDbProxyObject
 90
      499
 91
      503
 93
      249
310
90D332F333222203D2031272D30220000000000002E0FC000000000000284000
  0
ACAD_PROXY_OBJECT
  5
5E
102
{ACAD_REACTORS
330
47
102
}
330
47
100
AcDbProxyObject
 90
      499
 91
      503
 93
      241
310
90C312F3822203D2031272D3022000000000000300FC000000000000284000
  0
ACAD_PROXY_OBJECT
  5
5F
102
{ACAD_REACTORS
330
47
102
}
330
47
100
AcDbProxyObject
 90
      499
 91
      503
 93
      249
310
90D332F313622203D2031272D3022000000000000320FC000000000000284000
  0
ACAD_PROXY_OBJECT
  5
60
102
{ACAD_REACTORS
330
47
102
}
330
47
100
AcDbProxyObject
 90
      499
 91
      503
 93
      241
310
90C312F3422203D2031272D3022000000000000340FC000000000000284000
  0
ACAD_PROXY_OBJECT
  5
61
102
{ACAD_REACTORS
330
47
102
}
330
47
100
AcDbProxyObject
 90
      499
 91
      503
 93
      241
310
90C332F3822203D2031272D3022000000000000360FC000000000000284000
  0
ACAD_PROXY_OBJECT
  5
62
102
{ACAD_REACTORS
330
47
102
}
330
47
100
AcDbProxyObject
 90
      499
 91
      503
 93
      241
310
90C312F3222203D2031272D3022000000000000380FC000000000000284000
  0
ACAD_PROXY_OBJECT
  5
63
102
{ACAD_REACTORS
330
47
102
}
330
47
100
AcDbProxyObject
 90
      499
 91
      503
 93
      241
310
90C332F3422203D2031272D30220000000000003A0FC000000000000284000
  0
ACAD_PROXY_OBJECT
  5
64
102
{ACAD_REACTORS
330
47
102
}
330
47
100
AcDbProxyObject
 90
      499
 91
      503
 93
      161
310
90A3122203D2031272D30224000000000000284000
  0
ACAD_PROXY_OBJECT
  5
65
102
{ACAD_REACTORS
330
47
102
}
330
47
100
AcDbProxyObject
 90
      499
 91
      503
 93
      257
310
90E312D312F3222203D2031272D30220000000000003E0FC000000000000284000
  0
ACAD_PROXY_OBJECT
  5
66
102
{ACAD_REACTORS
330
47
102
}
330
47
100
AcDbProxyObject
 90
      499
 91
      503
 93
      225
310
90A3322203D2031272D302200000000000002100000000000000284000
  0
ACAD_PROXY_OBJECT
  5
67
102
{ACAD_REACTORS
330
47
102
}
330
47
100
AcDbProxyObject
 90
      499
 91
      503
 93
      225
310
90A3622203D2031272D302200000000000006100000000000000284000
  0
ACAD_PROXY_OBJECT
  5
68
102
{ACAD_REACTORS
330
47
102
}
330
47
100
AcDbProxyObject
 90
      499
 91
      503
 93
      249
310
90D31272D3022203D2031272D30220000000000000A100000000000000284000
  0
ACAD_PROXY_OBJECT
  5
2F
102
{ACAD_REACTORS
330
2A
102
}
330
2A
100
AcDbProxyObject
 90
      499
 91
      501
 93
      436
310
42CC9915DA5C99599C985B595049028333333333333E33F0000000000000F90107901411070040501600405405064090741402480A0340
1001
ACAD
1000
AcDbSavedByObjectVersion
1070
     0
  0
ACAD_PROXY_OBJECT
  5
32
102
{ACAD_REACTORS
330
2A
102
}
330
2A
100
AcDbProxyObject
 90
      499
 91
      501
 93
      388
310
4150985CDA58D07406404333333333333E33F0000000000000F90107A41107004050150841D405064090741402480A0350
1001
ACAD
1000
AcDbSavedByObjectVersion
1070
     0
  0
ACAD_PROXY_OBJECT
  5
36
102
{ACAD_REACTORS
330
2A
102
}
330
2A
100
AcDbProxyObject
 90
      499
 91
      501
 93
      428
310
42109C9A59DA1D195B90C409028333333333333E33F0000000000000F9010790141107004050150841D405064090741402480A029950
1001
ACAD
1000
AcDbSavedByObjectVersion
1070
     0
  0
ACAD_PROXY_OBJECT
  5
3A
102
{ACAD_REACTORS
330
2A
102
}
330
2A
100
AcDbProxyObject
 90
      499
 91
      501
 93
      452
310
42D0DBDB1BDC90DA185B99D95104090240C333333333333E33F0000000000000F90108901411070040501508421405064090741402480A0350
1001
ACAD
1000
AcDbSavedByObjectVersion
1070
     0
  0
ACAD_PROXY_OBJECT
  5
34
102
{ACAD_REACTORS
330
2A
102
}
330
2A
100
AcDbProxyObject
 90
      499
 91
      501
 93
      500
310
4290DBDB98D95C1D1D585B10940D028333333333333E33F0000000000000F90107902409070040501000000000018199010841D405064090740C02480A0340
1001
ACAD
1000
AcDbSavedByObjectVersion
1070
     0
  0
ACAD_PROXY_OBJECT
  5
35
102
{ACAD_REACTORS
330
2A
102
}
330
2A
100
AcDbProxyObject
 90
      499
 91
      501
 93
      412
310
40D11A5B50B409028333333333333E33F0000000000000F9010790141107004050150841D405064090741402480A02677FFFFFD0
1001
ACAD
1000
AcDbSavedByObjectVersion
1070
     0
  0
ACAD_PROXY_OBJECT
  5
3D
102
{ACAD_REACTORS
330
2A
102
}
330
2A
100
AcDbProxyObject
 90
      499
 91
      501
 93
      452
310
43115919D950DBDB1BDC93D999916409028333333333333E33F0000000000000F9010790141107004050150841D405064090741402480A0350
1001
ACAD
1000
AcDbSavedByObjectVersion
1070
     0
  0
ACAD_PROXY_OBJECT
  5
39
102
{ACAD_REACTORS
330
2A
102
}
330
2A
100
AcDbProxyObject
 90
      499
 91
      501
 93
      444
310
42D19858D95C185D1D195C9B90F409028333333333333E33F0000000000000F9010790141107004050150841D405064090741402480A0350
1001
ACAD
1000
AcDbSavedByObjectVersion
1070
     0
  0
ACAD_PROXY_OBJECT
  5
2B
102
{ACAD_REACTORS
330
2A
102
}
330
2A
100
AcDbProxyObject
 90
      499
 91
      501
 93
      380
310
41119B185D240901404333333333333E33F0000000000000F9010740A907004050150841D405064090741402480A1B50
1001
ACAD
1000
AcDbSavedByObjectVersion
1070
     0
  0
ACAD_PROXY_OBJECT
  5
2C
102
{ACAD_REACTORS
330
2A
102
}
330
2A
100
AcDbProxyObject
 90
      499
 91
      501
 93
      468
310
43519B185D15DA5D1A115919D95CD0140901404333333333333E33F0000000000000F90107409019070040501600405405064090741402480A1B50
1001
ACAD
1000
AcDbSavedByObjectVersion
1070
     0
  0
ACAD_PROXY_OBJECT
  5
2D
102
{ACAD_REACTORS
330
2A
102
}
330
2A
100
AcDbProxyObject
 90
      499
 91
      501
 93
      404
310
41D1DBDD5C985D5910240902404333333333333E33F0000000000000F9010740A9070040501641D405064090741402480A1B50
1001
ACAD
1000
AcDbSavedByObjectVersion
1070
     0
  0
ACAD_PROXY_OBJECT
  5
2E
102
{ACAD_REACTORS
330
2A
102
}
330
2A
100
AcDbProxyObject
 90
      499
 91
      501
 93
      492
310
4411DBDD5C985D5915DA5D1A115919D95CD0340902404333333333333E33F0000000000000F90107409019070040501600405405064090741402480A1B50
1001
ACAD
1000
AcDbSavedByObjectVersion
1070
     0
  0
ACAD_PROXY_OBJECT
  5
31
102
{ACAD_REACTORS
330
2A
102
}
330
2A
100
AcDbProxyObject
 90
      499
 91
      501
 93
      476
310
41921A5919195B90640502408333333333333E33F0000000000000F901079024090700405020000000000001110200405405064090740C02480A0340
1001
ACAD
1000
AcDbSavedByObjectVersion
1070
     0
  0
ACAD_PROXY_OBJECT
  5
3B
102
{ACAD_REACTORS
330
2A
102
}
330
2A
100
AcDbProxyObject
 90
      499
 91
      501
 93
      428
310
42529A5D1D195C93D999914409028333333333333E33F0000000000000F9010790141107004050150A41D405064090741402480A0350
1001
ACAD
1000
AcDbSavedByObjectVersion
1070
     0
  0
ACAD_PROXY_OBJECT
  5
38
102
{ACAD_REACTORS
330
2A
102
}
330
2A
100
AcDbProxyObject
 90
      499
 91
      501
 93
      444
310
42D31A5B995C185D1D195C9B90E409028333333333333E33F0000000000000F9010790141107004050750841D405064090741402483A0350
1001
ACAD
1000
AcDbSavedByObjectVersion
1070
     0
  0
ACAD_PROXY_OBJECT
  5
3C
102
{ACAD_REACTORS
330
2A
102
}
330
2A
100
AcDbProxyObject
 90
      499
 91
      501
 93
      444
310
42D3DD995C9A185B99D3D999915409028333333333333E33F0000000000000F9010790141107004050150941D405064090741402480A0350
1001
ACAD
1000
AcDbSavedByObjectVersion
1070
     0
  0
ACAD_PROXY_OBJECT
  5
33
102
{ACAD_REACTORS
330
2A
102
}
330
2A
100
AcDbProxyObject
 90
      499
 91
      501
 93
      428
310
425499585B1A5CDD1A58D08409038333333333333E33F0000000000000F9010740A907004050150800405405064090740C02480A1B40
1001
ACAD
1000
AcDbSavedByObjectVersion
1070
     0
  0
ACAD_PROXY_OBJECT
  5
42
102
{ACAD_REACTORS
330
2A
102
}
330
2A
100
AcDbProxyObject
 90
      499
 91
      501
 93
      420
310
4194DA1859195911B40902404333333333333E33F0000000000000F9010740A41107004050150800405405064090840C02480A0B40
1001
ACAD
1000
AcDbSavedByObjectVersion
1070
     0
  0
ACAD_PROXY_OBJECT
  5
41
102
{ACAD_REACTORS
330
2A
102
}
330
2A
100
AcDbProxyObject
 90
      499
 91
      501
 93
      516
310
4454DA18591959081DDA5D1A08195919D95CD1A40902404333333333333E33F0000000000000F901074090142907004050250800405405064090740C02480A0B40
1001
ACAD
1000
AcDbSavedByObjectVersion
1070
     0
  0
ACAD_PROXY_OBJECT
  5
3E
102
{ACAD_REACTORS
330
2A
102
}
330
2A
100
AcDbProxyObject
 90
      499
 91
      501
 93
      532
310
4394DA1859195CC81BD98811DC985E5174090240C333333333333E33F0000000000000F901079024090741D01000000000000111010841D405064090740C02480A0340
1001
ACAD
1000
AcDbSavedByObjectVersion
1070
     0
  0
ACAD_PROXY_OBJECT
  5
3F
102
{ACAD_REACTORS
330
2A
102
}
330
2A
100
AcDbProxyObject
 90
      499
 91
      501
 93
      476
310
41D4DAD95D18DA1E51840502408333333333333E33F0000000000000F901079024090741D01000000000000111010B41D405064090741802480A0340
1001
ACAD
1000
AcDbSavedByObjectVersion
1070
     0
  0
ACAD_PROXY_OBJECT
  5
37
102
{ACAD_REACTORS
330
2A
102
}
330
2A
100
AcDbProxyObject
 90
      499
 91
      501
 93
      412
310
41D51A1A58DAD95B90D409028333333333333E33F0000000000000F9010790141107004050150C41D405064090741402480A0350
1001
ACAD
1000
AcDbSavedByObjectVersion
1070
     0
  0
ACAD_PROXY_OBJECT
  5
30
102
{ACAD_REACTORS
330
2A
102
}
330
2A
100
AcDbProxyObject
 90
      499
 91
      501
 93
      420
310
4255DA5C99599C985B595059028333333333333E33F0000000000000F90107901411070040501600405405064090740C02480A0340
1001
ACAD
1000
AcDbSavedByObjectVersion
1070
     0
  0
ACAD_PROXY_OBJECT
  5
40
102
{ACAD_REACTORS
330
2A
102
}
330
2A
100
AcDbProxyObject
 90
      499
 91
      501
 93
      404
310
41560B54985E51940902404000000000000E03F0000000000000F9010740501907004050150841D405064090740C02480A1B40
1001
ACAD
1000
AcDbSavedByObjectVersion
1070
     0
  0
XRECORD
  5
12A
102
{ACAD_REACTORS
330
120
102
}
330
120
100
AcDbXrecord
340
0
  0
XRECORD
  5
129
102
{ACAD_REACTORS
330
120
102
}
330
120
100
AcDbXrecord
 90
        0
  0
XRECORD
  5
140
102
{ACAD_REACTORS
330
120
102
}
330
120
100
AcDbXrecord
1000
DSTYLE
1002
{
1070
   179
 70
     2
1070
   171
 70
     2
1070
   143
 40
25.4
1070
   274
 70
     2
1070
    41
 40
3.0
1070
   141
 40
0.09
1070
    43
 40
0.38
1070
   278
 70
    46
1070
    44
 40
1.5
1070
    42
 40
0.0625
1070
   147
 40
1.5
1070
   272
 70
     4
1070
    73
 70
     1
1070
   172
 70
     0
1070
    74
 70
     1
1070
   283
 70
     1
1070
   340
340
6F
1070
   140
 40
3.0
1070
   284
 70
     0
1070
    78
 70
     0
1002
}
  0
XRECORD
  5
12B
102
{ACAD_REACTORS
330
120
102
}
330
120
100
AcDbXrecord
  1
{65F9D84F-8843-4132-87B0-312AEDAD3AF9}
  0
XRECORD
  5
123
102
{ACAD_REACTORS
330
120
102
}
330
120
100
AcDbXrecord
  1

  0
XRECORD
  5
128
102
{ACAD_REACTORS
330
120
102
}
330
120
100
AcDbXrecord
 90
        4
  0
XRECORD
  5
125
102
{ACAD_REACTORS
330
120
102
}
330
120
100
AcDbXrecord
340
1A
  0
XRECORD
  5
127
102
{ACAD_REACTORS
330
120
102
}
330
120
100
AcDbXrecord
 90
    10269
  0
XRECORD
  5
126
102
{ACAD_REACTORS
330
120
102
}
330
120
100
AcDbXrecord
340
19
  0
XRECORD
  5
12D
102
{ACAD_REACTORS
330
120
102
}
330
120
100
AcDbXrecord
 40
0.0
  0
XRECORD
  5
130
102
{ACAD_REACTORS
330
120
102
}
330
120
100
AcDbXrecord
340
0
  0
XRECORD
  5
136
102
{ACAD_REACTORS
330
120
102
}
330
120
100
AcDbXrecord
 10
0.0
 20
0.0
 30
0.0
  0
XRECORD
  5
132
102
{ACAD_REACTORS
330
120
102
}
330
120
100
AcDbXrecord
 10
0.0
 20
0.0
 30
0.0
  0
XRECORD
  5
135
102
{ACAD_REACTORS
330
120
102
}
330
120
100
AcDbXrecord
 10
0.0
 20
0.0
 30
0.0
  0
XRECORD
  5
133
102
{ACAD_REACTORS
330
120
102
}
330
120
100
AcDbXrecord
 10
0.0
 20
0.0
 30
0.0
  0
XRECORD
  5
134
102
{ACAD_REACTORS
330
120
102
}
330
120
100
AcDbXrecord
 10
0.0
 20
0.0
 30
0.0
  0
XRECORD
  5
131
102
{ACAD_REACTORS
330
120
102
}
330
120
100
AcDbXrecord
 10
0.0
 20
0.0
 30
0.0
  0
XRECORD
  5
12E
102
{ACAD_REACTORS
330
120
102
}
330
120
100
AcDbXrecord
340
0
  0
XRECORD
  5
12F
102
{ACAD_REACTORS
330
120
102
}
330
120
100
AcDbXrecord
 70
     0
  0
XRECORD
  5
124
102
{ACAD_REACTORS
330
120
102
}
330
120
100
AcDbXrecord
  1

  0
XRECORD
  5
121
102
{ACAD_REACTORS
330
120
102
}
330
120
100
AcDbXrecord
 90
        1
  0
XRECORD
  5
122
102
{ACAD_REACTORS
330
120
102
}
330
120
100
AcDbXrecord
 90
       70
  0
XRECORD
  5
139
102
{ACAD_REACTORS
330
120
102
}
330
120
100
AcDbXrecord
340
0
  0
XRECORD
  5
13F
102
{ACAD_REACTORS
330
120
102
}
330
120
100
AcDbXrecord
 10
0.0
 20
0.0
 30
0.0
  0
XRECORD
  5
13B
102
{ACAD_REACTORS
330
120
102
}
330
120
100
AcDbXrecord
 10
0.0
 20
0.0
 30
0.0
  0
XRECORD
  5
13E
102
{ACAD_REACTORS
330
120
102
}
330
120
100
AcDbXrecord
 10
0.0
 20
0.0
 30
0.0
  0
XRECORD
  5
13C
102
{ACAD_REACTORS
330
120
102
}
330
120
100
AcDbXrecord
 10
0.0
 20
0.0
 30
0.0
  0
XRECORD
  5
13D
102
{ACAD_REACTORS
330
120
102
}
330
120
100
AcDbXrecord
 10
0.0
 20
0.0
 30
0.0
  0
XRECORD
  5
13A
102
{ACAD_REACTORS
330
120
102
}
330
120
100
AcDbXrecord
 10
0.0
 20
0.0
 30
0.0
  0
XRECORD
  5
137
102
{ACAD_REACTORS
330
120
102
}
330
120
100
AcDbXrecord
340
0
  0
XRECORD
  5
138
102
{ACAD_REACTORS
330
120
102
}
330
120
100
AcDbXrecord
 70
     0
  0
XRECORD
  5
12C
102
{ACAD_REACTORS
330
120
102
}
330
120
100
AcDbXrecord
  1
{FAEB1C32-E019-11D5-929B-00C0DF256EC4}
  0
DICTIONARYVAR
  5
14A
102
{ACAD_REACTORS
330
141
102
}
330
141
100
DictionaryVariables
280
     0
  1
1:1
  0
DICTIONARYVAR
  5
143
102
{ACAD_REACTORS
330
141
102
}
330
141
100
DictionaryVariables
280
     0
  1
Standard
  0
DICTIONARYVAR
  5
142
102
{ACAD_REACTORS
330
141
102
}
330
141
100
DictionaryVariables
280
     0
  1
Standard
  0
DICTIONARYVAR
  5
146
102
{ACAD_REACTORS
330
141
102
}
330
141
100
DictionaryVariables
280
     0
  1
2
  0
DICTIONARYVAR
  5
147
102
{ACAD_REACTORS
330
141
102
}
330
141
100
DictionaryVariables
280
     0
  1
1
  0
DICTIONARYVAR
  5
14B
102
{ACAD_REACTORS
330
141
102
}
330
141
100
DictionaryVariables
280
     0
  1
1
  0
DICTIONARY
  5
14E
330
45
100
AcDbDictionary
280
     1
  3
ACAD_XREC_ROUNDTRIP
360
14F
  0
DICTIONARY
  5
14C
330
44
100
AcDbDictionary
280
     1
  3
ACAD_XREC_ROUNDTRIP
360
14D
  0
DICTIONARY
  5
150
330
46
100
AcDbDictionary
280
     1
  3
ACAD_XREC_ROUNDTRIP
360
151
  0
XRECORD
  5
14F
102
{ACAD_REACTORS
330
14E
102
}
330
14E
100
AcDbXrecord
102
MATERIAL
148
0.0
149
0.0
149
0.0
 93
        0
 94
      127
282
     0
 72
     1
 77
     1
171
     1
175
     1
179
     1
273
     0
  0
XRECORD
  5
14D
102
{ACAD_REACTORS
330
14C
102
}
330
14C
100
AcDbXrecord
102
MATERIAL
148
0.0
149
0.0
149
0.0
 93
        0
 94
      127
282
     0
 72
     1
 77
     1
171
     1
175
     1
179
     1
273
     0
  0
XRECORD
  5
151
102
{ACAD_REACTORS
330
150
102
}
330
150
100
AcDbXrecord
102
MATERIAL
148
0.0
149
0.0
149
0.0
 93
        0
 94
      127
282
     0
 72
     1
 77
     1
171
     1
175
     1
179
     1
273
     0
  0
ENDSEC
  0
EOF
