  0
SECTION
  2
HEADER
  9
$ACADVER
  1
AC1014
  9
$ACADMAINTVER
 70
     9
  9
$DWGCODEPAGE
  3
ANSI_932
  9
$INSBASE
 10
0.0
 20
0.0
 30
0.0
  9
$EXTMIN
 10
624.5000000000002
 20
104.0295673377517
 30
0.0
  9
$EXTMAX
 10
840.0
 20
182.5
 30
0.0
  9
$LIMMIN
 10
0.0
 20
0.0
  9
$LIMMAX
 10
12.0
 20
9.0
  9
$ORTHOMODE
 70
     0
  9
$REGENMODE
 70
     1
  9
$FILLMODE
 70
     1
  9
$QTEXTMODE
 70
     0
  9
$MIRRTEXT
 70
     1
  9
$DRAGMODE
 70
     2
  9
$LTSCALE
 40
1.0
  9
$OSMODE
 70
    37
  9
$ATTMODE
 70
     1
  9
$TEXTSIZE
 40
0.2
  9
$TRACEWID
 40
0.05
  9
$TEXTSTYLE
  7
STANDARD
  9
$CLAYER
  8
0
  9
$CELTYPE
  6
BYLAYER
  9
$CECOLOR
 62
   256
  9
$CELTSCALE
 40
1.0
  9
$DELOBJ
 70
     1
  9
$DISPSILH
 70
     0
  9
$DIMSCALE
 40
1.0
  9
$DIMASZ
 40
3.0
  9
$DIMEXO
 40
0.0625
  9
$DIMDLI
 40
0.38
  9
$DIMRND
 40
0.0
  9
$DIMDLE
 40
0.0
  9
$DIMEXE
 40
1.5
  9
$DIMTP
 40
0.0
  9
$DIMTM
 40
0.0
  9
$DIMTXT
 40
3.0
  9
$DIMCEN
 40
0.09
  9
$DIMTSZ
 40
0.0
  9
$DIMTOL
 70
     0
  9
$DIMLIM
 70
     0
  9
$DIMTIH
 70
     1
  9
$DIMTOH
 70
     1
  9
$DIMSE1
 70
     0
  9
$DIMSE2
 70
     0
  9
$DIMTAD
 70
     1
  9
$DIMZIN
 70
     0
  9
$DIMBLK
  1

  9
$DIMASO
 70
     1
  9
$DIMSHO
 70
     1
  9
$DIMPOST
  1

  9
$DIMAPOST
  1

  9
$DIMALT
 70
     0
  9
$DIMALTD
 70
     2
  9
$DIMALTF
 40
25.4
  9
$DIMLFAC
 40
1.0
  9
$DIMTOFL
 70
     0
  9
$DIMTVP
 40
0.0
  9
$DIMTIX
 70
     0
  9
$DIMSOXD
 70
     0
  9
$DIMSAH
 70
     0
  9
$DIMBLK1
  1

  9
$DIMBLK2
  1

  9
$DIMSTYLE
  2
STANDARD
  9
$DIMCLRD
 70
     0
  9
$DIMCLRE
 70
     0
  9
$DIMCLRT
 70
     0
  9
$DIMTFAC
 40
1.0
  9
$DIMGAP
 40
1.5
  9
$DIMJUST
 70
     0
  9
$DIMSD1
 70
     0
  9
$DIMSD2
 70
     0
  9
$DIMTOLJ
 70
     1
  9
$DIMTZIN
 70
     0
  9
$DIMALTZ
 70
     0
  9
$DIMALTTZ
 70
     0
  9
$DIMFIT
 70
     3
  9
$DIMUPT
 70
     0
  9
$DIMUNIT
 70
     2
  9
$DIMDEC
 70
     2
  9
$DIMTDEC
 70
     4
  9
$DIMALTU
 70
     2
  9
$DIMALTTD
 70
     2
  9
$DIMTXSTY
  7
ＭＳ_ゴシック
  9
$DIMAUNIT
 70
     0
  9
$LUNITS
 70
     2
  9
$LUPREC
 70
     4
  9
$SKETCHINC
 40
0.1
  9
$FILLETRAD
 40
0.5
  9
$AUNITS
 70
     0
  9
$AUPREC
 70
     0
  9
$MENU
  1
.
  9
$ELEVATION
 40
0.0
  9
$PELEVATION
 40
0.0
  9
$THICKNESS
 40
0.0
  9
$LIMCHECK
 70
     0
  9
$CHAMFERA
 40
0.0
  9
$CHAMFERB
 40
0.0
  9
$CHAMFERC
 40
0.0
  9
$CHAMFERD
 40
0.0
  9
$SKPOLY
 70
     0
  9
$TDCREATE
 40
2459230.56295735
  9
$TDUPDATE
 40
2459230.562957523
  9
$TDINDWG
 40
0.0000000116
  9
$TDUSRTIMER
 40
0.0000000116
  9
$USRTIMER
 70
     1
  9
$ANGBASE
 50
0.0
  9
$ANGDIR
 70
     0
  9
$PDMODE
 70
     0
  9
$PDSIZE
 40
0.0
  9
$PLINEWID
 40
0.0
  9
$COORDS
 70
     1
  9
$SPLFRAME
 70
     0
  9
$SPLINETYPE
 70
     6
  9
$SPLINESEGS
 70
     8
  9
$ATTDIA
 70
     0
  9
$ATTREQ
 70
     1
  9
$HANDLING
 70
     1
  9
$HANDSEED
  5
158
  9
$SURFTAB1
 70
     6
  9
$SURFTAB2
 70
     6
  9
$SURFTYPE
 70
     6
  9
$SURFU
 70
     6
  9
$SURFV
 70
     6
  9
$UCSNAME
  2

  9
$UCSORG
 10
0.0
 20
0.0
 30
0.0
  9
$UCSXDIR
 10
1.0
 20
0.0
 30
0.0
  9
$UCSYDIR
 10
0.0
 20
1.0
 30
0.0
  9
$PUCSNAME
  2

  9
$PUCSORG
 10
0.0
 20
0.0
 30
0.0
  9
$PUCSXDIR
 10
1.0
 20
0.0
 30
0.0
  9
$PUCSYDIR
 10
0.0
 20
1.0
 30
0.0
  9
$USERI1
 70
     0
  9
$USERI2
 70
     0
  9
$USERI3
 70
     0
  9
$USERI4
 70
     0
  9
$USERI5
 70
     0
  9
$USERR1
 40
0.0
  9
$USERR2
 40
0.0
  9
$USERR3
 40
0.0
  9
$USERR4
 40
0.0
  9
$USERR5
 40
0.0
  9
$WORLDVIEW
 70
     1
  9
$SHADEDGE
 70
     3
  9
$SHADEDIF
 70
    70
  9
$TILEMODE
 70
     1
  9
$MAXACTVP
 70
    64
  9
$PINSBASE
 10
0.0
 20
0.0
 30
0.0
  9
$PLIMCHECK
 70
     0
  9
$PEXTMIN
 10
1.000000000000000E+20
 20
1.000000000000000E+20
 30
1.000000000000000E+20
  9
$PEXTMAX
 10
-1.000000000000000E+20
 20
-1.000000000000000E+20
 30
-1.000000000000000E+20
  9
$PLIMMIN
 10
0.0
 20
0.0
  9
$PLIMMAX
 10
12.0
 20
9.0
  9
$UNITMODE
 70
     0
  9
$VISRETAIN
 70
     1
  9
$PLINEGEN
 70
     0
  9
$PSLTSCALE
 70
     1
  9
$TREEDEPTH
 70
  3020
  9
$PICKSTYLE
 70
     1
  9
$CMLSTYLE
  2
STANDARD
  9
$CMLJUST
 70
     0
  9
$CMLSCALE
 40
1.0
  9
$PROXYGRAPHICS
 70
     1
  9
$MEASUREMENT
 70
     1
  0
ENDSEC
  0
SECTION
  2
CLASSES
  0
CLASS
  1
ACDBDICTIONARYWDFLT
  2
AcDbDictionaryWithDefault
  3
ObjectDBX Classes
 90
        0
280
     0
281
     0
  0
CLASS
  1
VISUALSTYLE
  2
AcDbVisualStyle
  3
ObjectDBX Classes
 90
     4095
280
     0
281
     0
  0
CLASS
  1
MATERIAL
  2
AcDbMaterial
  3
ObjectDBX Classes
 90
     1153
280
     0
281
     0
  0
CLASS
  1
SCALE
  2
AcDbScale
  3
ObjectDBX Classes
 90
     1153
280
     0
281
     0
  0
CLASS
  1
TABLESTYLE
  2
AcDbTableStyle
  3
ObjectDBX Classes
 90
     4095
280
     0
281
     0
  0
CLASS
  1
MLEADERSTYLE
  2
AcDbMLeaderStyle
  3
ACDB_MLEADERSTYLE_CLASS
 90
     4095
280
     0
281
     0
  0
CLASS
  1
SUN
  2
AcDbSun
  3
SCENEOE
 90
     1153
280
     0
281
     0
  0
CLASS
  1
DICTIONARYVAR
  2
AcDbDictionaryVar
  3
ObjectDBX Classes
 90
        0
280
     0
281
     0
  0
CLASS
  1
XRECORD
  2
AcDbXrecord
  3
ObjectDBX Classes
 90
        0
280
     0
281
     0
  0
CLASS
  1
LWPOLYLINE
  2
AcDbPolyline
  3
ObjectDBX Classes
 90
        0
280
     0
281
     1
  0
CLASS
  1
HATCH
  2
AcDbHatch
  3
ObjectDBX Classes
 90
        0
280
     0
281
     1
  0
CLASS
  1
ACDBPLACEHOLDER
  2
AcDbPlaceHolder
  3
ObjectDBX Classes
 90
        0
280
     0
281
     0
  0
CLASS
  1
LAYOUT
  2
AcDbLayout
  3
ObjectDBX Classes
 90
        0
280
     0
281
     0
  0
ENDSEC
  0
SECTION
  2
TABLES
  0
TABLE
  2
VPORT
  5
8
102
{ACAD_XDICTIONARY
360
14D
102
}
330
0
100
AcDbSymbolTable
 70
     1
  0
VPORT
  5
29
330
8
100
AcDbSymbolTableRecord
100
AcDbViewportTableRecord
  2
*ACTIVE
 70
     0
 10
0.0
 20
0.0
 11
1.0
 21
1.0
 12
732.2500000000001
 22
143.2647836688759
 13
0.0
 23
0.0
 14
0.5
 24
0.5
 15
0.5
 25
0.5
 16
0.0
 26
0.0
 36
1.0
 17
0.0
 27
0.0
 37
0.0
 40
78.47043266224826
 41
1.6
 42
50.0
 43
0.0
 44
0.0
 50
0.0
 51
0.0
 71
     0
 72
   100
 73
     1
 74
     3
 75
     0
 76
     0
 77
     0
 78
     0
  0
ENDTAB
  0
TABLE
  2
LTYPE
  5
5
330
0
100
AcDbSymbolTable
 70
     2
  0
LTYPE
  5
14
330
5
100
AcDbSymbolTableRecord
100
AcDbLinetypeTableRecord
  2
BYBLOCK
 70
     0
  3

 72
    65
 73
     0
 40
0.0
  0
LTYPE
  5
15
330
5
100
AcDbSymbolTableRecord
100
AcDbLinetypeTableRecord
  2
BYLAYER
 70
     0
  3

 72
    65
 73
     0
 40
0.0
  0
LTYPE
  5
16
330
5
100
AcDbSymbolTableRecord
100
AcDbLinetypeTableRecord
  2
CONTINUOUS
 70
     0
  3
Solid line
 72
    65
 73
     0
 40
0.0
  0
LTYPE
  5
77
330
5
100
AcDbSymbolTableRecord
100
AcDbLinetypeTableRecord
  2
CENTER
 70
     0
  3

 72
    65
 73
     0
 40
0.0
  0
ENDTAB
  0
TABLE
  2
LAYER
  5
2
330
0
100
AcDbSymbolTable
 70
     2
  0
LAYER
  5
10
330
2
100
AcDbSymbolTableRecord
100
AcDbLayerTableRecord
  2
0
 70
     0
 62
     7
  6
CONTINUOUS
  0
LAYER
  5
6E
330
2
100
AcDbSymbolTableRecord
100
AcDbLayerTableRecord
  2
2
 70
     0
 62
     7
  6
CONTINUOUS
  0
ENDTAB
  0
TABLE
  2
STYLE
  5
3
330
0
100
AcDbSymbolTable
 70
     2
  0
STYLE
  5
11
330
3
100
AcDbSymbolTableRecord
100
AcDbTextStyleTableRecord
  2
STANDARD
 70
     0
 40
0.0
 41
1.0
 50
0.0
 71
     0
 42
0.2
  3
txt
  4

  0
STYLE
  5
6F
330
3
100
AcDbSymbolTableRecord
100
AcDbTextStyleTableRecord
  2
ＭＳ_ゴシック
 70
     0
 40
0.0
 41
1.0
 50
0.0
 71
     0
 42
0.2
  3
ＭＳ ゴシック.shx
  4

  0
ENDTAB
  0
TABLE
  2
VIEW
  5
6
330
0
100
AcDbSymbolTable
 70
     0
  0
ENDTAB
  0
TABLE
  2
UCS
  5
7
330
0
100
AcDbSymbolTable
 70
     0
  0
ENDTAB
  0
TABLE
  2
APPID
  5
9
330
0
100
AcDbSymbolTable
 70
     2
  0
APPID
  5
12
330
9
100
AcDbSymbolTableRecord
100
AcDbRegAppTableRecord
  2
ACAD
 70
     0
  0
APPID
  5
157
330
9
100
AcDbSymbolTableRecord
100
AcDbRegAppTableRecord
  2
ACAD_MLEADERVER
 70
     0
  0
ENDTAB
  0
TABLE
  2
DIMSTYLE
  5
A
330
0
100
AcDbSymbolTable
 70
     1
  0
DIMSTYLE
105
27
330
A
100
AcDbSymbolTableRecord
100
AcDbDimStyleTableRecord
  2
STANDARD
 70
     0
  3

  4

  5

  6

  7

 40
1.0
 41
0.18
 42
0.0625
 43
0.38
 44
0.18
 45
0.0
 46
0.0
 47
0.0
 48
0.0
140
0.18
141
0.09
142
0.0
143
25.4
144
1.0
145
0.0
146
1.0
147
0.09
 71
     0
 72
     0
 73
     1
 74
     1
 75
     0
 76
     0
 77
     0
 78
     0
170
     0
171
     2
172
     0
173
     0
174
     0
175
     0
176
     0
177
     0
178
     0
270
     2
271
     4
272
     4
273
     2
274
     2
340
11
275
     0
280
     0
281
     0
282
     0
283
     1
284
     0
285
     0
286
     0
287
     3
288
     0
  0
ENDTAB
  0
TABLE
  2
BLOCK_RECORD
  5
1
330
0
100
AcDbSymbolTable
 70
     0
  0
BLOCK_RECORD
  5
1F
330
1
100
AcDbSymbolTableRecord
100
AcDbBlockTableRecord
  2
*MODEL_SPACE
  0
BLOCK_RECORD
  5
1B
330
1
100
AcDbSymbolTableRecord
100
AcDbBlockTableRecord
  2
*PAPER_SPACE
  0
ENDTAB
  0
ENDSEC
  0
SECTION
  2
BLOCKS
  0
BLOCK
  5
20
330
1F
100
AcDbEntity
  8
0
100
AcDbBlockBegin
  2
*MODEL_SPACE
 70
     0
 10
0.0
 20
0.0
 30
0.0
  3
*MODEL_SPACE
  1

  0
ENDBLK
  5
21
330
1F
100
AcDbEntity
  8
0
100
AcDbBlockEnd
  0
BLOCK
  5
1C
330
1B
100
AcDbEntity
 67
     1
  8
0
100
AcDbBlockBegin
  2
*PAPER_SPACE
 70
     0
 10
0.0
 20
0.0
 30
0.0
  3
*PAPER_SPACE
  1

  0
ENDBLK
  5
1D
330
1B
100
AcDbEntity
 67
     1
  8
0
100
AcDbBlockEnd
  0
ENDSEC
  0
SECTION
  2
ENTITIES
  0
LWPOLYLINE
  5
70
330
1F
100
AcDbEntity
  8
2
  6
CONTINUOUS
 62
     7
100
AcDbPolyline
 90
       42
 70
     0
 43
0.0
 10
715.2499999999999
 20
160.1785679233351
 10
715.2085114432192
 20
160.1777457725717
 10
715.1681835149809
 20
160.1752878041157
 10
715.1290765238203
 20
160.1713310964917
 10
715.0912400517449
 20
160.1660109063325
 10
715.0547136549471
 20
160.1594600393564
 10
715.0195275743106
 20
160.151808304027
 10
714.9791033990056
 20
160.1413506986545
 10
714.9406625474239
 20
160.1297004935661
 10
714.9042129207093
 20
160.1170598201651
 10
714.8697494962828
 20
160.1036214115927
 10
714.83725597284
 20
160.0895681626145
 10
714.8031694770087
 20
160.0733115182405
 10
714.7714725867222
 20
160.0567274690677
 10
714.7421062984625
 20
160.040027186183
 10
714.7150035440419
 20
160.0234057386291
 10
714.6900913520024
 20
160.007042385274
 10
714.6606522205398
 20
159.9862759073653
 10
714.634660071654
 20
159.9665611683651
 10
714.6115508028312
 20
159.9478743954498
 10
714.593096392971
 20
159.9321864502454
 10
714.5732973995885
 20
159.9145489609647
 10
714.5522835649298
 20
159.8948274075932
 10
714.5302041308516
 20
159.8728804097883
 10
714.5072297105474
 20
159.8485619294784
 10
714.4839818603075
 20
159.8222260506749
 10
714.4602648098212
 20
159.7933202452409
 10
714.436310611578
 20
159.7617089730807
 10
714.4123775516182
 20
159.7272642023971
 10
714.3944342625306
 20
159.699211414886
 10
714.3768013338001
 20
159.6694203946425
 10
714.3596229854322
 20
159.637852750287
 10
714.3430527564501
 20
159.6044777932455
 10
714.327253366874
 20
159.5692738899466
 10
714.3123964426902
 20
159.5322298820737
 10
714.3005483647129
 20
159.4990135502955
 10
714.2896429544943
 20
159.4644539896925
 10
714.2798021590054
 20
159.428567514756
 10
714.2711513780802
 20
159.3913791623542
 10
714.2638189355085
 20
159.3529234178735
 10
714.2579354575123
 20
159.3132449325786
 10
714.2560541436401
 20
159.2973777784805
  0
LWPOLYLINE
  5
71
330
1F
100
AcDbEntity
  8
2
  6
CONTINUOUS
 62
     7
100
AcDbPolyline
 90
       45
 70
     0
 43
0.0
 10
683.1472372196781
 20
160.1387161453189
 10
683.1353527943548
 20
160.1333089845755
 10
683.1165944825265
 20
160.1239869305801
 10
683.098063045518
 20
160.1137748574653
 10
683.0798511845439
 20
160.1026948130438
 10
683.0620473787764
 20
160.0907788014323
 10
683.0447348583155
 20
160.0780684645329
 10
683.0279906336283
 20
160.064614623043
 10
683.0118846038698
 20
160.0504766861904
 10
682.9964787645741
 20
160.0357219421832
 10
682.981826532762
 20
160.020424743865
 10
682.9679722046446
 20
160.0046656061788
 10
682.9549505579034
 20
159.9885302337049
 10
682.9427866071268
 20
159.9721084976718
 10
682.9314955174784
 20
159.9554933824097
 10
682.9210826782135
 20
159.9387799211877
 10
682.9097400610526
 20
159.9187291654762
 10
682.8996311656304
 20
159.8988407466452
 10
682.890713884255
 20
159.8792778394185
 10
682.882930246559
 20
159.8601988529578
 10
682.8762085304372
 20
159.8417553800772
 10
682.8720118259212
 20
159.8290501392974
 10
682.8682816301931
 20
159.8167912583913
 10
682.8649831279449
 20
159.805024779932
 10
682.8620803426871
 20
159.7937935877017
 10
682.8595367166126
 20
159.7831371946055
 10
682.8573157077351
 20
159.7730915459985
 10
682.8553814014498
 20
159.7636888310045
 10
682.8543716018802
 20
159.7585122249376
 10
682.853440925065
 20
159.7535690446164
 10
682.852583027204
 20
159.7488637572791
 10
682.8517918550194
 20
159.7444002360014
 10
682.8510606971391
 20
159.740175797095
 10
682.8503817991741
 20
159.7361774058681
 10
682.849626175307
 20
159.731657775573
 10
682.8489248237892
 20
159.7274185534272
 10
682.8482683537296
 20
159.7234348653107
 10
682.8476486361211
 20
159.7196817682711
 10
682.8470586538202
 20
159.7161343437456
 10
682.8448870052061
 20
159.7035087523333
 10
682.842830917129
 20
159.6922450259904
 10
682.8407197484045
 20
159.6809402568147
 10
682.8384198942118
 20
159.668400959759
 10
682.8357996018899
 20
159.6537075934721
 10
682.8355547933569
 20
159.6523203723967
  0
LWPOLYLINE
  5
72
330
1F
100
AcDbEntity
  8
2
  6
CONTINUOUS
 62
     7
100
AcDbPolyline
 90
       33
 70
     0
 43
0.0
 10
715.2499999999999
 20
160.0
 10
715.2009323256725
 20
159.9988137558714
 10
715.1519828596704
 20
159.9952578812516
 10
715.1032695255445
 20
159.9893409425539
 10
715.0549096779838
 20
159.9810771942021
 10
715.0070198200967
 20
159.9704865442897
 10
714.9597153227455
 20
159.9575945066199
 10
714.9131101466078
 20
159.9424321392407
 10
714.8673165676349
 20
159.9250359696232
 10
714.8224449065697
 20
159.9054479066637
 10
714.778603263174
 20
159.8837151397217
 10
714.7358972558068
 20
159.8598900249362
 10
714.6944297669804
 20
159.8340299590956
 10
714.6543006955075
 20
159.8061972413635
 10
714.6156067158363
 20
159.776458923195
 10
714.578441045153
 20
159.7448866468031
 10
714.5428932188133
 20
159.7115564725671
 10
714.509048874645
 20
159.6765486957961
 10
714.4769895466371
 20
159.6399476532908
 10
714.4467924685192
 20
159.6018415201683
 10
714.4185303876974
 20
159.562322097441
 10
714.3922713899997
 20
159.5214845908598
 10
714.3680787356516
 20
159.4794273815551
 10
714.3460107068765
 20
159.4362517890278
 10
714.3261204674886
 20
159.3920618270619
 10
714.308455934817
 20
159.3469639531465
 10
714.2930596642677
 20
159.30106681201
 10
714.2799687468055
 20
159.2544809738855
 10
714.2692147195967
 20
159.2073186681374
 10
714.2608234900351
 20
159.1596935128912
 10
714.2548152733277
 20
159.1117202413174
 10
714.2512045437948
 20
159.0635144252291
 10
714.2499999999999
 20
159.0151921966597
  0
LWPOLYLINE
  5
73
330
1F
100
AcDbEntity
  8
2
  6
CONTINUOUS
 62
   253
100
AcDbPolyline
 90
       33
 70
     0
 43
0.0
 10
715.2499999999999
 20
160.1733610407792
 10
715.2036005824351
 20
160.1723003404589
 10
715.1573011122758
 20
160.1691205243166
 10
715.1112013216342
 20
160.1638284418859
 10
715.0654005124995
 20
160.1564354926614
 10
715.0199973428354
 20
160.1469576015432
 10
714.9750896140636
 20
160.135415184534
 10
714.9307740603933
 20
160.1218331047611
 10
714.8871461404503
 20
160.1062406189202
 10
714.844299831651
 20
160.0886713142541
 10
714.8023274277705
 20
160.0691630362037
 10
714.7613193401346
 20
160.0477578068866
 10
714.7213639028689
 20
160.0245017345783
 10
714.68254718262
 20
159.9994449143924
 10
714.6449527931636
 20
159.9726413203721
 10
714.6086617152938
 20
159.9441486892265
 10
714.5737521223857
 20
159.9140283959624
 10
714.5402992120049
 20
159.8823453216777
 10
714.5083750439263
 20
159.8491677138041
 10
714.4780483849137
 20
159.8145670390969
 10
714.4493845605905
 20
159.7786178296914
 10
714.4224453147247
 20
159.7413975225556
 10
714.3972886762283
 20
159.7029862926856
 10
714.3739688341601
 20
159.663466880404
 10
714.3525360209978
 20
159.622924413131
 10
714.3330364044342
 20
159.581446222015
 10
714.3155119879298
 20
159.539121653815
 10
714.300000520233
 20
159.4960418784424
 10
714.2865354140685
 20
159.4522996925744
 10
714.2751456741629
 20
159.4079893197642
 10
714.2658558347673
 20
159.3632062074772
 10
714.2586859068083
 20
159.3180468214905
 10
714.2536513347835
 20
159.2726084381
  0
LWPOLYLINE
  5
74
330
1F
100
AcDbEntity
  8
2
  6
CONTINUOUS
 62
     7
100
AcDbPolyline
 90
       77
 70
     0
 43
0.0
 10
626.221453929195
 20
159.2736813183054
 10
626.2167941106751
 20
159.3001094705274
 10
626.2122671728482
 20
159.3257839901357
 10
626.207880695435
 20
159.3506618887597
 10
626.2036408878239
 20
159.3747079498641
 10
626.1995526788962
 20
159.3978942193079
 10
626.1956886592858
 20
159.4198089994458
 10
626.1919769953847
 20
159.4408596944524
 10
626.1884192628365
 20
159.461037368071
 10
626.1850161836586
 20
159.48033792538
 10
626.1813366791214
 20
159.5012062286034
 10
626.1778556451673
 20
159.5209489062754
 10
626.1745709224158
 20
159.5395782053193
 10
626.1714794825164
 20
159.5571113010203
 10
626.1685775614593
 20
159.573569540954
 10
626.1658607857888
 20
159.5889777291652
 10
626.1633242914045
 20
159.6033634523924
 10
626.1609628347629
 20
159.6167564493828
 10
626.1577502428482
 20
159.6349766585034
 10
626.154896605563
 20
159.6511610571028
 10
626.1523511428413
 20
159.6655976442317
 10
626.1499351248192
 20
159.6793000859829
 10
626.1476229039574
 20
159.6924138423308
 10
626.1454137401573
 20
159.7049431107413
 10
626.1421480601363
 20
159.7234644089452
 10
626.1391298123714
 20
159.7405823955621
 10
626.136353281402
 20
159.756329485819
 10
626.1350866349433
 20
159.7635132688654
 10
626.13387491164
 20
159.7703855553375
 10
626.1327172272585
 20
159.7769513601638
 10
626.1316126580097
 20
159.7832159226132
 10
626.130472380247
 20
159.7893945086348
 10
626.128645285371
 20
159.7970430035895
 10
626.125958169429
 20
159.8065219747211
 10
626.124881636044
 20
159.8100220837058
 10
626.1237016041855
 20
159.8137225904836
 10
626.1224141767882
 20
159.8176240661174
 10
626.121015091092
 20
159.8217268133315
 10
626.1194997233779
 20
159.8260308564732
 10
626.1178630943298
 20
159.8305359305251
 10
626.1150333159964
 20
159.8380200274465
 10
626.1118684554293
 20
159.8459952697506
 10
626.1083441193464
 20
159.8544558218191
 10
626.1029110238859
 20
159.8667601484778
 10
626.0966881410662
 20
159.8799241266175
 10
626.089597575687
 20
159.8939112522961
 10
626.081556371188
 20
159.9086751717903
 10
626.0724773183383
 20
159.9241587557298
 10
626.0622699064587
 20
159.9402931402327
 10
626.0508414315537
 20
159.9569967545544
 10
626.0380982752284
 20
159.9741743583139
 10
626.0239473672528
 20
159.9917161151261
 10
626.0082978430148
 20
160.0094967334119
 10
625.9961537904398
 20
160.0222656932991
 10
625.9831709119554
 20
160.0350278728391
 10
625.9693214057129
 20
160.0477219973648
 10
625.9545799287813
 20
160.0602822630211
 10
625.9389240714173
 20
160.0726383121409
 10
625.9223348577716
 20
160.0847152467923
 10
625.9047972715586
 20
160.0964336855081
 10
625.8886655394784
 20
160.1063274990016
 10
625.8717957147638
 20
160.1158240026389
 10
625.8541871997043
 20
160.1248620600629
 10
625.8358429790776
 20
160.1333783074213
 10
625.8167699310478
 20
160.1413073218513
 10
625.796979140476
 20
160.148581822466
 10
625.7764862123342
 20
160.1551329057282
 10
625.7553115826339
 20
160.1608903169845
 10
625.7357809257486
 20
160.1653163622831
 10
625.7157455363534
 20
160.1689962347938
 10
625.6952311717733
 20
160.1718779386898
 10
625.6742674137065
 20
160.1739094984619
 10
625.6528878154145
 20
160.1750392252469
 10
625.6315216487478
 20
160.1752214973139
 10
625.6098303233115
 20
160.1744369532444
 10
625.5878575171016
 20
160.1726391224092
 10
625.5656510181927
 20
160.1697829819072
  0
MTEXT
  5
75
330
1F
100
AcDbEntity
  8
2
 62
     1
100
AcDbMText
 10
723.3075215705888
 20
107.0568400650245
 30
0.0
 40
3.0
 41
0.0
 71
     1
 72
     1
  1
{\fＭＳ ゴシック;MIDE-60_}
  0
LINE
  5
76
330
1F
100
AcDbEntity
  8
0
  6
CENTER
 62
     1
100
AcDbLine
 10
805.0000000000001
 20
135.0
 30
0.0
 11
805.0000000000001
 21
182.5
 31
0.0
  0
LINE
  5
78
330
1F
100
AcDbEntity
  8
2
  6
CONTINUOUS
 62
     7
100
AcDbLine
 10
741.4499999999999
 20
141.0517298893532
 30
0.0
 11
741.4499999999999
 21
178.9482701106468
 31
0.0
  0
LINE
  5
79
330
1F
100
AcDbEntity
  8
2
  6
CONTINUOUS
 62
     7
100
AcDbLine
 10
779.799491446272
 20
180.0
 30
0.0
 11
830.200508553728
 21
180.0
 31
0.0
  0
LINE
  5
7A
330
1F
100
AcDbEntity
  8
2
  6
CONTINUOUS
 62
     7
100
AcDbLine
 10
830.7214530867288
 20
179.9544232590366
 30
0.0
 11
834.7520944533001
 21
179.2437124365505
 31
0.0
  0
LINE
  5
7B
330
1F
100
AcDbEntity
  8
2
  6
CONTINUOUS
 62
     7
100
AcDbLine
 10
835.0000000000001
 20
178.9482701106468
 30
0.0
 11
835.0000000000001
 21
141.0517298893532
 31
0.0
  0
ARC
  5
7C
330
1F
100
AcDbEntity
  8
2
  6
CONTINUOUS
 62
     7
100
AcDbCircle
 10
-834.6999999999999
 20
178.9482701106468
 30
0.0
 40
0.2999999999999896
210
0.0
220
0.0
230
-1.0
100
AcDbArc
 50
100.0000000000003
 51
180.0
  0
LINE
  5
7D
330
1F
100
AcDbEntity
  8
2
  6
CONTINUOUS
 62
     7
100
AcDbLine
 10
834.7520944533001
 20
140.7562875634495
 30
0.0
 11
830.7214530867288
 21
140.0455767409634
 31
0.0
  0
LINE
  5
7E
330
1F
100
AcDbEntity
  8
2
  6
CONTINUOUS
 62
     7
100
AcDbLine
 10
741.4499999999999
 20
178.9482701106468
 30
0.0
 11
741.4499999999999
 21
179.2437124365505
 31
0.0
  0
LINE
  5
7F
330
1F
100
AcDbEntity
  8
2
  6
CONTINUOUS
 62
     7
100
AcDbLine
 10
739.25
 20
178.9482701106468
 30
0.0
 11
739.25
 21
179.2437124365505
 31
0.0
  0
ARC
  5
80
330
1F
100
AcDbEntity
  8
2
  6
CONTINUOUS
 62
     7
100
AcDbCircle
 10
-830.200508553728
 20
177.0
 30
0.0
 40
2.999999999999975
210
0.0
220
0.0
230
-1.0
100
AcDbArc
 50
90.0
 51
100.0000000000001
  0
LINE
  5
81
330
1F
100
AcDbEntity
  8
2
  6
CONTINUOUS
 62
     7
100
AcDbLine
 10
714.2499999999999
 20
159.0151921966597
 30
0.0
 11
714.2499999999999
 21
159.1885255299931
 31
0.0
  0
LINE
  5
82
330
1F
100
AcDbEntity
  8
2
  6
CONTINUOUS
 62
     7
100
AcDbLine
 10
736.25
 20
160.0
 30
0.0
 11
736.25
 21
144.9311499202993
 31
0.0
  0
ARC
  5
83
330
1F
100
AcDbEntity
  8
2
  6
CONTINUOUS
 62
     7
100
AcDbCircle
 10
-834.6999999999999
 20
141.0517298893532
 30
0.0
 40
0.300000000000078
210
0.0
220
0.0
230
-1.0
100
AcDbArc
 50
180.0
 51
259.9999999999998
  0
ARC
  5
84
330
1F
100
AcDbEntity
  8
2
  6
CONTINUOUS
 62
     7
100
AcDbCircle
 10
-779.799491446272
 20
177.0
 30
0.0
 40
2.999999999999983
210
0.0
220
0.0
230
-1.0
100
AcDbArc
 50
79.99999999999993
 51
90.00000000000001
  0
ARC
  5
85
330
1F
100
AcDbEntity
  8
2
  6
CONTINUOUS
 62
     7
100
AcDbCircle
 10
-830.200508553728
 20
143.0
 30
0.0
 40
2.999999999999983
210
0.0
220
0.0
230
-1.0
100
AcDbArc
 50
259.9999999999999
 51
270.0
  0
ARC
  5
86
330
1F
100
AcDbEntity
  8
2
  6
CONTINUOUS
 62
     7
100
AcDbCircle
 10
-775.3000000000001
 20
141.0517298893532
 30
0.0
 40
0.2999999999999896
210
0.0
220
0.0
230
-1.0
100
AcDbArc
 50
280.0000000000003
 51
0.0
  0
LINE
  5
87
330
1F
100
AcDbEntity
  8
2
  6
CONTINUOUS
 62
     7
100
AcDbLine
 10
741.4499999999999
 20
140.7562875634495
 30
0.0
 11
741.4499999999999
 21
141.0517298893532
 31
0.0
  0
LINE
  5
88
330
1F
100
AcDbEntity
  8
2
  6
CONTINUOUS
 62
     7
100
AcDbLine
 10
739.25
 20
140.7562875634495
 30
0.0
 11
739.25
 21
141.0517298893532
 31
0.0
  0
LINE
  5
89
330
1F
100
AcDbEntity
  8
2
  6
CONTINUOUS
 62
     7
100
AcDbLine
 10
775.2479055466999
 20
179.2437124365505
 30
0.0
 11
779.2785469132713
 21
179.9544232590366
 31
0.0
  0
LINE
  5
8A
330
1F
100
AcDbEntity
  8
0
  6
CENTER
 62
     1
100
AcDbLine
 10
770.0
 20
160.0
 30
0.0
 11
840.0
 21
160.0
 31
0.0
  0
LINE
  5
8B
330
1F
100
AcDbEntity
  8
2
  6
CONTINUOUS
 62
     7
100
AcDbLine
 10
741.7499999999999
 20
178.9482701106468
 30
0.0
 11
741.7499999999999
 21
141.0517298893532
 31
0.0
  0
LINE
  5
8C
330
1F
100
AcDbEntity
  8
2
  6
CONTINUOUS
 62
     7
100
AcDbLine
 10
739.25
 20
178.9482701106468
 30
0.0
 11
739.25
 21
141.0517298893532
 31
0.0
  0
LINE
  5
8D
330
1F
100
AcDbEntity
  8
0
  6
CENTER
 62
     1
100
AcDbLine
 10
654.5000000000003
 20
135.0
 30
0.0
 11
654.5000000000003
 21
182.5
 31
0.0
  0
LINE
  5
8E
330
1F
100
AcDbEntity
  8
2
  6
CONTINUOUS
 62
   253
100
AcDbLine
 10
715.2499999999999
 20
160.1733610407792
 30
0.0
 11
715.2499999999999
 21
160.0
 31
0.0
  0
LINE
  5
8F
330
1F
100
AcDbEntity
  8
2
  6
CONTINUOUS
 62
     7
100
AcDbLine
 10
714.2499999999999
 20
144.9311499202993
 30
0.0
 11
714.2499999999999
 21
159.0151921966597
 31
0.0
  0
LINE
  5
90
330
1F
100
AcDbEntity
  8
2
  6
CONTINUOUS
 62
     7
100
AcDbLine
 10
715.2499999999999
 20
160.0
 30
0.0
 11
736.25
 21
160.0
 31
0.0
  0
ARC
  5
91
330
1F
100
AcDbEntity
  8
2
  6
CONTINUOUS
 62
     7
100
AcDbCircle
 10
-779.799491446272
 20
143.0
 30
0.0
 40
2.999999999999975
210
0.0
220
0.0
230
-1.0
100
AcDbArc
 50
270.0
 51
280.0000000000001
  0
LINE
  5
92
330
1F
100
AcDbEntity
  8
2
  6
CONTINUOUS
 62
   253
100
AcDbLine
 10
736.25
 20
160.1733610407792
 30
0.0
 11
715.2499999999999
 21
160.1733610407792
 31
0.0
  0
LINE
  5
93
330
1F
100
AcDbEntity
  8
2
  6
CONTINUOUS
 62
     7
100
AcDbLine
 10
736.25
 20
160.1733610407792
 30
0.0
 11
736.25
 21
160.0
 31
0.0
  0
LINE
  5
94
330
1F
100
AcDbEntity
  8
2
  6
CONTINUOUS
 62
     7
100
AcDbLine
 10
779.2785469132713
 20
140.0455767409634
 30
0.0
 11
775.2479055466999
 21
140.7562875634495
 31
0.0
  0
LINE
  5
95
330
1F
100
AcDbEntity
  8
2
  6
CONTINUOUS
 62
     7
100
AcDbLine
 10
741.4499999999999
 20
140.0455767409634
 30
0.0
 11
741.4499999999999
 21
140.7562875634495
 31
0.0
  0
LINE
  5
96
330
1F
100
AcDbEntity
  8
2
  6
CONTINUOUS
 62
     7
100
AcDbLine
 10
739.25
 20
140.7562875634495
 30
0.0
 11
739.25
 21
140.0455767409634
 31
0.0
  0
ARC
  5
97
330
1F
100
AcDbEntity
  8
2
  6
CONTINUOUS
 62
     7
100
AcDbCircle
 10
-775.3000000000001
 20
178.9482701106468
 30
0.0
 40
0.300000000000078
210
0.0
220
0.0
230
-1.0
100
AcDbArc
 50
0.0
 51
79.9999999999997
  0
LINE
  5
98
330
1F
100
AcDbEntity
  8
2
  6
CONTINUOUS
 62
     7
100
AcDbLine
 10
741.7499999999999
 20
141.0517298893532
 30
0.0
 11
741.7499999999999
 21
140.341019066867
 31
0.0
  0
LINE
  5
99
330
1F
100
AcDbEntity
  8
2
  6
CONTINUOUS
 62
     7
100
AcDbLine
 10
775.0
 20
141.0517298893532
 30
0.0
 11
775.0
 21
178.9482701106468
 31
0.0
  0
LINE
  5
9A
330
1F
100
AcDbEntity
  8
2
  6
CONTINUOUS
 62
     7
100
AcDbLine
 10
741.4499999999999
 20
179.2437124365505
 30
0.0
 11
741.4499999999999
 21
179.9544232590366
 31
0.0
  0
LINE
  5
9B
330
1F
100
AcDbEntity
  8
2
  6
CONTINUOUS
 62
     7
100
AcDbLine
 10
830.200508553728
 20
140.0
 30
0.0
 11
779.799491446272
 21
140.0
 31
0.0
  0
LINE
  5
9C
330
1F
100
AcDbEntity
  8
2
  6
CONTINUOUS
 62
     7
100
AcDbLine
 10
670.5000000000003
 20
144.7
 30
0.0
 11
671.0000000000002
 21
144.7
 31
0.0
  0
ARC
  5
9D
330
1F
100
AcDbEntity
  8
2
  6
CONTINUOUS
 62
     7
100
AcDbCircle
 10
670.5000000000003
 20
144.2
 30
0.0
 40
0.5000000000000004
100
AcDbArc
 50
90.0
 51
179.9999999999976
  0
LINE
  5
9E
330
1F
100
AcDbEntity
  8
2
  6
CONTINUOUS
 62
     7
100
AcDbLine
 10
638.0000000000003
 20
144.7
 30
0.0
 11
638.5000000000002
 21
144.7
 31
0.0
  0
ARC
  5
9F
330
1F
100
AcDbEntity
  8
2
  6
CONTINUOUS
 62
     7
100
AcDbCircle
 10
638.5000000000002
 20
144.2
 30
0.0
 40
0.5000000000000004
100
AcDbArc
 50
0.0000000000023854
 51
90.00000000000001
  0
LINE
  5
A0
330
1F
100
AcDbEntity
  8
2
  6
CONTINUOUS
 62
     7
100
AcDbLine
 10
737.25
 20
144.7
 30
0.0
 11
738.25
 21
144.7
 31
0.0
  0
LINE
  5
A1
330
1F
100
AcDbEntity
  8
2
  6
CONTINUOUS
 62
     7
100
AcDbLine
 10
682.8355682415057
 20
159.6523966983402
 30
0.0
 11
682.8559087616607
 21
159.7677535204967
 31
0.0
  0
LINE
  5
A2
330
1F
100
AcDbEntity
  8
2
  6
CONTINUOUS
 62
     7
100
AcDbLine
 10
626.2309153316105
 20
159.2753496188265
 30
0.0
 11
628.698947037384
 21
145.2784462756331
 31
0.0
  0
LINE
  5
A3
330
1F
100
AcDbEntity
  8
2
  6
CONTINUOUS
 62
     7
100
AcDbLine
 10
671.0000000000002
 20
142.7
 30
0.0
 11
679.1039742295651
 21
142.7
 31
0.0
  0
LINE
  5
A4
330
1F
100
AcDbEntity
  8
2
  6
CONTINUOUS
 62
     7
100
AcDbLine
 10
715.2499999999999
 20
143.0
 30
0.0
 11
735.25
 21
143.0
 31
0.0
  0
LINE
  5
A5
330
1F
100
AcDbEntity
  8
2
  6
CONTINUOUS
 62
     7
100
AcDbLine
 10
741.4499999999999
 20
179.9544232590366
 30
0.0
 11
741.4499999999999
 21
180.0
 31
0.0
  0
LINE
  5
A6
330
1F
100
AcDbEntity
  8
2
  6
CONTINUOUS
 62
     7
100
AcDbLine
 10
739.25
 20
179.9544232590366
 30
0.0
 11
739.25
 21
180.0
 31
0.0
  0
ARC
  5
A7
330
1F
100
AcDbEntity
  8
2
  6
CONTINUOUS
 62
     7
100
AcDbCircle
 10
679.611687535508
 20
145.4
 30
0.0
 40
0.6999999999999992
100
AcDbArc
 50
270.0
 51
350.0000000000001
  0
LINE
  5
A8
330
1F
100
AcDbEntity
  8
2
  6
CONTINUOUS
 62
     7
100
AcDbLine
 10
682.7690846683902
 20
159.2753496188265
 30
0.0
 11
682.8355682415057
 21
159.6523966983402
 31
0.0
  0
LINE
  5
A9
330
1F
100
AcDbEntity
  8
2
  6
CONTINUOUS
 62
     7
100
AcDbLine
 10
639.0000000000003
 20
142.7
 30
0.0
 11
638.0000000000003
 21
142.7
 31
0.0
  0
LINE
  5
AA
330
1F
100
AcDbEntity
  8
2
  6
CONTINUOUS
 62
     7
100
AcDbLine
 10
639.0000000000003
 20
144.2
 30
0.0
 11
639.0000000000003
 21
142.7
 31
0.0
  0
LINE
  5
AB
330
1F
100
AcDbEntity
  8
2
  6
CONTINUOUS
 62
     7
100
AcDbLine
 10
626.2309153316105
 20
159.2753496188265
 30
0.0
 11
626.2214538236916
 21
159.2736812997022
 31
0.0
  0
LINE
  5
AC
330
1F
100
AcDbEntity
  8
2
  6
CONTINUOUS
 62
     7
100
AcDbLine
 10
736.3317606035718
 20
142.7
 30
0.0
 11
736.25
 21
142.7292016944083
 31
0.0
  0
LINE
  5
AD
330
1F
100
AcDbEntity
  8
2
  6
CONTINUOUS
 62
     7
100
AcDbLine
 10
739.25
 20
144.7
 30
0.0
 11
738.25
 21
144.7
 31
0.0
  0
LINE
  5
AE
330
1F
100
AcDbEntity
  8
2
  6
CONTINUOUS
 62
     7
100
AcDbLine
 10
729.75
 20
177.0
 30
0.0
 11
730.2499999999999
 21
177.0
 31
0.0
  0
LINE
  5
AF
330
1F
100
AcDbEntity
  8
2
  6
CONTINUOUS
 62
     7
100
AcDbLine
 10
736.3317606035718
 20
142.7
 30
0.0
 11
735.25
 21
142.7
 31
0.0
  0
LINE
  5
B0
330
1F
100
AcDbEntity
  8
2
  6
CONTINUOUS
 62
     7
100
AcDbLine
 10
739.25
 20
179.2437124365505
 30
0.0
 11
739.25
 21
179.9544232590366
 31
0.0
  0
ARC
  5
B1
330
1F
100
AcDbEntity
  8
2
  6
CONTINUOUS
 62
     7
100
AcDbCircle
 10
683.3483126381667
 20
159.6809294316632
 30
0.0
 40
0.5000000000000002
100
AcDbArc
 50
123.5826724195363
 51
169.9999999999999
  0
LINE
  5
B2
330
1F
100
AcDbEntity
  8
2
  6
CONTINUOUS
 62
     7
100
AcDbLine
 10
670.0000000000002
 20
142.7
 30
0.0
 11
670.0000000000002
 21
144.2
 31
0.0
  0
LINE
  5
B3
330
1F
100
AcDbEntity
  8
2
  6
CONTINUOUS
 62
     7
100
AcDbLine
 10
741.7499999999999
 20
179.658980933133
 30
0.0
 11
741.7499999999999
 21
178.9482701106468
 31
0.0
  0
LINE
  5
B4
330
1F
100
AcDbEntity
  8
2
  6
CONTINUOUS
 62
     7
100
AcDbLine
 10
715.2499999999999
 20
142.7
 30
0.0
 11
714.2499999999999
 21
142.7
 31
0.0
  0
LINE
  5
B5
330
1F
100
AcDbEntity
  8
2
  6
CONTINUOUS
 62
     7
100
AcDbLine
 10
741.7499999999999
 20
140.341019066867
 30
0.0
 11
741.7499999999999
 21
140.3
 31
0.0
  0
LINE
  5
B6
330
1F
100
AcDbEntity
  8
2
  6
CONTINUOUS
 62
     7
100
AcDbLine
 10
741.7499999999999
 20
179.7
 30
0.0
 11
741.7499999999999
 21
179.658980933133
 31
0.0
  0
LINE
  5
B7
330
1F
100
AcDbEntity
  8
2
  6
CONTINUOUS
 62
     7
100
AcDbLine
 10
735.25
 20
142.7
 30
0.0
 11
735.25
 21
143.0
 31
0.0
  0
LINE
  5
B8
330
1F
100
AcDbEntity
  8
2
  6
CONTINUOUS
 62
     7
100
AcDbLine
 10
737.25
 20
144.7
 30
0.0
 11
736.25
 21
144.7
 31
0.0
  0
LINE
  5
B9
330
1F
100
AcDbEntity
  8
2
  6
CONTINUOUS
 62
     7
100
AcDbLine
 10
730.2499999999999
 20
177.0
 30
0.0
 11
739.25
 21
177.0
 31
0.0
  0
LINE
  5
BA
330
1F
100
AcDbEntity
  8
2
  6
CONTINUOUS
 62
     7
100
AcDbLine
 10
730.2499999999999
 20
175.0
 30
0.0
 11
729.75
 21
175.0
 31
0.0
  0
ARC
  5
BB
330
1F
100
AcDbEntity
  8
2
  6
CONTINUOUS
 62
     7
100
AcDbCircle
 10
683.3483126381667
 20
159.6809294316632
 30
0.0
 40
0.5000000000000001
100
AcDbArc
 50
113.7166547898146
 51
115.6708181323016
  0
LINE
  5
BC
330
1F
100
AcDbEntity
  8
2
  6
CONTINUOUS
 62
     7
100
AcDbLine
 10
629.3883124644925
 20
144.7
 30
0.0
 11
638.0000000000003
 21
144.7
 31
0.0
  0
LINE
  5
BD
330
1F
100
AcDbEntity
  8
2
  6
CONTINUOUS
 62
     7
100
AcDbLine
 10
741.4499999999999
 20
180.0
 30
0.0
 11
741.7499999999999
 21
179.7
 31
0.0
  0
LINE
  5
BE
330
1F
100
AcDbEntity
  8
2
  6
CONTINUOUS
 62
     7
100
AcDbLine
 10
738.25
 20
142.7
 30
0.0
 11
739.25
 21
142.7
 31
0.0
  0
LINE
  5
BF
330
1F
100
AcDbEntity
  8
2
  6
CONTINUOUS
 62
     7
100
AcDbLine
 10
741.7499999999999
 20
140.3
 30
0.0
 11
741.4499999999999
 21
140.0
 31
0.0
  0
LINE
  5
C0
330
1F
100
AcDbEntity
  8
2
  6
CONTINUOUS
 62
     7
100
AcDbLine
 10
736.25
 20
160.1809294316632
 30
0.0
 11
736.25
 21
160.1733610407792
 31
0.0
  0
LINE
  5
C1
330
1F
100
AcDbEntity
  8
2
  6
CONTINUOUS
 62
     7
100
AcDbLine
 10
738.25
 20
142.7
 30
0.0
 11
737.25
 21
142.7
 31
0.0
  0
LINE
  5
C2
330
1F
100
AcDbEntity
  8
2
  6
CONTINUOUS
 62
     7
100
AcDbLine
 10
729.2499999999999
 20
175.5
 30
0.0
 11
729.2499999999999
 21
176.5
 31
0.0
  0
ARC
  5
C3
330
1F
100
AcDbEntity
  8
2
  6
CONTINUOUS
 62
     7
100
AcDbCircle
 10
-729.75
 20
175.5
 30
0.0
 40
0.5000000000000004
210
0.0
220
0.0
230
-1.0
100
AcDbArc
 50
269.9999999999998
 51
0.0
  0
LINE
  5
C4
330
1F
100
AcDbEntity
  8
2
  6
CONTINUOUS
 62
     7
100
AcDbLine
 10
714.2499999999999
 20
142.7
 30
0.0
 11
714.2499999999999
 21
144.9311499202993
 31
0.0
  0
LINE
  5
C5
330
1F
100
AcDbEntity
  8
2
  6
CONTINUOUS
 62
     7
100
AcDbLine
 10
714.2536513347835
 20
159.2726084381
 30
0.0
 11
714.2499999999999
 21
159.1885255299931
 31
0.0
  0
LINE
  5
C6
330
1F
100
AcDbEntity
  8
2
  6
CONTINUOUS
 62
     7
100
AcDbLine
 10
739.25
 20
175.0
 30
0.0
 11
730.2499999999999
 21
175.0
 31
0.0
  0
LINE
  5
C7
330
1F
100
AcDbEntity
  8
2
  6
CONTINUOUS
 62
     7
100
AcDbLine
 10
741.4499999999999
 20
140.0
 30
0.0
 11
741.4499999999999
 21
140.0455767409634
 31
0.0
  0
LINE
  5
C8
330
1F
100
AcDbEntity
  8
2
  6
CONTINUOUS
 62
     7
100
AcDbLine
 10
681.7629551626982
 20
144.9311499202993
 30
0.0
 11
684.2463518134591
 21
159.0151921966597
 31
0.0
  0
ARC
  5
C9
330
1F
100
AcDbEntity
  8
2
  6
CONTINUOUS
 62
     7
100
AcDbCircle
 10
683.3483126381667
 20
159.6809294316632
 30
0.0
 40
0.5
100
AcDbArc
 50
80.0183175354264
 51
113.7166547898145
  0
LINE
  5
CA
330
1F
100
AcDbEntity
  8
2
  6
CONTINUOUS
 62
     7
100
AcDbLine
 10
715.2499999999999
 20
142.7
 30
0.0
 11
715.2499999999999
 21
143.0
 31
0.0
  0
LINE
  5
CB
330
1F
100
AcDbEntity
  8
2
  6
CONTINUOUS
 62
     7
100
AcDbLine
 10
680.3010529626166
 20
145.2784462756331
 30
0.0
 11
682.7690846683902
 21
159.2753496188265
 31
0.0
  0
LINE
  5
CC
330
1F
100
AcDbEntity
  8
2
  6
CONTINUOUS
 62
     7
100
AcDbLine
 10
739.25
 20
180.0
 30
0.0
 11
741.4499999999999
 21
180.0
 31
0.0
  0
LINE
  5
CD
330
1F
100
AcDbEntity
  8
2
  6
CONTINUOUS
 62
   253
100
AcDbLine
 10
715.2499999999999
 20
160.1733610407792
 30
0.0
 11
715.2499999999999
 21
160.1809294316632
 31
0.0
  0
LINE
  5
CE
330
1F
100
AcDbEntity
  8
2
  6
CONTINUOUS
 62
     7
100
AcDbLine
 10
736.3317606035724
 20
142.7
 30
0.0
 11
737.25
 21
142.7
 31
0.0
  0
ARC
  5
CF
330
1F
100
AcDbEntity
  8
2
  6
CONTINUOUS
 62
     7
100
AcDbCircle
 10
-729.75
 20
176.5
 30
0.0
 40
0.500000000000056
210
0.0
220
0.0
230
-1.0
100
AcDbArc
 50
0.0
 51
89.99999999999982
  0
LINE
  5
D0
330
1F
100
AcDbEntity
  8
2
  6
CONTINUOUS
 62
     7
100
AcDbLine
 10
715.2499999999999
 20
142.7
 30
0.0
 11
735.25
 21
142.7
 31
0.0
  0
LINE
  5
D1
330
1F
100
AcDbEntity
  8
2
  6
CONTINUOUS
 62
     7
100
AcDbLine
 10
741.4499999999999
 20
140.0
 30
0.0
 11
739.25
 21
140.0
 31
0.0
  0
LINE
  5
D2
330
1F
100
AcDbEntity
  8
2
  6
CONTINUOUS
 62
     7
100
AcDbLine
 10
671.0000000000002
 20
144.7
 30
0.0
 11
679.611687535508
 21
144.7
 31
0.0
  0
LINE
  5
D3
330
1F
100
AcDbEntity
  8
2
  6
CONTINUOUS
 62
     7
100
AcDbLine
 10
671.0000000000002
 20
142.7
 30
0.0
 11
670.0000000000002
 21
142.7
 31
0.0
  0
LINE
  5
D4
330
1F
100
AcDbEntity
  8
2
  6
CONTINUOUS
 62
     7
100
AcDbLine
 10
736.25
 20
160.1809294316632
 30
0.0
 11
715.2499999999999
 21
160.1809294316632
 31
0.0
  0
ARC
  5
D5
330
1F
100
AcDbEntity
  8
2
  6
CONTINUOUS
 62
     7
100
AcDbCircle
 10
679.1039742295652
 20
145.4
 30
0.0
 40
2.699999999999999
100
AcDbArc
 50
270.0
 51
349.9999999999999
  0
LINE
  5
D6
330
1F
100
AcDbEntity
  8
2
  6
CONTINUOUS
 62
     7
100
AcDbLine
 10
714.2560541436401
 20
159.2973777784805
 30
0.0
 11
714.2547866498194
 21
159.2851504725691
 31
0.0
  0
LINE
  5
D7
330
1F
100
AcDbEntity
  8
2
  6
CONTINUOUS
 62
     7
100
AcDbLine
 10
683.4349793004044
 20
160.1733610407792
 30
0.0
 11
684.4200000000003
 21
160.0
 31
0.0
  0
LINE
  5
D8
330
1F
100
AcDbEntity
  8
2
  6
CONTINUOUS
 62
     7
100
AcDbLine
 10
684.4200000000003
 20
160.0
 30
0.0
 11
684.2463518134592
 21
159.0151921966597
 31
0.0
  0
LINE
  5
D9
330
1F
100
AcDbEntity
  8
2
  6
CONTINUOUS
 62
     7
100
AcDbLine
 10
736.25
 20
144.9311499202993
 30
0.0
 11
736.25
 21
142.7292016944083
 31
0.0
  0
LINE
  5
DA
330
1F
100
AcDbEntity
  8
2
  6
CONTINUOUS
 62
     7
100
AcDbLine
 10
739.25
 20
140.0
 30
0.0
 11
739.25
 21
140.0455767409634
 31
0.0
  0
LINE
  5
DB
330
1F
100
AcDbEntity
  8
2
  6
CONTINUOUS
 62
     7
100
AcDbLine
 10
714.2547866498194
 20
159.2851504725691
 30
0.0
 11
714.2536331537934
 21
159.2723992229384
 31
0.0
  0
LINE
  5
DC
330
1F
100
AcDbEntity
  8
2
  6
CONTINUOUS
 62
     7
100
AcDbLine
 10
643.5000000000002
 20
140.0
 30
0.0
 11
642.0000000000003
 21
140.0
 31
0.0
  0
LINE
  5
DD
330
1F
100
AcDbEntity
  8
2
  6
CONTINUOUS
 62
     7
100
AcDbLine
 10
641.0000000000003
 20
157.2
 30
0.0
 11
641.0000000000003
 21
140.0
 31
0.0
  0
LINE
  5
DE
330
1F
100
AcDbEntity
  8
2
  6
CONTINUOUS
 62
     7
100
AcDbLine
 10
670.0000000000002
 20
140.0
 30
0.0
 11
668.0000000000002
 21
140.0
 31
0.0
  0
ARC
  5
DF
330
1F
100
AcDbEntity
  8
2
  6
CONTINUOUS
 62
     7
100
AcDbCircle
 10
654.5000000000003
 20
153.7
 30
0.0
 40
9.999999999999993
100
AcDbArc
 50
0.0000000000001292
 51
180.0000000000002
  0
ARC
  5
E0
330
1F
100
AcDbEntity
  8
2
  6
CONTINUOUS
 62
     7
100
AcDbCircle
 10
654.5000000000003
 20
153.7
 30
0.0
 40
11.0
100
AcDbArc
 50
0.0
 51
180.0
  0
LINE
  5
E1
330
1F
100
AcDbEntity
  8
2
  6
CONTINUOUS
 62
     7
100
AcDbLine
 10
664.5000000000002
 20
144.5
 30
0.0
 11
664.5000000000002
 21
153.7
 31
0.0
  0
LINE
  5
E2
330
1F
100
AcDbEntity
  8
2
  6
CONTINUOUS
 62
     7
100
AcDbLine
 10
664.5000000000002
 20
144.5
 30
0.0
 11
665.5000000000002
 21
144.0
 31
0.0
  0
LINE
  5
E3
330
1F
100
AcDbEntity
  8
2
  6
CONTINUOUS
 62
     7
100
AcDbLine
 10
665.5000000000003
 20
140.0
 30
0.0
 11
665.5000000000003
 21
153.7
 31
0.0
  0
LINE
  5
E4
330
1F
100
AcDbEntity
  8
2
  6
CONTINUOUS
 62
     7
100
AcDbLine
 10
664.5000000000003
 20
140.0
 30
0.0
 11
664.5000000000003
 21
144.5
 31
0.0
  0
LINE
  5
E5
330
1F
100
AcDbEntity
  8
2
  6
CONTINUOUS
 62
     7
100
AcDbLine
 10
679.1039742295652
 20
142.7
 30
0.0
 11
679.5000000000003
 21
142.7
 31
0.0
  0
LINE
  5
E6
330
1F
100
AcDbEntity
  8
2
  6
CONTINUOUS
 62
   253
100
AcDbLine
 10
629.5000000000002
 20
142.7
 30
0.0
 11
629.5000000000002
 21
142.7292016944083
 31
0.0
  0
ARC
  5
E7
330
1F
100
AcDbEntity
  8
2
  6
CONTINUOUS
 62
     7
100
AcDbCircle
 10
654.5000000000003
 20
157.2
 30
0.0
 40
13.5
100
AcDbArc
 50
0.0000000000000515
 51
180.0000000000001
  0
ARC
  5
E8
330
1F
100
AcDbEntity
  8
2
  6
CONTINUOUS
 62
     7
100
AcDbCircle
 10
635.0000000000003
 20
175.5
 30
0.0
 40
0.5000000000000004
100
AcDbArc
 50
180.0
 51
270.0
  0
LINE
  5
E9
330
1F
100
AcDbEntity
  8
2
  6
CONTINUOUS
 62
     7
100
AcDbLine
 10
629.2994914462723
 20
180.0
 30
0.0
 11
679.7005085537284
 21
180.0
 31
0.0
  0
LINE
  5
EA
330
1F
100
AcDbEntity
  8
2
  6
CONTINUOUS
 62
     7
100
AcDbLine
 10
667.0000000000002
 20
140.0
 30
0.0
 11
665.5000000000003
 21
140.0
 31
0.0
  0
LINE
  5
EB
330
1F
100
AcDbEntity
  8
2
  6
CONTINUOUS
 62
     7
100
AcDbLine
 10
668.0000000000002
 20
140.0
 30
0.0
 11
668.0000000000002
 21
157.2
 31
0.0
  0
LINE
  5
EC
330
1F
100
AcDbEntity
  8
2
  6
CONTINUOUS
 62
     7
100
AcDbLine
 10
641.0000000000003
 20
140.0
 30
0.0
 11
639.0000000000003
 21
139.9999999999999
 31
0.0
  0
LINE
  5
ED
330
1F
100
AcDbEntity
  8
2
  6
CONTINUOUS
 62
     7
100
AcDbLine
 10
664.5000000000003
 20
140.0
 30
0.0
 11
665.5000000000003
 21
140.0
 31
0.0
  0
ARC
  5
EE
330
1F
100
AcDbEntity
  8
2
  6
CONTINUOUS
 62
     7
100
AcDbCircle
 10
629.3883124644925
 20
145.4
 30
0.0
 40
0.7000000000000015
100
AcDbArc
 50
189.9999999999999
 51
270.0
  0
LINE
  5
EF
330
1F
100
AcDbEntity
  8
2
  6
CONTINUOUS
 62
     7
100
AcDbLine
 10
624.7536481865415
 20
159.0151921966597
 30
0.0
 11
624.5800000000004
 21
160.0
 31
0.0
  0
LINE
  5
F0
330
1F
100
AcDbEntity
  8
2
  6
CONTINUOUS
 62
     7
100
AcDbLine
 10
625.565651061239
 20
160.1697827375508
 30
0.0
 11
625.5650206995962
 21
160.1733610407792
 31
0.0
  0
ARC
  5
F1
330
1F
100
AcDbEntity
  8
2
  6
CONTINUOUS
 62
     7
100
AcDbCircle
 10
629.8960257704354
 20
145.4
 30
0.0
 40
2.7
100
AcDbArc
 50
190.0
 51
270.0
  0
LINE
  5
F2
330
1F
100
AcDbEntity
  8
2
  6
CONTINUOUS
 62
     7
100
AcDbLine
 10
639.0000000000002
 20
140.0
 30
0.0
 11
629.2994914462722
 21
140.0
 31
0.0
  0
LINE
  5
F3
330
1F
100
AcDbEntity
  8
2
  6
CONTINUOUS
 62
     7
100
AcDbLine
 10
684.2520944533004
 20
140.7562875634495
 30
0.0
 11
680.2214530867291
 21
140.0455767409634
 31
0.0
  0
ARC
  5
F4
330
1F
100
AcDbEntity
  8
2
  6
CONTINUOUS
 62
     7
100
AcDbCircle
 10
624.8000000000003
 20
178.9482701106468
 30
0.0
 40
0.2999999999999995
100
AcDbArc
 50
100.0000000000003
 51
180.0000000000007
  0
ARC
  5
F5
330
1F
100
AcDbEntity
  8
2
  6
CONTINUOUS
 62
     7
100
AcDbCircle
 10
679.7005085537284
 20
143.0
 30
0.0
 40
2.999999999999999
100
AcDbArc
 50
270.0
 51
280.0000000000001
  0
LINE
  5
F6
330
1F
100
AcDbEntity
  8
2
  6
CONTINUOUS
 62
     7
100
AcDbLine
 10
679.7005085537284
 20
140.0
 30
0.0
 11
670.0000000000002
 21
140.0
 31
0.0
  0
LINE
  5
F7
330
1F
100
AcDbEntity
  8
2
  6
CONTINUOUS
 62
     7
100
AcDbLine
 10
673.5000000000003
 20
177.0
 30
0.0
 11
674.0000000000003
 21
177.0
 31
0.0
  0
LINE
  5
F8
330
1F
100
AcDbEntity
  8
2
  6
CONTINUOUS
 62
     7
100
AcDbLine
 10
635.5000000000002
 20
175.0
 30
0.0
 11
635.0000000000002
 21
175.0
 31
0.0
  0
LINE
  5
F9
330
1F
100
AcDbEntity
  8
2
  6
CONTINUOUS
 62
     7
100
AcDbLine
 10
673.5000000000003
 20
175.0
 30
0.0
 11
635.5000000000002
 21
175.0
 31
0.0
  0
LINE
  5
FA
330
1F
100
AcDbEntity
  8
2
  6
CONTINUOUS
 62
     7
100
AcDbLine
 10
674.5000000000003
 20
176.5
 30
0.0
 11
674.5000000000003
 21
175.5
 31
0.0
  0
LINE
  5
FB
330
1F
100
AcDbEntity
  8
2
  6
CONTINUOUS
 62
     7
100
AcDbLine
 10
624.7479055467002
 20
179.2437124365505
 30
0.0
 11
628.7785469132715
 21
179.9544232590366
 31
0.0
  0
LINE
  5
FC
330
1F
100
AcDbEntity
  8
2
  6
CONTINUOUS
 62
   253
100
AcDbLine
 10
679.5000000000003
 20
142.7292016944083
 30
0.0
 11
679.5000000000003
 21
142.7
 31
0.0
  0
LINE
  5
FD
330
1F
100
AcDbEntity
  8
2
  6
CONTINUOUS
 62
     7
100
AcDbLine
 10
684.2520944533004
 20
179.2437124365505
 30
0.0
 11
680.2214530867291
 21
179.9544232590366
 31
0.0
  0
LINE
  5
FE
330
1F
100
AcDbEntity
  8
2
  6
CONTINUOUS
 62
     7
100
AcDbLine
 10
638.0000000000003
 20
142.7
 30
0.0
 11
629.8960257704355
 21
142.7
 31
0.0
  0
ARC
  5
FF
330
1F
100
AcDbEntity
  8
2
  6
CONTINUOUS
 62
     7
100
AcDbCircle
 10
684.2000000000003
 20
141.0517298893532
 30
0.0
 40
0.2999999999999995
100
AcDbArc
 50
280.0000000000003
 51
359.9999999999993
  0
LINE
  5
100
330
1F
100
AcDbEntity
  8
2
  6
CONTINUOUS
 62
     7
100
AcDbLine
 10
624.5000000000002
 20
141.0517298893532
 30
0.0
 11
624.5000000000002
 21
178.9482701106468
 31
0.0
  0
ARC
  5
101
330
1F
100
AcDbEntity
  8
2
  6
CONTINUOUS
 62
     7
100
AcDbCircle
 10
674.0000000000002
 20
175.5
 30
0.0
 40
0.5000000000000004
100
AcDbArc
 50
270.0
 51
0.0
  0
LINE
  5
102
330
1F
100
AcDbEntity
  8
2
  6
CONTINUOUS
 62
     7
100
AcDbLine
 10
674.0000000000002
 20
175.0
 30
0.0
 11
673.5000000000002
 21
175.0
 31
0.0
  0
LINE
  5
103
330
1F
100
AcDbEntity
  8
2
  6
CONTINUOUS
 62
     7
100
AcDbLine
 10
639.0000000000003
 20
144.2
 30
0.0
 11
639.0000000000003
 21
158.2
 31
0.0
  0
LINE
  5
104
330
1F
100
AcDbEntity
  8
2
  6
CONTINUOUS
 62
     7
100
AcDbLine
 10
624.7479055467002
 20
140.7562875634495
 30
0.0
 11
628.7785469132715
 21
140.0455767409634
 31
0.0
  0
LINE
  5
105
330
1F
100
AcDbEntity
  8
2
  6
CONTINUOUS
 62
     7
100
AcDbLine
 10
684.5000000000003
 20
178.9482701106468
 30
0.0
 11
684.5000000000003
 21
141.0517298893532
 31
0.0
  0
LINE
  5
106
330
1F
100
AcDbEntity
  8
2
  6
CONTINUOUS
 62
     7
100
AcDbLine
 10
634.5000000000002
 20
175.5
 30
0.0
 11
634.5000000000002
 21
176.5
 31
0.0
  0
ARC
  5
107
330
1F
100
AcDbEntity
  8
2
  6
CONTINUOUS
 62
     7
100
AcDbCircle
 10
635.0000000000003
 20
176.5
 30
0.0
 40
0.5000000000000004
100
AcDbArc
 50
90.0
 51
180.0
  0
LINE
  5
108
330
1F
100
AcDbEntity
  8
2
  6
CONTINUOUS
 62
     7
100
AcDbLine
 10
624.5800000000003
 20
160.0
 30
0.0
 11
625.5650206995962
 21
160.1733610407792
 31
0.0
  0
LINE
  5
109
330
1F
100
AcDbEntity
  8
2
  6
CONTINUOUS
 62
     7
100
AcDbLine
 10
639.0000000000002
 20
140.0
 30
0.0
 11
639.0000000000002
 21
142.7
 31
0.0
  0
LINE
  5
10A
330
1F
100
AcDbEntity
  8
2
  6
CONTINUOUS
 62
     7
100
AcDbLine
 10
670.0000000000002
 20
142.7
 30
0.0
 11
670.0000000000002
 21
140.0
 31
0.0
  0
LINE
  5
10B
330
1F
100
AcDbEntity
  8
2
  6
CONTINUOUS
 62
     7
100
AcDbLine
 10
635.0000000000003
 20
177.0
 30
0.0
 11
635.5000000000003
 21
177.0
 31
0.0
  0
LINE
  5
10C
330
1F
100
AcDbEntity
  8
2
  6
CONTINUOUS
 62
     7
100
AcDbLine
 10
670.0000000000002
 20
158.2
 30
0.0
 11
670.0000000000002
 21
144.2
 31
0.0
  0
LINE
  5
10D
330
1F
100
AcDbEntity
  8
2
  6
CONTINUOUS
 62
     7
100
AcDbLine
 10
635.5000000000002
 20
177.0
 30
0.0
 11
673.5000000000003
 21
177.0
 31
0.0
  0
LINE
  5
10E
330
1F
100
AcDbEntity
  8
2
  6
CONTINUOUS
 62
     7
100
AcDbLine
 10
642.0000000000003
 20
144.5
 30
0.0
 11
642.0000000000003
 21
140.0
 31
0.0
  0
ARC
  5
10F
330
1F
100
AcDbEntity
  8
2
  6
CONTINUOUS
 62
     7
100
AcDbCircle
 10
629.2994914462723
 20
177.0
 30
0.0
 40
2.999999999999999
100
AcDbArc
 50
90.0
 51
100.0000000000001
  0
ARC
  5
110
330
1F
100
AcDbEntity
  8
2
  6
CONTINUOUS
 62
     7
100
AcDbCircle
 10
654.5000000000003
 20
157.2
 30
0.0
 40
12.5
100
AcDbArc
 50
0.0000000000000596
 51
180.0000000000001
  0
ARC
  5
111
330
1F
100
AcDbEntity
  8
2
  6
CONTINUOUS
 62
     7
100
AcDbCircle
 10
629.2994914462723
 20
143.0
 30
0.0
 40
3.0
100
AcDbArc
 50
259.9999999999999
 51
269.9999999999999
  0
LINE
  5
112
330
1F
100
AcDbEntity
  8
2
  6
CONTINUOUS
 62
     7
100
AcDbLine
 10
627.2370448373025
 20
144.9311499202993
 30
0.0
 11
624.7536481865415
 21
159.0151921966597
 31
0.0
  0
LINE
  5
113
330
1F
100
AcDbEntity
  8
2
  6
CONTINUOUS
 62
     7
100
AcDbLine
 10
667.0000000000002
 20
144.5
 30
0.0
 11
667.0000000000002
 21
157.2
 31
0.0
  0
LINE
  5
114
330
1F
100
AcDbEntity
  8
2
  6
CONTINUOUS
 62
     7
100
AcDbLine
 10
642.0000000000003
 20
157.2
 30
0.0
 11
642.0000000000003
 21
144.5
 31
0.0
  0
ARC
  5
115
330
1F
100
AcDbEntity
  8
2
  6
CONTINUOUS
 62
     7
100
AcDbCircle
 10
674.0000000000002
 20
176.5
 30
0.0
 40
0.5000000000000004
100
AcDbArc
 50
0.0
 51
90.0
  0
ARC
  5
116
330
1F
100
AcDbEntity
  8
2
  6
CONTINUOUS
 62
     7
100
AcDbCircle
 10
-654.5000000000003
 20
158.2
 30
0.0
 40
15.49999999999998
210
0.0
220
0.0
230
-1.0
100
AcDbArc
 50
0.0000000000000128
 51
180.0
  0
ARC
  5
117
330
1F
100
AcDbEntity
  8
2
  6
CONTINUOUS
 62
     7
100
AcDbCircle
 10
679.7005085537284
 20
177.0
 30
0.0
 40
3.0
100
AcDbArc
 50
79.99999999999993
 51
90.00000000000009
  0
ARC
  5
118
330
1F
100
AcDbEntity
  8
2
  6
CONTINUOUS
 62
     7
100
AcDbCircle
 10
684.2000000000003
 20
178.9482701106468
 30
0.0
 40
0.3000000000000017
100
AcDbArc
 50
0.0
 51
79.9999999999997
  0
ARC
  5
119
330
1F
100
AcDbEntity
  8
2
  6
CONTINUOUS
 62
     7
100
AcDbCircle
 10
624.8000000000003
 20
141.0517298893532
 30
0.0
 40
0.3000000000000017
100
AcDbArc
 50
180.0
 51
259.9999999999998
  0
LINE
  5
11A
330
1F
100
AcDbEntity
  8
2
  6
CONTINUOUS
 62
     7
100
AcDbLine
 10
667.0000000000002
 20
140.0
 30
0.0
 11
667.0000000000002
 21
144.5
 31
0.0
  0
LINE
  5
11B
330
1F
100
AcDbEntity
  8
2
  6
CONTINUOUS
 62
     7
100
AcDbLine
 10
643.5000000000002
 20
153.7
 30
0.0
 11
643.5000000000002
 21
140.0
 31
0.0
  0
LINE
  5
11C
330
1F
100
AcDbEntity
  8
2
  6
CONTINUOUS
 62
     7
100
AcDbLine
 10
644.5000000000002
 20
140.0
 30
0.0
 11
643.5000000000002
 21
140.0
 31
0.0
  0
LINE
  5
11D
330
1F
100
AcDbEntity
  8
2
  6
CONTINUOUS
 62
     7
100
AcDbLine
 10
644.5000000000002
 20
153.7
 30
0.0
 11
644.5000000000002
 21
144.5
 31
0.0
  0
LINE
  5
11E
330
1F
100
AcDbEntity
  8
2
  6
CONTINUOUS
 62
     7
100
AcDbLine
 10
664.5000000000003
 20
140.0
 30
0.0
 11
644.5000000000002
 21
140.0
 31
0.0
  0
LINE
  5
11F
330
1F
100
AcDbEntity
  8
2
  6
CONTINUOUS
 62
     7
100
AcDbLine
 10
644.5000000000002
 20
144.5
 30
0.0
 11
643.5000000000002
 21
144.0
 31
0.0
  0
LINE
  5
120
330
1F
100
AcDbEntity
  8
2
  6
CONTINUOUS
 62
     7
100
AcDbLine
 10
667.0000000000002
 20
140.0
 30
0.0
 11
668.0000000000002
 21
140.0
 31
0.0
  0
LINE
  5
121
330
1F
100
AcDbEntity
  8
2
  6
CONTINUOUS
 62
     7
100
AcDbLine
 10
642.0000000000003
 20
144.5
 30
0.0
 11
641.0000000000003
 21
144.0
 31
0.0
  0
LINE
  5
122
330
1F
100
AcDbEntity
  8
2
  6
CONTINUOUS
 62
     7
100
AcDbLine
 10
644.5000000000002
 20
144.5
 30
0.0
 11
644.5000000000002
 21
140.0
 31
0.0
  0
LINE
  5
123
330
1F
100
AcDbEntity
  8
2
  6
CONTINUOUS
 62
     7
100
AcDbLine
 10
642.0000000000003
 20
140.0
 30
0.0
 11
641.0000000000003
 21
140.0
 31
0.0
  0
LINE
  5
124
330
1F
100
AcDbEntity
  8
2
  6
CONTINUOUS
 62
     7
100
AcDbLine
 10
667.0000000000002
 20
144.5
 30
0.0
 11
668.0000000000002
 21
144.0
 31
0.0
  0
ENDSEC
  0
SECTION
  2
OBJECTS
  0
DICTIONARY
  5
C
330
0
100
AcDbDictionary
  3
ACAD_GROUP
350
D
  3
ACAD_LAYOUT
350
1A
  3
ACAD_MATERIAL
350
43
  3
ACAD_MLEADERSTYLE
350
6B
  3
ACAD_MLINESTYLE
350
17
  3
ACAD_PLOTSETTINGS
350
19
  3
ACAD_SCALELIST
350
47
  3
ACAD_VISUALSTYLE
350
2A
  3
ACDBHEADERROUNDTRIPXREC
350
125
  3
ACDBVARIABLEDICTIONARY
350
146
  0
DICTIONARY
  5
14D
330
8
100
AcDbDictionary
280
     1
  3
ACAD_XREC_ROUNDTRIP
360
14E
  0
DICTIONARY
  5
D
102
{ACAD_REACTORS
330
C
102
}
330
C
100
AcDbDictionary
  0
DICTIONARY
  5
1A
102
{ACAD_REACTORS
330
C
102
}
330
C
100
AcDbDictionary
  0
DICTIONARY
  5
43
102
{ACAD_REACTORS
330
C
102
}
330
C
100
AcDbDictionary
  3
BYBLOCK
350
45
  3
BYLAYER
350
44
  3
GLOBAL
350
46
  0
DICTIONARY
  5
6B
102
{ACAD_REACTORS
330
C
102
}
330
C
100
AcDbDictionary
  3
STANDARD
350
6C
  0
DICTIONARY
  5
17
102
{ACAD_REACTORS
330
C
102
}
330
C
100
AcDbDictionary
  3
STANDARD
350
18
  0
DICTIONARY
  5
19
102
{ACAD_REACTORS
330
C
102
}
330
C
100
AcDbDictionary
  0
DICTIONARY
  5
47
102
{ACAD_REACTORS
330
C
102
}
330
C
100
AcDbDictionary
  3
A0
350
48
  3
A1
350
49
  3
A2
350
4A
  3
A3
350
4B
  3
A4
350
4C
  3
A5
350
4D
  3
A6
350
4E
  3
A7
350
4F
  3
A8
350
50
  3
A9
350
51
  3
B0
350
52
  3
B1
350
53
  3
B2
350
54
  3
B3
350
55
  3
B4
350
56
  3
B5
350
57
  3
B6
350
58
  3
B7
350
59
  3
B8
350
5A
  3
B9
350
5B
  3
C0
350
5C
  3
C1
350
5D
  3
C2
350
5E
  3
C3
350
5F
  3
C4
350
60
  3
C5
350
61
  3
C6
350
62
  3
C7
350
63
  3
C8
350
64
  3
C9
350
65
  3
D0
350
66
  3
D1
350
67
  3
D2
350
68
  0
DICTIONARY
  5
2A
102
{ACAD_REACTORS
330
C
102
}
330
C
100
AcDbDictionary
  3
2DWIREFRAME
350
2F
  3
BASIC
350
32
  3
BRIGHTEN
350
36
  3
COLORCHANGE
350
3A
  3
CONCEPTUAL
350
34
  3
DIM
350
35
  3
EDGECOLOROFF
350
3D
  3
FACEPATTERN
350
39
  3
FLAT
350
2B
  3
FLATWITHEDGES
350
2C
  3
GOURAUD
350
2D
  3
GOURAUDWITHEDGES
350
2E
  3
HIDDEN
350
31
  3
JITTEROFF
350
3B
  3
LINEPATTERN
350
38
  3
OVERHANGOFF
350
3C
  3
REALISTIC
350
33
  3
SHADED
350
42
  3
SHADED_WITH_EDGES
350
41
  3
SHADES_OF_GRAY
350
3E
  3
SKETCHY
350
3F
  3
THICKEN
350
37
  3
WIREFRAME
350
30
  3
X-RAY
350
40
  0
DICTIONARY
  5
125
102
{ACAD_REACTORS
330
C
102
}
330
C
100
AcDbDictionary
  3
CEPSNID
350
12F
  3
CEPSNTYPE
350
12E
  3
DIMSTYLEDATA
350
145
  3
FINGERPRINTGUID
350
130
  3
HYPERLINKBASE
350
128
  3
INSUNITS
350
12D
  3
LAYOUTDICT
350
12A
  3
LWETCUNION
350
12C
  3
PLOTSETDICT
350
12B
  3
PSVPSCALE
350
132
  3
PUCSBASE
350
135
  3
PUCSORGBACK
350
13B
  3
PUCSORGBOTTOM
350
137
  3
PUCSORGFRONT
350
13A
  3
PUCSORGLEFT
350
138
  3
PUCSORGRIGHT
350
139
  3
PUCSORGTOP
350
136
  3
PUCSORTHOREF
350
133
  3
PUCSORTHOVIEW
350
134
  3
STYLESHEET
350
129
  3
TSTACKALIGN
350
126
  3
TSTACKSIZE
350
127
  3
UCSBASE
350
13E
  3
UCSORGBACK
350
144
  3
UCSORGBOTTOM
350
140
  3
UCSORGFRONT
350
143
  3
UCSORGLEFT
350
141
  3
UCSORGRIGHT
350
142
  3
UCSORGTOP
350
13F
  3
UCSORTHOREF
350
13C
  3
UCSORTHOVIEW
350
13D
  3
VERSIONGUID
350
131
  0
DICTIONARY
  5
146
102
{ACAD_REACTORS
330
C
102
}
330
C
100
AcDbDictionary
  3
CANNOSCALE
350
14F
  3
CMLEADERSTYLE
350
148
  3
CTABLESTYLE
350
147
  3
DIMASSOC
350
14B
  3
HIDETEXT
350
14C
  3
MSLTSCALE
350
150
  0
XRECORD
  5
14E
102
{ACAD_REACTORS
330
14D
102
}
330
14D
100
AcDbXrecord
102
VTR_0.000_0.000_1.000_1.000_VISUALSTYLE
340
2F
102
VTR_0.000_0.000_1.000_1.000_GRIDDISPLAY
 70
     3
102
VTR_0.000_0.000_1.000_1.000_GRIDMAJOR
 70
     5
102
VTR_0.000_0.000_1.000_1.000_DEFAULTLIGHTING
280
     1
102
VTR_0.000_0.000_1.000_1.000_DEFAULTLIGHTINGTYPE
 70
     1
102
VTR_0.000_0.000_1.000_1.000_BRIGHTNESS
141
0.0
102
VTR_0.000_0.000_1.000_1.000_CONTRAST
142
0.0
  0
MATERIAL
  5
45
102
{ACAD_REACTORS
330
43
102
}
102
{ACAD_XDICTIONARY
360
153
102
}
330
43
100
AcDbMaterial
  1
BYBLOCK
  0
MATERIAL
  5
44
102
{ACAD_REACTORS
330
43
102
}
102
{ACAD_XDICTIONARY
360
151
102
}
330
43
100
AcDbMaterial
  1
BYLAYER
  0
MATERIAL
  5
46
102
{ACAD_REACTORS
330
43
102
}
102
{ACAD_XDICTIONARY
360
155
102
}
330
43
100
AcDbMaterial
  1
GLOBAL
  0
ACAD_PROXY_OBJECT
  5
6C
102
{ACAD_REACTORS
330
6B
102
}
330
6B
100
AcDbProxyObject
 90
      499
 91
      505
 93
      610
310
40901902A4063FBFFFFFE056BD1B81E855B9FC0AD7A3703D0AD73F4214DD185B99185C9900AD7A3703D0AC73F90141901A02B5E8DC0F42B1CFC02B5E8DC0F42B1CFE5764000000000000300FC0
340
14
340
0
340
11
340
0
 94
        0
1001
ACAD_MLEADERVER
1070
     2
  0
MLINESTYLE
  5
18
102
{ACAD_REACTORS
330
17
102
}
330
17
100
AcDbMlineStyle
  2
Standard
 70
     0
  3

 62
   256
 51
90.0
 52
90.0
 71
     2
 49
0.5
 62
   256
  6
BYLAYER
 49
-0.5
 62
   256
  6
BYLAYER
  0
ACAD_PROXY_OBJECT
  5
48
102
{ACAD_REACTORS
330
47
102
}
330
47
100
AcDbProxyObject
 90
      499
 91
      503
 93
       41
310
903313A31580
  0
ACAD_PROXY_OBJECT
  5
49
102
{ACAD_REACTORS
330
47
102
}
330
47
100
AcDbProxyObject
 90
      499
 91
      503
 93
      105
310
903313A324000000000000004000
  0
ACAD_PROXY_OBJECT
  5
4A
102
{ACAD_REACTORS
330
47
102
}
330
47
100
AcDbProxyObject
 90
      499
 91
      503
 93
      105
310
903313A344000000000000104000
  0
ACAD_PROXY_OBJECT
  5
4B
102
{ACAD_REACTORS
330
47
102
}
330
47
100
AcDbProxyObject
 90
      499
 91
      503
 93
      105
310
903313A354000000000000144000
  0
ACAD_PROXY_OBJECT
  5
4C
102
{ACAD_REACTORS
330
47
102
}
330
47
100
AcDbProxyObject
 90
      499
 91
      503
 93
      105
310
903313A384000000000000204000
  0
ACAD_PROXY_OBJECT
  5
4D
102
{ACAD_REACTORS
330
47
102
}
330
47
100
AcDbProxyObject
 90
      499
 91
      503
 93
      113
310
904313A31304000000000000244000
  0
ACAD_PROXY_OBJECT
  5
4E
102
{ACAD_REACTORS
330
47
102
}
330
47
100
AcDbProxyObject
 90
      499
 91
      503
 93
      113
310
904313A31364000000000000304000
  0
ACAD_PROXY_OBJECT
  5
4F
102
{ACAD_REACTORS
330
47
102
}
330
47
100
AcDbProxyObject
 90
      499
 91
      503
 93
      113
310
904313A32304000000000000344000
  0
ACAD_PROXY_OBJECT
  5
50
102
{ACAD_REACTORS
330
47
102
}
330
47
100
AcDbProxyObject
 90
      499
 91
      503
 93
      113
310
904313A333040000000000003E4000
  0
ACAD_PROXY_OBJECT
  5
51
102
{ACAD_REACTORS
330
47
102
}
330
47
100
AcDbProxyObject
 90
      499
 91
      503
 93
      113
310
904313A34304000000000000444000
  0
ACAD_PROXY_OBJECT
  5
52
102
{ACAD_REACTORS
330
47
102
}
330
47
100
AcDbProxyObject
 90
      499
 91
      503
 93
      113
310
904313A35304000000000000494000
  0
ACAD_PROXY_OBJECT
  5
53
102
{ACAD_REACTORS
330
47
102
}
330
47
100
AcDbProxyObject
 90
      499
 91
      503
 93
      121
310
905313A3130304000000000000594000
  0
ACAD_PROXY_OBJECT
  5
54
102
{ACAD_REACTORS
330
47
102
}
330
47
100
AcDbProxyObject
 90
      499
 91
      503
 93
      105
310
903323A310000000000000010100
  0
ACAD_PROXY_OBJECT
  5
55
102
{ACAD_REACTORS
330
47
102
}
330
47
100
AcDbProxyObject
 90
      499
 91
      503
 93
      105
310
903343A310000000000000410100
  0
ACAD_PROXY_OBJECT
  5
56
102
{ACAD_REACTORS
330
47
102
}
330
47
100
AcDbProxyObject
 90
      499
 91
      503
 93
      105
310
903383A310000000000000810100
  0
ACAD_PROXY_OBJECT
  5
57
102
{ACAD_REACTORS
330
47
102
}
330
47
100
AcDbProxyObject
 90
      499
 91
      503
 93
      113
310
90431303A310000000000000910100
  0
ACAD_PROXY_OBJECT
  5
58
102
{ACAD_REACTORS
330
47
102
}
330
47
100
AcDbProxyObject
 90
      499
 91
      503
 93
      121
310
9053130303A310000000000001650100
  0
ACAD_PROXY_OBJECT
  5
59
102
{ACAD_REACTORS
330
47
102
}
330
47
100
AcDbProxyObject
 90
      499
 91
      503
 93
      257
310
90E312F31323822203D2031272D3022000000000000200FC000000000000284000
  0
ACAD_PROXY_OBJECT
  5
5A
102
{ACAD_REACTORS
330
47
102
}
330
47
100
AcDbProxyObject
 90
      499
 91
      503
 93
      249
310
90D312F363422203D2031272D3022000000000000240FC000000000000284000
  0
ACAD_PROXY_OBJECT
  5
5B
102
{ACAD_REACTORS
330
47
102
}
330
47
100
AcDbProxyObject
 90
      499
 91
      503
 93
      249
310
90D312F333222203D2031272D3022000000000000280FC000000000000284000
  0
ACAD_PROXY_OBJECT
  5
5C
102
{ACAD_REACTORS
330
47
102
}
330
47
100
AcDbProxyObject
 90
      499
 91
      503
 93
      249
310
90D312F313622203D2031272D30220000000000002C0FC000000000000284000
  0
ACAD_PROXY_OBJECT
  5
5D
102
{ACAD_REACTORS
330
47
102
}
330
47
100
AcDbProxyObject
 90
      499
 91
      503
 93
      249
310
90D332F333222203D2031272D30220000000000002E0FC000000000000284000
  0
ACAD_PROXY_OBJECT
  5
5E
102
{ACAD_REACTORS
330
47
102
}
330
47
100
AcDbProxyObject
 90
      499
 91
      503
 93
      241
310
90C312F3822203D2031272D3022000000000000300FC000000000000284000
  0
ACAD_PROXY_OBJECT
  5
5F
102
{ACAD_REACTORS
330
47
102
}
330
47
100
AcDbProxyObject
 90
      499
 91
      503
 93
      249
310
90D332F313622203D2031272D3022000000000000320FC000000000000284000
  0
ACAD_PROXY_OBJECT
  5
60
102
{ACAD_REACTORS
330
47
102
}
330
47
100
AcDbProxyObject
 90
      499
 91
      503
 93
      241
310
90C312F3422203D2031272D3022000000000000340FC000000000000284000
  0
ACAD_PROXY_OBJECT
  5
61
102
{ACAD_REACTORS
330
47
102
}
330
47
100
AcDbProxyObject
 90
      499
 91
      503
 93
      241
310
90C332F3822203D2031272D3022000000000000360FC000000000000284000
  0
ACAD_PROXY_OBJECT
  5
62
102
{ACAD_REACTORS
330
47
102
}
330
47
100
AcDbProxyObject
 90
      499
 91
      503
 93
      241
310
90C312F3222203D2031272D3022000000000000380FC000000000000284000
  0
ACAD_PROXY_OBJECT
  5
63
102
{ACAD_REACTORS
330
47
102
}
330
47
100
AcDbProxyObject
 90
      499
 91
      503
 93
      241
310
90C332F3422203D2031272D30220000000000003A0FC000000000000284000
  0
ACAD_PROXY_OBJECT
  5
64
102
{ACAD_REACTORS
330
47
102
}
330
47
100
AcDbProxyObject
 90
      499
 91
      503
 93
      161
310
90A3122203D2031272D30224000000000000284000
  0
ACAD_PROXY_OBJECT
  5
65
102
{ACAD_REACTORS
330
47
102
}
330
47
100
AcDbProxyObject
 90
      499
 91
      503
 93
      257
310
90E312D312F3222203D2031272D30220000000000003E0FC000000000000284000
  0
ACAD_PROXY_OBJECT
  5
66
102
{ACAD_REACTORS
330
47
102
}
330
47
100
AcDbProxyObject
 90
      499
 91
      503
 93
      225
310
90A3322203D2031272D302200000000000002100000000000000284000
  0
ACAD_PROXY_OBJECT
  5
67
102
{ACAD_REACTORS
330
47
102
}
330
47
100
AcDbProxyObject
 90
      499
 91
      503
 93
      225
310
90A3622203D2031272D302200000000000006100000000000000284000
  0
ACAD_PROXY_OBJECT
  5
68
102
{ACAD_REACTORS
330
47
102
}
330
47
100
AcDbProxyObject
 90
      499
 91
      503
 93
      249
310
90D31272D3022203D2031272D30220000000000000A100000000000000284000
  0
ACAD_PROXY_OBJECT
  5
2F
102
{ACAD_REACTORS
330
2A
102
}
330
2A
100
AcDbProxyObject
 90
      499
 91
      501
 93
      436
310
42CC9915DA5C99599C985B595049028333333333333E33F0000000000000F90107901411070040501600405405064090741402480A0340
1001
ACAD
1000
AcDbSavedByObjectVersion
1070
     0
  0
ACAD_PROXY_OBJECT
  5
32
102
{ACAD_REACTORS
330
2A
102
}
330
2A
100
AcDbProxyObject
 90
      499
 91
      501
 93
      388
310
4150985CDA58D07406404333333333333E33F0000000000000F90107A41107004050150841D405064090741402480A0350
1001
ACAD
1000
AcDbSavedByObjectVersion
1070
     0
  0
ACAD_PROXY_OBJECT
  5
36
102
{ACAD_REACTORS
330
2A
102
}
330
2A
100
AcDbProxyObject
 90
      499
 91
      501
 93
      428
310
42109C9A59DA1D195B90C409028333333333333E33F0000000000000F9010790141107004050150841D405064090741402480A029950
1001
ACAD
1000
AcDbSavedByObjectVersion
1070
     0
  0
ACAD_PROXY_OBJECT
  5
3A
102
{ACAD_REACTORS
330
2A
102
}
330
2A
100
AcDbProxyObject
 90
      499
 91
      501
 93
      452
310
42D0DBDB1BDC90DA185B99D95104090240C333333333333E33F0000000000000F90108901411070040501508421405064090741402480A0350
1001
ACAD
1000
AcDbSavedByObjectVersion
1070
     0
  0
ACAD_PROXY_OBJECT
  5
34
102
{ACAD_REACTORS
330
2A
102
}
330
2A
100
AcDbProxyObject
 90
      499
 91
      501
 93
      500
310
4290DBDB98D95C1D1D585B10940D028333333333333E33F0000000000000F90107902409070040501000000000018199010841D405064090740C02480A0340
1001
ACAD
1000
AcDbSavedByObjectVersion
1070
     0
  0
ACAD_PROXY_OBJECT
  5
35
102
{ACAD_REACTORS
330
2A
102
}
330
2A
100
AcDbProxyObject
 90
      499
 91
      501
 93
      412
310
40D11A5B50B409028333333333333E33F0000000000000F9010790141107004050150841D405064090741402480A02677FFFFFD0
1001
ACAD
1000
AcDbSavedByObjectVersion
1070
     0
  0
ACAD_PROXY_OBJECT
  5
3D
102
{ACAD_REACTORS
330
2A
102
}
330
2A
100
AcDbProxyObject
 90
      499
 91
      501
 93
      452
310
43115919D950DBDB1BDC93D999916409028333333333333E33F0000000000000F9010790141107004050150841D405064090741402480A0350
1001
ACAD
1000
AcDbSavedByObjectVersion
1070
     0
  0
ACAD_PROXY_OBJECT
  5
39
102
{ACAD_REACTORS
330
2A
102
}
330
2A
100
AcDbProxyObject
 90
      499
 91
      501
 93
      444
310
42D19858D95C185D1D195C9B90F409028333333333333E33F0000000000000F9010790141107004050150841D405064090741402480A0350
1001
ACAD
1000
AcDbSavedByObjectVersion
1070
     0
  0
ACAD_PROXY_OBJECT
  5
2B
102
{ACAD_REACTORS
330
2A
102
}
330
2A
100
AcDbProxyObject
 90
      499
 91
      501
 93
      380
310
41119B185D240901404333333333333E33F0000000000000F9010740A907004050150841D405064090741402480A1B50
1001
ACAD
1000
AcDbSavedByObjectVersion
1070
     0
  0
ACAD_PROXY_OBJECT
  5
2C
102
{ACAD_REACTORS
330
2A
102
}
330
2A
100
AcDbProxyObject
 90
      499
 91
      501
 93
      468
310
43519B185D15DA5D1A115919D95CD0140901404333333333333E33F0000000000000F90107409019070040501600405405064090741402480A1B50
1001
ACAD
1000
AcDbSavedByObjectVersion
1070
     0
  0
ACAD_PROXY_OBJECT
  5
2D
102
{ACAD_REACTORS
330
2A
102
}
330
2A
100
AcDbProxyObject
 90
      499
 91
      501
 93
      404
310
41D1DBDD5C985D5910240902404333333333333E33F0000000000000F9010740A9070040501641D405064090741402480A1B50
1001
ACAD
1000
AcDbSavedByObjectVersion
1070
     0
  0
ACAD_PROXY_OBJECT
  5
2E
102
{ACAD_REACTORS
330
2A
102
}
330
2A
100
AcDbProxyObject
 90
      499
 91
      501
 93
      492
310
4411DBDD5C985D5915DA5D1A115919D95CD0340902404333333333333E33F0000000000000F90107409019070040501600405405064090741402480A1B50
1001
ACAD
1000
AcDbSavedByObjectVersion
1070
     0
  0
ACAD_PROXY_OBJECT
  5
31
102
{ACAD_REACTORS
330
2A
102
}
330
2A
100
AcDbProxyObject
 90
      499
 91
      501
 93
      476
310
41921A5919195B90640502408333333333333E33F0000000000000F901079024090700405020000000000001110200405405064090740C02480A0340
1001
ACAD
1000
AcDbSavedByObjectVersion
1070
     0
  0
ACAD_PROXY_OBJECT
  5
3B
102
{ACAD_REACTORS
330
2A
102
}
330
2A
100
AcDbProxyObject
 90
      499
 91
      501
 93
      428
310
42529A5D1D195C93D999914409028333333333333E33F0000000000000F9010790141107004050150A41D405064090741402480A0350
1001
ACAD
1000
AcDbSavedByObjectVersion
1070
     0
  0
ACAD_PROXY_OBJECT
  5
38
102
{ACAD_REACTORS
330
2A
102
}
330
2A
100
AcDbProxyObject
 90
      499
 91
      501
 93
      444
310
42D31A5B995C185D1D195C9B90E409028333333333333E33F0000000000000F9010790141107004050750841D405064090741402483A0350
1001
ACAD
1000
AcDbSavedByObjectVersion
1070
     0
  0
ACAD_PROXY_OBJECT
  5
3C
102
{ACAD_REACTORS
330
2A
102
}
330
2A
100
AcDbProxyObject
 90
      499
 91
      501
 93
      444
310
42D3DD995C9A185B99D3D999915409028333333333333E33F0000000000000F9010790141107004050150941D405064090741402480A0350
1001
ACAD
1000
AcDbSavedByObjectVersion
1070
     0
  0
ACAD_PROXY_OBJECT
  5
33
102
{ACAD_REACTORS
330
2A
102
}
330
2A
100
AcDbProxyObject
 90
      499
 91
      501
 93
      428
310
425499585B1A5CDD1A58D08409038333333333333E33F0000000000000F9010740A907004050150800405405064090740C02480A1B40
1001
ACAD
1000
AcDbSavedByObjectVersion
1070
     0
  0
ACAD_PROXY_OBJECT
  5
42
102
{ACAD_REACTORS
330
2A
102
}
330
2A
100
AcDbProxyObject
 90
      499
 91
      501
 93
      420
310
4194DA1859195911B40902404333333333333E33F0000000000000F9010740A41107004050150800405405064090840C02480A0B40
1001
ACAD
1000
AcDbSavedByObjectVersion
1070
     0
  0
ACAD_PROXY_OBJECT
  5
41
102
{ACAD_REACTORS
330
2A
102
}
330
2A
100
AcDbProxyObject
 90
      499
 91
      501
 93
      516
310
4454DA18591959081DDA5D1A08195919D95CD1A40902404333333333333E33F0000000000000F901074090142907004050250800405405064090740C02480A0B40
1001
ACAD
1000
AcDbSavedByObjectVersion
1070
     0
  0
ACAD_PROXY_OBJECT
  5
3E
102
{ACAD_REACTORS
330
2A
102
}
330
2A
100
AcDbProxyObject
 90
      499
 91
      501
 93
      532
310
4394DA1859195CC81BD98811DC985E5174090240C333333333333E33F0000000000000F901079024090741D01000000000000111010841D405064090740C02480A0340
1001
ACAD
1000
AcDbSavedByObjectVersion
1070
     0
  0
ACAD_PROXY_OBJECT
  5
3F
102
{ACAD_REACTORS
330
2A
102
}
330
2A
100
AcDbProxyObject
 90
      499
 91
      501
 93
      476
310
41D4DAD95D18DA1E51840502408333333333333E33F0000000000000F901079024090741D01000000000000111010B41D405064090741802480A0340
1001
ACAD
1000
AcDbSavedByObjectVersion
1070
     0
  0
ACAD_PROXY_OBJECT
  5
37
102
{ACAD_REACTORS
330
2A
102
}
330
2A
100
AcDbProxyObject
 90
      499
 91
      501
 93
      412
310
41D51A1A58DAD95B90D409028333333333333E33F0000000000000F9010790141107004050150C41D405064090741402480A0350
1001
ACAD
1000
AcDbSavedByObjectVersion
1070
     0
  0
ACAD_PROXY_OBJECT
  5
30
102
{ACAD_REACTORS
330
2A
102
}
330
2A
100
AcDbProxyObject
 90
      499
 91
      501
 93
      420
310
4255DA5C99599C985B595059028333333333333E33F0000000000000F90107901411070040501600405405064090740C02480A0340
1001
ACAD
1000
AcDbSavedByObjectVersion
1070
     0
  0
ACAD_PROXY_OBJECT
  5
40
102
{ACAD_REACTORS
330
2A
102
}
330
2A
100
AcDbProxyObject
 90
      499
 91
      501
 93
      404
310
41560B54985E51940902404000000000000E03F0000000000000F9010740501907004050150841D405064090740C02480A1B40
1001
ACAD
1000
AcDbSavedByObjectVersion
1070
     0
  0
XRECORD
  5
12F
102
{ACAD_REACTORS
330
125
102
}
330
125
100
AcDbXrecord
340
0
  0
XRECORD
  5
12E
102
{ACAD_REACTORS
330
125
102
}
330
125
100
AcDbXrecord
 90
        0
  0
XRECORD
  5
145
102
{ACAD_REACTORS
330
125
102
}
330
125
100
AcDbXrecord
1000
DSTYLE
1002
{
1070
   179
 70
     2
1070
   171
 70
     2
1070
   143
 40
25.4
1070
   274
 70
     2
1070
    41
 40
3.0
1070
   141
 40
0.09
1070
    43
 40
0.38
1070
   278
 70
    46
1070
    44
 40
1.5
1070
    42
 40
0.0625
1070
   147
 40
1.5
1070
   272
 70
     4
1070
    73
 70
     1
1070
   172
 70
     0
1070
    74
 70
     1
1070
   283
 70
     1
1070
   340
340
6F
1070
   140
 40
3.0
1070
   284
 70
     0
1070
    78
 70
     0
1002
}
  0
XRECORD
  5
130
102
{ACAD_REACTORS
330
125
102
}
330
125
100
AcDbXrecord
  1
{A0C17C19-A6E2-476F-AB51-CC31A7127B7B}
  0
XRECORD
  5
128
102
{ACAD_REACTORS
330
125
102
}
330
125
100
AcDbXrecord
  1

  0
XRECORD
  5
12D
102
{ACAD_REACTORS
330
125
102
}
330
125
100
AcDbXrecord
 90
        4
  0
XRECORD
  5
12A
102
{ACAD_REACTORS
330
125
102
}
330
125
100
AcDbXrecord
340
1A
  0
XRECORD
  5
12C
102
{ACAD_REACTORS
330
125
102
}
330
125
100
AcDbXrecord
 90
    10269
  0
XRECORD
  5
12B
102
{ACAD_REACTORS
330
125
102
}
330
125
100
AcDbXrecord
340
19
  0
XRECORD
  5
132
102
{ACAD_REACTORS
330
125
102
}
330
125
100
AcDbXrecord
 40
0.0
  0
XRECORD
  5
135
102
{ACAD_REACTORS
330
125
102
}
330
125
100
AcDbXrecord
340
0
  0
XRECORD
  5
13B
102
{ACAD_REACTORS
330
125
102
}
330
125
100
AcDbXrecord
 10
0.0
 20
0.0
 30
0.0
  0
XRECORD
  5
137
102
{ACAD_REACTORS
330
125
102
}
330
125
100
AcDbXrecord
 10
0.0
 20
0.0
 30
0.0
  0
XRECORD
  5
13A
102
{ACAD_REACTORS
330
125
102
}
330
125
100
AcDbXrecord
 10
0.0
 20
0.0
 30
0.0
  0
XRECORD
  5
138
102
{ACAD_REACTORS
330
125
102
}
330
125
100
AcDbXrecord
 10
0.0
 20
0.0
 30
0.0
  0
XRECORD
  5
139
102
{ACAD_REACTORS
330
125
102
}
330
125
100
AcDbXrecord
 10
0.0
 20
0.0
 30
0.0
  0
XRECORD
  5
136
102
{ACAD_REACTORS
330
125
102
}
330
125
100
AcDbXrecord
 10
0.0
 20
0.0
 30
0.0
  0
XRECORD
  5
133
102
{ACAD_REACTORS
330
125
102
}
330
125
100
AcDbXrecord
340
0
  0
XRECORD
  5
134
102
{ACAD_REACTORS
330
125
102
}
330
125
100
AcDbXrecord
 70
     0
  0
XRECORD
  5
129
102
{ACAD_REACTORS
330
125
102
}
330
125
100
AcDbXrecord
  1

  0
XRECORD
  5
126
102
{ACAD_REACTORS
330
125
102
}
330
125
100
AcDbXrecord
 90
        1
  0
XRECORD
  5
127
102
{ACAD_REACTORS
330
125
102
}
330
125
100
AcDbXrecord
 90
       70
  0
XRECORD
  5
13E
102
{ACAD_REACTORS
330
125
102
}
330
125
100
AcDbXrecord
340
0
  0
XRECORD
  5
144
102
{ACAD_REACTORS
330
125
102
}
330
125
100
AcDbXrecord
 10
0.0
 20
0.0
 30
0.0
  0
XRECORD
  5
140
102
{ACAD_REACTORS
330
125
102
}
330
125
100
AcDbXrecord
 10
0.0
 20
0.0
 30
0.0
  0
XRECORD
  5
143
102
{ACAD_REACTORS
330
125
102
}
330
125
100
AcDbXrecord
 10
0.0
 20
0.0
 30
0.0
  0
XRECORD
  5
141
102
{ACAD_REACTORS
330
125
102
}
330
125
100
AcDbXrecord
 10
0.0
 20
0.0
 30
0.0
  0
XRECORD
  5
142
102
{ACAD_REACTORS
330
125
102
}
330
125
100
AcDbXrecord
 10
0.0
 20
0.0
 30
0.0
  0
XRECORD
  5
13F
102
{ACAD_REACTORS
330
125
102
}
330
125
100
AcDbXrecord
 10
0.0
 20
0.0
 30
0.0
  0
XRECORD
  5
13C
102
{ACAD_REACTORS
330
125
102
}
330
125
100
AcDbXrecord
340
0
  0
XRECORD
  5
13D
102
{ACAD_REACTORS
330
125
102
}
330
125
100
AcDbXrecord
 70
     0
  0
XRECORD
  5
131
102
{ACAD_REACTORS
330
125
102
}
330
125
100
AcDbXrecord
  1
{FAEB1C32-E019-11D5-929B-00C0DF256EC4}
  0
DICTIONARYVAR
  5
14F
102
{ACAD_REACTORS
330
146
102
}
330
146
100
DictionaryVariables
280
     0
  1
1:1
  0
DICTIONARYVAR
  5
148
102
{ACAD_REACTORS
330
146
102
}
330
146
100
DictionaryVariables
280
     0
  1
Standard
  0
DICTIONARYVAR
  5
147
102
{ACAD_REACTORS
330
146
102
}
330
146
100
DictionaryVariables
280
     0
  1
Standard
  0
DICTIONARYVAR
  5
14B
102
{ACAD_REACTORS
330
146
102
}
330
146
100
DictionaryVariables
280
     0
  1
2
  0
DICTIONARYVAR
  5
14C
102
{ACAD_REACTORS
330
146
102
}
330
146
100
DictionaryVariables
280
     0
  1
1
  0
DICTIONARYVAR
  5
150
102
{ACAD_REACTORS
330
146
102
}
330
146
100
DictionaryVariables
280
     0
  1
1
  0
DICTIONARY
  5
153
330
45
100
AcDbDictionary
280
     1
  3
ACAD_XREC_ROUNDTRIP
360
154
  0
DICTIONARY
  5
151
330
44
100
AcDbDictionary
280
     1
  3
ACAD_XREC_ROUNDTRIP
360
152
  0
DICTIONARY
  5
155
330
46
100
AcDbDictionary
280
     1
  3
ACAD_XREC_ROUNDTRIP
360
156
  0
XRECORD
  5
154
102
{ACAD_REACTORS
330
153
102
}
330
153
100
AcDbXrecord
102
MATERIAL
148
0.0
149
0.0
149
0.0
 93
        0
 94
      127
282
     0
 72
     1
 77
     1
171
     1
175
     1
179
     1
273
     0
  0
XRECORD
  5
152
102
{ACAD_REACTORS
330
151
102
}
330
151
100
AcDbXrecord
102
MATERIAL
148
0.0
149
0.0
149
0.0
 93
        0
 94
      127
282
     0
 72
     1
 77
     1
171
     1
175
     1
179
     1
273
     0
  0
XRECORD
  5
156
102
{ACAD_REACTORS
330
155
102
}
330
155
100
AcDbXrecord
102
MATERIAL
148
0.0
149
0.0
149
0.0
 93
        0
 94
      127
282
     0
 72
     1
 77
     1
171
     1
175
     1
179
     1
273
     0
  0
ENDSEC
  0
EOF
