  0
SECTION
  2
HEADER
  9
$ACADVER
  1
AC1004
  9
$INSBASE
 10
0.0
 20
0.0
  9
$EXTMIN
 10
0.0
 20
0.0
  9
$EXTMAX
 10
660.0
 20
264.4
  9
$LIMMIN
 10
0.0
 20
0.0
  9
$LIMMAX
 10
12.0
 20
9.0
  9
$ORTHOMODE
 70
     0
  9
$REGENMODE
 70
     1
  9
$FILLMODE
 70
     1
  9
$QTEXTMODE
 70
     0
  9
$DRAGMODE
 70
     2
  9
$LTSCALE
 40
1.0
  9
$OSMODE
 70
    37
  9
$ATTMODE
 70
     1
  9
$TEXTSIZE
 40
0.2
  9
$TRACEWID
 40
0.05
  9
$TEXTSTYLE
  7
STANDARD
  9
$CLAYER
  8
0
  9
$CELTYPE
  6
BYLAYER
  9
$CECOLOR
 62
   256
  9
$DIMSCALE
 40
1.0
  9
$DIMASZ
 40
3.0
  9
$DIMEXO
 40
0.0625
  9
$DIMDLI
 40
0.38
  9
$DIMRND
 40
0.0
  9
$DIMDLE
 40
0.0
  9
$DIMEXE
 40
1.5
  9
$DIMTP
 40
0.0
  9
$DIMTM
 40
0.0
  9
$DIMTXT
 40
3.0
  9
$DIMCEN
 40
0.09
  9
$DIMTSZ
 40
0.0
  9
$DIMTOL
 70
     0
  9
$DIMLIM
 70
     0
  9
$DIMTIH
 70
     1
  9
$DIMTOH
 70
     1
  9
$DIMSE1
 70
     0
  9
$DIMSE2
 70
     0
  9
$DIMTAD
 70
     1
  9
$DIMZIN
 70
     0
  9
$DIMBLK
  1

  9
$DIMASO
 70
     1
  9
$DIMSHO
 70
     1
  9
$DIMPOST
  1

  9
$DIMAPOST
  1

  9
$DIMALT
 70
     0
  9
$DIMALTD
 70
     2
  9
$DIMALTF
 40
25.4
  9
$DIMLFAC
 40
1.0
  9
$DIMTOFL
 70
     0
  9
$DIMTVP
 40
0.0
  9
$DIMTIX
 70
     0
  9
$DIMSOXD
 70
     0
  9
$DIMSAH
 70
     0
  9
$DIMBLK1
  1

  9
$DIMBLK2
  1

  9
$LUNITS
 70
     2
  9
$LUPREC
 70
     4
  9
$SKETCHINC
 40
0.1
  9
$FILLETRAD
 40
0.5
  9
$AUNITS
 70
     0
  9
$AUPREC
 70
     0
  9
$MENU
  1
.
  9
$ELEVATION
 40
0.0
  9
$THICKNESS
 40
0.0
  9
$LIMCHECK
 70
     0
  9
$CHAMFERA
 40
0.0
  9
$CHAMFERB
 40
0.0
  9
$SKPOLY
 70
     0
  9
$TDCREATE
 40
2460256.537114456
  9
$TDUPDATE
 40
2460256.537114757
  9
$TDINDWG
 40
0.0000000116
  9
$TDUSRTIMER
 40
0.0000000116
  9
$USRTIMER
 70
     1
  9
$ANGBASE
 50
0.0
  9
$ANGDIR
 70
     0
  9
$PDMODE
 70
     0
  9
$PDSIZE
 40
0.0
  9
$PLINEWID
 40
0.0
  9
$COORDS
 70
     1
  9
$SPLFRAME
 70
     0
  9
$SPLINETYPE
 70
     6
  9
$SPLINESEGS
 70
     8
  9
$ATTDIA
 70
     0
  9
$ATTREQ
 70
     1
  9
$SURFTAB1
 70
     6
  9
$SURFTAB2
 70
     6
  9
$SURFTYPE
 70
     6
  9
$SURFU
 70
     6
  9
$SURFV
 70
     6
  9
$UCSNAME
  2

  9
$UCSORG
 10
0.0
 20
0.0
 30
0.0
  9
$UCSXDIR
 10
1.0
 20
0.0
 30
0.0
  9
$UCSYDIR
 10
0.0
 20
1.0
 30
0.0
  9
$USERI1
 70
     0
  9
$USERI2
 70
     0
  9
$USERI3
 70
     0
  9
$USERI4
 70
     0
  9
$USERI5
 70
     0
  9
$USERR1
 40
0.0
  9
$USERR2
 40
0.0
  9
$USERR3
 40
0.0
  9
$USERR4
 40
0.0
  9
$USERR5
 40
0.0
  9
$WORLDVIEW
 70
     1
  0
ENDSEC
  0
SECTION
  2
TABLES
  0
TABLE
  2
LTYPE
 70
     2
  0
LTYPE
  2
CONTINUOUS
 70
     0
  3
Solid line
 72
    65
 73
     0
 40
0.0
  0
LTYPE
  2
CENTER
 70
     0
  3

 72
    65
 73
     0
 40
0.0
  0
ENDTAB
  0
TABLE
  2
LAYER
 70
     1
  0
LAYER
  2
0
 70
     0
 62
     7
  6
CONTINUOUS
  0
ENDTAB
  0
TABLE
  2
STYLE
 70
     2
  0
STYLE
  2
STANDARD
 70
     0
 40
0.0
 41
1.0
 50
0.0
 71
     0
 42
0.2
  3
txt
  4

  0
STYLE
  2
ＭＳ_ゴシック
 70
     0
 40
0.0
 41
1.0
 50
0.0
 71
     0
 42
0.2
  3
ＭＳ ゴシック.shx
  4

  0
ENDTAB
  0
TABLE
  2
VIEW
 70
     0
  0
ENDTAB
  0
ENDSEC
  0
SECTION
  2
BLOCKS
  0
BLOCK
  8
0
  2
D_FRAME_DRAWING_17
 70
     0
 10
0.0
 20
0.0
  0
LINE
  8
0
  6
CONTINUOUS
 62
     7
 10
0.0
 20
0.0
 11
210.0
 21
0.0
  0
LINE
  8
0
  6
CONTINUOUS
 62
     7
 10
210.0
 20
0.0
 11
210.0
 21
297.0
  0
LINE
  8
0
  6
CONTINUOUS
 62
     7
 10
210.0
 20
297.0
 11
0.0
 21
297.0
  0
LINE
  8
0
  6
CONTINUOUS
 62
     7
 10
0.0
 20
297.0
 11
0.0
 21
0.0
  0
ENDBLK
  8
0
  0
BLOCK
  8
0
  2
D_FRAME_VIEW_1621
 70
     0
 10
0.0
 20
0.0
  0
LINE
  8
0
  6
CONTINUOUS
 62
     7
 10
464.0272745385257
 20
261.4
 11
395.9727254614743
 21
261.4
  0
LINE
  8
0
  6
CONTINUOUS
 62
     7
 10
464.0272745385257
 20
258.6
 11
395.9727254614743
 21
258.6
  0
LINE
  8
0
  6
CONTINUOUS
 62
     7
 10
464.0272745385257
 20
261.4
 11
464.7021277015573
 21
261.4
  0
LINE
  8
0
  6
CONTINUOUS
 62
     7
 10
464.7021277015573
 20
258.6
 11
464.0272745385257
 21
258.6
  0
LINE
  8
0
  6
CONTINUOUS
 62
     7
 10
395.2978722984427
 20
261.4
 11
395.9727254614743
 21
261.4
  0
LINE
  8
0
  6
CONTINUOUS
 62
     7
 10
395.9727254614743
 20
258.6
 11
395.2978722984427
 21
258.6
  0
LINE
  8
0
  6
CONTINUOUS
 62
     7
 10
395.2978722984427
 20
261.4
 11
390.2325146836968
 21
261.4
  0
LINE
  8
0
  6
CONTINUOUS
 62
     7
 10
395.2978722984427
 20
258.6
 11
390.2325146836968
 21
258.6
  0
LINE
  8
0
  6
CONTINUOUS
 62
     7
 10
469.7674853163032
 20
261.4
 11
464.7021277015573
 21
261.4
  0
LINE
  8
0
  6
CONTINUOUS
 62
     7
 10
469.7674853163032
 20
258.6
 11
464.7021277015573
 21
258.6
  0
LINE
  8
0
  6
CONTINUOUS
 62
     7
 10
390.0
 20
258.6
 11
390.0
 21
261.4
  0
LINE
  8
0
  6
CONTINUOUS
 62
     7
 10
390.0
 20
261.4
 11
390.2325146836968
 21
261.4
  0
LINE
  8
0
  6
CONTINUOUS
 62
     7
 10
390.2325146836968
 20
258.6
 11
390.0
 21
258.6
  0
LINE
  8
0
  6
CONTINUOUS
 62
     7
 10
469.9999999999999
 20
261.4
 11
469.9999999999999
 21
258.6
  0
LINE
  8
0
  6
CONTINUOUS
 62
     7
 10
469.7674853163032
 20
261.4
 11
469.9999999999999
 21
261.4
  0
LINE
  8
0
  6
CONTINUOUS
 62
     7
 10
469.9999999999999
 20
258.6
 11
469.7674853163032
 21
258.6
  0
ARC
  8
0
  6
CONTINUOUS
 62
     7
 10
404.4999999999999
 20
247.6
 40
1.000000000000001
 50
180.0
 51
270.0
  0
LINE
  8
0
  6
CONTINUOUS
 62
     7
 10
456.5
 20
258.6
 11
456.5
 21
247.6
  0
ARC
  8
0
  6
CONTINUOUS
 62
     7
 10
455.5
 20
247.6
 40
1.000000000000001
 50
270.0
 51
0.0
  0
LINE
  8
0
  6
CONTINUOUS
 62
     7
 10
403.4999999999999
 20
247.6
 11
403.4999999999999
 21
258.6
  0
LINE
  8
0
  6
CONTINUOUS
 62
     7
 10
455.5
 20
246.6
 11
404.4999999999999
 21
246.6
  0
LINE
  8
0
  6
CONTINUOUS
 62
     7
 10
463.5556723498346
 20
255.6
 11
467.7912129731042
 21
255.6
  0
LINE
  8
0
  6
CONTINUOUS
 62
     7
 10
467.7912129731041
 20
229.6
 11
467.7912129731042
 21
255.6
  0
POLYLINE
  8
0
  6
CONTINUOUS
 62
     7
 66
     1
  0
VERTEX
  8
0
  6
CONTINUOUS
 62
     7
 10
467.6175647954372
 20
228.6
  0
VERTEX
  8
0
  6
CONTINUOUS
 62
     7
 10
467.6514418743358
 20
228.6192147195968
  0
VERTEX
  8
0
  6
CONTINUOUS
 62
     7
 10
467.6840170760908
 20
228.6761204674887
  0
VERTEX
  8
0
  6
CONTINUOUS
 62
     7
 10
467.714038553967
 20
228.7685303876974
  0
VERTEX
  8
0
  6
CONTINUOUS
 62
     7
 10
467.7403525994062
 20
228.8928932188134
  0
VERTEX
  8
0
  6
CONTINUOUS
 62
     7
 10
467.761947978399
 20
229.0444297669804
  0
VERTEX
  8
0
  6
CONTINUOUS
 62
     7
 10
467.7779947926416
 20
229.2173165676349
  0
VERTEX
  8
0
  6
CONTINUOUS
 62
     7
 10
467.7878763720618
 20
229.4049096779839
  0
VERTEX
  8
0
  6
CONTINUOUS
 62
     7
 10
467.7912129731041
 20
229.6
  0
SEQEND
  8
0
  6
CONTINUOUS
 62
     7
  0
LINE
  8
0
  6
CONTINUOUS
 62
     7
 10
467.6175647954372
 20
228.6
 11
463.5556723498347
 21
228.6
  0
POLYLINE
  8
0
  6
CONTINUOUS
 62
     7
 66
     1
  0
VERTEX
  8
0
  6
CONTINUOUS
 62
     7
 10
392.2087870268959
 20
229.6
  0
VERTEX
  8
0
  6
CONTINUOUS
 62
     7
 10
392.2121236279382
 20
229.4049096779839
  0
VERTEX
  8
0
  6
CONTINUOUS
 62
     7
 10
392.2220052073584
 20
229.2173165676349
  0
VERTEX
  8
0
  6
CONTINUOUS
 62
     7
 10
392.238052021601
 20
229.0444297669804
  0
VERTEX
  8
0
  6
CONTINUOUS
 62
     7
 10
392.2596474005938
 20
228.8928932188134
  0
VERTEX
  8
0
  6
CONTINUOUS
 62
     7
 10
392.285961446033
 20
228.7685303876974
  0
VERTEX
  8
0
  6
CONTINUOUS
 62
     7
 10
392.3159829239093
 20
228.6761204674887
  0
VERTEX
  8
0
  6
CONTINUOUS
 62
     7
 10
392.3485581256642
 20
228.6192147195968
  0
VERTEX
  8
0
  6
CONTINUOUS
 62
     7
 10
392.3824352045628
 20
228.6
  0
SEQEND
  8
0
  6
CONTINUOUS
 62
     7
  0
LINE
  8
0
  6
CONTINUOUS
 62
     7
 10
392.3824352045628
 20
228.6
 11
390.4128196985383
 21
228.6
  0
POLYLINE
  8
0
  6
CONTINUOUS
 62
     7
 66
     1
  0
VERTEX
  8
0
  6
CONTINUOUS
 62
     7
 10
390.2391715208714
 20
229.6
  0
VERTEX
  8
0
  6
CONTINUOUS
 62
     7
 10
390.2425081219138
 20
229.4049096779839
  0
VERTEX
  8
0
  6
CONTINUOUS
 62
     7
 10
390.252389701334
 20
229.2173165676349
  0
VERTEX
  8
0
  6
CONTINUOUS
 62
     7
 10
390.2684365155766
 20
229.0444297669804
  0
VERTEX
  8
0
  6
CONTINUOUS
 62
     7
 10
390.2900318945694
 20
228.8928932188134
  0
VERTEX
  8
0
  6
CONTINUOUS
 62
     7
 10
390.3163459400085
 20
228.7685303876974
  0
VERTEX
  8
0
  6
CONTINUOUS
 62
     7
 10
390.3463674178848
 20
228.6761204674887
  0
VERTEX
  8
0
  6
CONTINUOUS
 62
     7
 10
390.3789426196398
 20
228.6192147195968
  0
VERTEX
  8
0
  6
CONTINUOUS
 62
     7
 10
390.4128196985383
 20
228.6
  0
SEQEND
  8
0
  6
CONTINUOUS
 62
     7
  0
LINE
  8
0
  6
CONTINUOUS
 62
     7
 10
469.5871803014616
 20
228.6
 11
467.6175647954372
 21
228.6
  0
POLYLINE
  8
0
  6
CONTINUOUS
 62
     7
 66
     1
  0
VERTEX
  8
0
  6
CONTINUOUS
 62
     7
 10
469.5871803014616
 20
228.6
  0
VERTEX
  8
0
  6
CONTINUOUS
 62
     7
 10
469.6210573803602
 20
228.6192147195968
  0
VERTEX
  8
0
  6
CONTINUOUS
 62
     7
 10
469.6536325821152
 20
228.6761204674887
  0
VERTEX
  8
0
  6
CONTINUOUS
 62
     7
 10
469.6836540599915
 20
228.7685303876974
  0
VERTEX
  8
0
  6
CONTINUOUS
 62
     7
 10
469.7099681054306
 20
228.8928932188134
  0
VERTEX
  8
0
  6
CONTINUOUS
 62
     7
 10
469.7315634844234
 20
229.0444297669804
  0
VERTEX
  8
0
  6
CONTINUOUS
 62
     7
 10
469.747610298666
 20
229.2173165676349
  0
VERTEX
  8
0
  6
CONTINUOUS
 62
     7
 10
469.7574918780862
 20
229.4049096779839
  0
VERTEX
  8
0
  6
CONTINUOUS
 62
     7
 10
469.7608284791285
 20
229.6
  0
SEQEND
  8
0
  6
CONTINUOUS
 62
     7
  0
LINE
  8
0
  6
CONTINUOUS
 62
     7
 10
392.2087870268958
 20
255.6
 11
396.4443276501654
 21
255.6
  0
LINE
  8
0
  6
CONTINUOUS
 62
     7
 10
392.3824352045628
 20
228.6
 11
396.4443276501653
 21
228.6
  0
LINE
  8
0
  6
CONTINUOUS
 62
     7
 10
392.2087870268959
 20
229.6
 11
392.2087870268958
 21
255.6
  0
LINE
  8
0
  6
CONTINUOUS
 62
     7
 10
390.2391715208714
 20
255.6
 11
392.2087870268958
 21
255.6
  0
LINE
  8
0
  6
CONTINUOUS
 62
     7
 10
390.2391715208714
 20
229.6
 11
390.2391715208714
 21
255.6
  0
LINE
  8
0
  6
CONTINUOUS
 62
     7
 10
467.7912129731042
 20
255.6
 11
469.7608284791285
 21
255.6
  0
LINE
  8
0
  6
CONTINUOUS
 62
     7
 10
469.7608284791285
 20
229.6
 11
469.7608284791285
 21
255.6
  0
LINE
  8
0
  6
CONTINUOUS
 62
     7
 10
396.4443276501654
 20
228.6
 11
397.4291354031776
 21
228.6
  0
LINE
  8
0
  6
CONTINUOUS
 62
     7
 10
397.4291354031776
 20
255.6
 11
396.4443276501654
 21
255.6
  0
LINE
  8
0
  6
CONTINUOUS
 62
     7
 10
462.5708645968224
 20
228.6
 11
463.5556723498346
 21
228.6
  0
LINE
  8
0
  6
CONTINUOUS
 62
     7
 10
463.5556723498346
 20
255.6
 11
462.5708645968224
 21
255.6
  0
ARC
  8
0
  6
CONTINUOUS
 62
     7
 10
461.9999999999999
 20
257.6
 40
1.000000000000001
 50
90.0
 51
180.0
  0
LINE
  8
0
  6
CONTINUOUS
 62
     7
 10
460.9999999999999
 20
257.6
 11
460.9999999999999
 21
256.6
  0
ARC
  8
0
  6
CONTINUOUS
 62
     7
 10
461.9999999999999
 20
256.6
 40
1.000000000000001
 50
180.0000000000001
 51
270.0
  0
ARC
  8
0
  6
CONTINUOUS
 62
     7
 10
449.9999999999999
 20
229.6
 40
1.000000000000001
 50
180.0
 51
270.0
  0
LINE
  8
0
  6
CONTINUOUS
 62
     7
 10
449.0
 20
229.6
 11
448.9999999999999
 21
246.6
  0
LINE
  8
0
  6
CONTINUOUS
 62
     7
 10
462.5708645968224
 20
228.6
 11
449.9999999999999
 21
228.6
  0
LINE
  8
0
  6
CONTINUOUS
 62
     7
 10
461.9999999999999
 20
255.6
 11
462.5708645968224
 21
255.6
  0
ARC
  8
0
  6
CONTINUOUS
 62
     7
 10
398.0
 20
256.6
 40
1.000000000000001
 50
270.0
 51
359.9999999999998
  0
LINE
  8
0
  6
CONTINUOUS
 62
     7
 10
399.0
 20
256.6
 11
399.0
 21
257.6
  0
ARC
  8
0
  6
CONTINUOUS
 62
     7
 10
398.0
 20
257.6
 40
1.000000000000001
 50
359.9999999999999
 51
90.0
  0
ARC
  8
0
  6
CONTINUOUS
 62
     7
 10
409.9999999999999
 20
229.6
 40
1.000000000000001
 50
270.0
 51
0.0
  0
LINE
  8
0
  6
CONTINUOUS
 62
     7
 10
410.9999999999999
 20
229.6
 11
410.9999999999999
 21
246.6
  0
LINE
  8
0
  6
CONTINUOUS
 62
     7
 10
397.4291354031776
 20
228.6
 11
409.9999999999999
 21
228.6
  0
LINE
  8
0
  6
CONTINUOUS
 62
     7
 10
397.4291354031776
 20
255.6
 11
398.0
 21
255.6
  0
ENDBLK
  8
0
  0
BLOCK
  8
0
  2
D_FRAME_VIEW_1564
 70
     0
 10
0.0
 20
0.0
  0
ARC
  8
0
  6
CONTINUOUS
 62
     7
 10
580.3000000000001
 20
121.5386307750003
 40
0.300000000000078
 50
180.0
 51
257.0000000000006
  0
LINE
  8
0
  6
CONTINUOUS
 62
     7
 10
580.0
 20
121.5386307750003
 11
580.0
 21
178.4613692249996
  0
ARC
  8
0
  6
CONTINUOUS
 62
     7
 10
580.3000000000001
 20
178.4613692249996
 40
0.3000000000000163
 50
103.0000000000005
 51
180.0
  0
ARC
  8
0
  6
CONTINUOUS
 62
     7
 10
585.9727254614743
 20
177.0
 40
3.000000000000003
 50
90.0
 51
103.0000000000001
  0
LINE
  8
0
  6
CONTINUOUS
 62
     7
 10
585.9727254614743
 20
180.0
 11
654.0272745385257
 21
180.0
  0
ARC
  8
0
  6
CONTINUOUS
 62
     7
 10
654.0272745385257
 20
177.0
 40
2.99999999999998
 50
76.99999999999996
 51
90.00000000000001
  0
LINE
  8
0
  6
CONTINUOUS
 62
     7
 10
654.7021277015572
 20
179.9231101943557
 11
659.7674853163031
 21
178.7536802444352
  0
ARC
  8
0
  6
CONTINUOUS
 62
     7
 10
659.6999999999999
 20
178.4613692249997
 40
0.300000000000078
 50
0.0
 51
77.00000000000061
  0
LINE
  8
0
  6
CONTINUOUS
 62
     7
 10
660.0
 20
178.4613692249997
 11
660.0
 21
121.5386307750003
  0
ARC
  8
0
  6
CONTINUOUS
 62
     7
 10
659.6999999999999
 20
121.5386307750003
 40
0.3000000000000027
 50
282.9999999999994
 51
0.0
  0
LINE
  8
0
  6
CONTINUOUS
 62
     7
 10
659.7674853163031
 20
121.2463197555648
 11
654.7021277015573
 21
120.0768898056443
  0
ARC
  8
0
  6
CONTINUOUS
 62
     7
 10
654.0272745385257
 20
123.0
 40
3.000000000000003
 50
270.0
 51
283.0000000000001
  0
LINE
  8
0
  6
CONTINUOUS
 62
     7
 10
654.0272745385257
 20
120.0
 11
585.9727254614743
 21
120.0
  0
ARC
  8
0
  6
CONTINUOUS
 62
     7
 10
585.9727254614743
 20
123.0
 40
3.000000000000004
 50
256.9999999999999
 51
270.0
  0
LINE
  8
0
  6
CONTINUOUS
 62
     7
 10
585.2978722984426
 20
120.0768898056443
 11
580.2325146836969
 21
121.2463197555648
  0
LINE
  8
0
  6
CONTINUOUS
 62
     7
 10
580.2325146836969
 20
178.7536802444352
 11
585.2978722984426
 21
179.9231101943557
  0
ENDBLK
  8
0
  0
BLOCK
  8
0
  2
D_FRAME_VIEW_1546
 70
     0
 10
0.0
 20
0.0
  0
LINE
  8
0
  6
CONTINUOUS
 62
     7
 10
541.4
 20
178.7536802444352
 11
541.4
 21
178.4613692249997
  0
LINE
  8
0
  6
CONTINUOUS
 62
     7
 10
538.5999999999999
 20
178.4613692249997
 11
538.5999999999999
 21
178.7536802444352
  0
LINE
  8
0
  6
CONTINUOUS
 62
     7
 10
541.4
 20
121.5386307750004
 11
541.4
 21
178.4613692249997
  0
LINE
  8
0
  6
CONTINUOUS
 62
     7
 10
538.5999999999999
 20
121.5386307750004
 11
538.5999999999999
 21
178.4613692249997
  0
LINE
  8
0
  6
CONTINUOUS
 62
     7
 10
541.4
 20
121.5386307750004
 11
541.4
 21
121.2463197555648
  0
LINE
  8
0
  6
CONTINUOUS
 62
     7
 10
538.5999999999999
 20
121.2463197555648
 11
538.5999999999999
 21
121.5386307750004
  0
LINE
  8
0
  6
CONTINUOUS
 62
     7
 10
541.4
 20
178.7536802444352
 11
541.4
 21
179.9231101943557
  0
LINE
  8
0
  6
CONTINUOUS
 62
     7
 10
538.5999999999999
 20
178.7536802444352
 11
538.5999999999999
 21
179.9231101943557
  0
LINE
  8
0
  6
CONTINUOUS
 62
     7
 10
541.4
 20
120.0768898056443
 11
541.4
 21
121.2463197555648
  0
LINE
  8
0
  6
CONTINUOUS
 62
     7
 10
538.5999999999999
 20
120.0768898056443
 11
538.5999999999999
 21
121.2463197555648
  0
LINE
  8
0
  6
CONTINUOUS
 62
     7
 10
535.5999999999999
 20
150.0
 11
535.5999999999999
 21
125.8922313781658
  0
LINE
  8
0
  6
CONTINUOUS
 62
     7
 10
508.5999999999999
 20
125.8922313781658
 11
508.5999999999999
 21
149.0151922469878
  0
LINE
  8
0
  6
CONTINUOUS
 62
     7
 10
535.5999999999999
 20
150.3472963553339
 11
535.5999999999999
 21
150.0
  0
LINE
  8
0
  6
CONTINUOUS
 62
     7
 10
509.6
 20
150.3472963553339
 11
535.6
 21
150.3472963553339
  0
LINE
  8
0
  6
CONTINUOUS
 62
     7
 10
508.5999999999999
 20
149.0151922469878
 11
508.5999999999999
 21
149.3624886023217
  0
POLYLINE
  8
0
  6
CONTINUOUS
 62
     7
 66
     1
  0
VERTEX
  8
0
  6
CONTINUOUS
 62
     7
 10
509.6
 20
150.3472963553339
  0
VERTEX
  8
0
  6
CONTINUOUS
 62
     7
 10
509.4049096779839
 20
150.328373550503
  0
VERTEX
  8
0
  6
CONTINUOUS
 62
     7
 10
509.217316567635
 20
150.2723323287881
  0
VERTEX
  8
0
  6
CONTINUOUS
 62
     7
 10
509.0444297669804
 20
150.1813263229113
  0
VERTEX
  8
0
  6
CONTINUOUS
 62
     7
 10
508.8928932188135
 20
150.0588528426417
  0
VERTEX
  8
0
  6
CONTINUOUS
 62
     7
 10
508.7685303876975
 20
149.9096184751422
  0
VERTEX
  8
0
  6
CONTINUOUS
 62
     7
 10
508.6761204674887
 20
149.7393582134641
  0
VERTEX
  8
0
  6
CONTINUOUS
 62
     7
 10
508.6192147195968
 20
149.5546150639808
  0
VERTEX
  8
0
  6
CONTINUOUS
 62
     7
 10
508.6
 20
149.3624886023217
  0
SEQEND
  8
0
  6
CONTINUOUS
 62
     7
  0
LINE
  8
0
  6
CONTINUOUS
 62
     7
 10
509.5999999999999
 20
123.0
 11
508.5999999999999
 21
123.0
  0
LINE
  8
0
  6
CONTINUOUS
 62
     7
 10
535.5999999999999
 20
123.0
 11
534.5999999999999
 21
123.0
  0
LINE
  8
0
  6
CONTINUOUS
 62
     7
 10
508.5999999999999
 20
123.0
 11
508.5999999999999
 21
125.8922313781658
  0
LINE
  8
0
  6
CONTINUOUS
 62
     7
 10
535.5999999999999
 20
125.8922313781658
 11
535.5999999999999
 21
123.0
  0
LINE
  8
0
  6
CONTINUOUS
 62
     7
 10
541.4
 20
120.0
 11
538.5999999999999
 21
120.0
  0
LINE
  8
0
  6
CONTINUOUS
 62
     7
 10
541.4
 20
120.0768898056443
 11
541.4
 21
120.0
  0
LINE
  8
0
  6
CONTINUOUS
 62
     7
 10
538.5999999999999
 20
120.0
 11
538.5999999999999
 21
120.0768898056443
  0
LINE
  8
0
  6
CONTINUOUS
 62
     7
 10
538.5999999999999
 20
180.0
 11
541.4
 21
180.0
  0
LINE
  8
0
  6
CONTINUOUS
 62
     7
 10
541.4
 20
180.0
 11
541.4
 21
179.9231101943557
  0
LINE
  8
0
  6
CONTINUOUS
 62
     7
 10
538.5999999999999
 20
179.9231101943557
 11
538.5999999999999
 21
180.0
  0
LINE
  8
0
  6
CONTINUOUS
 62
     7
 10
537.5999999999999
 20
123.0
 11
538.5999999999999
 21
123.0
  0
LINE
  8
0
  6
CONTINUOUS
 62
     7
 10
538.5999999999999
 20
125.5
 11
537.5999999999999
 21
125.5
  0
LINE
  8
0
  6
CONTINUOUS
 62
     7
 10
535.5999999999999
 20
123.0
 11
536.5999999999999
 21
123.0
  0
LINE
  8
0
  6
CONTINUOUS
 62
     7
 10
536.5999999999999
 20
125.5
 11
535.5999999999999
 21
125.5
  0
LINE
  8
0
  6
CONTINUOUS
 62
     7
 10
536.5999999999999
 20
123.0
 11
537.5999999999999
 21
123.0
  0
LINE
  8
0
  6
CONTINUOUS
 62
     7
 10
537.5999999999999
 20
125.5
 11
536.5999999999999
 21
125.5
  0
LINE
  8
0
  6
CONTINUOUS
 62
     7
 10
527.5999999999999
 20
174.2
 11
527.1
 21
174.2
  0
ARC
  8
0
  6
CONTINUOUS
 62
     7
 10
527.1
 20
174.7
 40
0.5000000000000004
 50
180.0
 51
270.0
  0
LINE
  8
0
  6
CONTINUOUS
 62
     7
 10
527.5999999999999
 20
176.7
 11
538.5999999999999
 21
176.7
  0
LINE
  8
0
  6
CONTINUOUS
 62
     7
 10
538.5999999999999
 20
174.2
 11
527.5999999999999
 21
174.2
  0
ARC
  8
0
  6
CONTINUOUS
 62
     7
 10
527.1
 20
176.2
 40
0.500000000000056
 50
90.0
 51
180.0
  0
LINE
  8
0
  6
CONTINUOUS
 62
     7
 10
527.1
 20
176.7
 11
527.5999999999999
 21
176.7
  0
LINE
  8
0
  6
CONTINUOUS
 62
     7
 10
526.5999999999999
 20
174.7
 11
526.5999999999999
 21
176.2
  0
LINE
  8
0
  6
CONTINUOUS
 62
     7
 10
509.5999999999999
 20
123.0
 11
534.5999999999999
 21
123.0
  0
ENDBLK
  8
0
  0
BLOCK
  8
0
  2
D_FRAME_VIEW_1288
 70
     0
 10
0.0
 20
0.0
  0
ARC
  8
0
  6
CONTINUOUS
 62
     7
 10
462.0631512908795
 20
126.5
 40
3.5
 50
270.0
 51
349.9999999999999
  0
LINE
  8
0
  6
CONTINUOUS
 62
     7
 10
449.9999999999999
 20
123.0
 11
462.0631512908795
 21
123.0
  0
LINE
  8
0
  6
CONTINUOUS
 62
     7
 10
462.5708645968224
 20
125.5
 11
449.9999999999999
 21
125.5
  0
ARC
  8
0
  6
CONTINUOUS
 62
     7
 10
462.5708645968224
 20
126.5
 40
0.9999999999999977
 50
270.0
 51
349.9999999999999
  0
LINE
  8
0
  6
CONTINUOUS
 62
     7
 10
467.6175647954372
 20
149.3624886023216
 11
463.5556723498346
 21
126.326351822333
  0
LINE
  8
0
  6
CONTINUOUS
 62
     7
 10
465.5099784264223
 20
125.8922313781657
 11
469.5871803014616
 21
149.0151922469878
  0
LINE
  8
0
  6
CONTINUOUS
 62
     7
 10
449.9999999999999
 20
123.0
 11
448.9999999999999
 21
123.0
  0
LINE
  8
0
  6
CONTINUOUS
 62
     7
 10
449.0
 20
123.0
 11
449.0
 21
125.5
  0
LINE
  8
0
  6
CONTINUOUS
 62
     7
 10
448.9999999999999
 20
125.5
 11
449.9999999999999
 21
125.5
  0
ARC
  8
0
  6
CONTINUOUS
 62
     7
 10
397.4291354031776
 20
126.5
 40
1.000000000000001
 50
190.0
 51
270.0
  0
LINE
  8
0
  6
CONTINUOUS
 62
     7
 10
397.4291354031776
 20
125.5
 11
409.9999999999999
 21
125.5
  0
LINE
  8
0
  6
CONTINUOUS
 62
     7
 10
392.3824352045628
 20
149.3624886023217
 11
396.4443276501654
 21
126.3263518223331
  0
LINE
  8
0
  6
CONTINUOUS
 62
     7
 10
394.4900215735777
 20
125.8922313781657
 11
390.4128196985383
 21
149.0151922469878
  0
ARC
  8
0
  6
CONTINUOUS
 62
     7
 10
397.9368487091205
 20
126.5
 40
3.500000000000001
 50
189.9999999999999
 51
269.9999999999999
  0
LINE
  8
0
  6
CONTINUOUS
 62
     7
 10
409.9999999999999
 20
123.0
 11
397.9368487091205
 21
123.0
  0
LINE
  8
0
  6
CONTINUOUS
 62
     7
 10
410.9999999999999
 20
125.5
 11
410.9999999999999
 21
123.0
  0
LINE
  8
0
  6
CONTINUOUS
 62
     7
 10
409.9999999999999
 20
125.5
 11
410.9999999999999
 21
125.5
  0
LINE
  8
0
  6
CONTINUOUS
 62
     7
 10
410.9999999999999
 20
123.0
 11
409.9999999999999
 21
123.0
  0
LINE
  8
0
  6
CONTINUOUS
 62
     7
 10
390.2391715208714
 20
150.0
 11
392.2087870268959
 21
150.3472963553339
  0
LINE
  8
0
  6
CONTINUOUS
 62
     7
 10
392.2087870268959
 20
150.3472963553339
 11
392.3824352045628
 21
149.3624886023217
  0
LINE
  8
0
  6
CONTINUOUS
 62
     7
 10
390.4128196985383
 20
149.0151922469878
 11
390.2391715208714
 21
150.0
  0
LINE
  8
0
  6
CONTINUOUS
 62
     7
 10
467.7912129731041
 20
150.3472963553339
 11
469.7608284791285
 21
150.0
  0
LINE
  8
0
  6
CONTINUOUS
 62
     7
 10
467.6175647954372
 20
149.3624886023216
 11
467.7912129731041
 21
150.3472963553338
  0
LINE
  8
0
  6
CONTINUOUS
 62
     7
 10
469.7608284791285
 20
150.0
 11
469.5871803014616
 21
149.0151922469878
  0
ARC
  8
0
  6
CONTINUOUS
 62
     7
 10
403.9999999999999
 20
176.2
 40
0.5000000000000004
 50
90.0
 51
180.0
  0
LINE
  8
0
  6
CONTINUOUS
 62
     7
 10
403.9999999999999
 20
176.7
 11
404.4999999999999
 21
176.7
  0
LINE
  8
0
  6
CONTINUOUS
 62
     7
 10
404.4999999999999
 20
174.2
 11
403.9999999999999
 21
174.2
  0
ARC
  8
0
  6
CONTINUOUS
 62
     7
 10
403.9999999999999
 20
174.7
 40
0.5000000000000004
 50
180.0
 51
270.0
  0
LINE
  8
0
  6
CONTINUOUS
 62
     7
 10
455.5
 20
174.2
 11
404.5
 21
174.2
  0
LINE
  8
0
  6
CONTINUOUS
 62
     7
 10
404.4999999999999
 20
176.7
 11
455.4999999999999
 21
176.7
  0
LINE
  8
0
  6
CONTINUOUS
 62
     7
 10
456.5
 20
176.2
 11
456.5
 21
174.7
  0
LINE
  8
0
  6
CONTINUOUS
 62
     7
 10
403.4999999999999
 20
174.7
 11
403.4999999999999
 21
176.2
  0
LINE
  8
0
  6
CONTINUOUS
 62
     7
 10
455.5
 20
176.7
 11
456.0
 21
176.7
  0
ARC
  8
0
  6
CONTINUOUS
 62
     7
 10
456.0
 20
176.2
 40
0.5000000000000004
 50
0.0
 51
90.0
  0
LINE
  8
0
  6
CONTINUOUS
 62
     7
 10
456.0
 20
174.2
 11
455.5
 21
174.2
  0
ARC
  8
0
  6
CONTINUOUS
 62
     7
 10
456.0
 20
174.7
 40
0.5000000000000004
 50
270.0
 51
0.0
  0
ARC
  8
0
  6
CONTINUOUS
 62
     7
 10
429.9999999999999
 20
140.5999999999999
 40
18.99999999999999
 50
0.0
 51
180.0
  0
LINE
  8
0
  6
CONTINUOUS
 62
     7
 10
395.9727254614743
 20
120.0
 11
410.9999999999999
 21
120.0
  0
LINE
  8
0
  6
CONTINUOUS
 62
     7
 10
395.2978722984427
 20
179.9231101943557
 11
390.2325146836968
 21
178.7536802444352
  0
LINE
  8
0
  6
CONTINUOUS
 62
     7
 10
464.0272745385257
 20
180.0
 11
395.9727254614743
 21
180.0
  0
ARC
  8
0
  6
CONTINUOUS
 62
     7
 10
464.0272745385257
 20
177.0
 40
3.0
 50
76.99999999999994
 51
90.0
  0
LINE
  8
0
  6
CONTINUOUS
 62
     7
 10
469.7674853163032
 20
178.7536802444352
 11
464.7021277015573
 21
179.9231101943557
  0
LINE
  8
0
  6
CONTINUOUS
 62
     7
 10
469.9999999999999
 20
121.5386307750003
 11
469.9999999999999
 21
178.4613692249997
  0
LINE
  8
0
  6
CONTINUOUS
 62
     7
 10
464.7021277015573
 20
120.0768898056443
 11
469.7674853163031
 21
121.2463197555648
  0
LINE
  8
0
  6
CONTINUOUS
 62
     7
 10
448.9999999999999
 20
120.0
 11
464.0272745385257
 21
120.0
  0
LINE
  8
0
  6
CONTINUOUS
 62
     7
 10
390.2325146836968
 20
121.2463197555648
 11
395.2978722984427
 21
120.0768898056443
  0
LINE
  8
0
  6
CONTINUOUS
 62
     7
 10
390.0
 20
178.4613692249997
 11
390.0
 21
121.5386307750003
  0
ARC
  8
0
  6
CONTINUOUS
 62
     7
 10
395.9727254614743
 20
177.0
 40
2.999999999999999
 50
90.0
 51
103.0000000000001
  0
ARC
  8
0
  6
CONTINUOUS
 62
     7
 10
395.9727254614743
 20
123.0
 40
3.0
 50
256.9999999999999
 51
270.0
  0
ARC
  8
0
  6
CONTINUOUS
 62
     7
 10
464.0272745385257
 20
123.0
 40
2.999999999999999
 50
270.0
 51
283.0000000000001
  0
ARC
  8
0
  6
CONTINUOUS
 62
     7
 10
390.3
 20
121.5386307750003
 40
0.3000000000000017
 50
180.0
 51
257.0000000000006
  0
ARC
  8
0
  6
CONTINUOUS
 62
     7
 10
469.7
 20
121.5386307750003
 40
0.2999999999999999
 50
282.9999999999994
 51
0.0
  0
ARC
  8
0
  6
CONTINUOUS
 62
     7
 10
469.7
 20
178.4613692249996
 40
0.3000000000000017
 50
0.0
 51
76.99999999999947
  0
ARC
  8
0
  6
CONTINUOUS
 62
     7
 10
390.3
 20
178.4613692249997
 40
0.2999999999999999
 50
102.9999999999994
 51
180.0
  0
LINE
  8
0
  6
CONTINUOUS
 62
     7
 10
449.0
 20
123.0
 11
448.9999999999999
 21
120.0
  0
LINE
  8
0
  6
CONTINUOUS
 62
     7
 10
448.9999999999999
 20
140.5999999999999
 11
448.9999999999999
 21
125.5
  0
LINE
  8
0
  6
CONTINUOUS
 62
     7
 10
410.9999999999999
 20
125.5
 11
410.9999999999999
 21
140.6
  0
LINE
  8
0
  6
CONTINUOUS
 62
     7
 10
410.9999999999999
 20
120.0
 11
410.9999999999999
 21
123.0
  0
LINE
  8
0
  6
CONTINUOUS
 62
     7
 10
420.0
 20
133.6
 11
420.0
 21
124.5
  0
ARC
  8
0
  6
CONTINUOUS
 62
     7
 10
430.0
 20
133.6
 40
9.999999999999988
 50
0.0000000000000199
 51
180.0
  0
LINE
  8
0
  6
CONTINUOUS
 62
     7
 10
440.0
 20
124.5
 11
440.0
 21
133.6
  0
LINE
  8
0
  6
CONTINUOUS
 62
     7
 10
440.0
 20
120.0
 11
440.0
 21
124.5
  0
LINE
  8
0
  6
CONTINUOUS
 62
     7
 10
420.0
 20
124.5
 11
420.0
 21
120.0
  0
LINE
  8
0
  6
CONTINUOUS
 62
     7
 10
440.0
 20
120.0
 11
420.0
 21
120.0
  0
LINE
  8
0
  6
CONTINUOUS
 62
     7
 10
417.5
 20
124.5
 11
417.5
 21
120.0
  0
LINE
  8
0
  6
CONTINUOUS
 62
     7
 10
417.5
 20
137.1
 11
417.5
 21
124.5
  0
ARC
  8
0
  6
CONTINUOUS
 62
     7
 10
430.0
 20
137.1
 40
12.49999999999999
 50
0.0000000000000159
 51
180.0
  0
LINE
  8
0
  6
CONTINUOUS
 62
     7
 10
442.5
 20
124.5
 11
442.5
 21
137.1
  0
LINE
  8
0
  6
CONTINUOUS
 62
     7
 10
442.5
 20
120.0
 11
442.5
 21
124.5
  0
LINE
  8
0
  6
CONTINUOUS
 62
     7
 10
441.0
 20
120.0
 11
441.0
 21
133.6
  0
ARC
  8
0
  6
CONTINUOUS
 62
     7
 10
430.0
 20
133.6
 40
10.99999999999999
 50
0.0
 51
180.0
  0
LINE
  8
0
  6
CONTINUOUS
 62
     7
 10
419.0
 20
133.6
 11
419.0
 21
120.0
  0
LINE
  8
0
  6
CONTINUOUS
 62
     7
 10
419.0
 20
120.0
 11
417.5
 21
120.0
  0
LINE
  8
0
  6
CONTINUOUS
 62
     7
 10
442.5
 20
120.0
 11
441.0
 21
120.0
  0
ARC
  8
0
  6
CONTINUOUS
 62
     7
 10
430.0
 20
139.6
 40
16.99999999999999
 50
0.0000000000000117
 51
179.9999999999999
  0
LINE
  8
0
  6
CONTINUOUS
 62
     7
 10
413.0
 20
139.6
 11
413.0
 21
120.0
  0
LINE
  8
0
  6
CONTINUOUS
 62
     7
 10
447.0
 20
120.0
 11
447.0
 21
139.6
  0
LINE
  8
0
  6
CONTINUOUS
 62
     7
 10
412.9999999999999
 20
120.0
 11
410.9999999999999
 21
120.0
  0
LINE
  8
0
  6
CONTINUOUS
 62
     7
 10
448.9999999999999
 20
120.0
 11
447.0
 21
120.0
  0
LINE
  8
0
  6
CONTINUOUS
 62
     7
 10
419.0
 20
124.0
 11
420.0
 21
124.5
  0
LINE
  8
0
  6
CONTINUOUS
 62
     7
 10
419.0
 20
120.0
 11
420.0
 21
120.0
  0
LINE
  8
0
  6
CONTINUOUS
 62
     7
 10
443.5
 20
124.0
 11
442.5
 21
124.5
  0
LINE
  8
0
  6
CONTINUOUS
 62
     7
 10
443.5
 20
120.0
 11
442.5
 21
120.0
  0
LINE
  8
0
  6
CONTINUOUS
 62
     7
 10
446.0
 20
124.5
 11
446.0
 21
139.6
  0
LINE
  8
0
  6
CONTINUOUS
 62
     7
 10
414.0
 20
139.6
 11
414.0
 21
124.5
  0
LINE
  8
0
  6
CONTINUOUS
 62
     7
 10
413.9999999999999
 20
124.5
 11
413.9999999999999
 21
120.0
  0
ARC
  8
0
  6
CONTINUOUS
 62
     7
 10
430.0
 20
139.6
 40
15.99999999999999
 50
0.0000000000000062
 51
179.9999999999999
  0
LINE
  8
0
  6
CONTINUOUS
 62
     7
 10
446.0
 20
120.0
 11
446.0
 21
124.5
  0
LINE
  8
0
  6
CONTINUOUS
 62
     7
 10
443.5
 20
120.0
 11
443.5
 21
137.1
  0
ARC
  8
0
  6
CONTINUOUS
 62
     7
 10
430.0
 20
137.1
 40
13.49999999999999
 50
0.0000000000000147
 51
180.0
  0
LINE
  8
0
  6
CONTINUOUS
 62
     7
 10
416.5
 20
137.1
 11
416.5
 21
120.0
  0
LINE
  8
0
  6
CONTINUOUS
 62
     7
 10
416.5
 20
120.0
 11
413.9999999999999
 21
120.0
  0
LINE
  8
0
  6
CONTINUOUS
 62
     7
 10
446.0
 20
120.0
 11
443.5
 21
120.0
  0
LINE
  8
0
  6
CONTINUOUS
 62
     7
 10
441.0
 20
124.0
 11
440.0
 21
124.5
  0
LINE
  8
0
  6
CONTINUOUS
 62
     7
 10
441.0
 20
120.0
 11
440.0
 21
120.0
  0
LINE
  8
0
  6
CONTINUOUS
 62
     7
 10
412.9999999999999
 20
124.0
 11
413.9999999999999
 21
124.5
  0
LINE
  8
0
  6
CONTINUOUS
 62
     7
 10
412.9999999999999
 20
120.0
 11
413.9999999999999
 21
120.0
  0
LINE
  8
0
  6
CONTINUOUS
 62
     7
 10
446.9999999999999
 20
124.0
 11
445.9999999999999
 21
124.5
  0
LINE
  8
0
  6
CONTINUOUS
 62
     7
 10
447.0
 20
120.0
 11
446.0
 21
120.0
  0
LINE
  8
0
  6
CONTINUOUS
 62
     7
 10
416.5
 20
124.0
 11
417.5
 21
124.5
  0
LINE
  8
0
  6
CONTINUOUS
 62
     7
 10
416.5
 20
120.0
 11
417.5
 21
120.0
  0
ENDBLK
  8
0
  0
ENDSEC
  0
SECTION
  2
ENTITIES
  0
LINE
  8
0
  6
CENTER
 62
     1
 10
620.0
 20
117.0
 11
620.0
 21
183.0
  0
LINE
  8
0
  6
CENTER
 62
     1
 10
430.0
 20
225.6
 11
430.0
 21
264.4
  0
LINE
  8
0
  6
CENTER
 62
     1
 10
430.0
 20
117.0
 11
430.0
 21
183.0
  0
INSERT
  8
0
 62
     7
  2
D_FRAME_DRAWING_17
 10
0.0
 20
0.0
 30
0.0
  0
INSERT
  8
0
  6
CENTER
 62
     7
  2
D_FRAME_VIEW_1621
 10
0.0
 20
0.0
 30
0.0
  0
INSERT
  8
0
  6
CENTER
 62
     7
  2
D_FRAME_VIEW_1564
 10
0.0
 20
0.0
 30
0.0
  0
INSERT
  8
0
  6
CENTER
 62
     7
  2
D_FRAME_VIEW_1546
 10
0.0
 20
0.0
 30
0.0
  0
TEXT
  8
0
  6
CONTINUOUS
 62
     7
 10
513.846392397149
 20
80.5424534200325
 40
8.0
  1
MIDE-80
  0
INSERT
  8
0
  6
CENTER
 62
     7
  2
D_FRAME_VIEW_1288
 10
0.0
 20
0.0
 30
0.0
  0
ENDSEC
  0
EOF
