  0
SECTION
  2
HEADER
  9
$ACADVER
  1
AC1014
  9
$ACADMAINTVER
 70
     9
  9
$DWGCODEPAGE
  3
ANSI_932
  9
$INSBASE
 10
0.0
 20
0.0
 30
0.0
  9
$EXTMIN
 10
393.4999999999951
 20
-6.407546579967493
 30
0.0
  9
$EXTMAX
 10
1015.000000000005
 20
595.0
 30
0.0
  9
$LIMMIN
 10
0.0
 20
0.0
  9
$LIMMAX
 10
12.0
 20
9.0
  9
$ORTHOMODE
 70
     0
  9
$REGENMODE
 70
     1
  9
$FILLMODE
 70
     1
  9
$QTEXTMODE
 70
     0
  9
$MIRRTEXT
 70
     1
  9
$DRAGMODE
 70
     2
  9
$LTSCALE
 40
1.0
  9
$OSMODE
 70
    37
  9
$ATTMODE
 70
     1
  9
$TEXTSIZE
 40
0.2
  9
$TRACEWID
 40
0.05
  9
$TEXTSTYLE
  7
STANDARD
  9
$CLAYER
  8
0
  9
$CELTYPE
  6
BYLAYER
  9
$CECOLOR
 62
   256
  9
$CELTSCALE
 40
1.0
  9
$DELOBJ
 70
     1
  9
$DISPSILH
 70
     0
  9
$DIMSCALE
 40
1.0
  9
$DIMASZ
 40
3.0
  9
$DIMEXO
 40
0.0625
  9
$DIMDLI
 40
0.38
  9
$DIMRND
 40
0.0
  9
$DIMDLE
 40
0.0
  9
$DIMEXE
 40
1.5
  9
$DIMTP
 40
0.0
  9
$DIMTM
 40
0.0
  9
$DIMTXT
 40
3.0
  9
$DIMCEN
 40
0.09
  9
$DIMTSZ
 40
0.0
  9
$DIMTOL
 70
     0
  9
$DIMLIM
 70
     0
  9
$DIMTIH
 70
     1
  9
$DIMTOH
 70
     1
  9
$DIMSE1
 70
     0
  9
$DIMSE2
 70
     0
  9
$DIMTAD
 70
     1
  9
$DIMZIN
 70
     0
  9
$DIMBLK
  1

  9
$DIMASO
 70
     1
  9
$DIMSHO
 70
     1
  9
$DIMPOST
  1

  9
$DIMAPOST
  1

  9
$DIMALT
 70
     0
  9
$DIMALTD
 70
     2
  9
$DIMALTF
 40
25.4
  9
$DIMLFAC
 40
1.0
  9
$DIMTOFL
 70
     0
  9
$DIMTVP
 40
0.0
  9
$DIMTIX
 70
     0
  9
$DIMSOXD
 70
     0
  9
$DIMSAH
 70
     0
  9
$DIMBLK1
  1

  9
$DIMBLK2
  1

  9
$DIMSTYLE
  2
STANDARD
  9
$DIMCLRD
 70
     0
  9
$DIMCLRE
 70
     0
  9
$DIMCLRT
 70
     0
  9
$DIMTFAC
 40
1.0
  9
$DIMGAP
 40
1.5
  9
$DIMJUST
 70
     0
  9
$DIMSD1
 70
     0
  9
$DIMSD2
 70
     0
  9
$DIMTOLJ
 70
     1
  9
$DIMTZIN
 70
     0
  9
$DIMALTZ
 70
     0
  9
$DIMALTTZ
 70
     0
  9
$DIMFIT
 70
     3
  9
$DIMUPT
 70
     0
  9
$DIMUNIT
 70
     2
  9
$DIMDEC
 70
     2
  9
$DIMTDEC
 70
     4
  9
$DIMALTU
 70
     2
  9
$DIMALTTD
 70
     2
  9
$DIMTXSTY
  7
ＭＳ_ゴシック
  9
$DIMAUNIT
 70
     0
  9
$LUNITS
 70
     2
  9
$LUPREC
 70
     4
  9
$SKETCHINC
 40
0.1
  9
$FILLETRAD
 40
0.5
  9
$AUNITS
 70
     0
  9
$AUPREC
 70
     0
  9
$MENU
  1
.
  9
$ELEVATION
 40
0.0
  9
$PELEVATION
 40
0.0
  9
$THICKNESS
 40
0.0
  9
$LIMCHECK
 70
     0
  9
$CHAMFERA
 40
0.0
  9
$CHAMFERB
 40
0.0
  9
$CHAMFERC
 40
0.0
  9
$CHAMFERD
 40
0.0
  9
$SKPOLY
 70
     0
  9
$TDCREATE
 40
2459233.578666759
  9
$TDUPDATE
 40
2459233.578667026
  9
$TDINDWG
 40
0.0000000116
  9
$TDUSRTIMER
 40
0.0000000116
  9
$USRTIMER
 70
     1
  9
$ANGBASE
 50
0.0
  9
$ANGDIR
 70
     0
  9
$PDMODE
 70
     0
  9
$PDSIZE
 40
0.0
  9
$PLINEWID
 40
0.0
  9
$COORDS
 70
     1
  9
$SPLFRAME
 70
     0
  9
$SPLINETYPE
 70
     6
  9
$SPLINESEGS
 70
     8
  9
$ATTDIA
 70
     0
  9
$ATTREQ
 70
     1
  9
$HANDLING
 70
     1
  9
$HANDSEED
  5
368
  9
$SURFTAB1
 70
     6
  9
$SURFTAB2
 70
     6
  9
$SURFTYPE
 70
     6
  9
$SURFU
 70
     6
  9
$SURFV
 70
     6
  9
$UCSNAME
  2

  9
$UCSORG
 10
0.0
 20
0.0
 30
0.0
  9
$UCSXDIR
 10
1.0
 20
0.0
 30
0.0
  9
$UCSYDIR
 10
0.0
 20
1.0
 30
0.0
  9
$PUCSNAME
  2

  9
$PUCSORG
 10
0.0
 20
0.0
 30
0.0
  9
$PUCSXDIR
 10
1.0
 20
0.0
 30
0.0
  9
$PUCSYDIR
 10
0.0
 20
1.0
 30
0.0
  9
$USERI1
 70
     0
  9
$USERI2
 70
     0
  9
$USERI3
 70
     0
  9
$USERI4
 70
     0
  9
$USERI5
 70
     0
  9
$USERR1
 40
0.0
  9
$USERR2
 40
0.0
  9
$USERR3
 40
0.0
  9
$USERR4
 40
0.0
  9
$USERR5
 40
0.0
  9
$WORLDVIEW
 70
     1
  9
$SHADEDGE
 70
     3
  9
$SHADEDIF
 70
    70
  9
$TILEMODE
 70
     1
  9
$MAXACTVP
 70
    64
  9
$PINSBASE
 10
0.0
 20
0.0
 30
0.0
  9
$PLIMCHECK
 70
     0
  9
$PEXTMIN
 10
1.000000000000000E+20
 20
1.000000000000000E+20
 30
1.000000000000000E+20
  9
$PEXTMAX
 10
-1.000000000000000E+20
 20
-1.000000000000000E+20
 30
-1.000000000000000E+20
  9
$PLIMMIN
 10
0.0
 20
0.0
  9
$PLIMMAX
 10
12.0
 20
9.0
  9
$UNITMODE
 70
     0
  9
$VISRETAIN
 70
     1
  9
$PLINEGEN
 70
     0
  9
$PSLTSCALE
 70
     1
  9
$TREEDEPTH
 70
  3020
  9
$PICKSTYLE
 70
     1
  9
$CMLSTYLE
  2
STANDARD
  9
$CMLJUST
 70
     0
  9
$CMLSCALE
 40
1.0
  9
$PROXYGRAPHICS
 70
     1
  9
$MEASUREMENT
 70
     1
  0
ENDSEC
  0
SECTION
  2
CLASSES
  0
CLASS
  1
ACDBDICTIONARYWDFLT
  2
AcDbDictionaryWithDefault
  3
ObjectDBX Classes
 90
        0
280
     0
281
     0
  0
CLASS
  1
VISUALSTYLE
  2
AcDbVisualStyle
  3
ObjectDBX Classes
 90
     4095
280
     0
281
     0
  0
CLASS
  1
MATERIAL
  2
AcDbMaterial
  3
ObjectDBX Classes
 90
     1153
280
     0
281
     0
  0
CLASS
  1
SCALE
  2
AcDbScale
  3
ObjectDBX Classes
 90
     1153
280
     0
281
     0
  0
CLASS
  1
TABLESTYLE
  2
AcDbTableStyle
  3
ObjectDBX Classes
 90
     4095
280
     0
281
     0
  0
CLASS
  1
MLEADERSTYLE
  2
AcDbMLeaderStyle
  3
ACDB_MLEADERSTYLE_CLASS
 90
     4095
280
     0
281
     0
  0
CLASS
  1
SUN
  2
AcDbSun
  3
SCENEOE
 90
     1153
280
     0
281
     0
  0
CLASS
  1
DICTIONARYVAR
  2
AcDbDictionaryVar
  3
ObjectDBX Classes
 90
        0
280
     0
281
     0
  0
CLASS
  1
XRECORD
  2
AcDbXrecord
  3
ObjectDBX Classes
 90
        0
280
     0
281
     0
  0
CLASS
  1
LWPOLYLINE
  2
AcDbPolyline
  3
ObjectDBX Classes
 90
        0
280
     0
281
     1
  0
CLASS
  1
HATCH
  2
AcDbHatch
  3
ObjectDBX Classes
 90
        0
280
     0
281
     1
  0
CLASS
  1
ACDBPLACEHOLDER
  2
AcDbPlaceHolder
  3
ObjectDBX Classes
 90
        0
280
     0
281
     0
  0
CLASS
  1
LAYOUT
  2
AcDbLayout
  3
ObjectDBX Classes
 90
        0
280
     0
281
     0
  0
ENDSEC
  0
SECTION
  2
TABLES
  0
TABLE
  2
VPORT
  5
8
102
{ACAD_XDICTIONARY
360
35D
102
}
330
0
100
AcDbSymbolTable
 70
     1
  0
VPORT
  5
29
330
8
100
AcDbSymbolTableRecord
100
AcDbViewportTableRecord
  2
*ACTIVE
 70
     0
 10
0.0
 20
0.0
 11
1.0
 21
1.0
 12
704.25
 22
294.2962267100162
 13
0.0
 23
0.0
 14
0.5
 24
0.5
 15
0.5
 25
0.5
 16
0.0
 26
0.0
 36
1.0
 17
0.0
 27
0.0
 37
0.0
 40
601.4075465799675
 41
1.6
 42
50.0
 43
0.0
 44
0.0
 50
0.0
 51
0.0
 71
     0
 72
   100
 73
     1
 74
     3
 75
     0
 76
     0
 77
     0
 78
     0
  0
ENDTAB
  0
TABLE
  2
LTYPE
  5
5
330
0
100
AcDbSymbolTable
 70
     3
  0
LTYPE
  5
14
330
5
100
AcDbSymbolTableRecord
100
AcDbLinetypeTableRecord
  2
BYBLOCK
 70
     0
  3

 72
    65
 73
     0
 40
0.0
  0
LTYPE
  5
15
330
5
100
AcDbSymbolTableRecord
100
AcDbLinetypeTableRecord
  2
BYLAYER
 70
     0
  3

 72
    65
 73
     0
 40
0.0
  0
LTYPE
  5
16
330
5
100
AcDbSymbolTableRecord
100
AcDbLinetypeTableRecord
  2
CONTINUOUS
 70
     0
  3
Solid line
 72
    65
 73
     0
 40
0.0
  0
LTYPE
  5
B0
330
5
100
AcDbSymbolTableRecord
100
AcDbLinetypeTableRecord
  2
DASHED
 70
     0
  3

 72
    65
 73
     0
 40
0.0
  0
LTYPE
  5
B5
330
5
100
AcDbSymbolTableRecord
100
AcDbLinetypeTableRecord
  2
CENTER
 70
     0
  3

 72
    65
 73
     0
 40
0.0
  0
ENDTAB
  0
TABLE
  2
LAYER
  5
2
330
0
100
AcDbSymbolTable
 70
     1
  0
LAYER
  5
10
330
2
100
AcDbSymbolTableRecord
100
AcDbLayerTableRecord
  2
0
 70
     0
 62
     7
  6
CONTINUOUS
  0
ENDTAB
  0
TABLE
  2
STYLE
  5
3
330
0
100
AcDbSymbolTable
 70
     2
  0
STYLE
  5
11
330
3
100
AcDbSymbolTableRecord
100
AcDbTextStyleTableRecord
  2
STANDARD
 70
     0
 40
0.0
 41
1.0
 50
0.0
 71
     0
 42
0.2
  3
txt
  4

  0
STYLE
  5
6E
330
3
100
AcDbSymbolTableRecord
100
AcDbTextStyleTableRecord
  2
ＭＳ_ゴシック
 70
     0
 40
0.0
 41
1.0
 50
0.0
 71
     0
 42
0.2
  3
ＭＳ ゴシック.shx
  4

  0
ENDTAB
  0
TABLE
  2
VIEW
  5
6
330
0
100
AcDbSymbolTable
 70
     0
  0
ENDTAB
  0
TABLE
  2
UCS
  5
7
330
0
100
AcDbSymbolTable
 70
     0
  0
ENDTAB
  0
TABLE
  2
APPID
  5
9
330
0
100
AcDbSymbolTable
 70
     2
  0
APPID
  5
12
330
9
100
AcDbSymbolTableRecord
100
AcDbRegAppTableRecord
  2
ACAD
 70
     0
  0
APPID
  5
367
330
9
100
AcDbSymbolTableRecord
100
AcDbRegAppTableRecord
  2
ACAD_MLEADERVER
 70
     0
  0
ENDTAB
  0
TABLE
  2
DIMSTYLE
  5
A
330
0
100
AcDbSymbolTable
 70
     1
  0
DIMSTYLE
105
27
330
A
100
AcDbSymbolTableRecord
100
AcDbDimStyleTableRecord
  2
STANDARD
 70
     0
  3

  4

  5

  6

  7

 40
1.0
 41
0.18
 42
0.0625
 43
0.38
 44
0.18
 45
0.0
 46
0.0
 47
0.0
 48
0.0
140
0.18
141
0.09
142
0.0
143
25.4
144
1.0
145
0.0
146
1.0
147
0.09
 71
     0
 72
     0
 73
     1
 74
     1
 75
     0
 76
     0
 77
     0
 78
     0
170
     0
171
     2
172
     0
173
     0
174
     0
175
     0
176
     0
177
     0
178
     0
270
     2
271
     4
272
     4
273
     2
274
     2
340
11
275
     0
280
     0
281
     0
282
     0
283
     1
284
     0
285
     0
286
     0
287
     3
288
     0
  0
ENDTAB
  0
TABLE
  2
BLOCK_RECORD
  5
1
330
0
100
AcDbSymbolTable
 70
     0
  0
BLOCK_RECORD
  5
1F
330
1
100
AcDbSymbolTableRecord
100
AcDbBlockTableRecord
  2
*MODEL_SPACE
  0
BLOCK_RECORD
  5
1B
330
1
100
AcDbSymbolTableRecord
100
AcDbBlockTableRecord
  2
*PAPER_SPACE
  0
ENDTAB
  0
ENDSEC
  0
SECTION
  2
BLOCKS
  0
BLOCK
  5
20
330
1F
100
AcDbEntity
  8
0
100
AcDbBlockBegin
  2
*MODEL_SPACE
 70
     0
 10
0.0
 20
0.0
 30
0.0
  3
*MODEL_SPACE
  1

  0
ENDBLK
  5
21
330
1F
100
AcDbEntity
  8
0
100
AcDbBlockEnd
  0
BLOCK
  5
1C
330
1B
100
AcDbEntity
 67
     1
  8
0
100
AcDbBlockBegin
  2
*PAPER_SPACE
 70
     0
 10
0.0
 20
0.0
 30
0.0
  3
*PAPER_SPACE
  1

  0
ENDBLK
  5
1D
330
1B
100
AcDbEntity
 67
     1
  8
0
100
AcDbBlockEnd
  0
ENDSEC
  0
SECTION
  2
ENTITIES
  0
MTEXT
  5
6F
330
1F
100
AcDbEntity
  8
0
 62
     7
100
AcDbMText
 10
465.4782105789672
 20
-1.362092034512947
 30
0.0
 40
5.0
 41
0.0
 71
     1
 72
     1
  1
{\fＭＳ ゴシック;MIDF-40_}
  0
LINE
  5
70
330
1F
100
AcDbEntity
  8
0
  6
CONTINUOUS
 62
   253
100
AcDbLine
 10
555.597265244224
 20
43.46230890161736
 30
0.0
 11
555.5970352353339
 21
43.46263515688811
 31
0.0
  0
LINE
  5
71
330
1F
100
AcDbEntity
  8
0
  6
CONTINUOUS
 62
     7
100
AcDbLine
 10
980.5000000000031
 20
19.30988648303839
 30
0.0
 11
980.5000000000031
 21
39.30988648304078
 31
0.0
  0
LINE
  5
72
330
1F
100
AcDbEntity
  8
0
  6
CONTINUOUS
 62
     7
100
AcDbLine
 10
514.9999999999948
 20
42.30988648304125
 30
0.0
 11
514.9999999999948
 21
41.30988648304103
 31
0.0
  0
ARC
  5
73
330
1F
100
AcDbEntity
  8
0
  6
CONTINUOUS
 62
     7
100
AcDbCircle
 10
553.7275586318898
 20
16.30918361149163
 30
0.0
 40
1.999297128813126
100
AcDbArc
 50
269.9989137487873
 51
334.9641007911619
  0
LINE
  5
74
330
1F
100
AcDbEntity
  8
0
  6
CONTINUOUS
 62
   253
100
AcDbLine
 10
970.0346512940822
 20
45.07084984441411
 30
0.0
 11
970.0346512940822
 21
34.80988648304026
 31
0.0
  0
ARC
  5
75
330
1F
100
AcDbEntity
  8
0
  6
CONTINUOUS
 62
     7
100
AcDbCircle
 10
-967.000000000002
 20
15.30988648303792
 30
0.0
 40
1.000000000000115
210
0.0
220
0.0
230
-1.0
100
AcDbArc
 50
195.1272322703159
 51
344.8727677296841
  0
LINE
  5
76
330
1F
100
AcDbEntity
  8
0
  6
CONTINUOUS
 62
     7
100
AcDbLine
 10
537.4999999999962
 20
16.80988648303811
 30
0.0
 11
537.9999999999962
 21
16.80988648303811
 31
0.0
  0
LINE
  5
77
330
1F
100
AcDbEntity
  8
0
  6
CONTINUOUS
 62
     7
100
AcDbLine
 10
553.962663819305
 20
44.30988648304137
 30
0.0
 11
553.8184961938831
 21
44.30988648304137
 31
0.0
  0
LINE
  5
78
330
1F
100
AcDbEntity
  8
0
  6
CONTINUOUS
 62
   253
100
AcDbLine
 10
971.9653487059226
 20
34.80988648304026
 30
0.0
 11
971.9653487059226
 21
25.30988648303912
 31
0.0
  0
LINE
  5
79
330
1F
100
AcDbEntity
  8
0
  6
CONTINUOUS
 62
     7
100
AcDbLine
 10
537.4999999999962
 20
32.16487169858914
 30
0.0
 11
537.9999999999962
 21
32.16487169858914
 31
0.0
  0
LINE
  5
7A
330
1F
100
AcDbEntity
  8
0
  6
CONTINUOUS
 62
   253
100
AcDbLine
 10
959.9653487059219
 20
34.80988648304026
 30
0.0
 11
959.9653487059219
 21
25.30988648303913
 31
0.0
  0
LINE
  5
7B
330
1F
100
AcDbEntity
  8
0
  6
CONTINUOUS
 62
   253
100
AcDbLine
 10
542.5999999999965
 20
38.88994562084383
 30
0.0
 11
537.9999999999962
 21
38.88994562084383
 31
0.0
  0
LINE
  5
7C
330
1F
100
AcDbEntity
  8
0
  6
CONTINUOUS
 62
   253
100
AcDbLine
 10
971.9653487059226
 20
25.30988648303912
 30
0.0
 11
971.9653487059226
 21
15.04892312166527
 31
0.0
  0
ARC
  5
7D
330
1F
100
AcDbEntity
  8
0
  6
CONTINUOUS
 62
     7
100
AcDbCircle
 10
963.0000000000018
 20
44.80988648304143
 30
0.0
 40
1.000000000000116
100
AcDbArc
 50
15.12723227031626
 51
164.8727677296842
  0
ARC
  5
7E
330
1F
100
AcDbEntity
  8
0
  6
CONTINUOUS
 62
     7
100
AcDbCircle
 10
-572.9999999999985
 20
18.10988648303827
 30
0.0
 40
0.2000000000000233
210
0.0
220
0.0
230
-1.0
100
AcDbArc
 50
15.12723227031626
 51
164.8727677296847
  0
SPLINE
  5
7F
330
1F
100
AcDbEntity
  8
0
  6
CONTINUOUS
 62
     7
100
AcDbSpline
210
0.0
220
0.0
230
1.0
 70
     8
 71
     3
 72
    13
 73
     9
 74
     0
 42
0.000000001
 43
0.0001
 40
0.318166797452182
 40
0.318166797452182
 40
0.318166797452182
 40
0.318166797452182
 40
0.3413342943907053
 40
0.3782018290029673
 40
0.4150693636152293
 40
0.4150693636152293
 40
0.4150693636152293
 40
0.9494324277139994
 40
0.9494324277139994
 40
0.9494324277139994
 40
0.9494324277139994
 10
556.8364198299652
 20
41.83848190989018
 30
0.0
 10
556.8143588200552
 20
41.84903581631089
 30
0.0
 10
556.7584703969177
 20
41.8801185536952
 30
0.0
 10
556.6759592396976
 20
41.94502044326904
 30
0.0
 10
556.6234451838676
 20
42.00605957226765
 30
0.0
 10
556.6003758407426
 20
42.03879721812925
 30
0.0
 10
556.2660056419031
 20
42.51330111262529
 30
0.0
 10
555.9316354430636
 20
42.98780500712132
 30
0.0
 10
555.597265244224
 20
43.46230890161736
 30
0.0
  0
LINE
  5
80
330
1F
100
AcDbEntity
  8
0
  6
CONTINUOUS
 62
   253
100
AcDbLine
 10
958.0346512940814
 20
45.07084984441411
 30
0.0
 11
958.0346512940814
 21
34.80988648304026
 31
0.0
  0
LINE
  5
81
330
1F
100
AcDbEntity
  8
0
  6
CONTINUOUS
 62
     7
100
AcDbLine
 10
982.5000000000032
 20
45.00988648304207
 30
0.0
 11
982.5000000000032
 21
39.30988648304078
 31
0.0
  0
LINE
  5
82
330
1F
100
AcDbEntity
  8
0
  6
CONTINUOUS
 62
     7
100
AcDbLine
 10
542.5999999999965
 20
42.30988648304115
 30
0.0
 11
537.9999999999962
 21
42.30988648304115
 31
0.0
  0
LINE
  5
83
330
1F
100
AcDbEntity
  8
0
  6
CONTINUOUS
 62
     7
100
AcDbLine
 10
514.9999999999948
 20
32.7999315076057
 30
0.0
 11
514.9999999999948
 21
31.72982734523676
 31
0.0
  0
LINE
  5
84
330
1F
100
AcDbEntity
  8
0
  6
CONTINUOUS
 62
     7
100
AcDbLine
 10
981.3000000000031
 20
14.3098864830378
 30
0.0
 11
981.7000000000031
 21
14.3098864830378
 31
0.0
  0
ARC
  5
85
330
1F
100
AcDbEntity
  8
0
  6
CONTINUOUS
 62
     7
100
AcDbCircle
 10
-959.0000000000016
 20
15.30988648303792
 30
0.0
 40
1.000000000000122
210
0.0
220
0.0
230
-1.0
100
AcDbArc
 50
195.1272322703174
 51
344.8727677296857
  0
LINE
  5
86
330
1F
100
AcDbEntity
  8
0
  6
CONTINUOUS
 62
   253
100
AcDbLine
 10
971.9653487059226
 20
45.07084984441409
 30
0.0
 11
971.9653487059226
 21
34.80988648304024
 31
0.0
  0
LINE
  5
87
330
1F
100
AcDbEntity
  8
0
  6
CONTINUOUS
 62
   253
100
AcDbLine
 10
958.0346512940814
 20
34.80988648304026
 30
0.0
 11
958.0346512940814
 21
25.30988648303912
 31
0.0
  0
LINE
  5
88
330
1F
100
AcDbEntity
  8
0
  6
CONTINUOUS
 62
     7
100
AcDbLine
 10
980.5000000000031
 20
15.47079081406084
 30
0.0
 11
980.5000000000031
 21
19.30988648303839
 31
0.0
  0
LINE
  5
89
330
1F
100
AcDbEntity
  8
0
  6
CONTINUOUS
 62
     7
100
AcDbLine
 10
537.9999999999962
 20
37.8198414584749
 30
0.0
 11
537.9999999999962
 21
38.88994562084383
 31
0.0
  0
LINE
  5
8A
330
1F
100
AcDbEntity
  8
0
  6
CONTINUOUS
 62
     7
100
AcDbLine
 10
542.5999999999965
 20
41.30988648304103
 30
0.0
 11
542.5999999999965
 21
42.30988648304125
 31
0.0
  0
LINE
  5
8B
330
1F
100
AcDbEntity
  8
0
  6
CONTINUOUS
 62
     7
100
AcDbLine
 10
537.4999999999962
 20
41.30988648304103
 30
0.0
 11
537.4999999999962
 21
42.30988648304125
 31
0.0
  0
ARC
  5
8C
330
1F
100
AcDbEntity
  8
0
  6
CONTINUOUS
 62
     7
100
AcDbCircle
 10
568.9999999999983
 20
42.0098864830411
 30
0.0
 40
0.2000000000000233
100
AcDbArc
 50
195.1272322703162
 51
344.8727677296844
  0
LINE
  5
8D
330
1F
100
AcDbEntity
  8
0
  6
CONTINUOUS
 62
     7
100
AcDbLine
 10
514.9999999999948
 20
37.8198414584749
 30
0.0
 11
514.9999999999948
 21
38.88994562084383
 31
0.0
  0
ARC
  5
8E
330
1F
100
AcDbEntity
  8
0
  6
CONTINUOUS
 62
     7
100
AcDbCircle
 10
-981.3000000000031
 20
45.00988648304146
 30
0.0
 40
0.8000000000001339
210
0.0
220
0.0
230
-1.0
100
AcDbArc
 50
0.0
 51
90.0
  0
ARC
  5
8F
330
1F
100
AcDbEntity
  8
0
  6
CONTINUOUS
 62
     7
100
AcDbCircle
 10
560.9999999999977
 20
42.0098864830411
 30
0.0
 40
0.2000000000000233
100
AcDbArc
 50
195.1272322703162
 51
344.8727677296844
  0
ARC
  5
90
330
1F
100
AcDbEntity
  8
0
  6
CONTINUOUS
 62
     7
100
AcDbCircle
 10
959.0000000000016
 20
44.80988648304143
 30
0.0
 40
1.000000000000124
100
AcDbArc
 50
15.12723227031779
 51
164.8727677296858
  0
LINE
  5
91
330
1F
100
AcDbEntity
  8
0
  6
CONTINUOUS
 62
     7
100
AcDbLine
 10
556.8397878783966
 20
41.83625332104006
 30
0.0
 11
556.8358083884146
 21
41.83877485091742
 31
0.0
  0
LINE
  5
92
330
1F
100
AcDbEntity
  8
0
  6
CONTINUOUS
 62
     7
100
AcDbLine
 10
537.4999999999962
 20
38.16487169858988
 30
0.0
 11
537.9999999999962
 21
38.16487169858988
 31
0.0
  0
LINE
  5
93
330
1F
100
AcDbEntity
  8
0
  6
CONTINUOUS
 62
   253
100
AcDbLine
 10
963.9653487059221
 20
25.30988648303912
 30
0.0
 11
963.9653487059221
 21
15.04892312166527
 31
0.0
  0
LINE
  5
94
330
1F
100
AcDbEntity
  8
0
  6
CONTINUOUS
 62
     7
100
AcDbLine
 10
537.4999999999962
 20
41.30988648304103
 30
0.0
 11
537.4999999999962
 21
38.88994562084383
 31
0.0
  0
ARC
  5
95
330
1F
100
AcDbEntity
  8
0
  6
CONTINUOUS
 62
     7
100
AcDbCircle
 10
-553.9626637993778
 20
42.30988678063627
 30
0.0
 40
1.999999702405109
210
0.0
220
0.0
230
-1.0
100
AcDbArc
 50
90.00000057087465
 51
144.8040696508335
  0
ARC
  5
96
330
1F
100
AcDbEntity
  8
0
  6
CONTINUOUS
 62
     7
100
AcDbCircle
 10
971.0000000000023
 20
44.80988648304143
 30
0.0
 40
1.000000000000338
100
AcDbArc
 50
15.12723227031451
 51
164.8727677296825
  0
LINE
  5
97
330
1F
100
AcDbEntity
  8
0
  6
CONTINUOUS
 62
     7
100
AcDbLine
 10
556.9999999999975
 20
41.8098864830411
 30
0.0
 11
556.8364198299652
 21
41.83848190989018
 31
0.0
  0
LINE
  5
98
330
1F
100
AcDbEntity
  8
0
  6
CONTINUOUS
 62
   253
100
AcDbLine
 10
962.0346512940816
 20
25.30988648303912
 30
0.0
 11
962.0346512940816
 21
15.04892312166527
 31
0.0
  0
LINE
  5
99
330
1F
100
AcDbEntity
  8
0
  6
CONTINUOUS
 62
     7
100
AcDbLine
 10
537.4999999999962
 20
38.88994562084383
 30
0.0
 11
537.4999999999962
 21
37.8198414584749
 31
0.0
  0
LINE
  5
9A
330
1F
100
AcDbEntity
  8
0
  6
CONTINUOUS
 62
   253
100
AcDbLine
 10
537.4999999999962
 20
38.88994562084383
 30
0.0
 11
514.9999999999948
 21
38.88994562084383
 31
0.0
  0
LINE
  5
9B
330
1F
100
AcDbEntity
  8
0
  6
CONTINUOUS
 62
     7
100
AcDbLine
 10
537.9999999999962
 20
42.30988648304125
 30
0.0
 11
537.9999999999962
 21
41.30988648304103
 31
0.0
  0
ARC
  5
9C
330
1F
100
AcDbEntity
  8
0
  6
CONTINUOUS
 62
     7
100
AcDbCircle
 10
-971.0000000000023
 20
15.30988648303792
 30
0.0
 40
1.000000000000336
210
0.0
220
0.0
230
-1.0
100
AcDbArc
 50
195.1272322703141
 51
344.8727677296824
  0
LINE
  5
9D
330
1F
100
AcDbEntity
  8
0
  6
CONTINUOUS
 62
   253
100
AcDbLine
 10
970.0346512940822
 20
25.30988648303912
 30
0.0
 11
970.0346512940822
 21
15.04892312166527
 31
0.0
  0
LINE
  5
9E
330
1F
100
AcDbEntity
  8
0
  6
CONTINUOUS
 62
   253
100
AcDbLine
 10
967.9653487059223
 20
25.30988648303912
 30
0.0
 11
967.9653487059223
 21
15.04892312166527
 31
0.0
  0
LINE
  5
9F
330
1F
100
AcDbEntity
  8
0
  6
CONTINUOUS
 62
   253
100
AcDbLine
 10
963.9653487059221
 20
34.80988648304026
 30
0.0
 11
963.9653487059221
 21
25.30988648303912
 31
0.0
  0
LINE
  5
A0
330
1F
100
AcDbEntity
  8
0
  6
CONTINUOUS
 62
     7
100
AcDbLine
 10
542.5999999999965
 20
39.80988648304085
 30
0.0
 11
544.9999999999967
 21
39.80988648304085
 31
0.0
  0
LINE
  5
A1
330
1F
100
AcDbEntity
  8
0
  6
CONTINUOUS
 62
     7
100
AcDbLine
 10
970.0346512940822
 20
15.04892312166637
 30
0.0
 11
969.1930697411864
 21
18.16207915531257
 31
0.0
  0
LINE
  5
A2
330
1F
100
AcDbEntity
  8
0
  6
CONTINUOUS
 62
   253
100
AcDbLine
 10
514.9999999999948
 20
37.81984145847501
 30
0.0
 11
537.4999999999962
 21
37.81984145847501
 31
0.0
  0
LINE
  5
A3
330
1F
100
AcDbEntity
  8
0
  6
CONTINUOUS
 62
   253
100
AcDbLine
 10
959.9653487059219
 20
45.07084984441411
 30
0.0
 11
959.9653487059219
 21
34.80988648304026
 31
0.0
  0
LINE
  5
A4
330
1F
100
AcDbEntity
  8
0
  6
CONTINUOUS
 62
     7
100
AcDbLine
 10
542.5999999999965
 20
18.80988648303834
 30
0.0
 11
544.9999999999967
 21
18.80988648303834
 31
0.0
  0
ARC
  5
A5
330
1F
100
AcDbEntity
  8
0
  6
CONTINUOUS
 62
     7
100
AcDbCircle
 10
564.9999999999981
 20
42.0098864830411
 30
0.0
 40
0.2000000000000233
100
AcDbArc
 50
195.1272322703162
 51
344.8727677296844
  0
LINE
  5
A6
330
1F
100
AcDbEntity
  8
0
  6
CONTINUOUS
 62
   253
100
AcDbLine
 10
555.5390074279314
 20
15.46310898795088
 30
0.0
 11
555.5370483537537
 21
15.47046707927217
 31
0.0
  0
LINE
  5
A7
330
1F
100
AcDbEntity
  8
0
  6
CONTINUOUS
 62
     7
100
AcDbLine
 10
556.8128205860954
 20
18.18390517499138
 30
0.0
 11
555.5370679083368
 21
15.47050935261693
 31
0.0
  0
LINE
  5
A8
330
1F
100
AcDbEntity
  8
0
  6
CONTINUOUS
 62
     7
100
AcDbLine
 10
537.9999999999962
 20
41.30988648304103
 30
0.0
 11
537.9999999999962
 21
38.88994562084383
 31
0.0
  0
LINE
  5
A9
330
1F
100
AcDbEntity
  8
0
  6
CONTINUOUS
 62
     7
100
AcDbLine
 10
537.4999999999962
 20
42.30988648304115
 30
0.0
 11
514.9999999999948
 21
42.30988648304115
 31
0.0
  0
LINE
  5
AA
330
1F
100
AcDbEntity
  8
0
  6
CONTINUOUS
 62
     7
100
AcDbLine
 10
553.6463774549144
 20
14.3098864830378
 30
0.0
 11
553.7217318150927
 21
14.3098864830378
 31
0.0
  0
LINE
  5
AB
330
1F
100
AcDbEntity
  8
0
  6
CONTINUOUS
 62
     7
100
AcDbLine
 10
542.5999999999965
 20
41.30988648304103
 30
0.0
 11
542.5999999999965
 21
38.88994562084383
 31
0.0
  0
LINE
  5
AC
330
1F
100
AcDbEntity
  8
0
  6
CONTINUOUS
 62
   253
100
AcDbLine
 10
958.0346512940814
 20
25.30988648303912
 30
0.0
 11
958.0346512940814
 21
15.04892312166527
 31
0.0
  0
LINE
  5
AD
330
1F
100
AcDbEntity
  8
0
  6
CONTINUOUS
 62
   253
100
AcDbLine
 10
404.4999999999978
 20
542.9653487059305
 30
0.0
 11
394.239036638622
 21
542.9653487059305
 31
0.0
  0
ARC
  5
AE
330
1F
100
AcDbEntity
  8
0
  6
CONTINUOUS
 62
     7
100
AcDbCircle
 10
-394.4999999999958
 20
149.9999999999937
 30
0.0
 40
1.000000000000624
210
0.0
220
0.0
230
-1.0
100
AcDbArc
 50
285.1272322703142
 51
359.9999999999985
  0
LINE
  5
AF
330
1F
100
AcDbEntity
  8
0
  6
DASHED
 62
     7
100
AcDbLine
 10
436.5000000000049
 20
530.0000000000064
 30
0.0
 11
436.5000000000049
 21
149.9999999999937
 31
0.0
  0
LINE
  5
B1
330
1F
100
AcDbEntity
  8
0
  6
CONTINUOUS
 62
   253
100
AcDbLine
 10
959.9653487059219
 20
25.30988648303912
 30
0.0
 11
959.9653487059219
 21
15.04892312166527
 31
0.0
  0
ARC
  5
B2
330
1F
100
AcDbEntity
  8
0
  6
CONTINUOUS
 62
     7
100
AcDbCircle
 10
-435.5000000000043
 20
542.0000000000101
 30
0.0
 40
1.00000000000057
210
0.0
220
0.0
230
-1.0
100
AcDbArc
 50
105.127232270315
 51
254.8727677296832
  0
LINE
  5
B3
330
1F
100
AcDbEntity
  8
0
  6
DASHED
 62
     7
100
AcDbLine
 10
393.4999999999952
 20
149.9999999999937
 30
0.0
 11
393.4999999999952
 21
530.0000000000064
 31
0.0
  0
LINE
  5
B4
330
1F
100
AcDbEntity
  8
0
  6
CENTER
 62
     1
100
AcDbLine
 10
415.0
 20
85.0
 30
0.0
 11
415.0
 21
595.0
 31
0.0
  0
LINE
  5
B6
330
1F
100
AcDbEntity
  8
0
  6
CONTINUOUS
 62
   253
100
AcDbLine
 10
962.0346512940816
 20
34.80988648304026
 30
0.0
 11
962.0346512940816
 21
25.30988648303912
 31
0.0
  0
LINE
  5
B7
330
1F
100
AcDbEntity
  8
0
  6
CONTINUOUS
 62
   253
100
AcDbLine
 10
425.5000000000022
 20
534.965348705928
 30
0.0
 11
404.4999999999978
 21
534.965348705928
 31
0.0
  0
LINE
  5
B8
330
1F
100
AcDbEntity
  8
0
  6
CONTINUOUS
 62
   253
100
AcDbLine
 10
425.5000000000022
 20
538.9653487059293
 30
0.0
 11
404.4999999999978
 21
538.9653487059293
 31
0.0
  0
LINE
  5
B9
330
1F
100
AcDbEntity
  8
0
  6
CONTINUOUS
 62
   253
100
AcDbLine
 10
425.5000000000022
 20
546.9653487059318
 30
0.0
 11
404.4999999999978
 21
546.9653487059318
 31
0.0
  0
LINE
  5
BA
330
1F
100
AcDbEntity
  8
0
  6
CONTINUOUS
 62
     7
100
AcDbLine
 10
958.0346512940814
 20
15.04892312166637
 30
0.0
 11
957.1930697411855
 21
18.16207915531257
 31
0.0
  0
LINE
  5
BB
330
1F
100
AcDbEntity
  8
0
  6
CONTINUOUS
 62
   253
100
AcDbLine
 10
404.4999999999978
 20
546.9653487059318
 30
0.0
 11
394.239036638622
 21
546.9653487059318
 31
0.0
  0
LINE
  5
BC
330
1F
100
AcDbEntity
  8
0
  6
CONTINUOUS
 62
   253
100
AcDbLine
 10
966.0346512940819
 20
25.30988648303912
 30
0.0
 11
966.0346512940819
 21
15.04892312166527
 31
0.0
  0
LWPOLYLINE
  5
BD
330
1F
100
AcDbEntity
  8
0
  6
CONTINUOUS
 62
     7
100
AcDbPolyline
 90
        5
 70
     0
 43
0.0
 10
-980.7383537950735
 20
14.54019047595311
 10
-980.6484392549626
 20
14.65751653950515
 10
-980.5933320427076
 20
14.77526914004613
 10
-980.5460737462441
 20
14.94023949067033
 42
0.0498195935217898
 10
-980.500000000003
 20
15.47079081406125
210
0.0
220
0.0
230
-1.0
  0
ARC
  5
BE
330
1F
100
AcDbEntity
  8
0
  6
CONTINUOUS
 62
     7
100
AcDbCircle
 10
-435.5000000000043
 20
530.0000000000064
 30
0.0
 40
1.00000000000057
210
0.0
220
0.0
230
-1.0
100
AcDbArc
 50
105.127232270315
 51
180.0
  0
ARC
  5
BF
330
1F
100
AcDbEntity
  8
0
  6
CONTINUOUS
 62
     7
100
AcDbCircle
 10
-574.9999999999986
 20
44.80988648304145
 30
0.0
 40
1.000000000000116
210
0.0
220
0.0
230
-1.0
100
AcDbArc
 50
15.12723227031626
 51
89.99999999999999
  0
LINE
  5
C0
330
1F
100
AcDbEntity
  8
0
  6
CONTINUOUS
 62
   253
100
AcDbLine
 10
966.0346512940819
 20
45.07084984441411
 30
0.0
 11
966.0346512940819
 21
34.80988648304026
 31
0.0
  0
LINE
  5
C1
330
1F
100
AcDbEntity
  8
0
  6
CONTINUOUS
 62
   253
100
AcDbLine
 10
425.5000000000022
 20
541.0346512940897
 30
0.0
 11
404.4999999999978
 21
541.0346512940897
 31
0.0
  0
ARC
  5
C2
330
1F
100
AcDbEntity
  8
0
  6
CONTINUOUS
 62
     7
100
AcDbCircle
 10
394.4999999999958
 20
538.0000000000089
 30
0.0
 40
1.00000000000057
100
AcDbArc
 50
105.127232270315
 51
254.8727677296832
  0
LINE
  5
C3
330
1F
100
AcDbEntity
  8
0
  6
CONTINUOUS
 62
   253
100
AcDbLine
 10
404.4999999999978
 20
538.9653487059293
 30
0.0
 11
394.239036638622
 21
538.9653487059293
 31
0.0
  0
LINE
  5
C4
330
1F
100
AcDbEntity
  8
0
  6
CONTINUOUS
 62
   253
100
AcDbLine
 10
425.5000000000022
 20
542.9653487059305
 30
0.0
 11
404.4999999999978
 21
542.9653487059305
 31
0.0
  0
LINE
  5
C5
330
1F
100
AcDbEntity
  8
0
  6
CONTINUOUS
 62
     7
100
AcDbLine
 10
980.5000000000031
 20
39.30988648304078
 30
0.0
 11
980.5000000000031
 21
45.00988648304206
 31
0.0
  0
LINE
  5
C6
330
1F
100
AcDbEntity
  8
0
  6
CONTINUOUS
 62
     7
100
AcDbLine
 10
968.8069302588183
 20
18.16207915531257
 30
0.0
 11
967.9653487059223
 21
15.04892312166637
 31
0.0
  0
LINE
  5
C7
330
1F
100
AcDbEntity
  8
0
  6
CONTINUOUS
 62
     7
100
AcDbLine
 10
435.7000000000056
 20
555.5000000000143
 30
0.0
 11
430.0000000000031
 21
555.5000000000143
 31
0.0
  0
LINE
  5
C8
330
1F
100
AcDbEntity
  8
0
  6
CONTINUOUS
 62
   253
100
AcDbLine
 10
967.9653487059223
 20
45.07084984441411
 30
0.0
 11
967.9653487059223
 21
34.80988648304024
 31
0.0
  0
ARC
  5
C9
330
1F
100
AcDbEntity
  8
0
  6
CONTINUOUS
 62
     7
100
AcDbCircle
 10
394.4999999999958
 20
546.0000000000114
 30
0.0
 40
1.000000000000678
100
AcDbArc
 50
105.1272322703133
 51
254.8727677296814
  0
LINE
  5
CA
330
1F
100
AcDbEntity
  8
0
  6
CONTINUOUS
 62
   253
100
AcDbLine
 10
425.5000000000022
 20
545.0346512940908
 30
0.0
 11
435.7609633613781
 21
545.0346512940908
 31
0.0
  0
ARC
  5
CB
330
1F
100
AcDbEntity
  8
0
  6
CONTINUOUS
 62
     7
100
AcDbCircle
 10
435.5000000000043
 20
149.9999999999937
 30
0.0
 40
1.000000000000597
100
AcDbArc
 50
285.1272322703146
 51
359.9999999999985
  0
LINE
  5
CC
330
1F
100
AcDbEntity
  8
0
  6
CONTINUOUS
 62
     7
100
AcDbLine
 10
981.3000000000031
 20
45.80988648304156
 30
0.0
 11
981.7000000000031
 21
45.80988648304156
 31
0.0
  0
ARC
  5
CD
330
1F
100
AcDbEntity
  8
0
  6
CONTINUOUS
 62
     7
100
AcDbCircle
 10
-981.7000000000031
 20
45.00988648304146
 30
0.0
 40
0.8000000000001894
210
0.0
220
0.0
230
-1.0
100
AcDbArc
 50
90.0
 51
180.0
  0
ARC
  5
CE
330
1F
100
AcDbEntity
  8
0
  6
CONTINUOUS
 62
     7
100
AcDbCircle
 10
-955.0000000000014
 20
15.30988648303792
 30
0.0
 40
1.000000000000122
210
0.0
220
0.0
230
-1.0
100
AcDbArc
 50
195.1272322703174
 51
270.0
  0
ARC
  5
CF
330
1F
100
AcDbEntity
  8
0
  6
CONTINUOUS
 62
     7
100
AcDbCircle
 10
394.4999999999958
 20
530.0000000000064
 30
0.0
 40
1.00000000000057
100
AcDbArc
 50
105.127232270315
 51
180.0
  0
LINE
  5
D0
330
1F
100
AcDbEntity
  8
0
  6
CONTINUOUS
 62
     7
100
AcDbLine
 10
972.8069302588185
 20
18.16207915531257
 30
0.0
 11
971.9653487059227
 21
15.04892312166637
 31
0.0
  0
LINE
  5
D1
330
1F
100
AcDbEntity
  8
0
  6
CONTINUOUS
 62
   253
100
AcDbLine
 10
404.4999999999978
 20
534.965348705928
 30
0.0
 11
394.239036638622
 21
534.965348705928
 31
0.0
  0
ARC
  5
D2
330
1F
100
AcDbEntity
  8
0
  6
CONTINUOUS
 62
     7
100
AcDbCircle
 10
435.7000000000044
 20
556.3000000000146
 30
0.0
 40
0.800000000000578
100
AcDbArc
 50
270.0
 51
0.0
  0
LINE
  5
D3
330
1F
100
AcDbEntity
  8
0
  6
CONTINUOUS
 62
     7
100
AcDbLine
 10
966.0346512940819
 20
15.04892312166637
 30
0.0
 11
965.193069741186
 21
18.16207915531257
 31
0.0
  0
LINE
  5
D4
330
1F
100
AcDbEntity
  8
0
  6
CONTINUOUS
 62
   253
100
AcDbLine
 10
425.5000000000022
 20
533.0346512940871
 30
0.0
 11
404.4999999999978
 21
533.0346512940871
 31
0.0
  0
LINE
  5
D5
330
1F
100
AcDbEntity
  8
0
  6
CONTINUOUS
 62
   253
100
AcDbLine
 10
404.4999999999978
 20
537.0346512940885
 30
0.0
 11
394.239036638622
 21
537.0346512940885
 31
0.0
  0
LINE
  5
D6
330
1F
100
AcDbEntity
  8
0
  6
CONTINUOUS
 62
   253
100
AcDbLine
 10
425.5000000000022
 20
538.9653487059293
 30
0.0
 11
435.7609633613781
 21
538.9653487059293
 31
0.0
  0
LINE
  5
D7
330
1F
100
AcDbEntity
  8
0
  6
CONTINUOUS
 62
   253
100
AcDbLine
 10
425.5000000000022
 20
545.0346512940908
 30
0.0
 11
404.4999999999978
 21
545.0346512940908
 31
0.0
  0
LINE
  5
D8
330
1F
100
AcDbEntity
  8
0
  6
CONTINUOUS
 62
   253
100
AcDbLine
 10
425.5000000000022
 20
537.0346512940885
 30
0.0
 11
404.4999999999978
 21
537.0346512940885
 31
0.0
  0
ARC
  5
D9
330
1F
100
AcDbEntity
  8
0
  6
CONTINUOUS
 62
     7
100
AcDbCircle
 10
-435.5000000000043
 20
538.0000000000089
 30
0.0
 40
1.00000000000057
210
0.0
220
0.0
230
-1.0
100
AcDbArc
 50
105.127232270315
 51
254.8727677296832
  0
LINE
  5
DA
330
1F
100
AcDbEntity
  8
0
  6
CONTINUOUS
 62
   253
100
AcDbLine
 10
963.9653487059221
 20
45.07084984441411
 30
0.0
 11
963.9653487059221
 21
34.80988648304024
 31
0.0
  0
LINE
  5
DB
330
1F
100
AcDbEntity
  8
0
  6
CONTINUOUS
 62
   253
100
AcDbLine
 10
404.4999999999978
 20
541.0346512940897
 30
0.0
 11
394.239036638622
 21
541.0346512940897
 31
0.0
  0
LINE
  5
DC
330
1F
100
AcDbEntity
  8
0
  6
DASHED
 62
     7
100
AcDbLine
 10
574.9999999999986
 20
45.80988648304157
 30
0.0
 11
955.0000000000014
 21
45.80988648304157
 31
0.0
  0
ARC
  5
DD
330
1F
100
AcDbEntity
  8
0
  6
CONTINUOUS
 62
     7
100
AcDbCircle
 10
967.000000000002
 20
44.80988648304143
 30
0.0
 40
1.000000000000116
100
AcDbArc
 50
15.12723227031626
 51
164.8727677296842
  0
LINE
  5
DE
330
1F
100
AcDbEntity
  8
0
  6
CONTINUOUS
 62
   253
100
AcDbLine
 10
425.5000000000022
 20
541.0346512940897
 30
0.0
 11
435.7609633613781
 21
541.0346512940897
 31
0.0
  0
ARC
  5
DF
330
1F
100
AcDbEntity
  8
0
  6
CONTINUOUS
 62
     7
100
AcDbCircle
 10
435.7000000000044
 20
556.7000000000147
 30
0.0
 40
0.800000000000356
100
AcDbArc
 50
0.0
 51
90.0
  0
ARC
  5
E0
330
1F
100
AcDbEntity
  8
0
  6
CONTINUOUS
 62
     7
100
AcDbCircle
 10
-394.2999999999957
 20
556.3000000000146
 30
0.0
 40
0.800000000000578
210
0.0
220
0.0
230
-1.0
100
AcDbArc
 50
270.0
 51
0.0
  0
LINE
  5
E1
330
1F
100
AcDbEntity
  8
0
  6
CONTINUOUS
 62
   253
100
AcDbLine
 10
425.5000000000022
 20
537.0346512940885
 30
0.0
 11
435.7609633613781
 21
537.0346512940885
 31
0.0
  0
ARC
  5
E2
330
1F
100
AcDbEntity
  8
0
  6
CONTINUOUS
 62
     7
100
AcDbCircle
 10
955.0000000000014
 20
44.80988648304145
 30
0.0
 40
1.000000000000124
100
AcDbArc
 50
15.12723227031779
 51
89.99999999999999
  0
LINE
  5
E3
330
1F
100
AcDbEntity
  8
0
  6
CONTINUOUS
 62
     7
100
AcDbLine
 10
970.0346512940822
 20
45.07084984441299
 30
0.0
 11
969.1930697411864
 21
41.95769381076679
 31
0.0
  0
ARC
  5
E4
330
1F
100
AcDbEntity
  8
0
  6
CONTINUOUS
 62
     7
100
AcDbCircle
 10
394.4999999999958
 20
542.0000000000101
 30
0.0
 40
1.00000000000057
100
AcDbArc
 50
105.127232270315
 51
254.8727677296832
  0
LINE
  5
E5
330
1F
100
AcDbEntity
  8
0
  6
CONTINUOUS
 62
   253
100
AcDbLine
 10
962.0346512940816
 20
45.07084984441411
 30
0.0
 11
962.0346512940816
 21
34.80988648304026
 31
0.0
  0
ARC
  5
E6
330
1F
100
AcDbEntity
  8
0
  6
CONTINUOUS
 62
     7
100
AcDbCircle
 10
574.9999999999987
 20
15.30988648303792
 30
0.0
 40
1.000000000000229
100
AcDbArc
 50
195.1272322703158
 51
269.9999999999936
  0
LINE
  5
E7
330
1F
100
AcDbEntity
  8
0
  6
CONTINUOUS
 62
   253
100
AcDbLine
 10
404.4999999999978
 20
533.0346512940871
 30
0.0
 11
394.239036638622
 21
533.0346512940871
 31
0.0
  0
LINE
  5
E8
330
1F
100
AcDbEntity
  8
0
  6
CONTINUOUS
 62
     7
100
AcDbLine
 10
964.806930258818
 20
18.16207915531257
 30
0.0
 11
963.9653487059221
 21
15.04892312166637
 31
0.0
  0
LINE
  5
E9
330
1F
100
AcDbEntity
  8
0
  6
CONTINUOUS
 62
   253
100
AcDbLine
 10
425.5000000000022
 20
534.965348705928
 30
0.0
 11
435.7609633613781
 21
534.965348705928
 31
0.0
  0
LINE
  5
EA
330
1F
100
AcDbEntity
  8
0
  6
CONTINUOUS
 62
   253
100
AcDbLine
 10
970.0346512940822
 20
34.80988648304024
 30
0.0
 11
970.0346512940822
 21
25.30988648303912
 31
0.0
  0
ARC
  5
EB
330
1F
100
AcDbEntity
  8
0
  6
CONTINUOUS
 62
     7
100
AcDbCircle
 10
981.3000000000031
 20
15.10988648303789
 30
0.0
 40
0.8000000000001658
100
AcDbArc
 50
225.407667902211
 51
270.000000000003
  0
LINE
  5
EC
330
1F
100
AcDbEntity
  8
0
  6
DASHED
 62
     7
100
AcDbLine
 10
955.0000000000014
 20
14.3098864830378
 30
0.0
 11
574.9999999999986
 21
14.30988648303769
 31
0.0
  0
LINE
  5
ED
330
1F
100
AcDbEntity
  8
0
  6
CONTINUOUS
 62
     7
100
AcDbLine
 10
393.4999999999956
 20
556.3000000000146
 30
0.0
 11
393.4999999999956
 21
556.7000000000148
 31
0.0
  0
LINE
  5
EE
330
1F
100
AcDbEntity
  8
0
  6
CONTINUOUS
 62
   253
100
AcDbLine
 10
425.5000000000022
 20
546.9653487059318
 30
0.0
 11
435.7609633613781
 21
546.9653487059318
 31
0.0
  0
ARC
  5
EF
330
1F
100
AcDbEntity
  8
0
  6
CONTINUOUS
 62
     7
100
AcDbCircle
 10
394.4999999999958
 20
534.0000000000076
 30
0.0
 40
1.000000000000678
100
AcDbArc
 50
105.1272322703133
 51
254.8727677296814
  0
LINE
  5
F0
330
1F
100
AcDbEntity
  8
0
  6
CONTINUOUS
 62
   253
100
AcDbLine
 10
570.0346512940782
 20
25.30988648303912
 30
0.0
 11
570.0346512940782
 21
15.04892312166527
 31
0.0
  0
LINE
  5
F1
330
1F
100
AcDbEntity
  8
0
  6
CONTINUOUS
 62
   253
100
AcDbLine
 10
559.9653487059178
 20
45.07084984441411
 30
0.0
 11
559.9653487059178
 21
34.80988648304026
 31
0.0
  0
ARC
  5
F2
330
1F
100
AcDbEntity
  8
0
  6
CONTINUOUS
 62
     7
100
AcDbCircle
 10
-435.5000000000043
 20
534.0000000000076
 30
0.0
 40
1.00000000000057
210
0.0
220
0.0
230
-1.0
100
AcDbArc
 50
105.127232270315
 51
254.8727677296832
  0
ARC
  5
F3
330
1F
100
AcDbEntity
  8
0
  6
CONTINUOUS
 62
     7
100
AcDbCircle
 10
-570.9999999999984
 20
44.80988648304145
 30
0.0
 40
1.000000000000116
210
0.0
220
0.0
230
-1.0
100
AcDbArc
 50
15.12723227031626
 51
164.8727677296841
  0
LINE
  5
F4
330
1F
100
AcDbEntity
  8
0
  6
CONTINUOUS
 62
   253
100
AcDbLine
 10
425.5000000000022
 20
542.9653487059305
 30
0.0
 11
435.7609633613781
 21
542.9653487059305
 31
0.0
  0
LINE
  5
F5
330
1F
100
AcDbEntity
  8
0
  6
CONTINUOUS
 62
   253
100
AcDbLine
 10
563.965348705918
 20
25.30988648303912
 30
0.0
 11
563.965348705918
 21
15.04892312166527
 31
0.0
  0
LINE
  5
F6
330
1F
100
AcDbEntity
  8
0
  6
CONTINUOUS
 62
   253
100
AcDbLine
 10
404.4999999999978
 20
545.0346512940908
 30
0.0
 11
394.239036638622
 21
545.0346512940908
 31
0.0
  0
LINE
  5
F7
330
1F
100
AcDbEntity
  8
0
  6
CONTINUOUS
 62
     7
100
AcDbLine
 10
399.9999999999969
 20
555.5000000000143
 30
0.0
 11
430.0000000000031
 21
555.5000000000143
 31
0.0
  0
LINE
  5
F8
330
1F
100
AcDbEntity
  8
0
  6
CONTINUOUS
 62
   253
100
AcDbLine
 10
570.0346512940782
 20
45.07084984441411
 30
0.0
 11
570.0346512940782
 21
34.80988648304026
 31
0.0
  0
LINE
  5
F9
330
1F
100
AcDbEntity
  8
0
  6
CONTINUOUS
 62
     7
100
AcDbLine
 10
430.0000000000031
 20
557.500000000015
 30
0.0
 11
435.7000000000056
 21
557.500000000015
 31
0.0
  0
LINE
  5
FA
330
1F
100
AcDbEntity
  8
0
  6
CONTINUOUS
 62
     7
100
AcDbLine
 10
430.0000000000031
 20
557.500000000015
 30
0.0
 11
399.9999999999969
 21
557.500000000015
 31
0.0
  0
ARC
  5
FB
330
1F
100
AcDbEntity
  8
0
  6
CONTINUOUS
 62
     7
100
AcDbCircle
 10
570.9999999999984
 20
15.30988648303792
 30
0.0
 40
1.000000000000115
100
AcDbArc
 50
195.1272322703159
 51
344.8727677296841
  0
LINE
  5
FC
330
1F
100
AcDbEntity
  8
0
  6
CONTINUOUS
 62
   253
100
AcDbLine
 10
425.5000000000022
 20
533.0346512940871
 30
0.0
 11
435.7609633613781
 21
533.0346512940871
 31
0.0
  0
LINE
  5
FD
330
1F
100
AcDbEntity
  8
0
  6
CONTINUOUS
 62
     7
100
AcDbLine
 10
394.2999999999946
 20
555.5000000000143
 30
0.0
 11
399.9999999999969
 21
555.5000000000143
 31
0.0
  0
ARC
  5
FE
330
1F
100
AcDbEntity
  8
0
  6
CONTINUOUS
 62
     7
100
AcDbCircle
 10
-435.5000000000043
 20
546.0000000000114
 30
0.0
 40
1.00000000000057
210
0.0
220
0.0
230
-1.0
100
AcDbArc
 50
105.127232270315
 51
254.8727677296832
  0
LINE
  5
FF
330
1F
100
AcDbEntity
  8
0
  6
CONTINUOUS
 62
     7
100
AcDbLine
 10
436.5000000000045
 20
556.3000000000146
 30
0.0
 11
436.5000000000045
 21
556.7000000000148
 31
0.0
  0
LINE
  5
100
330
1F
100
AcDbEntity
  8
0
  6
CONTINUOUS
 62
     7
100
AcDbLine
 10
396.9999999999959
 20
112.4999999999819
 30
0.0
 11
397.3103618488875
 21
112.4999999999819
 31
0.0
  0
LINE
  5
101
330
1F
100
AcDbEntity
  8
0
  6
CONTINUOUS
 62
     7
100
AcDbLine
 10
396.9999999999995
 20
31.72982734523668
 30
0.0
 11
396.9999999999995
 21
17.30988648303911
 31
0.0
  0
ARC
  5
102
330
1F
100
AcDbEntity
  8
0
  6
CONTINUOUS
 62
     7
100
AcDbCircle
 10
-398.7999999999996
 20
38.88994562084324
 30
0.0
 40
2.000000000000113
210
0.0
220
0.0
230
-1.0
100
AcDbArc
 50
180.0
 51
212.347443499442
  0
LINE
  5
103
330
1F
100
AcDbEntity
  8
0
  6
CONTINUOUS
 62
     7
100
AcDbLine
 10
434.0000000000006
 20
28.30988648303963
 30
0.0
 11
433.0000000000006
 21
28.30988648303963
 31
0.0
  0
LINE
  5
104
330
1F
100
AcDbEntity
  8
0
  6
CONTINUOUS
 62
     7
100
AcDbLine
 10
395.9999999999994
 20
28.30988648303963
 30
0.0
 11
396.9999999999995
 21
28.30988648303963
 31
0.0
  0
LINE
  5
105
330
1F
100
AcDbEntity
  8
0
  6
CONTINUOUS
 62
     7
100
AcDbLine
 10
431.3000000000005
 20
31.81683621590714
 30
0.0
 11
427.5000000000004
 21
37.81683621590745
 31
0.0
  0
LINE
  5
106
330
1F
100
AcDbEntity
  8
0
  6
CONTINUOUS
 62
     7
100
AcDbLine
 10
427.5000000000004
 20
37.81683621590745
 30
0.0
 11
427.5000000000004
 21
40.60988648304021
 31
0.0
  0
ARC
  5
107
330
1F
100
AcDbEntity
  8
0
  6
CONTINUOUS
 62
     7
100
AcDbCircle
 10
398.9999999999995
 20
31.72982734523668
 30
0.0
 40
2.000000000000139
100
AcDbArc
 50
147.6525565005574
 51
179.9999999999994
  0
ARC
  5
108
330
1F
100
AcDbEntity
  8
0
  6
CONTINUOUS
 62
     7
100
AcDbCircle
 10
-432.7000000000037
 20
143.9999999999918
 30
0.0
 40
0.2000000000001413
210
0.0
220
0.0
230
-1.0
100
AcDbArc
 50
285.1272322703195
 51
74.87276772968767
  0
LINE
  5
109
330
1F
100
AcDbEntity
  8
0
  6
CONTINUOUS
 62
     7
100
AcDbLine
 10
401.9999999999996
 20
37.96185100035823
 30
0.0
 11
398.1999999999995
 21
31.96185100035794
 31
0.0
  0
LINE
  5
10A
330
1F
100
AcDbEntity
  8
0
  6
CONTINUOUS
 62
     7
100
AcDbLine
 10
428.0000000000005
 20
41.10988648304024
 30
0.0
 11
401.9999999999996
 21
41.10988648304024
 31
0.0
  0
ARC
  5
10B
330
1F
100
AcDbEntity
  8
0
  6
CONTINUOUS
 62
     7
100
AcDbCircle
 10
431.2000000000005
 20
38.88994562084324
 30
0.0
 40
2.000000000000113
100
AcDbArc
 50
180.0
 51
212.347443499442
  0
LINE
  5
10C
330
1F
100
AcDbEntity
  8
0
  6
CONTINUOUS
 62
     7
100
AcDbLine
 10
397.9999999999995
 20
16.30988648303906
 30
0.0
 11
432.0000000000006
 21
16.30988648303906
 31
0.0
  0
ARC
  5
10D
330
1F
100
AcDbEntity
  8
0
  6
CONTINUOUS
 62
     7
100
AcDbCircle
 10
-428.2000000000004
 20
41.30988648304025
 30
0.0
 40
1.000000000000084
210
0.0
220
0.0
230
-1.0
100
AcDbArc
 50
90.0
 51
180.0
  0
LINE
  5
10E
330
1F
100
AcDbEntity
  8
0
  6
CONTINUOUS
 62
     7
100
AcDbLine
 10
394.9999999999959
 20
128.8898715838897
 30
0.0
 11
394.9999999999959
 21
128.9708800444945
 31
0.0
  0
LINE
  5
10F
330
1F
100
AcDbEntity
  8
0
  6
CONTINUOUS
 62
     7
100
AcDbLine
 10
432.5000000000036
 20
112.4999999999819
 30
0.0
 11
432.5000000000036
 21
112.9999999999821
 31
0.0
  0
LINE
  5
110
330
1F
100
AcDbEntity
  8
0
  6
CONTINUOUS
 62
     7
100
AcDbLine
 10
398.1999999999995
 20
31.96185100035794
 30
0.0
 11
398.1999999999995
 21
17.50988648303912
 31
0.0
  0
LINE
  5
111
330
1F
100
AcDbEntity
  8
0
  6
CONTINUOUS
 62
     7
100
AcDbLine
 10
429.2000000000004
 20
41.30988648304025
 30
0.0
 11
429.2000000000004
 21
38.88994562084324
 31
0.0
  0
LINE
  5
112
330
1F
100
AcDbEntity
  8
0
  6
CONTINUOUS
 62
     7
100
AcDbLine
 10
433.0000000000006
 20
20.30988648303925
 30
0.0
 11
434.0000000000006
 21
20.30988648303925
 31
0.0
  0
LINE
  5
113
330
1F
100
AcDbEntity
  8
0
  6
CONTINUOUS
 62
     7
100
AcDbLine
 10
402.4999999999997
 20
37.81683621590745
 30
0.0
 11
402.4999999999997
 21
40.60988648304021
 31
0.0
  0
LINE
  5
114
330
1F
100
AcDbEntity
  8
0
  6
CONTINUOUS
 62
     7
100
AcDbLine
 10
398.6999999999995
 20
31.81683621590715
 30
0.0
 11
402.4999999999997
 21
37.81683621590745
 31
0.0
  0
LINE
  5
115
330
1F
100
AcDbEntity
  8
0
  6
CONTINUOUS
 62
     7
100
AcDbLine
 10
400.7999999999996
 20
41.30988648304025
 30
0.0
 11
400.7999999999996
 21
38.88994562084324
 31
0.0
  0
ELLIPSE
  5
116
330
1F
100
AcDbEntity
  8
0
  6
CONTINUOUS
 62
   253
100
AcDbEllipse
 10
433.0000000000038
 20
128.9708800444945
 30
0.0
 11
2.000000000000834
 21
0.0
 31
0.0
210
0.0
220
0.0
230
1.0
 40
0.9999997962318588
 41
0.0
 42
0.9505327058633808
  0
LINE
  5
117
330
1F
100
AcDbEntity
  8
0
  6
CONTINUOUS
 62
     7
100
AcDbLine
 10
395.9999999999994
 20
28.30988648303963
 30
0.0
 11
395.9999999999994
 21
20.30988648303925
 31
0.0
  0
LINE
  5
118
330
1F
100
AcDbEntity
  8
0
  6
CONTINUOUS
 62
     7
100
AcDbLine
 10
398.6999999999995
 20
18.00988648303914
 30
0.0
 11
398.6999999999995
 21
31.81683621590714
 31
0.0
  0
ARC
  5
119
330
1F
100
AcDbEntity
  8
0
  6
CONTINUOUS
 62
     7
100
AcDbCircle
 10
401.7999999999997
 20
41.30988648304025
 30
0.0
 40
1.000000000000084
100
AcDbArc
 50
90.0
 51
180.0
  0
LINE
  5
11A
330
1F
100
AcDbEntity
  8
0
  6
CONTINUOUS
 62
     7
100
AcDbLine
 10
428.2000000000004
 20
42.30988648304029
 30
0.0
 11
401.7999999999997
 21
42.30988648304029
 31
0.0
  0
ARC
  5
11B
330
1F
100
AcDbEntity
  8
0
  6
CONTINUOUS
 62
     7
100
AcDbCircle
 10
-432.7000000000037
 20
131.999999999988
 30
0.0
 40
0.200000000000089
210
0.0
220
0.0
230
-1.0
100
AcDbArc
 50
0.0
 51
74.8727677296841
  0
LINE
  5
11C
330
1F
100
AcDbEntity
  8
0
  6
CONTINUOUS
 62
     7
100
AcDbLine
 10
431.3000000000005
 20
18.00988648303914
 30
0.0
 11
431.3000000000005
 21
31.81683621590714
 31
0.0
  0
LINE
  5
11D
330
1F
100
AcDbEntity
  8
0
  6
CONTINUOUS
 62
     7
100
AcDbLine
 10
429.3000000000005
 20
31.23677707810402
 30
0.0
 11
425.5000000000003
 21
37.23677707810432
 31
0.0
  0
LINE
  5
11E
330
1F
100
AcDbEntity
  8
0
  6
CONTINUOUS
 62
     7
100
AcDbLine
 10
425.5000000000003
 20
37.23677707810432
 30
0.0
 11
425.5000000000003
 21
38.60988648304011
 31
0.0
  0
ARC
  5
11F
330
1F
100
AcDbEntity
  8
0
  6
CONTINUOUS
 62
     7
100
AcDbCircle
 10
-432.7000000000037
 20
147.9999999999931
 30
0.0
 40
0.2000000000001413
210
0.0
220
0.0
230
-1.0
100
AcDbArc
 50
285.1272322703195
 51
74.87276772968767
  0
LINE
  5
120
330
1F
100
AcDbEntity
  8
0
  6
CONTINUOUS
 62
     7
100
AcDbLine
 10
394.9999999999959
 20
128.7732218776777
 30
0.0
 11
394.9999999999959
 21
128.8898715838897
 31
0.0
  0
LINE
  5
121
330
1F
100
AcDbEntity
  8
0
  6
CONTINUOUS
 62
     7
100
AcDbLine
 10
431.8000000000005
 20
31.96185100035792
 30
0.0
 11
431.8000000000005
 21
17.50988648303912
 31
0.0
  0
LINE
  5
122
330
1F
100
AcDbEntity
  8
0
  6
CONTINUOUS
 62
     7
100
AcDbLine
 10
400.4896381511081
 20
37.81984145847449
 30
0.0
 11
397.310361848891
 21
32.79993150760542
 31
0.0
  0
LINE
  5
123
330
1F
100
AcDbEntity
  8
0
  6
CONTINUOUS
 62
     7
100
AcDbLine
 10
404.4999999999997
 20
38.60988648304011
 30
0.0
 11
425.5000000000003
 21
38.60988648304011
 31
0.0
  0
LINE
  5
124
330
1F
100
AcDbEntity
  8
0
  6
CONTINUOUS
 62
     7
100
AcDbLine
 10
428.0000000000005
 20
41.10988648304024
 30
0.0
 11
428.0000000000005
 21
37.96185100035823
 31
0.0
  0
LINE
  5
125
330
1F
100
AcDbEntity
  8
0
  6
CONTINUOUS
 62
     7
100
AcDbLine
 10
428.0000000000005
 20
37.96185100035823
 30
0.0
 11
431.8000000000005
 21
31.96185100035792
 31
0.0
  0
LINE
  5
126
330
1F
100
AcDbEntity
  8
0
  6
CONTINUOUS
 62
     7
100
AcDbLine
 10
431.3000000000005
 20
18.00988648303914
 30
0.0
 11
398.6999999999995
 21
18.00988648303914
 31
0.0
  0
LINE
  5
127
330
1F
100
AcDbEntity
  8
0
  6
CONTINUOUS
 62
     7
100
AcDbLine
 10
404.4999999999997
 20
37.23677707810432
 30
0.0
 11
404.4999999999997
 21
38.60988648304011
 31
0.0
  0
ARC
  5
128
330
1F
100
AcDbEntity
  8
0
  6
CONTINUOUS
 62
     7
100
AcDbCircle
 10
397.2999999999964
 20
143.9999999999918
 30
0.0
 40
0.2000000000001145
100
AcDbArc
 50
285.1272322703215
 51
74.87276772968971
  0
LINE
  5
129
330
1F
100
AcDbEntity
  8
0
  6
CONTINUOUS
 62
     7
100
AcDbLine
 10
399.4999999999968
 20
117.5999999999835
 30
0.0
 11
399.4999999999968
 21
119.9999999999843
 31
0.0
  0
ARC
  5
12A
330
1F
100
AcDbEntity
  8
0
  6
CONTINUOUS
 62
     7
100
AcDbCircle
 10
397.9999999999995
 20
17.3098864830391
 30
0.0
 40
1.000000000000056
100
AcDbArc
 50
180.0
 51
270.0
  0
LINE
  5
12B
330
1F
100
AcDbEntity
  8
0
  6
CONTINUOUS
 62
     7
100
AcDbLine
 10
400.6999999999996
 20
31.23677707810402
 30
0.0
 11
404.4999999999997
 21
37.23677707810432
 31
0.0
  0
LINE
  5
12C
330
1F
100
AcDbEntity
  8
0
  6
CONTINUOUS
 62
     7
100
AcDbLine
 10
400.6999999999996
 20
20.00988648303924
 30
0.0
 11
400.6999999999996
 21
31.23677707810402
 31
0.0
  0
LINE
  5
12D
330
1F
100
AcDbEntity
  8
0
  6
CONTINUOUS
 62
     7
100
AcDbLine
 10
429.3000000000005
 20
20.00988648303924
 30
0.0
 11
400.6999999999996
 21
20.00988648303924
 31
0.0
  0
LINE
  5
12E
330
1F
100
AcDbEntity
  8
0
  6
CONTINUOUS
 62
     7
100
AcDbLine
 10
433.0000000000006
 20
31.72982734523668
 30
0.0
 11
433.0000000000006
 21
17.3098864830391
 31
0.0
  0
LINE
  5
12F
330
1F
100
AcDbEntity
  8
0
  6
CONTINUOUS
 62
     7
100
AcDbLine
 10
429.510361848892
 20
37.81984145847449
 30
0.0
 11
432.689638151109
 21
32.79993150760542
 31
0.0
  0
LINE
  5
130
330
1F
100
AcDbEntity
  8
0
  6
CONTINUOUS
 62
     7
100
AcDbLine
 10
402.4999999999997
 20
40.60988648304021
 30
0.0
 11
427.5000000000004
 21
40.60988648304021
 31
0.0
  0
LINE
  5
131
330
1F
100
AcDbEntity
  8
0
  6
CONTINUOUS
 62
     7
100
AcDbLine
 10
398.1999999999995
 20
17.50988648303912
 30
0.0
 11
431.8000000000005
 21
17.50988648303912
 31
0.0
  0
LINE
  5
132
330
1F
100
AcDbEntity
  8
0
  6
CONTINUOUS
 62
     7
100
AcDbLine
 10
396.9999999999995
 20
20.30988648303925
 30
0.0
 11
395.9999999999994
 21
20.30988648303926
 31
0.0
  0
LINE
  5
133
330
1F
100
AcDbEntity
  8
0
  6
CONTINUOUS
 62
     7
100
AcDbLine
 10
429.3000000000005
 20
20.00988648303924
 30
0.0
 11
429.3000000000005
 21
31.23677707810402
 31
0.0
  0
ARC
  5
134
330
1F
100
AcDbEntity
  8
0
  6
CONTINUOUS
 62
     7
100
AcDbCircle
 10
430.0000000000005
 20
19.3098864830392
 30
0.0
 40
5.000000000000476
100
AcDbArc
 50
270.0
 51
0.0
  0
LINE
  5
135
330
1F
100
AcDbEntity
  8
0
  6
CONTINUOUS
 62
     7
100
AcDbLine
 10
400.4896381511055
 20
89.9999999999748
 30
0.0
 11
397.3103618488879
 21
89.9999999999748
 31
0.0
  0
LINE
  5
136
330
1F
100
AcDbEntity
  8
0
  6
CONTINUOUS
 62
     7
100
AcDbLine
 10
434.0000000000006
 20
28.30988648303963
 30
0.0
 11
434.0000000000006
 21
20.30988648303925
 31
0.0
  0
LINE
  5
137
330
1F
100
AcDbEntity
  8
0
  6
CONTINUOUS
 62
     7
100
AcDbLine
 10
401.9999999999996
 20
41.10988648304024
 30
0.0
 11
401.9999999999996
 21
37.96185100035823
 31
0.0
  0
ARC
  5
138
330
1F
100
AcDbEntity
  8
0
  6
CONTINUOUS
 62
     7
100
AcDbCircle
 10
-432.0000000000006
 20
17.3098864830391
 30
0.0
 40
1.000000000000056
210
0.0
220
0.0
230
-1.0
100
AcDbArc
 50
180.0
 51
270.0
  0
LINE
  5
139
330
1F
100
AcDbEntity
  8
0
  6
CONTINUOUS
 62
     7
100
AcDbLine
 10
429.5103618488942
 20
112.9999999999821
 30
0.0
 11
429.2000000000025
 21
112.9999999999821
 31
0.0
  0
ARC
  5
13A
330
1F
100
AcDbEntity
  8
0
  6
CONTINUOUS
 62
     7
100
AcDbCircle
 10
-431.0000000000005
 20
31.72982734523668
 30
0.0
 40
2.000000000000135
210
0.0
220
0.0
230
-1.0
100
AcDbArc
 50
147.6525565005576
 51
179.9999999999995
  0
ARC
  5
13B
330
1F
100
AcDbEntity
  8
0
  6
CONTINUOUS
 62
     7
100
AcDbCircle
 10
397.2999999999964
 20
139.9999999999906
 30
0.0
 40
0.2000000000001413
100
AcDbArc
 50
285.1272322703195
 51
74.87276772968767
  0
LINE
  5
13C
330
1F
100
AcDbEntity
  8
0
  6
CONTINUOUS
 62
     7
100
AcDbLine
 10
416.0000000000001
 20
14.30988648303896
 30
0.0
 11
430.0000000000005
 21
14.30988648303896
 31
0.0
  0
LINE
  5
13D
330
1F
100
AcDbEntity
  8
0
  6
CONTINUOUS
 62
     7
100
AcDbLine
 10
436.5000000000007
 20
19.3098864830392
 30
0.0
 11
436.5000000000007
 21
39.30988648304015
 31
0.0
  0
LINE
  5
13E
330
1F
100
AcDbEntity
  8
0
  6
CONTINUOUS
 62
   253
100
AcDbLine
 10
563.965348705918
 20
34.80988648304026
 30
0.0
 11
563.965348705918
 21
25.30988648303913
 31
0.0
  0
LINE
  5
13F
330
1F
100
AcDbEntity
  8
0
  6
CONTINUOUS
 62
     7
100
AcDbLine
 10
561.1930697411817
 20
18.16207915531257
 30
0.0
 11
562.0346512940777
 21
15.04892312166638
 31
0.0
  0
LINE
  5
140
330
1F
100
AcDbEntity
  8
0
  6
CONTINUOUS
 62
     7
100
AcDbLine
 10
537.9999999999962
 20
31.72982734523676
 30
0.0
 11
537.9999999999962
 21
17.30988648303816
 31
0.0
  0
LINE
  5
141
330
1F
100
AcDbEntity
  8
0
  6
CONTINUOUS
 62
     7
100
AcDbLine
 10
537.9999999999962
 20
37.81984145847501
 30
0.0
 11
537.9999999999962
 21
32.79993150760559
 31
0.0
  0
LINE
  5
142
330
1F
100
AcDbEntity
  8
0
  6
CONTINUOUS
 62
     7
100
AcDbLine
 10
399.9999999999995
 20
14.30988648303896
 30
0.0
 11
398.4999999999995
 21
14.30988648303896
 31
0.0
  0
LINE
  5
143
330
1F
100
AcDbEntity
  8
0
  6
CONTINUOUS
 62
     7
100
AcDbLine
 10
563.965348705918
 20
15.04892312166637
 30
0.0
 11
564.806930258814
 21
18.16207915531257
 31
0.0
  0
LINE
  5
144
330
1F
100
AcDbEntity
  8
0
  6
CONTINUOUS
 62
   253
100
AcDbLine
 10
566.0346512940779
 20
45.07084984441411
 30
0.0
 11
566.0346512940779
 21
34.80988648304026
 31
0.0
  0
LINE
  5
145
330
1F
100
AcDbEntity
  8
0
  6
CONTINUOUS
 62
   253
100
AcDbLine
 10
567.9653487059182
 20
34.80988648304026
 30
0.0
 11
567.9653487059182
 21
25.30988648303912
 31
0.0
  0
LINE
  5
146
330
1F
100
AcDbEntity
  8
0
  6
CONTINUOUS
 62
     7
100
AcDbLine
 10
559.9653487059178
 20
45.070849844413
 30
0.0
 11
560.8069302588136
 21
41.95769381076679
 31
0.0
  0
LINE
  5
147
330
1F
100
AcDbEntity
  8
0
  6
CONTINUOUS
 62
     7
100
AcDbLine
 10
544.9999999999967
 20
19.3098864830384
 30
0.0
 11
544.9999999999967
 21
16.66413517197322
 31
0.0
  0
LINE
  5
148
330
1F
100
AcDbEntity
  8
0
  6
CONTINUOUS
 62
   253
100
AcDbLine
 10
562.0346512940777
 20
45.07084984441411
 30
0.0
 11
562.0346512940777
 21
34.80988648304026
 31
0.0
  0
LINE
  5
149
330
1F
100
AcDbEntity
  8
0
  6
CONTINUOUS
 62
     7
100
AcDbLine
 10
571.9653487059186
 20
45.070849844413
 30
0.0
 11
572.8069302588144
 21
41.95769381076679
 31
0.0
  0
ARC
  5
14A
330
1F
100
AcDbEntity
  8
0
  6
CONTINUOUS
 62
     7
100
AcDbCircle
 10
-399.9999999999995
 20
19.3098864830392
 30
0.0
 40
5.000000000000476
210
0.0
220
0.0
230
-1.0
100
AcDbArc
 50
270.0
 51
0.0
  0
LINE
  5
14B
330
1F
100
AcDbEntity
  8
0
  6
CONTINUOUS
 62
     7
100
AcDbLine
 10
563.965348705918
 20
45.070849844413
 30
0.0
 11
564.806930258814
 21
41.95769381076679
 31
0.0
  0
LINE
  5
14C
330
1F
100
AcDbEntity
  8
0
  6
CONTINUOUS
 62
   253
100
AcDbLine
 10
567.9653487059182
 20
45.07084984441411
 30
0.0
 11
567.9653487059182
 21
34.80988648304026
 31
0.0
  0
ARC
  5
14D
330
1F
100
AcDbEntity
  8
0
  6
CONTINUOUS
 62
     7
100
AcDbCircle
 10
-545.9999999999968
 20
43.30988648304127
 30
0.0
 40
1.000000000000223
210
0.0
220
0.0
230
-1.0
100
AcDbArc
 50
0.0
 51
89.99999999999994
  0
ARC
  5
14E
330
1F
100
AcDbEntity
  8
0
  6
CONTINUOUS
 62
     7
100
AcDbCircle
 10
-558.9999999999976
 20
44.80988648304145
 30
0.0
 40
1.000000000000116
210
0.0
220
0.0
230
-1.0
100
AcDbArc
 50
15.12723227031626
 51
164.8727677296841
  0
LINE
  5
14F
330
1F
100
AcDbEntity
  8
0
  6
CONTINUOUS
 62
     7
100
AcDbLine
 10
399.9999999999995
 20
45.80988648304047
 30
0.0
 11
430.0000000000005
 21
45.80988648304047
 31
0.0
  0
LINE
  5
150
330
1F
100
AcDbEntity
  8
0
  6
CONTINUOUS
 62
   253
100
AcDbLine
 10
558.0346512940774
 20
25.30988648303913
 30
0.0
 11
558.0346512940774
 21
15.04892312166527
 31
0.0
  0
ARC
  5
151
330
1F
100
AcDbEntity
  8
0
  6
CONTINUOUS
 62
     7
100
AcDbCircle
 10
-398.4999999999995
 20
19.3098864830392
 30
0.0
 40
5.000000000000476
210
0.0
220
0.0
230
-1.0
100
AcDbArc
 50
270.0
 51
359.9999999999998
  0
LINE
  5
152
330
1F
100
AcDbEntity
  8
0
  6
CONTINUOUS
 62
     7
100
AcDbLine
 10
394.9999999999994
 20
19.3098864830392
 30
0.0
 11
394.9999999999994
 21
39.30988648304015
 31
0.0
  0
LINE
  5
153
330
1F
100
AcDbEntity
  8
0
  6
CONTINUOUS
 62
     7
100
AcDbLine
 10
393.4999999999994
 20
19.3098864830392
 30
0.0
 11
393.4999999999994
 21
39.30988648304015
 31
0.0
  0
LINE
  5
154
330
1F
100
AcDbEntity
  8
0
  6
CONTINUOUS
 62
     7
100
AcDbLine
 10
435.0000000000006
 20
19.3098864830392
 30
0.0
 11
435.0000000000006
 21
39.30988648304015
 31
0.0
  0
LINE
  5
155
330
1F
100
AcDbEntity
  8
0
  6
CONTINUOUS
 62
     7
100
AcDbLine
 10
415.0
 20
15.30988648303901
 30
0.0
 11
416.0000000000001
 21
14.30988648303896
 31
0.0
  0
LINE
  5
156
330
1F
100
AcDbEntity
  8
0
  6
CONTINUOUS
 62
     7
100
AcDbLine
 10
399.9999999999995
 20
44.30988648304039
 30
0.0
 11
430.0000000000005
 21
44.30988648304038
 31
0.0
  0
LINE
  5
157
330
1F
100
AcDbEntity
  8
0
  6
CONTINUOUS
 62
     7
100
AcDbLine
 10
415.0
 20
15.30988648303901
 30
0.0
 11
413.9999999999999
 21
14.30988648303896
 31
0.0
  0
ARC
  5
158
330
1F
100
AcDbEntity
  8
0
  6
CONTINUOUS
 62
     7
100
AcDbCircle
 10
-425.1111810044972
 20
25.84182735918507
 30
0.0
 40
6.389248053653803
210
0.0
220
0.0
230
-1.0
100
AcDbArc
 50
229.0263917662164
 51
245.9017404651263
  0
LINE
  5
159
330
1F
100
AcDbEntity
  8
0
  6
CONTINUOUS
 62
     7
100
AcDbLine
 10
573.1930697411825
 20
41.95769381076679
 30
0.0
 11
574.0346512940785
 21
45.070849844413
 31
0.0
  0
LINE
  5
15A
330
1F
100
AcDbEntity
  8
0
  6
CONTINUOUS
 62
     7
100
AcDbLine
 10
430.0000000000005
 20
14.30988648303896
 30
0.0
 11
431.5000000000006
 21
14.30988648303896
 31
0.0
  0
LINE
  5
15B
330
1F
100
AcDbEntity
  8
0
  6
CONTINUOUS
 62
     7
100
AcDbLine
 10
567.9653487059182
 20
15.04892312166637
 30
0.0
 11
568.8069302588142
 21
18.16207915531257
 31
0.0
  0
LINE
  5
15C
330
1F
100
AcDbEntity
  8
0
  6
CONTINUOUS
 62
   253
100
AcDbLine
 10
562.0346512940777
 20
25.30988648303913
 30
0.0
 11
562.0346512940777
 21
15.04892312166527
 31
0.0
  0
ARC
  5
15D
330
1F
100
AcDbEntity
  8
0
  6
CONTINUOUS
 62
     7
100
AcDbCircle
 10
-399.9999999999995
 20
39.30988648304015
 30
0.0
 40
5.000000000000282
210
0.0
220
0.0
230
-1.0
100
AcDbArc
 50
0.0
 51
90.0
  0
ARC
  5
15E
330
1F
100
AcDbEntity
  8
0
  6
CONTINUOUS
 62
     7
100
AcDbCircle
 10
431.5000000000006
 20
19.3098864830392
 30
0.0
 40
5.000000000000469
100
AcDbArc
 50
270.0
 51
0.0
  0
LINE
  5
15F
330
1F
100
AcDbEntity
  8
0
  6
CONTINUOUS
 62
   253
100
AcDbLine
 10
571.9653487059186
 20
25.30988648303912
 30
0.0
 11
571.9653487059186
 21
15.04892312166527
 31
0.0
  0
LINE
  5
160
330
1F
100
AcDbEntity
  8
0
  6
CONTINUOUS
 62
     7
100
AcDbLine
 10
567.9653487059182
 20
45.070849844413
 30
0.0
 11
568.8069302588142
 21
41.95769381076679
 31
0.0
  0
ARC
  5
161
330
1F
100
AcDbEntity
  8
0
  6
CONTINUOUS
 62
     7
100
AcDbCircle
 10
-566.9999999999982
 20
44.80988648304145
 30
0.0
 40
1.000000000000231
210
0.0
220
0.0
230
-1.0
100
AcDbArc
 50
15.12723227031618
 51
164.872767729684
  0
ARC
  5
162
330
1F
100
AcDbEntity
  8
0
  6
CONTINUOUS
 62
     7
100
AcDbCircle
 10
562.999999999998
 20
15.30988648303792
 30
0.0
 40
1.000000000000229
100
AcDbArc
 50
195.1272322703158
 51
344.872767729684
  0
LINE
  5
163
330
1F
100
AcDbEntity
  8
0
  6
CONTINUOUS
 62
   253
100
AcDbLine
 10
558.0346512940774
 20
34.80988648304026
 30
0.0
 11
558.0346512940774
 21
25.30988648303913
 31
0.0
  0
ARC
  5
164
330
1F
100
AcDbEntity
  8
0
  6
CONTINUOUS
 62
     7
100
AcDbCircle
 10
430.0000000000005
 20
39.30988648304015
 30
0.0
 40
6.500000000000338
100
AcDbArc
 50
0.0
 51
90.00000000000001
  0
LINE
  5
165
330
1F
100
AcDbEntity
  8
0
  6
CONTINUOUS
 62
   253
100
AcDbLine
 10
566.0346512940779
 20
34.80988648304026
 30
0.0
 11
566.0346512940779
 21
25.30988648303913
 31
0.0
  0
LINE
  5
166
330
1F
100
AcDbEntity
  8
0
  6
CONTINUOUS
 62
   253
100
AcDbLine
 10
562.0346512940777
 20
34.80988648304026
 30
0.0
 11
562.0346512940777
 21
25.30988648303913
 31
0.0
  0
LINE
  5
167
330
1F
100
AcDbEntity
  8
0
  6
CONTINUOUS
 62
     7
100
AcDbLine
 10
413.9999999999999
 20
14.30988648303896
 30
0.0
 11
399.9999999999995
 21
14.30988648303896
 31
0.0
  0
ARC
  5
168
330
1F
100
AcDbEntity
  8
0
  6
CONTINUOUS
 62
     7
100
AcDbCircle
 10
404.8888142910727
 20
25.8418212098831
 30
0.0
 40
6.389240326840047
100
AcDbArc
 50
229.0263348720044
 51
245.9027553323392
  0
LINE
  5
169
330
1F
100
AcDbEntity
  8
0
  6
CONTINUOUS
 62
     7
100
AcDbLine
 10
573.1930697411825
 20
18.16207915531257
 30
0.0
 11
574.0346512940785
 21
15.04892312166638
 31
0.0
  0
LINE
  5
16A
330
1F
100
AcDbEntity
  8
0
  6
CONTINUOUS
 62
   253
100
AcDbLine
 10
571.9653487059186
 20
34.80988648304026
 30
0.0
 11
571.9653487059186
 21
25.30988648303912
 31
0.0
  0
LINE
  5
16B
330
1F
100
AcDbEntity
  8
0
  6
CONTINUOUS
 62
   253
100
AcDbLine
 10
571.9653487059186
 20
45.07084984441411
 30
0.0
 11
571.9653487059186
 21
34.80988648304026
 31
0.0
  0
LINE
  5
16C
330
1F
100
AcDbEntity
  8
0
  6
CONTINUOUS
 62
     7
100
AcDbLine
 10
548.699999999997
 20
45.80988648304156
 30
0.0
 11
548.2999999999969
 21
45.80988648304156
 31
0.0
  0
ARC
  5
16D
330
1F
100
AcDbEntity
  8
0
  6
CONTINUOUS
 62
     7
100
AcDbCircle
 10
-399.9999999999995
 20
39.30988648304015
 30
0.0
 40
6.500000000000338
210
0.0
220
0.0
230
-1.0
100
AcDbArc
 50
0.0
 51
90.0
  0
LINE
  5
16E
330
1F
100
AcDbEntity
  8
0
  6
CONTINUOUS
 62
   253
100
AcDbLine
 10
570.0346512940782
 20
34.80988648304026
 30
0.0
 11
570.0346512940782
 21
25.30988648303913
 31
0.0
  0
LINE
  5
16F
330
1F
100
AcDbEntity
  8
0
  6
CONTINUOUS
 62
     7
100
AcDbLine
 10
569.1930697411823
 20
18.16207915531257
 30
0.0
 11
570.0346512940782
 21
15.04892312166638
 31
0.0
  0
LINE
  5
170
330
1F
100
AcDbEntity
  8
0
  6
CONTINUOUS
 62
     7
100
AcDbLine
 10
557.1930697411815
 20
18.16207915531258
 30
0.0
 11
558.0346512940774
 21
15.04892312166638
 31
0.0
  0
LINE
  5
171
330
1F
100
AcDbEntity
  8
0
  6
CONTINUOUS
 62
     7
100
AcDbLine
 10
556.9999999999975
 20
34.80988648304026
 30
0.0
 11
556.9999999999975
 21
25.30988648303914
 31
0.0
  0
ARC
  5
172
330
1F
100
AcDbEntity
  8
0
  6
CONTINUOUS
 62
     7
100
AcDbCircle
 10
430.0000000000005
 20
39.30988648304015
 30
0.0
 40
5.000000000000282
100
AcDbArc
 50
0.0
 51
90.0
  0
ARC
  5
173
330
1F
100
AcDbEntity
  8
0
  6
CONTINUOUS
 62
     7
100
AcDbCircle
 10
558.9999999999976
 20
15.30988648303793
 30
0.0
 40
1.000000000000115
100
AcDbArc
 50
195.1272322703159
 51
344.8727677296841
  0
LINE
  5
174
330
1F
100
AcDbEntity
  8
0
  6
CONTINUOUS
 62
     7
100
AcDbLine
 10
514.9999999999947
 20
17.30988648303816
 30
0.0
 11
514.9999999999947
 21
16.30988648303794
 31
0.0
  0
LINE
  5
175
330
1F
100
AcDbEntity
  8
0
  6
CONTINUOUS
 62
     7
100
AcDbLine
 10
556.9999999999975
 20
41.32279315510237
 30
0.0
 11
556.9999999999975
 21
41.23351369512995
 31
0.0
  0
LINE
  5
176
330
1F
100
AcDbEntity
  8
0
  6
CONTINUOUS
 62
     7
100
AcDbLine
 10
553.8184961938831
 20
44.30988648304137
 30
0.0
 11
549.4999999999969
 21
44.30988648304137
 31
0.0
  0
LINE
  5
177
330
1F
100
AcDbEntity
  8
0
  6
CONTINUOUS
 62
     7
100
AcDbLine
 10
556.9999999999975
 20
37.59143523570773
 30
0.0
 11
556.9999999999975
 21
37.37543644242261
 31
0.0
  0
LINE
  5
178
330
1F
100
AcDbEntity
  8
0
  6
CONTINUOUS
 62
   253
100
AcDbLine
 10
537.9999999999962
 20
31.72982734523676
 30
0.0
 11
542.5999999999965
 21
31.72982734523676
 31
0.0
  0
LINE
  5
179
330
1F
100
AcDbEntity
  8
0
  6
CONTINUOUS
 62
   253
100
AcDbLine
 10
537.4999999999962
 20
32.79993150760559
 30
0.0
 11
514.9999999999948
 21
32.79993150760559
 31
0.0
  0
LINE
  5
17A
330
1F
100
AcDbEntity
  8
0
  6
CONTINUOUS
 62
     7
100
AcDbLine
 10
516.4999999999949
 20
20.30988648303853
 30
0.0
 11
535.9999999999961
 21
20.30988648303853
 31
0.0
  0
LINE
  5
17B
330
1F
100
AcDbEntity
  8
0
  6
CONTINUOUS
 62
     7
100
AcDbLine
 10
514.9999999999948
 20
41.30988648304103
 30
0.0
 11
514.9999999999948
 21
38.88994562084383
 31
0.0
  0
LINE
  5
17C
330
1F
100
AcDbEntity
  8
0
  6
CONTINUOUS
 62
     7
100
AcDbLine
 10
535.9999999999961
 20
28.30988648303947
 30
0.0
 11
516.4999999999949
 21
28.30988648303947
 31
0.0
  0
LINE
  5
17D
330
1F
100
AcDbEntity
  8
0
  6
CONTINUOUS
 62
     7
100
AcDbLine
 10
556.9999999999975
 20
37.37543644242261
 30
0.0
 11
556.9999999999975
 21
34.80988648304026
 31
0.0
  0
ARC
  5
17E
330
1F
100
AcDbEntity
  8
0
  6
CONTINUOUS
 62
     7
100
AcDbCircle
 10
-564.9999999999981
 20
18.10988648303827
 30
0.0
 40
0.2000000000000233
210
0.0
220
0.0
230
-1.0
100
AcDbArc
 50
15.12723227031626
 51
164.8727677296847
  0
LINE
  5
17F
330
1F
100
AcDbEntity
  8
0
  6
CONTINUOUS
 62
     7
100
AcDbLine
 10
544.9999999999967
 20
39.30988648304079
 30
0.0
 11
544.9999999999967
 21
19.3098864830384
 31
0.0
  0
LINE
  5
180
330
1F
100
AcDbEntity
  8
0
  6
CONTINUOUS
 62
     7
100
AcDbLine
 10
514.9999999999947
 20
16.30988648303804
 30
0.0
 11
537.4999999999962
 21
16.30988648303804
 31
0.0
  0
LINE
  5
181
330
1F
100
AcDbEntity
  8
0
  6
CONTINUOUS
 62
     7
100
AcDbLine
 10
556.9999999999975
 20
25.30988648303912
 30
0.0
 11
556.9999999999975
 21
22.74433652479508
 31
0.0
  0
LINE
  5
182
330
1F
100
AcDbEntity
  8
0
  6
CONTINUOUS
 62
     7
100
AcDbLine
 10
556.9999999999975
 20
22.52833773040455
 30
0.0
 11
556.9999999999975
 21
20.36013901473333
 31
0.0
  0
LINE
  5
183
330
1F
100
AcDbEntity
  8
0
  6
CONTINUOUS
 62
     7
100
AcDbLine
 10
542.5999999999965
 20
37.81984145847501
 30
0.0
 11
542.5999999999965
 21
32.79993150760559
 31
0.0
  0
LINE
  5
184
330
1F
100
AcDbEntity
  8
0
  6
CONTINUOUS
 62
     7
100
AcDbLine
 10
561.1930697411817
 20
41.95769381076679
 30
0.0
 11
562.0346512940777
 21
45.070849844413
 31
0.0
  0
LINE
  5
185
330
1F
100
AcDbEntity
  8
0
  6
CONTINUOUS
 62
     7
100
AcDbLine
 10
559.9653487059178
 20
15.04892312166637
 30
0.0
 11
560.8069302588136
 21
18.16207915531257
 31
0.0
  0
LINE
  5
186
330
1F
100
AcDbEntity
  8
0
  6
CONTINUOUS
 62
     7
100
AcDbLine
 10
537.4999999999962
 20
37.81984145847501
 30
0.0
 11
537.4999999999962
 21
32.79993150760559
 31
0.0
  0
ARC
  5
187
330
1F
100
AcDbEntity
  8
0
  6
CONTINUOUS
 62
     7
100
AcDbCircle
 10
-568.9999999999983
 20
18.10988648303827
 30
0.0
 40
0.2000000000000233
210
0.0
220
0.0
230
-1.0
100
AcDbArc
 50
15.12723227031626
 51
164.8727677296849
  0
LINE
  5
188
330
1F
100
AcDbEntity
  8
0
  6
CONTINUOUS
 62
     7
100
AcDbLine
 10
542.5999999999965
 20
31.72982734523676
 30
0.0
 11
542.5999999999965
 21
17.30988648303816
 31
0.0
  0
LINE
  5
189
330
1F
100
AcDbEntity
  8
0
  6
CONTINUOUS
 62
     7
100
AcDbLine
 10
556.9999999999975
 20
41.80988648304108
 30
0.0
 11
556.9999999999975
 21
41.32279315510237
 31
0.0
  0
LINE
  5
18A
330
1F
100
AcDbEntity
  8
0
  6
CONTINUOUS
 62
     7
100
AcDbLine
 10
556.9999999999975
 20
18.88625925214195
 30
0.0
 11
556.9999999999975
 21
18.79697980362708
 31
0.0
  0
LINE
  5
18B
330
1F
100
AcDbEntity
  8
0
  6
CONTINUOUS
 62
   253
100
AcDbLine
 10
563.965348705918
 20
45.07084984441411
 30
0.0
 11
563.965348705918
 21
34.80988648304026
 31
0.0
  0
LINE
  5
18C
330
1F
100
AcDbEntity
  8
0
  6
CONTINUOUS
 62
     7
100
AcDbLine
 10
544.9999999999967
 20
43.30988648304169
 30
0.0
 11
544.9999999999967
 21
39.30988648304079
 31
0.0
  0
LINE
  5
18D
330
1F
100
AcDbEntity
  8
0
  6
CONTINUOUS
 62
     7
100
AcDbLine
 10
537.9999999999962
 20
16.30988648303804
 30
0.0
 11
542.5999999999965
 21
16.30988648303804
 31
0.0
  0
LINE
  5
18E
330
1F
100
AcDbEntity
  8
0
  6
CONTINUOUS
 62
     7
100
AcDbLine
 10
537.9999999999962
 20
32.7999315076057
 30
0.0
 11
537.9999999999962
 21
31.72982734523676
 31
0.0
  0
LINE
  5
18F
330
1F
100
AcDbEntity
  8
0
  6
CONTINUOUS
 62
     7
100
AcDbLine
 10
544.9999999999967
 20
16.6641351719735
 30
0.0
 11
544.9999999999967
 21
16.30988648303804
 31
0.0
  0
LINE
  5
190
330
1F
100
AcDbEntity
  8
0
  6
CONTINUOUS
 62
     7
100
AcDbLine
 10
542.5999999999965
 20
31.72982734523676
 30
0.0
 11
542.5999999999965
 21
32.7999315076057
 31
0.0
  0
LINE
  5
191
330
1F
100
AcDbEntity
  8
0
  6
CONTINUOUS
 62
   253
100
AcDbLine
 10
542.5999999999965
 20
32.79993150760559
 30
0.0
 11
537.9999999999962
 21
32.79993150760559
 31
0.0
  0
LINE
  5
192
330
1F
100
AcDbEntity
  8
0
  6
CONTINUOUS
 62
   253
100
AcDbLine
 10
967.9653487059223
 20
34.80988648304026
 30
0.0
 11
967.9653487059223
 21
25.30988648303912
 31
0.0
  0
LINE
  5
193
330
1F
100
AcDbEntity
  8
0
  6
CONTINUOUS
 62
     7
100
AcDbLine
 10
542.5999999999965
 20
38.88994562084383
 30
0.0
 11
542.5999999999965
 21
37.8198414584749
 31
0.0
  0
ARC
  5
194
330
1F
100
AcDbEntity
  8
0
  6
CONTINUOUS
 62
     7
100
AcDbCircle
 10
572.9999999999985
 20
42.0098864830411
 30
0.0
 40
0.2000000000000233
100
AcDbArc
 50
195.1272322703162
 51
344.8727677296844
  0
ARC
  5
195
330
1F
100
AcDbEntity
  8
0
  6
CONTINUOUS
 62
     7
100
AcDbCircle
 10
-560.9999999999977
 20
18.10988648303827
 30
0.0
 40
0.2000000000000233
210
0.0
220
0.0
230
-1.0
100
AcDbArc
 50
15.12723227031626
 51
164.8727677296849
  0
LINE
  5
196
330
1F
100
AcDbEntity
  8
0
  6
CONTINUOUS
 62
     7
100
AcDbLine
 10
545.9999999999968
 20
14.3098864830378
 30
0.0
 11
548.2999999999969
 21
14.3098864830378
 31
0.0
  0
ARC
  5
197
330
1F
100
AcDbEntity
  8
0
  6
CONTINUOUS
 62
     7
100
AcDbCircle
 10
-562.999999999998
 20
44.80988648304145
 30
0.0
 40
1.000000000000231
210
0.0
220
0.0
230
-1.0
100
AcDbArc
 50
15.12723227031618
 51
164.8727677296841
  0
LINE
  5
198
330
1F
100
AcDbEntity
  8
0
  6
CONTINUOUS
 62
   253
100
AcDbLine
 10
537.9999999999962
 20
37.81984145847501
 30
0.0
 11
542.5999999999965
 21
37.81984145847501
 31
0.0
  0
LINE
  5
199
330
1F
100
AcDbEntity
  8
0
  6
CONTINUOUS
 62
     7
100
AcDbLine
 10
556.9999999999975
 20
22.74433652479508
 30
0.0
 11
556.9999999999975
 21
22.52833773040455
 31
0.0
  0
LINE
  5
19A
330
1F
100
AcDbEntity
  8
0
  6
CONTINUOUS
 62
     7
100
AcDbLine
 10
514.9999999999948
 20
37.81984145847501
 30
0.0
 11
514.9999999999948
 21
32.79993150760559
 31
0.0
  0
LINE
  5
19B
330
1F
100
AcDbEntity
  8
0
  6
CONTINUOUS
 62
     7
100
AcDbLine
 10
542.5999999999965
 20
16.30988648303793
 30
0.0
 11
542.5999999999965
 21
17.30988648303816
 31
0.0
  0
LINE
  5
19C
330
1F
100
AcDbEntity
  8
0
  6
CONTINUOUS
 62
     7
100
AcDbLine
 10
571.9653487059186
 20
15.04892312166637
 30
0.0
 11
572.8069302588144
 21
18.16207915531257
 31
0.0
  0
LINE
  5
19D
330
1F
100
AcDbEntity
  8
0
  6
CONTINUOUS
 62
     7
100
AcDbLine
 10
537.9999999999962
 20
17.30988648303816
 30
0.0
 11
537.9999999999962
 21
16.30988648303793
 31
0.0
  0
LINE
  5
19E
330
1F
100
AcDbEntity
  8
0
  6
CONTINUOUS
 62
     7
100
AcDbLine
 10
556.9999999999975
 20
20.36013901473333
 30
0.0
 11
556.9999999999975
 21
18.88625925214195
 31
0.0
  0
LINE
  5
19F
330
1F
100
AcDbEntity
  8
0
  6
CONTINUOUS
 62
     7
100
AcDbLine
 10
565.1930697411821
 20
18.16207915531257
 30
0.0
 11
566.0346512940779
 21
15.04892312166638
 31
0.0
  0
LINE
  5
1A0
330
1F
100
AcDbEntity
  8
0
  6
CONTINUOUS
 62
     7
100
AcDbLine
 10
556.9999999999975
 20
18.3098864830383
 30
0.0
 11
556.8128205860955
 21
18.18390517499138
 31
0.0
  0
LINE
  5
1A1
330
1F
100
AcDbEntity
  8
0
  6
CONTINUOUS
 62
     7
100
AcDbLine
 10
556.9999999999975
 20
18.79697980362709
 30
0.0
 11
556.9999999999975
 21
18.30988648303829
 31
0.0
  0
LINE
  5
1A2
330
1F
100
AcDbEntity
  8
0
  6
CONTINUOUS
 62
     7
100
AcDbLine
 10
537.4999999999962
 20
16.30988648303793
 30
0.0
 11
537.4999999999962
 21
17.30988648303816
 31
0.0
  0
LINE
  5
1A3
330
1F
100
AcDbEntity
  8
0
  6
CONTINUOUS
 62
     7
100
AcDbLine
 10
514.9999999999948
 20
31.72982734523676
 30
0.0
 11
514.9999999999947
 21
17.30988648303816
 31
0.0
  0
LINE
  5
1A4
330
1F
100
AcDbEntity
  8
0
  6
CONTINUOUS
 62
     7
100
AcDbLine
 10
556.9999999999975
 20
39.75963395134618
 30
0.0
 11
556.9999999999975
 21
37.59143523570773
 31
0.0
  0
LINE
  5
1A5
330
1F
100
AcDbEntity
  8
0
  6
CONTINUOUS
 62
     7
100
AcDbLine
 10
547.4999999999968
 20
44.30988648304137
 30
0.0
 11
545.9999999999968
 21
44.30988648304137
 31
0.0
  0
LINE
  5
1A6
330
1F
100
AcDbEntity
  8
0
  6
CONTINUOUS
 62
     7
100
AcDbLine
 10
542.5999999999965
 20
37.58481256078672
 30
0.0
 11
544.9999999999967
 21
37.58481256078672
 31
0.0
  0
ARC
  5
1A7
330
1F
100
AcDbEntity
  8
0
  6
CONTINUOUS
 62
     7
100
AcDbCircle
 10
545.9999999999968
 20
15.30988648303792
 30
0.0
 40
1.000000000000223
100
AcDbArc
 50
180.0
 51
269.9999999999999
  0
ARC
  5
1A8
330
1F
100
AcDbEntity
  8
0
  6
CONTINUOUS
 62
     7
100
AcDbCircle
 10
556.9999999999975
 20
42.0098864830411
 30
0.0
 40
0.2000000000000474
100
AcDbArc
 50
270.0
 51
344.8727677296841
  0
LINE
  5
1A9
330
1F
100
AcDbEntity
  8
0
  6
CONTINUOUS
 62
     7
100
AcDbLine
 10
569.1930697411823
 20
41.95769381076679
 30
0.0
 11
570.0346512940782
 21
45.070849844413
 31
0.0
  0
LINE
  5
1AA
330
1F
100
AcDbEntity
  8
0
  6
CONTINUOUS
 62
     7
100
AcDbLine
 10
516.4999999999949
 20
20.30988648303853
 30
0.0
 11
516.4999999999949
 21
28.30988648303947
 31
0.0
  0
LINE
  5
1AB
330
1F
100
AcDbEntity
  8
0
  6
CONTINUOUS
 62
     7
100
AcDbLine
 10
537.4999999999962
 20
31.72982734523676
 30
0.0
 11
537.4999999999962
 21
32.7999315076057
 31
0.0
  0
LINE
  5
1AC
330
1F
100
AcDbEntity
  8
0
  6
CONTINUOUS
 62
     7
100
AcDbLine
 10
565.1930697411821
 20
41.95769381076679
 30
0.0
 11
566.0346512940779
 21
45.070849844413
 31
0.0
  0
LINE
  5
1AD
330
1F
100
AcDbEntity
  8
0
  6
CONTINUOUS
 62
     7
100
AcDbLine
 10
557.1930697411815
 20
41.95769381076681
 30
0.0
 11
558.0346512940774
 21
45.070849844413
 31
0.0
  0
LINE
  5
1AE
330
1F
100
AcDbEntity
  8
0
  6
CONTINUOUS
 62
     7
100
AcDbLine
 10
542.5999999999965
 20
31.58481256078598
 30
0.0
 11
544.9999999999967
 21
31.58481256078598
 31
0.0
  0
ARC
  5
1AF
330
1F
100
AcDbEntity
  8
0
  6
CONTINUOUS
 62
     7
100
AcDbCircle
 10
-556.9999999999975
 20
18.10988648303827
 30
0.0
 40
0.2000000000000404
210
0.0
220
0.0
230
-1.0
100
AcDbArc
 50
90.0
 51
164.872767729684
  0
LINE
  5
1B0
330
1F
100
AcDbEntity
  8
0
  6
CONTINUOUS
 62
     7
100
AcDbLine
 10
544.9999999999967
 20
16.30988648303772
 30
0.0
 11
544.9999999999967
 21
15.30988648303749
 31
0.0
  0
LINE
  5
1B1
330
1F
100
AcDbEntity
  8
0
  6
CONTINUOUS
 62
     7
100
AcDbLine
 10
548.699999999997
 20
14.3098864830378
 30
0.0
 11
553.6463774549144
 21
14.3098864830378
 31
0.0
  0
LINE
  5
1B2
330
1F
100
AcDbEntity
  8
0
  6
CONTINUOUS
 62
     7
100
AcDbLine
 10
556.9999999999975
 20
41.23351369512995
 30
0.0
 11
556.9999999999975
 21
39.75963395134618
 31
0.0
  0
LINE
  5
1B3
330
1F
100
AcDbEntity
  8
0
  6
CONTINUOUS
 62
   253
100
AcDbLine
 10
514.9999999999948
 20
31.72982734523676
 30
0.0
 11
537.4999999999962
 21
31.72982734523676
 31
0.0
  0
LINE
  5
1B4
330
1F
100
AcDbEntity
  8
0
  6
CONTINUOUS
 62
     7
100
AcDbLine
 10
973.1641916115851
 20
41.83877485091735
 30
0.0
 11
973.1602121216034
 21
41.83625332104008
 31
0.0
  0
LINE
  5
1B5
330
1F
100
AcDbEntity
  8
0
  6
CONTINUOUS
 62
   253
100
AcDbLine
 10
966.0346512940819
 20
34.80988648304024
 30
0.0
 11
966.0346512940819
 21
25.30988648303912
 31
0.0
  0
LINE
  5
1B6
330
1F
100
AcDbEntity
  8
0
  6
CONTINUOUS
 62
     7
100
AcDbLine
 10
537.4999999999962
 20
41.80988648304108
 30
0.0
 11
537.9999999999962
 21
41.80988648304108
 31
0.0
  0
LINE
  5
1B7
330
1F
100
AcDbEntity
  8
0
  6
CONTINUOUS
 62
     7
100
AcDbLine
 10
535.9999999999961
 20
28.30988648303947
 30
0.0
 11
535.9999999999961
 21
20.30988648303853
 31
0.0
  0
ARC
  5
1B8
330
1F
100
AcDbEntity
  8
0
  6
CONTINUOUS
 62
     7
100
AcDbCircle
 10
-963.0000000000018
 20
15.30988648303792
 30
0.0
 40
1.000000000000115
210
0.0
220
0.0
230
-1.0
100
AcDbArc
 50
195.1272322703159
 51
344.8727677296841
  0
LINE
  5
1B9
330
1F
100
AcDbEntity
  8
0
  6
CONTINUOUS
 62
     7
100
AcDbLine
 10
537.4999999999962
 20
31.72982734523676
 30
0.0
 11
537.4999999999962
 21
17.30988648303816
 31
0.0
  0
LINE
  5
1BA
330
1F
100
AcDbEntity
  8
0
  6
CONTINUOUS
 62
     7
100
AcDbLine
 10
430.0000000000031
 20
119.9999999999843
 30
0.0
 11
399.9999999999969
 21
119.9999999999843
 31
0.0
  0
LINE
  5
1BB
330
1F
100
AcDbEntity
  8
0
  6
CONTINUOUS
 62
     7
100
AcDbLine
 10
397.3521926722707
 20
132.1930697411721
 30
0.0
 11
394.2390366386242
 21
133.0346512940683
 31
0.0
  0
LINE
  5
1BC
330
1F
100
AcDbEntity
  8
0
  6
CONTINUOUS
 62
     7
100
AcDbLine
 10
1015.000000000005
 20
37.81984145847501
 30
0.0
 11
1015.000000000005
 21
32.79993150760557
 31
0.0
  0
ARC
  5
1BD
330
1F
100
AcDbEntity
  8
0
  6
CONTINUOUS
 62
     7
100
AcDbCircle
 10
394.2999999999957
 20
123.6999999999854
 30
0.0
 40
0.8000000000004948
100
AcDbArc
 50
90.0
 51
180.0
  0
LINE
  5
1BE
330
1F
100
AcDbEntity
  8
0
  6
CONTINUOUS
 62
     7
100
AcDbLine
 10
973.0000000000025
 20
41.80988648304108
 30
0.0
 11
973.0000000000025
 21
41.32279316180342
 31
0.0
  0
LINE
  5
1BF
330
1F
100
AcDbEntity
  8
0
  6
CONTINUOUS
 62
     7
100
AcDbLine
 10
962.0346512940816
 20
45.070849844413
 30
0.0
 11
961.1930697411857
 21
41.95769381076679
 31
0.0
  0
LINE
  5
1C0
330
1F
100
AcDbEntity
  8
0
  6
CONTINUOUS
 62
     7
100
AcDbLine
 10
394.2999999999945
 20
124.4999999999857
 30
0.0
 11
399.9999999999969
 21
124.4999999999857
 31
0.0
  0
LINE
  5
1C1
330
1F
100
AcDbEntity
  8
0
  6
CONTINUOUS
 62
   253
100
AcDbLine
 10
425.5000000000022
 20
142.9653487059116
 30
0.0
 11
404.4999999999978
 21
142.9653487059116
 31
0.0
  0
ARC
  5
1C2
330
1F
100
AcDbEntity
  8
0
  6
CONTINUOUS
 62
     7
100
AcDbCircle
 10
-435.7000000000044
 20
123.6999999999854
 30
0.0
 40
0.8000000000004948
210
0.0
220
0.0
230
-1.0
100
AcDbArc
 50
90.0
 51
180.0
  0
ARC
  5
1C3
330
1F
100
AcDbEntity
  8
0
  6
CONTINUOUS
 62
     7
100
AcDbCircle
 10
-435.7000000000044
 20
123.2999999999853
 30
0.0
 40
0.8000000000003005
210
0.0
220
0.0
230
-1.0
100
AcDbArc
 50
180.0
 51
270.0
  0
LINE
  5
1C4
330
1F
100
AcDbEntity
  8
0
  6
CONTINUOUS
 62
     7
100
AcDbLine
 10
432.6478073277294
 20
140.1930697411746
 30
0.0
 11
435.7609633613758
 21
141.0346512940708
 31
0.0
  0
LINE
  5
1C5
330
1F
100
AcDbEntity
  8
0
  6
CONTINUOUS
 62
     7
100
AcDbLine
 10
432.6478073277294
 20
136.1930697411734
 30
0.0
 11
435.7609633613758
 21
137.0346512940695
 31
0.0
  0
LINE
  5
1C6
330
1F
100
AcDbEntity
  8
0
  6
CONTINUOUS
 62
     7
100
AcDbLine
 10
436.5000000000045
 20
123.6999999999854
 30
0.0
 11
436.5000000000045
 21
123.2999999999853
 31
0.0
  0
LINE
  5
1C7
330
1F
100
AcDbEntity
  8
0
  6
CONTINUOUS
 62
     7
100
AcDbLine
 10
397.3521926722707
 20
140.1930697411746
 30
0.0
 11
394.2390366386242
 21
141.0346512940708
 31
0.0
  0
LINE
  5
1C8
330
1F
100
AcDbEntity
  8
0
  6
CONTINUOUS
 62
     7
100
AcDbLine
 10
435.7609633613758
 20
138.9653487059104
 30
0.0
 11
432.6478073277294
 21
139.8069302588065
 31
0.0
  0
ARC
  5
1C9
330
1F
100
AcDbEntity
  8
0
  6
CONTINUOUS
 62
     7
100
AcDbCircle
 10
-395.9999999999961
 20
120.9999999999846
 30
0.0
 40
1.000000000000612
210
0.0
220
0.0
230
-1.0
100
AcDbArc
 50
270.0
 51
359.9999999999998
  0
LINE
  5
1CA
330
1F
100
AcDbEntity
  8
0
  6
CONTINUOUS
 62
   253
100
AcDbLine
 10
1015.000000000005
 20
32.79993150760557
 30
0.0
 11
985.5000000000033
 21
32.79993150760559
 31
0.0
  0
LINE
  5
1CB
330
1F
100
AcDbEntity
  8
0
  6
CONTINUOUS
 62
   253
100
AcDbLine
 10
425.5000000000022
 20
133.0346512940683
 30
0.0
 11
435.7609633613781
 21
133.0346512940683
 31
0.0
  0
LINE
  5
1CC
330
1F
100
AcDbEntity
  8
0
  6
CONTINUOUS
 62
   253
100
AcDbLine
 10
425.5000000000022
 20
146.9653487059129
 30
0.0
 11
435.7609633613781
 21
146.9653487059129
 31
0.0
  0
ARC
  5
1CD
330
1F
100
AcDbEntity
  8
0
  6
CONTINUOUS
 62
     7
100
AcDbCircle
 10
435.5000000000043
 20
137.9999999999899
 30
0.0
 40
1.000000000000597
100
AcDbArc
 50
285.1272322703146
 51
74.87276772968278
  0
LINE
  5
1CE
330
1F
100
AcDbEntity
  8
0
  6
CONTINUOUS
 62
     7
100
AcDbLine
 10
430.0000000000031
 20
122.499999999985
 30
0.0
 11
399.9999999999969
 21
122.499999999985
 31
0.0
  0
LINE
  5
1CF
330
1F
100
AcDbEntity
  8
0
  6
CONTINUOUS
 62
     7
100
AcDbLine
 10
435.7609633613758
 20
146.9653487059129
 30
0.0
 11
432.6478073277294
 21
147.806930258809
 31
0.0
  0
LINE
  5
1D0
330
1F
100
AcDbEntity
  8
0
  6
CONTINUOUS
 62
     7
100
AcDbLine
 10
397.3521926722707
 20
148.1930697411772
 30
0.0
 11
394.2390366386242
 21
149.0346512940733
 31
0.0
  0
LINE
  5
1D1
330
1F
100
AcDbEntity
  8
0
  6
CONTINUOUS
 62
     7
100
AcDbLine
 10
394.2390366386242
 20
134.9653487059091
 30
0.0
 11
397.3521926722707
 21
135.8069302588052
 31
0.0
  0
LINE
  5
1D2
330
1F
100
AcDbEntity
  8
0
  6
CONTINUOUS
 62
   253
100
AcDbLine
 10
425.5000000000022
 20
145.034651294072
 30
0.0
 11
404.4999999999978
 21
145.034651294072
 31
0.0
  0
ARC
  5
1D3
330
1F
100
AcDbEntity
  8
0
  6
CONTINUOUS
 62
     7
100
AcDbCircle
 10
-394.4999999999958
 20
141.9999999999912
 30
0.0
 40
1.000000000000624
210
0.0
220
0.0
230
-1.0
100
AcDbArc
 50
285.1272322703142
 51
74.87276772968238
  0
ARC
  5
1D4
330
1F
100
AcDbEntity
  8
0
  6
CONTINUOUS
 62
     7
100
AcDbCircle
 10
394.2999999999957
 20
123.2999999999853
 30
0.0
 40
0.8000000000003005
100
AcDbArc
 50
180.0
 51
270.0
  0
LINE
  5
1D5
330
1F
100
AcDbEntity
  8
0
  6
CONTINUOUS
 62
   253
100
AcDbLine
 10
404.4999999999978
 20
145.034651294072
 30
0.0
 11
394.239036638622
 21
145.034651294072
 31
0.0
  0
LINE
  5
1D6
330
1F
100
AcDbEntity
  8
0
  6
CONTINUOUS
 62
   253
100
AcDbLine
 10
404.4999999999978
 20
138.9653487059104
 30
0.0
 11
394.2390366386219
 21
138.9653487059104
 31
0.0
  0
LINE
  5
1D7
330
1F
100
AcDbEntity
  8
0
  6
CONTINUOUS
 62
   253
100
AcDbLine
 10
425.5000000000022
 20
141.0346512940708
 30
0.0
 11
404.4999999999978
 21
141.0346512940708
 31
0.0
  0
LINE
  5
1D8
330
1F
100
AcDbEntity
  8
0
  6
CONTINUOUS
 62
   253
100
AcDbLine
 10
425.5000000000022
 20
134.9653487059091
 30
0.0
 11
435.7609633613781
 21
134.9653487059091
 31
0.0
  0
LINE
  5
1D9
330
1F
100
AcDbEntity
  8
0
  6
CONTINUOUS
 62
     7
100
AcDbLine
 10
399.9999999999969
 20
124.4999999999857
 30
0.0
 11
430.0000000000031
 21
124.4999999999857
 31
0.0
  0
LINE
  5
1DA
330
1F
100
AcDbEntity
  8
0
  6
CONTINUOUS
 62
     7
100
AcDbLine
 10
393.4999999999956
 20
123.6999999999854
 30
0.0
 11
393.4999999999956
 21
123.2999999999853
 31
0.0
  0
LINE
  5
1DB
330
1F
100
AcDbEntity
  8
0
  6
CONTINUOUS
 62
     7
100
AcDbLine
 10
435.7609633613758
 20
142.9653487059116
 30
0.0
 11
432.6478073277294
 21
143.8069302588077
 31
0.0
  0
LINE
  5
1DC
330
1F
100
AcDbEntity
  8
0
  6
CONTINUOUS
 62
   253
100
AcDbLine
 10
404.4999999999978
 20
133.0346512940683
 30
0.0
 11
394.2390366386219
 21
133.0346512940683
 31
0.0
  0
LINE
  5
1DD
330
1F
100
AcDbEntity
  8
0
  6
CONTINUOUS
 62
     7
100
AcDbLine
 10
394.2390366386242
 20
142.9653487059116
 30
0.0
 11
397.3521926722707
 21
143.8069302588077
 31
0.0
  0
ARC
  5
1DE
330
1F
100
AcDbEntity
  8
0
  6
CONTINUOUS
 62
     7
100
AcDbCircle
 10
-394.4999999999958
 20
145.9999999999925
 30
0.0
 40
1.000000000000624
210
0.0
220
0.0
230
-1.0
100
AcDbArc
 50
285.1272322703142
 51
74.87276772968232
  0
LINE
  5
1DF
330
1F
100
AcDbEntity
  8
0
  6
CONTINUOUS
 62
   253
100
AcDbLine
 10
425.5000000000022
 20
142.9653487059116
 30
0.0
 11
435.7609633613781
 21
142.9653487059116
 31
0.0
  0
LINE
  5
1E0
330
1F
100
AcDbEntity
  8
0
  6
CONTINUOUS
 62
     7
100
AcDbLine
 10
399.9999999999969
 20
122.499999999985
 30
0.0
 11
394.2999999999945
 21
122.499999999985
 31
0.0
  0
LINE
  5
1E1
330
1F
100
AcDbEntity
  8
0
  6
CONTINUOUS
 62
     7
100
AcDbLine
 10
432.6478073277294
 20
132.1930697411721
 30
0.0
 11
435.7609633613758
 21
133.0346512940683
 31
0.0
  0
LINE
  5
1E2
330
1F
100
AcDbEntity
  8
0
  6
CONTINUOUS
 62
     7
100
AcDbLine
 10
394.2390366386242
 20
146.9653487059129
 30
0.0
 11
397.3521926722707
 21
147.806930258809
 31
0.0
  0
ARC
  5
1E3
330
1F
100
AcDbEntity
  8
0
  6
CONTINUOUS
 62
     7
100
AcDbCircle
 10
435.5000000000043
 20
133.9999999999887
 30
0.0
 40
1.000000000000597
100
AcDbArc
 50
285.1272322703146
 51
74.87276772968278
  0
LINE
  5
1E4
330
1F
100
AcDbEntity
  8
0
  6
CONTINUOUS
 62
   253
100
AcDbLine
 10
404.4999999999978
 20
134.9653487059091
 30
0.0
 11
394.2390366386219
 21
134.9653487059091
 31
0.0
  0
LINE
  5
1E5
330
1F
100
AcDbEntity
  8
0
  6
CONTINUOUS
 62
   253
100
AcDbLine
 10
404.4999999999978
 20
141.0346512940708
 30
0.0
 11
394.239036638622
 21
141.0346512940708
 31
0.0
  0
LINE
  5
1E6
330
1F
100
AcDbEntity
  8
0
  6
CONTINUOUS
 62
   253
100
AcDbLine
 10
404.4999999999978
 20
142.9653487059116
 30
0.0
 11
394.2390366386219
 21
142.9653487059116
 31
0.0
  0
ARC
  5
1E7
330
1F
100
AcDbEntity
  8
0
  6
CONTINUOUS
 62
     7
100
AcDbCircle
 10
-394.4999999999957
 20
133.9999999999887
 30
0.0
 40
1.000000000000597
210
0.0
220
0.0
230
-1.0
100
AcDbArc
 50
285.1272322703146
 51
74.87276772968278
  0
LINE
  5
1E8
330
1F
100
AcDbEntity
  8
0
  6
CONTINUOUS
 62
   253
100
AcDbLine
 10
425.5000000000022
 20
137.0346512940695
 30
0.0
 11
435.7609633613781
 21
137.0346512940695
 31
0.0
  0
LINE
  5
1E9
330
1F
100
AcDbEntity
  8
0
  6
CONTINUOUS
 62
   253
100
AcDbLine
 10
425.5000000000022
 20
141.0346512940708
 30
0.0
 11
435.7609633613781
 21
141.0346512940708
 31
0.0
  0
LINE
  5
1EA
330
1F
100
AcDbEntity
  8
0
  6
CONTINUOUS
 62
   253
100
AcDbLine
 10
425.5000000000022
 20
138.9653487059104
 30
0.0
 11
435.7609633613781
 21
138.9653487059104
 31
0.0
  0
LINE
  5
1EB
330
1F
100
AcDbEntity
  8
0
  6
CONTINUOUS
 62
     7
100
AcDbLine
 10
430.0000000000031
 20
122.499999999985
 30
0.0
 11
435.7000000000055
 21
122.499999999985
 31
0.0
  0
LINE
  5
1EC
330
1F
100
AcDbEntity
  8
0
  6
CONTINUOUS
 62
     7
100
AcDbLine
 10
397.3521926722707
 20
144.1930697411759
 30
0.0
 11
394.2390366386242
 21
145.034651294072
 31
0.0
  0
LINE
  5
1ED
330
1F
100
AcDbEntity
  8
0
  6
CONTINUOUS
 62
     7
100
AcDbLine
 10
394.2390366386242
 20
138.9653487059104
 30
0.0
 11
397.3521926722707
 21
139.8069302588065
 31
0.0
  0
LINE
  5
1EE
330
1F
100
AcDbEntity
  8
0
  6
CONTINUOUS
 62
     7
100
AcDbLine
 10
432.6478073277294
 20
144.1930697411759
 30
0.0
 11
435.7609633613758
 21
145.034651294072
 31
0.0
  0
ARC
  5
1EF
330
1F
100
AcDbEntity
  8
0
  6
CONTINUOUS
 62
     7
100
AcDbCircle
 10
-394.4999999999958
 20
137.9999999999899
 30
0.0
 40
1.000000000000624
210
0.0
220
0.0
230
-1.0
100
AcDbArc
 50
285.1272322703142
 51
74.87276772968232
  0
LINE
  5
1F0
330
1F
100
AcDbEntity
  8
0
  6
CONTINUOUS
 62
     7
100
AcDbLine
 10
432.6478073277294
 20
148.1930697411772
 30
0.0
 11
435.7609633613758
 21
149.0346512940733
 31
0.0
  0
ARC
  5
1F1
330
1F
100
AcDbEntity
  8
0
  6
CONTINUOUS
 62
     7
100
AcDbCircle
 10
435.5000000000043
 20
141.9999999999912
 30
0.0
 40
1.000000000000597
100
AcDbArc
 50
285.1272322703146
 51
74.87276772968283
  0
ARC
  5
1F2
330
1F
100
AcDbEntity
  8
0
  6
CONTINUOUS
 62
     7
100
AcDbCircle
 10
435.5000000000043
 20
145.9999999999924
 30
0.0
 40
1.000000000000597
100
AcDbArc
 50
285.1272322703146
 51
74.87276772968278
  0
LINE
  5
1F3
330
1F
100
AcDbEntity
  8
0
  6
CONTINUOUS
 62
   253
100
AcDbLine
 10
425.5000000000022
 20
137.0346512940695
 30
0.0
 11
404.4999999999978
 21
137.0346512940695
 31
0.0
  0
LINE
  5
1F4
330
1F
100
AcDbEntity
  8
0
  6
CONTINUOUS
 62
     7
100
AcDbLine
 10
435.7000000000056
 20
124.4999999999857
 30
0.0
 11
430.0000000000031
 21
124.4999999999857
 31
0.0
  0
LINE
  5
1F5
330
1F
100
AcDbEntity
  8
0
  6
CONTINUOUS
 62
     7
100
AcDbLine
 10
435.7609633613758
 20
134.9653487059091
 30
0.0
 11
432.6478073277294
 21
135.8069302588052
 31
0.0
  0
LINE
  5
1F6
330
1F
100
AcDbEntity
  8
0
  6
CONTINUOUS
 62
   253
100
AcDbLine
 10
427.289155754701
 20
130.5972652442142
 30
0.0
 11
427.2893192883633
 21
130.597035235324
 31
0.0
  0
LINE
  5
1F7
330
1F
100
AcDbEntity
  8
0
  6
CONTINUOUS
 62
     7
100
AcDbLine
 10
397.3521926722707
 20
136.1930697411734
 30
0.0
 11
394.2390366386242
 21
137.0346512940695
 31
0.0
  0
LINE
  5
1F8
330
1F
100
AcDbEntity
  8
0
  6
CONTINUOUS
 62
     7
100
AcDbLine
 10
394.9999999999959
 20
120.9999999999846
 30
0.0
 11
394.9999999999959
 21
122.499999999985
 31
0.0
  0
LINE
  5
1F9
330
1F
100
AcDbEntity
  8
0
  6
CONTINUOUS
 62
     7
100
AcDbLine
 10
985.5000000000033
 20
16.30988648303804
 30
0.0
 11
1015.000000000005
 21
16.30988648303804
 31
0.0
  0
ARC
  5
1FA
330
1F
100
AcDbEntity
  8
0
  6
CONTINUOUS
 62
     7
100
AcDbCircle
 10
-961.0000000000018
 20
42.0098864830411
 30
0.0
 40
0.2000000000000233
210
0.0
220
0.0
230
-1.0
100
AcDbArc
 50
195.1272322703162
 51
344.8727677296844
  0
LINE
  5
1FB
330
1F
100
AcDbEntity
  8
0
  6
CONTINUOUS
 62
     7
100
AcDbLine
 10
547.4999999999968
 20
39.30988648304079
 30
0.0
 11
547.4999999999968
 21
19.3098864830384
 31
0.0
  0
LINE
  5
1FC
330
1F
100
AcDbEntity
  8
0
  6
CONTINUOUS
 62
     7
100
AcDbLine
 10
1013.500000000005
 20
28.30988648303947
 30
0.0
 11
987.0000000000035
 21
28.30988648303947
 31
0.0
  0
LINE
  5
1FD
330
1F
100
AcDbEntity
  8
0
  6
CONTINUOUS
 62
     7
100
AcDbLine
 10
976.181503806117
 20
44.30988648304137
 30
0.0
 11
980.5000000000031
 21
44.30988648304137
 31
0.0
  0
LINE
  5
1FE
330
1F
100
AcDbEntity
  8
0
  6
CONTINUOUS
 62
     7
100
AcDbLine
 10
968.8069302588183
 20
41.95769381076679
 30
0.0
 11
967.9653487059223
 21
45.070849844413
 31
0.0
  0
LINE
  5
1FF
330
1F
100
AcDbEntity
  8
0
  6
CONTINUOUS
 62
     7
100
AcDbLine
 10
973.0000000000025
 20
41.8098864830411
 30
0.0
 11
973.1637077053256
 21
41.83854294099132
 31
0.0
  0
LINE
  5
200
330
1F
100
AcDbEntity
  8
0
  6
CONTINUOUS
 62
     7
100
AcDbLine
 10
982.5000000000032
 20
44.30988648304137
 30
0.0
 11
984.0000000000033
 21
44.30988648304137
 31
0.0
  0
LINE
  5
201
330
1F
100
AcDbEntity
  8
0
  6
CONTINUOUS
 62
     7
100
AcDbLine
 10
960.8069302588178
 20
18.16207915531257
 30
0.0
 11
959.9653487059219
 21
15.04892312166637
 31
0.0
  0
LINE
  5
202
330
1F
100
AcDbEntity
  8
0
  6
CONTINUOUS
 62
   253
100
AcDbLine
 10
567.9653487059182
 20
25.30988648303912
 30
0.0
 11
567.9653487059182
 21
15.04892312166527
 31
0.0
  0
LINE
  5
203
330
1F
100
AcDbEntity
  8
0
  6
CONTINUOUS
 62
     7
100
AcDbLine
 10
1015.000000000005
 20
31.72982734523676
 30
0.0
 11
1015.000000000005
 21
32.7999315076057
 31
0.0
  0
LINE
  5
204
330
1F
100
AcDbEntity
  8
0
  6
CONTINUOUS
 62
     7
100
AcDbLine
 10
973.0000000000025
 20
41.32279316180342
 30
0.0
 11
973.0000000000025
 21
41.23351369329902
 31
0.0
  0
LINE
  5
205
330
1F
100
AcDbEntity
  8
0
  6
CONTINUOUS
 62
     7
100
AcDbLine
 10
956.8069302588174
 20
41.95769381076679
 30
0.0
 11
955.9653487059215
 21
45.070849844413
 31
0.0
  0
LINE
  5
206
330
1F
100
AcDbEntity
  8
0
  6
CONTINUOUS
 62
     7
100
AcDbLine
 10
547.4999999999968
 20
45.00988648304206
 30
0.0
 11
547.4999999999968
 21
39.30988648304079
 31
0.0
  0
LINE
  5
207
330
1F
100
AcDbEntity
  8
0
  6
CONTINUOUS
 62
     7
100
AcDbLine
 10
958.0346512940814
 20
45.070849844413
 30
0.0
 11
957.1930697411855
 21
41.95769381076679
 31
0.0
  0
ARC
  5
208
330
1F
100
AcDbEntity
  8
0
  6
CONTINUOUS
 62
     7
100
AcDbCircle
 10
566.9999999999982
 20
15.30988648303792
 30
0.0
 40
1.000000000000229
100
AcDbArc
 50
195.1272322703158
 51
344.8727677296841
  0
ARC
  5
209
330
1F
100
AcDbEntity
  8
0
  6
CONTINUOUS
 62
     7
100
AcDbCircle
 10
-957.0000000000014
 20
42.0098864830411
 30
0.0
 40
0.2000000000000233
210
0.0
220
0.0
230
-1.0
100
AcDbArc
 50
195.1272322703162
 51
344.8727677296855
  0
LINE
  5
20A
330
1F
100
AcDbEntity
  8
0
  6
CONTINUOUS
 62
     7
100
AcDbLine
 10
1015.000000000005
 20
16.30988648303792
 30
0.0
 11
1015.000000000005
 21
17.30988648303816
 31
0.0
  0
ARC
  5
20B
330
1F
100
AcDbEntity
  8
0
  6
CONTINUOUS
 62
     7
100
AcDbCircle
 10
965.000000000002
 20
18.10988648303826
 30
0.0
 40
0.2000000000000233
100
AcDbArc
 50
15.12723227031626
 51
164.872767729686
  0
LINE
  5
20C
330
1F
100
AcDbEntity
  8
0
  6
CONTINUOUS
 62
   253
100
AcDbLine
 10
974.402734755776
 20
43.46230890161736
 30
0.0
 11
974.4029647646662
 21
43.46263515688811
 31
0.0
  0
LINE
  5
20D
330
1F
100
AcDbEntity
  8
0
  6
CONTINUOUS
 62
     7
100
AcDbLine
 10
985.0000000000034
 20
39.30988648304078
 30
0.0
 11
985.0000000000034
 21
19.30988648303839
 31
0.0
  0
LINE
  5
20E
330
1F
100
AcDbEntity
  8
0
  6
CONTINUOUS
 62
     7
100
AcDbLine
 10
547.4999999999968
 20
19.3098864830384
 30
0.0
 11
547.4999999999968
 21
15.47079081406084
 31
0.0
  0
LINE
  5
20F
330
1F
100
AcDbEntity
  8
0
  6
CONTINUOUS
 62
     7
100
AcDbLine
 10
973.0000000000025
 20
18.79697980481163
 30
0.0
 11
973.0000000000025
 21
18.30988648303829
 31
0.0
  0
ARC
  5
210
330
1F
100
AcDbEntity
  8
0
  6
CONTINUOUS
 62
     7
100
AcDbCircle
 10
984.0000000000033
 20
43.30988648304125
 30
0.0
 40
1.000000000000112
100
AcDbArc
 50
0.0
 51
90.0
  0
LINE
  5
211
330
1F
100
AcDbEntity
  8
0
  6
CONTINUOUS
 62
     7
100
AcDbLine
 10
981.3000000000031
 20
14.3098864830378
 30
0.0
 11
976.3536225450857
 21
14.3098864830378
 31
0.0
  0
ARC
  5
212
330
1F
100
AcDbEntity
  8
0
  6
CONTINUOUS
 62
     7
100
AcDbCircle
 10
-548.699999999997
 20
15.1098864830379
 30
0.0
 40
0.8000000000001263
210
0.0
220
0.0
230
-1.0
100
AcDbArc
 50
225.4076679022082
 51
269.9999999999998
  0
LINE
  5
213
330
1F
100
AcDbEntity
  8
0
  6
CONTINUOUS
 62
     7
100
AcDbLine
 10
985.0000000000034
 20
16.3098864830377
 30
0.0
 11
985.0000000000034
 21
15.30988648303748
 31
0.0
  0
ARC
  5
214
330
1F
100
AcDbEntity
  8
0
  6
CONTINUOUS
 62
     7
100
AcDbCircle
 10
548.699999999997
 20
45.00988648304146
 30
0.0
 40
0.8000000000000229
100
AcDbArc
 50
0.0
 51
89.99999999999996
  0
LINE
  5
215
330
1F
100
AcDbEntity
  8
0
  6
CONTINUOUS
 62
     7
100
AcDbLine
 10
985.5000000000033
 20
32.16487169858914
 30
0.0
 11
985.0000000000034
 21
32.16487169858914
 31
0.0
  0
LINE
  5
216
330
1F
100
AcDbEntity
  8
0
  6
CONTINUOUS
 62
     7
100
AcDbLine
 10
987.0000000000034
 20
20.30988648303852
 30
0.0
 11
987.0000000000034
 21
28.30988648303947
 31
0.0
  0
LINE
  5
217
330
1F
100
AcDbEntity
  8
0
  6
CONTINUOUS
 62
     7
100
AcDbLine
 10
985.0000000000034
 20
16.30988648303804
 30
0.0
 11
985.0000000000034
 21
16.66413517197349
 31
0.0
  0
LINE
  5
218
330
1F
100
AcDbEntity
  8
0
  6
CONTINUOUS
 62
     7
100
AcDbLine
 10
973.0000000000025
 20
37.59143523569649
 30
0.0
 11
973.0000000000025
 21
37.37543644238353
 31
0.0
  0
LINE
  5
219
330
1F
100
AcDbEntity
  8
0
  6
CONTINUOUS
 62
     7
100
AcDbLine
 10
973.0000000000025
 20
22.74433652367835
 30
0.0
 11
973.0000000000025
 21
22.52833773040452
 31
0.0
  0
LINE
  5
21A
330
1F
100
AcDbEntity
  8
0
  6
CONTINUOUS
 62
     7
100
AcDbLine
 10
976.0373361806951
 20
44.30988648304137
 30
0.0
 11
976.181503806117
 21
44.30988648304137
 31
0.0
  0
ARC
  5
21B
330
1F
100
AcDbEntity
  8
0
  6
CONTINUOUS
 62
     7
100
AcDbCircle
 10
-984.0000000000033
 20
15.30988648303792
 30
0.0
 40
1.000000000000112
210
0.0
220
0.0
230
-1.0
100
AcDbArc
 50
180.0
 51
270.0
  0
ARC
  5
21C
330
1F
100
AcDbEntity
  8
0
  6
CONTINUOUS
 62
     7
100
AcDbCircle
 10
548.2999999999969
 20
45.00988648304146
 30
0.0
 40
0.8000000000001894
100
AcDbArc
 50
90.0
 51
180.0
  0
LINE
  5
21D
330
1F
100
AcDbEntity
  8
0
  6
CONTINUOUS
 62
     7
100
AcDbLine
 10
962.0346512940816
 20
15.04892312166637
 30
0.0
 11
961.1930697411857
 21
18.16207915531257
 31
0.0
  0
LINE
  5
21E
330
1F
100
AcDbEntity
  8
0
  6
CONTINUOUS
 62
     7
100
AcDbLine
 10
976.3536225450857
 20
14.3098864830378
 30
0.0
 11
976.2782681849073
 21
14.3098864830378
 31
0.0
  0
ARC
  5
21F
330
1F
100
AcDbEntity
  8
0
  6
CONTINUOUS
 62
     7
100
AcDbCircle
 10
969.0000000000023
 20
18.10988648303826
 30
0.0
 40
0.2000000000000233
100
AcDbArc
 50
15.12723227031626
 51
164.872767729686
  0
LINE
  5
220
330
1F
100
AcDbEntity
  8
0
  6
CONTINUOUS
 62
     7
100
AcDbLine
 10
972.8069302588185
 20
41.95769381076679
 30
0.0
 11
971.9653487059227
 21
45.07084984441299
 31
0.0
  0
LINE
  5
221
330
1F
100
AcDbEntity
  8
0
  6
CONTINUOUS
 62
     7
100
AcDbLine
 10
985.5000000000033
 20
38.88994562084383
 30
0.0
 11
985.5000000000033
 21
41.30988648304101
 31
0.0
  0
LINE
  5
222
330
1F
100
AcDbEntity
  8
0
  6
CONTINUOUS
 62
     7
100
AcDbLine
 10
1015.000000000005
 20
42.30988648304114
 30
0.0
 11
985.5000000000033
 21
42.30988648304114
 31
0.0
  0
LINE
  5
223
330
1F
100
AcDbEntity
  8
0
  6
CONTINUOUS
 62
     7
100
AcDbLine
 10
548.699999999997
 20
14.3098864830378
 30
0.0
 11
548.2999999999969
 21
14.3098864830378
 31
0.0
  0
LINE
  5
224
330
1F
100
AcDbEntity
  8
0
  6
CONTINUOUS
 62
     7
100
AcDbLine
 10
984.0000000000033
 20
14.3098864830378
 30
0.0
 11
981.7000000000031
 21
14.3098864830378
 31
0.0
  0
LINE
  5
225
330
1F
100
AcDbEntity
  8
0
  6
CONTINUOUS
 62
     7
100
AcDbLine
 10
549.4999999999969
 20
19.3098864830384
 30
0.0
 11
549.4999999999969
 21
39.30988648304079
 31
0.0
  0
SPLINE
  5
226
330
1F
100
AcDbEntity
  8
0
  6
CONTINUOUS
 62
     7
100
AcDbSpline
210
0.0
220
0.0
230
1.0
 70
     8
 71
     3
 72
    13
 73
     9
 74
     0
 42
0.000000001
 43
0.0001
 40
0.318166797452182
 40
0.318166797452182
 40
0.318166797452182
 40
0.318166797452182
 40
0.3412896484908245
 40
0.3781571831030865
 40
0.4150247177153485
 40
0.4150247177153485
 40
0.4150247177153485
 40
0.9493877818141186
 40
0.9493877818141186
 40
0.9493877818141186
 40
0.9493877818141186
 10
973.1637077053255
 20
41.83854294099132
 30
0.0
 10
973.1857243017388
 20
41.84908205159233
 30
0.0
 10
973.2415676184312
 20
41.88014845592978
 30
0.0
 10
973.3240407603025
 20
41.94502044326904
 30
0.0
 10
973.3765548161324
 20
42.00605957226763
 30
0.0
 10
973.3996241592575
 20
42.03879721812924
 30
0.0
 10
973.7339943580969
 20
42.51330111262527
 30
0.0
 10
974.0683645569366
 20
42.98780500712131
 30
0.0
 10
974.402734755776
 20
43.46230890161736
 30
0.0
  0
LINE
  5
227
330
1F
100
AcDbEntity
  8
0
  6
CONTINUOUS
 62
     7
100
AcDbLine
 10
985.0000000000034
 20
43.30988648304168
 30
0.0
 11
985.0000000000034
 21
39.30988648304078
 31
0.0
  0
LINE
  5
228
330
1F
100
AcDbEntity
  8
0
  6
CONTINUOUS
 62
     7
100
AcDbLine
 10
1015.000000000005
 20
31.72982734523676
 30
0.0
 11
1015.000000000005
 21
17.30988648303816
 31
0.0
  0
LINE
  5
229
330
1F
100
AcDbEntity
  8
0
  6
CONTINUOUS
 62
     7
100
AcDbLine
 10
960.8069302588178
 20
41.95769381076679
 30
0.0
 11
959.9653487059219
 21
45.070849844413
 31
0.0
  0
ARC
  5
22A
330
1F
100
AcDbEntity
  8
0
  6
CONTINUOUS
 62
   253
100
AcDbCircle
 10
-976.2782682531607
 20
16.30988618954585
 30
0.0
 40
1.999999706508057
210
0.0
220
0.0
230
-1.0
100
AcDbArc
 50
270.0000019553162
 51
335.1837442597889
  0
LINE
  5
22B
330
1F
100
AcDbEntity
  8
0
  6
CONTINUOUS
 62
     7
100
AcDbLine
 10
973.0000000000025
 20
25.30988648303912
 30
0.0
 11
973.0000000000025
 21
22.74433652367835
 31
0.0
  0
LINE
  5
22C
330
1F
100
AcDbEntity
  8
0
  6
CONTINUOUS
 62
     7
100
AcDbLine
 10
956.8069302588174
 20
18.16207915531257
 30
0.0
 11
955.9653487059215
 21
15.04892312166637
 31
0.0
  0
LINE
  5
22D
330
1F
100
AcDbEntity
  8
0
  6
CONTINUOUS
 62
     7
100
AcDbLine
 10
973.1871794139042
 20
18.18390517499152
 30
0.0
 11
974.4629320916631
 21
15.47050935261693
 31
0.0
  0
ARC
  5
22E
330
1F
100
AcDbEntity
  8
0
  6
CONTINUOUS
 62
     7
100
AcDbCircle
 10
961.0000000000018
 20
18.10988648303826
 30
0.0
 40
0.1999999999998035
100
AcDbArc
 50
15.12723227032713
 51
164.8727677296958
  0
LINE
  5
22F
330
1F
100
AcDbEntity
  8
0
  6
CONTINUOUS
 62
     7
100
AcDbLine
 10
1015.000000000005
 20
41.30988648304101
 30
0.0
 11
1015.000000000005
 21
42.30988648304125
 31
0.0
  0
LINE
  5
230
330
1F
100
AcDbEntity
  8
0
  6
CONTINUOUS
 62
   253
100
AcDbLine
 10
566.0346512940779
 20
25.30988648303913
 30
0.0
 11
566.0346512940779
 21
15.04892312166527
 31
0.0
  0
LINE
  5
231
330
1F
100
AcDbEntity
  8
0
  6
CONTINUOUS
 62
   253
100
AcDbLine
 10
985.5000000000033
 20
31.72982734523676
 30
0.0
 11
1015.000000000005
 21
31.72982734523676
 31
0.0
  0
ARC
  5
232
330
1F
100
AcDbEntity
  8
0
  6
CONTINUOUS
 62
     7
100
AcDbCircle
 10
973.0000000000025
 20
18.10988648303826
 30
0.0
 40
0.2000000000000474
100
AcDbArc
 50
90.0
 51
164.8727677296841
  0
LINE
  5
233
330
1F
100
AcDbEntity
  8
0
  6
CONTINUOUS
 62
     7
100
AcDbLine
 10
964.806930258818
 20
41.95769381076679
 30
0.0
 11
963.9653487059221
 21
45.070849844413
 31
0.0
  0
LINE
  5
234
330
1F
100
AcDbEntity
  8
0
  6
CONTINUOUS
 62
     7
100
AcDbLine
 10
549.4999999999969
 20
15.47079081406084
 30
0.0
 11
549.4999999999969
 21
19.3098864830384
 31
0.0
  0
LINE
  5
235
330
1F
100
AcDbEntity
  8
0
  6
CONTINUOUS
 62
     7
100
AcDbLine
 10
985.0000000000034
 20
19.30988648303839
 30
0.0
 11
985.0000000000034
 21
16.66413517197321
 31
0.0
  0
LINE
  5
236
330
1F
100
AcDbEntity
  8
0
  6
CONTINUOUS
 62
     7
100
AcDbLine
 10
973.0000000000025
 20
22.52833773040452
 30
0.0
 11
973.0000000000025
 21
20.36013901473214
 31
0.0
  0
LINE
  5
237
330
1F
100
AcDbEntity
  8
0
  6
CONTINUOUS
 62
     7
100
AcDbLine
 10
1015.000000000005
 20
41.30988648304101
 30
0.0
 11
1015.000000000005
 21
38.88994562084383
 31
0.0
  0
LINE
  5
238
330
1F
100
AcDbEntity
  8
0
  6
CONTINUOUS
 62
     7
100
AcDbLine
 10
966.0346512940819
 20
45.070849844413
 30
0.0
 11
965.193069741186
 21
41.95769381076679
 31
0.0
  0
LINE
  5
239
330
1F
100
AcDbEntity
  8
0
  6
CONTINUOUS
 62
     7
100
AcDbLine
 10
973.0000000000025
 20
41.23351369329902
 30
0.0
 11
973.0000000000025
 21
39.75963395135012
 31
0.0
  0
LINE
  5
23A
330
1F
100
AcDbEntity
  8
0
  6
CONTINUOUS
 62
     7
100
AcDbLine
 10
549.4999999999969
 20
39.30988648304079
 30
0.0
 11
549.4999999999969
 21
45.00988648304206
 31
0.0
  0
LWPOLYLINE
  5
23B
330
1F
100
AcDbEntity
  8
0
  6
CONTINUOUS
 62
     7
100
AcDbPolyline
 90
        5
 70
     0
 43
0.0
 10
-982.5000000000032
 20
15.47079081406125
 42
0.0483090601662064
 10
-982.4558686260691
 20
14.94944699509612
 10
-982.4078540590677
 20
14.77845366626426
 10
-982.3517151410203
 20
14.65778201227354
 10
-982.2616462049327
 20
14.54019047595311
210
0.0
220
0.0
230
-1.0
  0
ARC
  5
23C
330
1F
100
AcDbEntity
  8
0
  6
CONTINUOUS
 62
     7
100
AcDbCircle
 10
-548.2999999999969
 20
15.1098864830379
 30
0.0
 40
0.8000000000001963
210
0.0
220
0.0
230
-1.0
100
AcDbArc
 50
270.0
 51
314.5923320977915
  0
ARC
  5
23D
330
1F
100
AcDbEntity
  8
0
  6
CONTINUOUS
 62
     7
100
AcDbCircle
 10
957.0000000000014
 20
18.10988648303826
 30
0.0
 40
0.2000000000000233
100
AcDbArc
 50
15.12723227031626
 51
164.872767729686
  0
LINE
  5
23E
330
1F
100
AcDbEntity
  8
0
  6
CONTINUOUS
 62
   253
100
AcDbLine
 10
1015.000000000005
 20
38.88994562084383
 30
0.0
 11
985.5000000000033
 21
38.88994562084383
 31
0.0
  0
LINE
  5
23F
330
1F
100
AcDbEntity
  8
0
  6
CONTINUOUS
 62
   253
100
AcDbLine
 10
559.9653487059178
 20
25.30988648303912
 30
0.0
 11
559.9653487059178
 21
15.04892312166527
 31
0.0
  0
LINE
  5
240
330
1F
100
AcDbEntity
  8
0
  6
CONTINUOUS
 62
     7
100
AcDbLine
 10
396.9999999999959
 20
117.5999999999835
 30
0.0
 11
397.3103618488875
 21
117.5999999999835
 31
0.0
  0
LWPOLYLINE
  5
241
330
1F
100
AcDbEntity
  8
0
  6
CONTINUOUS
 62
     7
100
AcDbPolyline
 90
        5
 70
     0
 43
0.0
 10
549.2616462049265
 20
14.54019047595311
 10
549.3515607450374
 20
14.65751653950516
 10
549.4067036554666
 20
14.7753517806916
 10
549.4539469340601
 20
14.94032641729016
 42
0.0498042089677704
 10
549.4999999999969
 20
15.47079081406124
  0
LINE
  5
242
330
1F
100
AcDbEntity
  8
0
  6
CONTINUOUS
 62
     7
100
AcDbLine
 10
433.0000000000042
 20
112.4999999999819
 30
0.0
 11
432.6896381511125
 21
112.4999999999819
 31
0.0
  0
LINE
  5
243
330
1F
100
AcDbEntity
  8
0
  6
CONTINUOUS
 62
     7
100
AcDbLine
 10
426.7000000000024
 20
117.5999999999835
 30
0.0
 11
426.7000000000024
 21
119.9999999999843
 31
0.0
  0
LINE
  5
244
330
1F
100
AcDbEntity
  8
0
  6
CONTINUOUS
 62
     7
100
AcDbLine
 10
429.5103618488945
 20
112.9999999999821
 30
0.0
 11
432.6896381511121
 21
112.9999999999821
 31
0.0
  0
LINE
  5
245
330
1F
100
AcDbEntity
  8
0
  6
CONTINUOUS
 62
     7
100
AcDbLine
 10
973.0000000000025
 20
18.88625927274398
 30
0.0
 11
973.0000000000025
 21
18.79697980481163
 31
0.0
  0
LINE
  5
246
330
1F
100
AcDbEntity
  8
0
  6
CONTINUOUS
 62
     7
100
AcDbLine
 10
973.0000000000025
 20
18.30988648303829
 30
0.0
 11
973.1871794139042
 21
18.18390517499152
 31
0.0
  0
LINE
  5
247
330
1F
100
AcDbEntity
  8
0
  6
CONTINUOUS
 62
   253
100
AcDbLine
 10
985.5000000000033
 20
37.81984145847501
 30
0.0
 11
1015.000000000005
 21
37.81984145847501
 31
0.0
  0
LINE
  5
248
330
1F
100
AcDbEntity
  8
0
  6
CONTINUOUS
 62
     7
100
AcDbLine
 10
400.4896381511059
 20
89.9999999999748
 30
0.0
 11
400.7999999999975
 21
89.9999999999748
 31
0.0
  0
LINE
  5
249
330
1F
100
AcDbEntity
  8
0
  6
CONTINUOUS
 62
     7
100
AcDbLine
 10
400.4896381511055
 20
117.5999999999835
 30
0.0
 11
397.3103618488879
 21
117.5999999999835
 31
0.0
  0
ARC
  5
24A
330
1F
100
AcDbEntity
  8
0
  6
CONTINUOUS
 62
     7
100
AcDbCircle
 10
397.2999999999964
 20
131.999999999988
 30
0.0
 40
0.200000000000089
100
AcDbArc
 50
0.0
 51
74.8727677296841
  0
LINE
  5
24B
330
1F
100
AcDbEntity
  8
0
  6
CONTINUOUS
 62
     7
100
AcDbLine
 10
400.7999999999975
 20
112.4999999999819
 30
0.0
 11
400.4896381511059
 21
112.4999999999819
 31
0.0
  0
LINE
  5
24C
330
1F
100
AcDbEntity
  8
0
  6
CONTINUOUS
 62
     7
100
AcDbLine
 10
435.0000000000042
 20
128.7732218776777
 30
0.0
 11
435.0000000000042
 21
128.8898715838897
 31
0.0
  0
LINE
  5
24D
330
1F
100
AcDbEntity
  8
0
  6
CONTINUOUS
 62
     7
100
AcDbLine
 10
400.7999999999975
 20
117.5999999999835
 30
0.0
 11
400.4896381511059
 21
117.5999999999835
 31
0.0
  0
LINE
  5
24E
330
1F
100
AcDbEntity
  8
0
  6
CONTINUOUS
 62
     7
100
AcDbLine
 10
401.2999999999972
 20
112.4999999999819
 30
0.0
 11
401.2999999999972
 21
112.9999999999821
 31
0.0
  0
LINE
  5
24F
330
1F
100
AcDbEntity
  8
0
  6
CONTINUOUS
 62
     7
100
AcDbLine
 10
429.5103618488945
 20
117.5999999999835
 30
0.0
 11
432.6896381511121
 21
117.5999999999835
 31
0.0
  0
LINE
  5
250
330
1F
100
AcDbEntity
  8
0
  6
CONTINUOUS
 62
     7
100
AcDbLine
 10
1015.000000000005
 20
38.88994562084383
 30
0.0
 11
1015.000000000005
 21
37.81984145847489
 31
0.0
  0
ARC
  5
251
330
1F
100
AcDbEntity
  8
0
  6
CONTINUOUS
 62
     7
100
AcDbCircle
 10
-432.7000000000037
 20
135.9999999999893
 30
0.0
 40
0.2000000000001413
210
0.0
220
0.0
230
-1.0
100
AcDbArc
 50
285.1272322703195
 51
74.87276772968767
  0
LINE
  5
252
330
1F
100
AcDbEntity
  8
0
  6
CONTINUOUS
 62
     7
100
AcDbLine
 10
429.5103618488945
 20
89.99999999997479
 30
0.0
 11
432.6896381511121
 21
89.99999999997479
 31
0.0
  0
LINE
  5
253
330
1F
100
AcDbEntity
  8
0
  6
CONTINUOUS
 62
     7
100
AcDbLine
 10
1013.500000000005
 20
28.30988648303947
 30
0.0
 11
1013.500000000005
 21
20.30988648303851
 31
0.0
  0
LINE
  5
254
330
1F
100
AcDbEntity
  8
0
  6
CONTINUOUS
 62
     7
100
AcDbLine
 10
400.4896381511055
 20
112.9999999999821
 30
0.0
 11
397.3103618488879
 21
112.9999999999821
 31
0.0
  0
LINE
  5
255
330
1F
100
AcDbEntity
  8
0
  6
CONTINUOUS
 62
     7
100
AcDbLine
 10
985.5000000000033
 20
32.79993150760559
 30
0.0
 11
985.5000000000033
 21
37.81984145847501
 31
0.0
  0
LINE
  5
256
330
1F
100
AcDbEntity
  8
0
  6
CONTINUOUS
 62
     7
100
AcDbLine
 10
973.0000000000025
 20
34.80988648304026
 30
0.0
 11
973.0000000000025
 21
25.30988648303913
 31
0.0
  0
LINE
  5
257
330
1F
100
AcDbEntity
  8
0
  6
CONTINUOUS
 62
     7
100
AcDbLine
 10
985.5000000000033
 20
17.30988648303816
 30
0.0
 11
985.5000000000033
 21
31.72982734523676
 31
0.0
  0
LINE
  5
258
330
1F
100
AcDbEntity
  8
0
  6
CONTINUOUS
 62
   253
100
AcDbLine
 10
558.0346512940774
 20
45.07084984441411
 30
0.0
 11
558.0346512940774
 21
34.80988648304026
 31
0.0
  0
LINE
  5
259
330
1F
100
AcDbEntity
  8
0
  6
CONTINUOUS
 62
     7
100
AcDbLine
 10
403.2999999999976
 20
117.5999999999835
 30
0.0
 11
403.2999999999976
 21
119.9999999999843
 31
0.0
  0
LINE
  5
25A
330
1F
100
AcDbEntity
  8
0
  6
CONTINUOUS
 62
     7
100
AcDbLine
 10
429.2000000000025
 20
117.5999999999835
 30
0.0
 11
429.5103618488942
 21
117.5999999999835
 31
0.0
  0
LINE
  5
25B
330
1F
100
AcDbEntity
  8
0
  6
CONTINUOUS
 62
     7
100
AcDbLine
 10
429.2000000000025
 20
112.4999999999819
 30
0.0
 11
429.5103618488942
 21
112.4999999999819
 31
0.0
  0
LINE
  5
25C
330
1F
100
AcDbEntity
  8
0
  6
CONTINUOUS
 62
     7
100
AcDbLine
 10
400.4896381511055
 20
112.4999999999819
 30
0.0
 11
397.3103618488879
 21
112.4999999999819
 31
0.0
  0
ARC
  5
25D
330
1F
100
AcDbEntity
  8
0
  6
CONTINUOUS
 62
     7
100
AcDbCircle
 10
397.2999999999964
 20
135.9999999999893
 30
0.0
 40
0.2000000000001145
100
AcDbArc
 50
285.1272322703215
 51
74.87276772968971
  0
LINE
  5
25E
330
1F
100
AcDbEntity
  8
0
  6
CONTINUOUS
 62
     7
100
AcDbLine
 10
435.0000000000042
 20
128.8898715838897
 30
0.0
 11
435.0000000000042
 21
128.9708800444945
 31
0.0
  0
LINE
  5
25F
330
1F
100
AcDbEntity
  8
0
  6
CONTINUOUS
 62
     7
100
AcDbLine
 10
973.0000000000025
 20
20.36013901473214
 30
0.0
 11
973.0000000000025
 21
18.88625927274398
 31
0.0
  0
LINE
  5
260
330
1F
100
AcDbEntity
  8
0
  6
CONTINUOUS
 62
     7
100
AcDbLine
 10
400.4896381511059
 20
112.9999999999821
 30
0.0
 11
400.7999999999975
 21
112.9999999999821
 31
0.0
  0
LINE
  5
261
330
1F
100
AcDbEntity
  8
0
  6
CONTINUOUS
 62
     7
100
AcDbLine
 10
428.7000000000028
 20
112.4999999999819
 30
0.0
 11
428.7000000000028
 21
112.9999999999821
 31
0.0
  0
ARC
  5
262
330
1F
100
AcDbEntity
  8
0
  6
CONTINUOUS
 62
     7
100
AcDbCircle
 10
-969.0000000000023
 20
42.0098864830411
 30
0.0
 40
0.2000000000000233
210
0.0
220
0.0
230
-1.0
100
AcDbArc
 50
195.1272322703162
 51
344.8727677296855
  0
LWPOLYLINE
  5
263
330
1F
100
AcDbEntity
  8
0
  6
CONTINUOUS
 62
     7
100
AcDbPolyline
 90
        5
 70
     0
 43
0.0
 10
547.4999999999968
 20
15.47079081406125
 42
0.0483090601662062
 10
547.544131373931
 20
14.94944699509613
 10
547.5921459409323
 20
14.77845366626426
 10
547.6482848589795
 20
14.65778201227354
 10
547.7383537950674
 20
14.54019047595311
  0
LINE
  5
264
330
1F
100
AcDbEntity
  8
0
  6
CONTINUOUS
 62
     7
100
AcDbLine
 10
985.5000000000033
 20
37.81984145847489
 30
0.0
 11
985.5000000000033
 21
38.88994562084383
 31
0.0
  0
LINE
  5
265
330
1F
100
AcDbEntity
  8
0
  6
CONTINUOUS
 62
     7
100
AcDbLine
 10
985.5000000000033
 20
42.30988648304125
 30
0.0
 11
985.5000000000033
 21
41.30988648304101
 31
0.0
  0
LINE
  5
266
330
1F
100
AcDbEntity
  8
0
  6
CONTINUOUS
 62
     7
100
AcDbLine
 10
973.0000000000025
 20
37.37543644238353
 30
0.0
 11
973.0000000000025
 21
34.80988648304024
 31
0.0
  0
LINE
  5
267
330
1F
100
AcDbEntity
  8
0
  6
CONTINUOUS
 62
     7
100
AcDbLine
 10
987.0000000000034
 20
20.30988648303852
 30
0.0
 11
1013.500000000005
 21
20.30988648303851
 31
0.0
  0
LINE
  5
268
330
1F
100
AcDbEntity
  8
0
  6
CONTINUOUS
 62
   253
100
AcDbLine
 10
559.9653487059178
 20
34.80988648304026
 30
0.0
 11
559.9653487059178
 21
25.30988648303913
 31
0.0
  0
LINE
  5
269
330
1F
100
AcDbEntity
  8
0
  6
CONTINUOUS
 62
     7
100
AcDbLine
 10
985.5000000000033
 20
38.16487169858987
 30
0.0
 11
985.0000000000034
 21
38.16487169858987
 31
0.0
  0
ARC
  5
26A
330
1F
100
AcDbEntity
  8
0
  6
CONTINUOUS
 62
     7
100
AcDbCircle
 10
-432.7000000000037
 20
139.9999999999906
 30
0.0
 40
0.2000000000001413
210
0.0
220
0.0
230
-1.0
100
AcDbArc
 50
285.1272322703195
 51
74.87276772968767
  0
LINE
  5
26B
330
1F
100
AcDbEntity
  8
0
  6
CONTINUOUS
 62
     7
100
AcDbLine
 10
429.5103618488945
 20
112.4999999999819
 30
0.0
 11
432.6896381511121
 21
112.4999999999819
 31
0.0
  0
LINE
  5
26C
330
1F
100
AcDbEntity
  8
0
  6
CONTINUOUS
 62
     7
100
AcDbLine
 10
397.4999999999964
 20
112.4999999999819
 30
0.0
 11
397.4999999999964
 21
112.9999999999821
 31
0.0
  0
ARC
  5
26D
330
1F
100
AcDbEntity
  8
0
  6
CONTINUOUS
 62
     7
100
AcDbCircle
 10
-973.0000000000025
 20
42.0098864830411
 30
0.0
 40
0.2000000000000474
210
0.0
220
0.0
230
-1.0
100
AcDbArc
 50
270.0
 51
344.8727677296852
  0
ARC
  5
26E
330
1F
100
AcDbEntity
  8
0
  6
CONTINUOUS
 62
     7
100
AcDbCircle
 10
397.2999999999964
 20
147.9999999999931
 30
0.0
 40
0.2000000000001145
100
AcDbArc
 50
285.1272322703215
 51
74.87276772968971
  0
LINE
  5
26F
330
1F
100
AcDbEntity
  8
0
  6
CONTINUOUS
 62
     7
100
AcDbLine
 10
429.5103618488942
 20
89.99999999997479
 30
0.0
 11
429.2000000000025
 21
89.99999999997479
 31
0.0
  0
LINE
  5
270
330
1F
100
AcDbEntity
  8
0
  6
CONTINUOUS
 62
     7
100
AcDbLine
 10
985.5000000000033
 20
17.30988648303816
 30
0.0
 11
985.5000000000033
 21
16.30988648303792
 31
0.0
  0
ELLIPSE
  5
271
330
1F
100
AcDbEntity
  8
0
  6
CONTINUOUS
 62
   253
100
AcDbEllipse
 10
396.9999999999963
 20
128.9708800444945
 30
0.0
 11
-2.000000000000834
 21
0.0
 31
0.0
210
0.0
220
0.0
230
-1.0
 40
0.9999997962318588
 41
0.0
 42
0.9505327058633808
  0
LINE
  5
272
330
1F
100
AcDbEntity
  8
0
  6
CONTINUOUS
 62
     7
100
AcDbLine
 10
985.5000000000033
 20
32.7999315076057
 30
0.0
 11
985.5000000000033
 21
31.72982734523676
 31
0.0
  0
LINE
  5
273
330
1F
100
AcDbEntity
  8
0
  6
CONTINUOUS
 62
     7
100
AcDbLine
 10
985.5000000000033
 20
16.80988648303809
 30
0.0
 11
985.0000000000034
 21
16.80988648303809
 31
0.0
  0
ARC
  5
274
330
1F
100
AcDbEntity
  8
0
  6
CONTINUOUS
 62
     7
100
AcDbCircle
 10
-965.000000000002
 20
42.0098864830411
 30
0.0
 40
0.2000000000000233
210
0.0
220
0.0
230
-1.0
100
AcDbArc
 50
195.1272322703162
 51
344.8727677296855
  0
LINE
  5
275
330
1F
100
AcDbEntity
  8
0
  6
CONTINUOUS
 62
     7
100
AcDbLine
 10
973.0000000000025
 20
39.75963395135012
 30
0.0
 11
973.0000000000025
 21
37.59143523569649
 31
0.0
  0
ARC
  5
276
330
1F
100
AcDbEntity
  8
0
  6
CONTINUOUS
 62
     7
100
AcDbCircle
 10
976.0373362072237
 20
42.30988676790205
 30
0.0
 40
1.999999715139325
100
AcDbArc
 50
90.00000075998729
 51
144.8040694617154
  0
LINE
  5
277
330
1F
100
AcDbEntity
  8
0
  6
CONTINUOUS
 62
     7
100
AcDbLine
 10
985.5000000000033
 20
41.80988648304108
 30
0.0
 11
985.0000000000034
 21
41.80988648304108
 31
0.0
  0
SPLINE
  5
278
330
1F
100
AcDbEntity
  8
0
  6
CONTINUOUS
 62
     7
100
AcDbSpline
210
0.0
220
0.0
230
1.0
 70
     8
 71
     3
 72
    11
 73
     7
 74
     0
 42
0.000000001
 43
0.0001
 40
0.9485184935384592
 40
0.9485184935384592
 40
0.9485184935384592
 40
0.9485184935384592
 40
0.9506083447057873
 40
0.9506083447057873
 40
0.9506083447057873
 40
0.9519178501940719
 40
0.9519178501940719
 40
0.9519178501940719
 40
0.9519178501940719
 10
432.5268835108221
 20
131.8396918174348
 30
0.0
 10
432.5281844948561
 20
131.8379439414439
 30
0.0
 10
432.5295194483916
 20
131.8362318634219
 30
0.0
 10
432.5308873400573
 20
131.8345567725798
 30
0.0
 10
432.531744464082
 20
131.8335071568535
 30
0.0
 10
432.5326039469847
 20
131.8324583425002
 30
0.0
 10
432.5334657812044
 20
131.8314103495407
 30
0.0
  0
LINE
  5
279
330
1F
100
AcDbEntity
  8
0
  6
CONTINUOUS
 62
     7
100
AcDbLine
 10
397.3103618488875
 20
112.9999999999821
 30
0.0
 11
396.9999999999959
 21
112.9999999999821
 31
0.0
  0
LINE
  5
27A
330
1F
100
AcDbEntity
  8
0
  6
CONTINUOUS
 62
     7
100
AcDbLine
 10
395.9999999999961
 20
110.9999999999814
 30
0.0
 11
396.9999999999963
 21
110.9999999999814
 31
0.0
  0
LINE
  5
27B
330
1F
100
AcDbEntity
  8
0
  6
CONTINUOUS
 62
     7
100
AcDbLine
 10
435.7609633613758
 20
533.0346512940871
 30
0.0
 11
432.6478073277294
 21
532.1930697411909
 31
0.0
  0
LINE
  5
27C
330
1F
100
AcDbEntity
  8
0
  6
CONTINUOUS
 62
     7
100
AcDbLine
 10
397.3521926722707
 20
547.806930258828
 30
0.0
 11
394.2390366386242
 21
546.9653487059318
 31
0.0
  0
LINE
  5
27D
330
1F
100
AcDbEntity
  8
0
  6
CONTINUOUS
 62
     7
100
AcDbLine
 10
394.2390366386242
 20
533.0346512940871
 30
0.0
 11
397.3521926722707
 21
532.1930697411909
 31
0.0
  0
LINE
  5
27E
330
1F
100
AcDbEntity
  8
0
  6
CONTINUOUS
 62
     7
100
AcDbLine
 10
432.6478073277294
 20
531.8069302588228
 30
0.0
 11
435.7609633613758
 21
530.9653487059267
 31
0.0
  0
LINE
  5
27F
330
1F
100
AcDbEntity
  8
0
  6
CONTINUOUS
 62
     7
100
AcDbLine
 10
396.9743124582945
 20
548.5726567694168
 30
0.0
 11
397.4431227209137
 21
548.1961703262566
 31
0.0
  0
ARC
  5
280
330
1F
100
AcDbEntity
  8
0
  6
CONTINUOUS
 62
     7
100
AcDbCircle
 10
981.7000000000031
 20
15.10988648303789
 30
0.0
 40
0.8000000000001894
100
AcDbArc
 50
270.0
 51
314.5923320977913
  0
LINE
  5
281
330
1F
100
AcDbEntity
  8
0
  6
CONTINUOUS
 62
     7
100
AcDbLine
 10
399.9999999999969
 20
557.500000000015
 30
0.0
 11
394.2999999999946
 21
557.500000000015
 31
0.0
  0
LINE
  5
282
330
1F
100
AcDbEntity
  8
0
  6
CONTINUOUS
 62
     7
100
AcDbLine
 10
435.7609633613758
 20
545.0346512940908
 30
0.0
 11
432.6478073277294
 21
544.1930697411948
 31
0.0
  0
LINE
  5
283
330
1F
100
AcDbEntity
  8
0
  6
CONTINUOUS
 62
     7
100
AcDbLine
 10
396.9999999999963
 20
112.9999999999821
 30
0.0
 11
396.9999999999963
 21
117.5999999999835
 31
0.0
  0
LINE
  5
284
330
1F
100
AcDbEntity
  8
0
  6
CONTINUOUS
 62
     7
100
AcDbLine
 10
982.5000000000032
 20
19.30988648303839
 30
0.0
 11
982.5000000000032
 21
15.47079081406084
 31
0.0
  0
LINE
  5
285
330
1F
100
AcDbEntity
  8
0
  6
CONTINUOUS
 62
   253
100
AcDbLine
 10
434.1722683134203
 20
130.5984113682354
 30
0.0
 11
434.1624993922655
 21
130.5983302254842
 31
0.0
  0
LINE
  5
286
330
1F
100
AcDbEntity
  8
0
  6
CONTINUOUS
 62
     7
100
AcDbLine
 10
432.6478073277294
 20
547.806930258828
 30
0.0
 11
435.7609633613758
 21
546.9653487059318
 31
0.0
  0
LINE
  5
287
330
1F
100
AcDbEntity
  8
0
  6
CONTINUOUS
 62
     7
100
AcDbLine
 10
432.6896381511125
 20
112.9999999999821
 30
0.0
 11
433.0000000000042
 21
112.9999999999821
 31
0.0
  0
LINE
  5
288
330
1F
100
AcDbEntity
  8
0
  6
CONTINUOUS
 62
     7
100
AcDbLine
 10
394.2390366386242
 20
545.0346512940908
 30
0.0
 11
397.3521926722707
 21
544.1930697411948
 31
0.0
  0
LINE
  5
289
330
1F
100
AcDbEntity
  8
0
  6
CONTINUOUS
 62
     7
100
AcDbLine
 10
432.5568669702476
 20
131.8038247332105
 30
0.0
 11
433.0256756277406
 21
131.4273444161464
 31
0.0
  0
LINE
  5
28A
330
1F
100
AcDbEntity
  8
0
  6
CONTINUOUS
 62
     7
100
AcDbLine
 10
434.000000000004
 20
110.9999999999814
 30
0.0
 11
433.0000000000038
 21
110.9999999999814
 31
0.0
  0
LINE
  5
28B
330
1F
100
AcDbEntity
  8
0
  6
CONTINUOUS
 62
     7
100
AcDbLine
 10
433.0256756277406
 20
131.4273444161464
 30
0.0
 11
434.1721585356856
 21
130.59849075873
 31
0.0
  0
LINE
  5
28C
330
1F
100
AcDbEntity
  8
0
  6
CONTINUOUS
 62
   253
100
AcDbLine
 10
397.4683452482008
 20
131.8327315316463
 30
0.0
 11
395.8375006077345
 21
130.5983302254842
 31
0.0
  0
LINE
  5
28D
330
1F
100
AcDbEntity
  8
0
  6
CONTINUOUS
 62
     7
100
AcDbLine
 10
397.4649066246558
 20
548.1705644463668
 30
0.0
 11
397.4679880095789
 21
548.1678169326447
 31
0.0
  0
LINE
  5
28E
330
1F
100
AcDbEntity
  8
0
  6
CONTINUOUS
 62
     7
100
AcDbLine
 10
430.4497474683056
 20
548.000000000012
 30
0.0
 11
431.9236272102796
 21
548.000000000012
 31
0.0
  0
LINE
  5
28F
330
1F
100
AcDbEntity
  8
0
  6
CONTINUOUS
 62
     7
100
AcDbLine
 10
435.7609633613758
 20
537.0346512940885
 30
0.0
 11
432.6478073277294
 21
536.1930697411923
 31
0.0
  0
LINE
  5
290
330
1F
100
AcDbEntity
  8
0
  6
CONTINUOUS
 62
     7
100
AcDbLine
 10
397.4659827551088
 20
548.1692479763092
 30
0.0
 11
397.4731149062395
 21
548.1602966921942
 31
0.0
  0
LINE
  5
291
330
1F
100
AcDbEntity
  8
0
  6
CONTINUOUS
 62
     7
100
AcDbLine
 10
433.0000000000038
 20
112.9999999999821
 30
0.0
 11
433.0000000000038
 21
117.5999999999835
 31
0.0
  0
LINE
  5
292
330
1F
100
AcDbEntity
  8
0
  6
CONTINUOUS
 62
     7
100
AcDbLine
 10
434.000000000004
 20
110.9999999999814
 30
0.0
 11
433.0000000000038
 21
91.49999999997526
 31
0.0
  0
LINE
  5
293
330
1F
100
AcDbEntity
  8
0
  6
CONTINUOUS
 62
   253
100
AcDbLine
 10
432.5315342059641
 20
131.8329168273538
 30
0.0
 11
434.1624993922655
 21
130.5983302254842
 31
0.0
  0
LINE
  5
294
330
1F
100
AcDbEntity
  8
0
  6
CONTINUOUS
 62
     7
100
AcDbLine
 10
395.9999999999961
 20
110.9999999999814
 30
0.0
 11
396.9999999999963
 21
91.49999999997527
 31
0.0
  0
LINE
  5
295
330
1F
100
AcDbEntity
  8
0
  6
CONTINUOUS
 62
     7
100
AcDbLine
 10
433.0000000000042
 20
117.5999999999835
 30
0.0
 11
432.6896381511125
 21
117.5999999999835
 31
0.0
  0
LINE
  5
296
330
1F
100
AcDbEntity
  8
0
  6
CONTINUOUS
 62
     7
100
AcDbLine
 10
432.5320119904212
 20
548.1678169326447
 30
0.0
 11
432.5350933753442
 21
548.1705644463668
 31
0.0
  0
LINE
  5
297
330
1F
100
AcDbEntity
  8
0
  6
CONTINUOUS
 62
     7
100
AcDbLine
 10
432.6478073277294
 20
543.8069302588266
 30
0.0
 11
435.7609633613758
 21
542.9653487059305
 31
0.0
  0
LINE
  5
298
330
1F
100
AcDbEntity
  8
0
  6
CONTINUOUS
 62
     7
100
AcDbLine
 10
432.5350933753443
 20
131.8294355536333
 30
0.0
 11
432.5320119904213
 21
131.8321830673553
 31
0.0
  0
ARC
  5
299
330
1F
100
AcDbEntity
  8
0
  6
CONTINUOUS
 62
     7
100
AcDbCircle
 10
433.0000004132198
 20
128.9779835490169
 30
0.0
 40
1.99999958678443
100
AcDbArc
 50
0.0000013291294267
 51
54.11685259341278
  0
LINE
  5
29A
330
1F
100
AcDbEntity
  8
0
  6
CONTINUOUS
 62
     7
100
AcDbLine
 10
394.2390366386242
 20
537.0346512940885
 30
0.0
 11
397.3521926722707
 21
536.1930697411923
 31
0.0
  0
LINE
  5
29B
330
1F
100
AcDbEntity
  8
0
  6
CONTINUOUS
 62
     7
100
AcDbLine
 10
428.065549959316
 20
548.000000000012
 30
0.0
 11
428.2815487527003
 21
548.000000000012
 31
0.0
  0
LINE
  5
29C
330
1F
100
AcDbEntity
  8
0
  6
CONTINUOUS
 62
   253
100
AcDbLine
 10
432.5000000000036
 20
548.000000000012
 30
0.0
 11
432.5316547517992
 21
548.1672684683538
 31
0.0
  0
LINE
  5
29D
330
1F
100
AcDbEntity
  8
0
  6
CONTINUOUS
 62
     7
100
AcDbLine
 10
433.0000000000038
 20
89.99999999997479
 30
0.0
 11
433.0000000000038
 21
112.4999999999819
 31
0.0
  0
LINE
  5
29E
330
1F
100
AcDbEntity
  8
0
  6
CONTINUOUS
 62
   253
100
AcDbLine
 10
395.8278414643144
 20
130.59849075873
 30
0.0
 11
395.8277316865798
 21
130.5984113682355
 31
0.0
  0
ARC
  5
29F
330
1F
100
AcDbEntity
  8
0
  6
CONTINUOUS
 62
     7
100
AcDbCircle
 10
-396.9999995788733
 20
128.9779835530559
 30
0.0
 40
1.999999578877476
210
0.0
220
0.0
230
-1.0
100
AcDbArc
 50
0.0000012134216234
 51
54.11685270912066
  0
LINE
  5
2A0
330
1F
100
AcDbEntity
  8
0
  6
CONTINUOUS
 62
   253
100
AcDbLine
 10
395.8277316865798
 20
130.5984113682355
 30
0.0
 11
395.8375006077345
 21
130.5983302254842
 31
0.0
  0
LINE
  5
2A1
330
1F
100
AcDbEntity
  8
0
  6
CONTINUOUS
 62
   253
100
AcDbLine
 10
434.1721585356856
 20
130.59849075873
 30
0.0
 11
434.1722683134203
 21
130.5984113682354
 31
0.0
  0
LINE
  5
2A2
330
1F
100
AcDbEntity
  8
0
  6
CONTINUOUS
 62
     7
100
AcDbLine
 10
982.5000000000032
 20
39.30988648304078
 30
0.0
 11
982.5000000000032
 21
19.30988648303839
 31
0.0
  0
ARC
  5
2A3
330
1F
100
AcDbEntity
  8
0
  6
CONTINUOUS
 62
     7
100
AcDbCircle
 10
-394.2999999999957
 20
556.7000000000147
 30
0.0
 40
0.8000000000003005
210
0.0
220
0.0
230
-1.0
100
AcDbArc
 50
0.0
 51
90.0
  0
LINE
  5
2A4
330
1F
100
AcDbEntity
  8
0
  6
CONTINUOUS
 62
     7
100
AcDbLine
 10
433.025687541706
 20
131.4273432305828
 30
0.0
 11
432.5568772790862
 21
131.8038296737436
 31
0.0
  0
LINE
  5
2A5
330
1F
100
AcDbEntity
  8
0
  6
CONTINUOUS
 62
     7
100
AcDbLine
 10
397.3521926722707
 20
539.8069302588253
 30
0.0
 11
394.2390366386242
 21
538.9653487059293
 31
0.0
  0
LINE
  5
2A6
330
1F
100
AcDbEntity
  8
0
  6
CONTINUOUS
 62
     7
100
AcDbLine
 10
397.3521926722707
 20
543.8069302588266
 30
0.0
 11
394.2390366386242
 21
542.9653487059305
 31
0.0
  0
LINE
  5
2A7
330
1F
100
AcDbEntity
  8
0
  6
CONTINUOUS
 62
     7
100
AcDbLine
 10
397.3521926722707
 20
535.8069302588242
 30
0.0
 11
394.2390366386242
 21
534.965348705928
 31
0.0
  0
LINE
  5
2A8
330
1F
100
AcDbEntity
  8
0
  6
CONTINUOUS
 62
     7
100
AcDbLine
 10
430.5000000000032
 20
117.5999999999835
 30
0.0
 11
430.5000000000032
 21
119.9999999999843
 31
0.0
  0
LINE
  5
2A9
330
1F
100
AcDbEntity
  8
0
  6
CONTINUOUS
 62
     7
100
AcDbLine
 10
404.4999999999978
 20
548.000000000012
 30
0.0
 11
401.9344500406841
 21
548.000000000012
 31
0.0
  0
LINE
  5
2AA
330
1F
100
AcDbEntity
  8
0
  6
CONTINUOUS
 62
     7
100
AcDbLine
 10
397.4665342187956
 20
131.8314103495407
 30
0.0
 11
395.8278414643144
 21
130.59849075873
 31
0.0
  0
LINE
  5
2AB
330
1F
100
AcDbEntity
  8
0
  6
CONTINUOUS
 62
     7
100
AcDbLine
 10
397.4431227209137
 20
548.1961703262567
 30
0.0
 11
397.4659827551088
 21
548.1692479763092
 31
0.0
  0
LINE
  5
2AC
330
1F
100
AcDbEntity
  8
0
  6
CONTINUOUS
 62
     7
100
AcDbLine
 10
394.2390366386242
 20
541.0346512940897
 30
0.0
 11
397.3521926722707
 21
540.1930697411937
 31
0.0
  0
LINE
  5
2AD
330
1F
100
AcDbEntity
  8
0
  6
CONTINUOUS
 62
     7
100
AcDbLine
 10
425.5000000000022
 20
548.000000000012
 30
0.0
 11
428.065549959316
 21
548.000000000012
 31
0.0
  0
LINE
  5
2AE
330
1F
100
AcDbEntity
  8
0
  6
CONTINUOUS
 62
     7
100
AcDbLine
 10
428.2815487527003
 20
548.000000000012
 30
0.0
 11
430.4497474683056
 21
548.000000000012
 31
0.0
  0
LINE
  5
2AF
330
1F
100
AcDbEntity
  8
0
  6
CONTINUOUS
 62
     7
100
AcDbLine
 10
432.534017244891
 20
131.8307520236913
 30
0.0
 11
432.5268850937604
 21
131.8397033078062
 31
0.0
  0
LINE
  5
2B0
330
1F
100
AcDbEntity
  8
0
  6
CONTINUOUS
 62
     7
100
AcDbLine
 10
432.6896381511125
 20
89.99999999997479
 30
0.0
 11
433.0000000000042
 21
89.99999999997479
 31
0.0
  0
LINE
  5
2B1
330
1F
100
AcDbEntity
  8
0
  6
CONTINUOUS
 62
     7
100
AcDbLine
 10
396.9999999999963
 20
89.9999999999748
 30
0.0
 11
396.9999999999963
 21
112.4999999999819
 31
0.0
  0
SPLINE
  5
2B2
330
1F
100
AcDbEntity
  8
0
  6
CONTINUOUS
 62
     7
100
AcDbSpline
210
0.0
220
0.0
230
1.0
 70
     8
 71
     3
 72
     8
 73
     4
 74
     0
 42
0.000000001
 43
0.0001
 40
0.9369427872094205
 40
0.9369427872094205
 40
0.9369427872094205
 40
0.9369427872094205
 40
0.9485184935384592
 40
0.9485184935384592
 40
0.9485184935384592
 40
0.9485184935384592
 10
432.5334657812044
 20
131.8314103495407
 30
0.0
 10
432.5410841836633
 20
131.8221463496243
 30
0.0
 10
432.5488863209671
 20
131.8129465344413
 30
0.0
 10
432.5568669702476
 20
131.8038247332105
 30
0.0
  0
LINE
  5
2B3
330
1F
100
AcDbEntity
  8
0
  6
CONTINUOUS
 62
     7
100
AcDbLine
 10
431.9236272102796
 20
548.000000000012
 30
0.0
 11
432.0129066787542
 21
548.000000000012
 31
0.0
  0
LINE
  5
2B4
330
1F
100
AcDbEntity
  8
0
  6
CONTINUOUS
 62
     7
100
AcDbLine
 10
432.6478073277294
 20
539.8069302588253
 30
0.0
 11
435.7609633613758
 21
538.9653487059293
 31
0.0
  0
LINE
  5
2B5
330
1F
100
AcDbEntity
  8
0
  6
CONTINUOUS
 62
     7
100
AcDbLine
 10
435.7609633613758
 20
541.0346512940897
 30
0.0
 11
432.6478073277294
 21
540.1930697411937
 31
0.0
  0
LINE
  5
2B6
330
1F
100
AcDbEntity
  8
0
  6
CONTINUOUS
 62
     7
100
AcDbLine
 10
397.3103618488875
 20
89.9999999999748
 30
0.0
 11
396.9999999999959
 21
89.9999999999748
 31
0.0
  0
LINE
  5
2B7
330
1F
100
AcDbEntity
  8
0
  6
CONTINUOUS
 62
     7
100
AcDbLine
 10
394.9999999999959
 20
555.5000000000143
 30
0.0
 11
394.9999999999959
 21
551.2267781223222
 31
0.0
  0
LINE
  5
2B8
330
1F
100
AcDbEntity
  8
0
  6
CONTINUOUS
 62
     7
100
AcDbLine
 10
435.0000000000042
 20
555.5000000000143
 30
0.0
 11
435.0000000000042
 21
551.2267781223222
 31
0.0
  0
LINE
  5
2B9
330
1F
100
AcDbEntity
  8
0
  6
CONTINUOUS
 62
     7
100
AcDbLine
 10
397.9870933212458
 20
548.000000000012
 30
0.0
 11
397.4999999999964
 21
548.000000000012
 31
0.0
  0
LINE
  5
2BA
330
1F
100
AcDbEntity
  8
0
  6
CONTINUOUS
 62
     7
100
AcDbLine
 10
395.9999999999961
 20
562.0000000000165
 30
0.0
 11
396.9999999999963
 21
562.0000000000165
 31
0.0
  0
LINE
  5
2BB
330
1F
100
AcDbEntity
  8
0
  6
CONTINUOUS
 62
     7
100
AcDbLine
 10
397.3103618488879
 20
560.500000000016
 30
0.0
 11
400.4896381511055
 21
560.500000000016
 31
0.0
  0
LINE
  5
2BC
330
1F
100
AcDbEntity
  8
0
  6
CONTINUOUS
 62
   253
100
AcDbLine
 10
434.1722683134203
 20
549.4015886317645
 30
0.0
 11
434.1624993922655
 21
549.4016697745159
 31
0.0
  0
LINE
  5
2BD
330
1F
100
AcDbEntity
  8
0
  6
CONTINUOUS
 62
   253
100
AcDbLine
 10
425.5000000000022
 20
134.9653487059091
 30
0.0
 11
404.4999999999978
 21
134.9653487059091
 31
0.0
  0
LINE
  5
2BE
330
1F
100
AcDbEntity
  8
0
  6
CONTINUOUS
 62
     7
100
AcDbLine
 10
433.0000000000038
 20
560.500000000016
 30
0.0
 11
433.0000000000038
 21
590.0000000000252
 31
0.0
  0
ELLIPSE
  5
2BF
330
1F
100
AcDbEntity
  8
0
  6
CONTINUOUS
 62
   253
100
AcDbEllipse
 10
396.9999999999963
 20
551.0291199555055
 30
0.0
 11
-2.000000000000834
 21
0.0
 31
0.0
210
0.0
220
0.0
230
1.0
 40
0.9999997962318032
 41
0.0
 42
0.9505327058633808
  0
LINE
  5
2C0
330
1F
100
AcDbEntity
  8
0
  6
CONTINUOUS
 62
     7
100
AcDbLine
 10
432.6478073277294
 20
535.8069302588242
 30
0.0
 11
435.7609633613758
 21
534.965348705928
 31
0.0
  0
LINE
  5
2C1
330
1F
100
AcDbEntity
  8
0
  6
CONTINUOUS
 62
     7
100
AcDbLine
 10
394.9999999999959
 20
551.1101284161103
 30
0.0
 11
394.9999999999959
 21
551.0291199555055
 31
0.0
  0
LINE
  5
2C2
330
1F
100
AcDbEntity
  8
0
  6
CONTINUOUS
 62
     7
100
AcDbLine
 10
400.7999999999971
 20
560.500000000016
 30
0.0
 11
400.7999999999971
 21
590.0000000000252
 31
0.0
  0
ARC
  5
2C3
330
1F
100
AcDbEntity
  8
0
  6
CONTINUOUS
 62
     7
100
AcDbCircle
 10
432.7000000000037
 20
536.0000000000082
 30
0.0
 40
0.2000000000001413
100
AcDbArc
 50
105.1272322703195
 51
254.8727677296877
  0
LINE
  5
2C4
330
1F
100
AcDbEntity
  8
0
  6
CONTINUOUS
 62
     7
100
AcDbLine
 10
435.0000000000042
 20
551.1101284161103
 30
0.0
 11
435.0000000000042
 21
551.0291199555055
 31
0.0
  0
ELLIPSE
  5
2C5
330
1F
100
AcDbEntity
  8
0
  6
CONTINUOUS
 62
   253
100
AcDbEllipse
 10
433.0000000000038
 20
551.0291199555055
 30
0.0
 11
2.00000000000089
 21
0.0
 31
0.0
210
0.0
220
0.0
230
-1.0
 40
0.999999796231831
 41
0.0
 42
0.9505327058633807
  0
ARC
  5
2C6
330
1F
100
AcDbEntity
  8
0
  6
CONTINUOUS
 62
     7
100
AcDbCircle
 10
432.7000000000037
 20
540.0000000000094
 30
0.0
 40
0.2000000000001413
100
AcDbArc
 50
105.1272322703195
 51
254.8727677296887
  0
LINE
  5
2C7
330
1F
100
AcDbEntity
  8
0
  6
CONTINUOUS
 62
     7
100
AcDbLine
 10
430.0000000000031
 20
560.0000000000158
 30
0.0
 11
434.0000000000049
 21
560.0000000000158
 31
0.0
  0
ARC
  5
2C8
330
1F
100
AcDbEntity
  8
0
  6
CONTINUOUS
 62
     7
100
AcDbCircle
 10
-397.2999999999964
 20
544.0000000000107
 30
0.0
 40
0.2000000000002485
210
0.0
220
0.0
230
-1.0
100
AcDbArc
 50
105.1272322703112
 51
254.8727677296804
  0
LINE
  5
2C9
330
1F
100
AcDbEntity
  8
0
  6
CONTINUOUS
 62
     7
100
AcDbLine
 10
432.5568772790862
 20
131.8038296737436
 30
0.0
 11
432.534017244891
 21
131.8307520236913
 31
0.0
  0
LINE
  5
2CA
330
1F
100
AcDbEntity
  8
0
  6
CONTINUOUS
 62
   253
100
AcDbLine
 10
434.1721585356856
 20
549.4015092412701
 30
0.0
 11
434.1722683134203
 21
549.4015886317645
 31
0.0
  0
LINE
  5
2CB
330
1F
100
AcDbEntity
  8
0
  6
CONTINUOUS
 62
     7
100
AcDbLine
 10
396.9999999999963
 20
588.5000000000248
 30
0.0
 11
395.9999999999961
 21
562.0000000000165
 31
0.0
  0
LINE
  5
2CC
330
1F
100
AcDbEntity
  8
0
  6
CONTINUOUS
 62
     7
100
AcDbLine
 10
432.6896381511125
 20
560.500000000016
 30
0.0
 11
433.0000000000042
 21
560.500000000016
 31
0.0
  0
LINE
  5
2CD
330
1F
100
AcDbEntity
  8
0
  6
CONTINUOUS
 62
     7
100
AcDbLine
 10
401.2999999999972
 20
560.500000000016
 30
0.0
 11
401.2999999999972
 21
560.0000000000158
 31
0.0
  0
LINE
  5
2CE
330
1F
100
AcDbEntity
  8
0
  6
CONTINUOUS
 62
     7
100
AcDbLine
 10
429.2000000000032
 20
590.0000000000251
 30
0.0
 11
428.2000000000028
 21
590.0000000000251
 31
0.0
  0
SPLINE
  5
2CF
330
1F
100
AcDbEntity
  8
0
  6
CONTINUOUS
 62
     7
100
AcDbSpline
210
0.0
220
0.0
230
1.0
 70
     8
 71
     3
 72
     8
 73
     4
 74
     0
 42
0.000000001
 43
0.0001
 40
0.9369427872093079
 40
0.9369427872093079
 40
0.9369427872093079
 40
0.9369427872093079
 40
0.9485184935384792
 40
0.9485184935384792
 40
0.9485184935384792
 40
0.9485184935384792
 10
397.4665342187957
 20
548.1685896504594
 30
0.0
 10
397.4589158163367
 20
548.1778536503758
 30
0.0
 10
397.4511136790328
 20
548.187053465559
 30
0.0
 10
397.4431330297522
 20
548.1961752667899
 30
0.0
  0
LINE
  5
2D0
330
1F
100
AcDbEntity
  8
0
  6
CONTINUOUS
 62
     7
100
AcDbLine
 10
399.9999999999969
 20
560.0000000000158
 30
0.0
 11
395.9999999999952
 21
560.0000000000158
 31
0.0
  0
ARC
  5
2D1
330
1F
100
AcDbEntity
  8
0
  6
CONTINUOUS
 62
     7
100
AcDbCircle
 10
432.7000000000037
 20
548.000000000012
 30
0.0
 40
0.2000000000001445
100
AcDbArc
 50
180.0
 51
254.8727677296846
  0
LINE
  5
2D2
330
1F
100
AcDbEntity
  8
0
  6
CONTINUOUS
 62
     7
100
AcDbLine
 10
435.0000000000042
 20
559.0000000000155
 30
0.0
 11
435.0000000000042
 21
557.500000000015
 31
0.0
  0
LINE
  5
2D3
330
1F
100
AcDbEntity
  8
0
  6
CONTINUOUS
 62
     7
100
AcDbLine
 10
434.000000000004
 20
562.0000000000165
 30
0.0
 11
433.0000000000038
 21
562.0000000000165
 31
0.0
  0
LINE
  5
2D4
330
1F
100
AcDbEntity
  8
0
  6
CONTINUOUS
 62
     7
100
AcDbLine
 10
401.7184512472998
 20
548.000000000012
 30
0.0
 11
399.5502525316945
 21
548.000000000012
 31
0.0
  0
LINE
  5
2D5
330
1F
100
AcDbEntity
  8
0
  6
CONTINUOUS
 62
     7
100
AcDbLine
 10
397.3521926722707
 20
531.8069302588228
 30
0.0
 11
394.2390366386242
 21
530.9653487059267
 31
0.0
  0
ARC
  5
2D6
330
1F
100
AcDbEntity
  8
0
  6
CONTINUOUS
 62
     7
100
AcDbCircle
 10
432.7000000000037
 20
544.0000000000107
 30
0.0
 40
0.2000000000002485
100
AcDbArc
 50
105.1272322703112
 51
254.8727677296804
  0
LINE
  5
2D7
330
1F
100
AcDbEntity
  8
0
  6
CONTINUOUS
 62
     7
100
AcDbLine
 10
432.0129066787542
 20
548.000000000012
 30
0.0
 11
432.5000000000036
 21
548.000000000012
 31
0.0
  0
LINE
  5
2D8
330
1F
100
AcDbEntity
  8
0
  6
CONTINUOUS
 62
     7
100
AcDbLine
 10
396.9999999999959
 20
590.0000000000251
 30
0.0
 11
397.3103618488876
 21
590.0000000000251
 31
0.0
  0
LINE
  5
2D9
330
1F
100
AcDbEntity
  8
0
  6
CONTINUOUS
 62
     7
100
AcDbLine
 10
428.2000000000028
 20
590.0000000000251
 30
0.0
 11
401.7999999999973
 21
590.0000000000251
 31
0.0
  0
LINE
  5
2DA
330
1F
100
AcDbEntity
  8
0
  6
CONTINUOUS
 62
     7
100
AcDbLine
 10
415.0
 20
548.000000000012
 30
0.0
 11
404.4999999999978
 21
548.000000000012
 31
0.0
  0
LINE
  5
2DB
330
1F
100
AcDbEntity
  8
0
  6
CONTINUOUS
 62
     7
100
AcDbLine
 10
401.9344500406841
 20
548.000000000012
 30
0.0
 11
401.7184512472998
 21
548.000000000012
 31
0.0
  0
LINE
  5
2DC
330
1F
100
AcDbEntity
  8
0
  6
CONTINUOUS
 62
   253
100
AcDbLine
 10
397.4999999999964
 20
548.000000000012
 30
0.0
 11
397.4683452482009
 21
548.1672684683538
 31
0.0
  0
ARC
  5
2DD
330
1F
100
AcDbEntity
  8
0
  6
CONTINUOUS
 62
     7
100
AcDbCircle
 10
-397.2999999999964
 20
532.0000000000069
 30
0.0
 40
0.2000000000002485
210
0.0
220
0.0
230
-1.0
100
AcDbArc
 50
105.1272322703112
 51
254.8727677296804
  0
LINE
  5
2DE
330
1F
100
AcDbEntity
  8
0
  6
CONTINUOUS
 62
     7
100
AcDbLine
 10
400.7999999999976
 20
590.0000000000251
 30
0.0
 11
400.4896381511059
 21
590.0000000000251
 31
0.0
  0
LINE
  5
2DF
330
1F
100
AcDbEntity
  8
0
  6
CONTINUOUS
 62
     7
100
AcDbLine
 10
430.0000000000031
 20
560.0000000000158
 30
0.0
 11
399.9999999999969
 21
560.0000000000158
 31
0.0
  0
LINE
  5
2E0
330
1F
100
AcDbEntity
  8
0
  6
CONTINUOUS
 62
   253
100
AcDbLine
 10
397.4683452482009
 20
548.1672684683537
 30
0.0
 11
395.8375006077345
 21
549.4016697745159
 31
0.0
  0
ARC
  5
2E1
330
1F
100
AcDbEntity
  8
0
  6
CONTINUOUS
 62
     7
100
AcDbCircle
 10
396.9999995867792
 20
551.0220164509826
 30
0.0
 40
1.99999958678332
100
AcDbArc
 50
180.0000013291127
 51
234.1168525934283
  0
LINE
  5
2E2
330
1F
100
AcDbEntity
  8
0
  6
CONTINUOUS
 62
     7
100
AcDbLine
 10
415.0
 20
548.000000000012
 30
0.0
 11
425.5000000000022
 21
548.000000000012
 31
0.0
  0
LINE
  5
2E3
330
1F
100
AcDbEntity
  8
0
  6
CONTINUOUS
 62
     7
100
AcDbLine
 10
401.7999999999973
 20
560.500000000016
 30
0.0
 11
400.7999999999969
 21
560.500000000016
 31
0.0
  0
ARC
  5
2E4
330
1F
100
AcDbEntity
  8
0
  6
CONTINUOUS
 62
     7
100
AcDbCircle
 10
-397.2999999999964
 20
548.000000000012
 30
0.0
 40
0.200000000000089
210
0.0
220
0.0
230
-1.0
100
AcDbArc
 50
180.0
 51
254.8727677296846
  0
LINE
  5
2E5
330
1F
100
AcDbEntity
  8
0
  6
CONTINUOUS
 62
     7
100
AcDbLine
 10
435.0000000000042
 20
551.2267781223223
 30
0.0
 11
435.0000000000042
 21
551.1101284161103
 31
0.0
  0
LINE
  5
2E6
330
1F
100
AcDbEntity
  8
0
  6
CONTINUOUS
 62
     7
100
AcDbLine
 10
429.5103618488942
 20
560.500000000016
 30
0.0
 11
429.2000000000025
 21
560.500000000016
 31
0.0
  0
LINE
  5
2E7
330
1F
100
AcDbEntity
  8
0
  6
CONTINUOUS
 62
     7
100
AcDbLine
 10
433.0000000000038
 20
588.5000000000248
 30
0.0
 11
434.000000000004
 21
562.0000000000165
 31
0.0
  0
LINE
  5
2E8
330
1F
100
AcDbEntity
  8
0
  6
CONTINUOUS
 62
     7
100
AcDbLine
 10
429.200000000003
 20
560.500000000016
 30
0.0
 11
429.200000000003
 21
590.0000000000252
 31
0.0
  0
LINE
  5
2E9
330
1F
100
AcDbEntity
  8
0
  6
CONTINUOUS
 62
     7
100
AcDbLine
 10
399.5502525316945
 20
548.000000000012
 30
0.0
 11
398.0763727897205
 21
548.000000000012
 31
0.0
  0
LINE
  5
2EA
330
1F
100
AcDbEntity
  8
0
  6
CONTINUOUS
 62
     7
100
AcDbLine
 10
400.4896381511059
 20
560.500000000016
 30
0.0
 11
400.7999999999976
 21
560.500000000016
 31
0.0
  0
LINE
  5
2EB
330
1F
100
AcDbEntity
  8
0
  6
CONTINUOUS
 62
     7
100
AcDbLine
 10
394.9999999999959
 20
559.0000000000155
 30
0.0
 11
394.9999999999959
 21
557.500000000015
 31
0.0
  0
LINE
  5
2EC
330
1F
100
AcDbEntity
  8
0
  6
CONTINUOUS
 62
     7
100
AcDbLine
 10
428.2000000000028
 20
560.500000000016
 30
0.0
 11
429.2000000000032
 21
560.500000000016
 31
0.0
  0
ARC
  5
2ED
330
1F
100
AcDbEntity
  8
0
  6
CONTINUOUS
 62
     7
100
AcDbCircle
 10
432.7000000000037
 20
532.0000000000069
 30
0.0
 40
0.2000000000002485
100
AcDbArc
 50
105.1272322703112
 51
254.8727677296804
  0
LINE
  5
2EE
330
1F
100
AcDbEntity
  8
0
  6
CONTINUOUS
 62
     7
100
AcDbLine
 10
428.7000000000029
 20
560.500000000016
 30
0.0
 11
428.7000000000029
 21
560.0000000000158
 31
0.0
  0
LINE
  5
2EF
330
1F
100
AcDbEntity
  8
0
  6
CONTINUOUS
 62
     7
100
AcDbLine
 10
394.9999999999959
 20
551.2267781223223
 30
0.0
 11
394.9999999999959
 21
551.1101284161103
 31
0.0
  0
ARC
  5
2F0
330
1F
100
AcDbEntity
  8
0
  6
CONTINUOUS
 62
     7
100
AcDbCircle
 10
-397.2999999999964
 20
536.0000000000082
 30
0.0
 40
0.2000000000001413
210
0.0
220
0.0
230
-1.0
100
AcDbArc
 50
105.1272322703195
 51
254.8727677296877
  0
ARC
  5
2F1
330
1F
100
AcDbEntity
  8
0
  6
CONTINUOUS
 62
     7
100
AcDbCircle
 10
-397.2999999999964
 20
540.0000000000094
 30
0.0
 40
0.2000000000001413
210
0.0
220
0.0
230
-1.0
100
AcDbArc
 50
105.1272322703195
 51
254.8727677296887
  0
LINE
  5
2F2
330
1F
100
AcDbEntity
  8
0
  6
CONTINUOUS
 62
     7
100
AcDbLine
 10
429.2000000000025
 20
590.0000000000251
 30
0.0
 11
429.5103618488942
 21
590.0000000000251
 31
0.0
  0
ARC
  5
2F3
330
1F
100
AcDbEntity
  8
0
  6
CONTINUOUS
 62
     7
100
AcDbCircle
 10
-434.000000000004
 20
559.0000000000155
 30
0.0
 40
1.000000000000556
210
0.0
220
0.0
230
-1.0
100
AcDbArc
 50
90.0
 51
180.0
  0
LINE
  5
2F4
330
1F
100
AcDbEntity
  8
0
  6
CONTINUOUS
 62
     7
100
AcDbLine
 10
401.7999999999973
 20
560.500000000016
 30
0.0
 11
428.2000000000028
 21
560.500000000016
 31
0.0
  0
LINE
  5
2F5
330
1F
100
AcDbEntity
  8
0
  6
CONTINUOUS
 62
     7
100
AcDbLine
 10
397.3103618488876
 20
560.500000000016
 30
0.0
 11
396.9999999999959
 21
560.500000000016
 31
0.0
  0
LINE
  5
2F6
330
1F
100
AcDbEntity
  8
0
  6
CONTINUOUS
 62
     7
100
AcDbLine
 10
400.7999999999969
 20
590.0000000000251
 30
0.0
 11
401.7999999999973
 21
590.0000000000251
 31
0.0
  0
LINE
  5
2F7
330
1F
100
AcDbEntity
  8
0
  6
CONTINUOUS
 62
     7
100
AcDbLine
 10
398.0763727897205
 20
548.000000000012
 30
0.0
 11
397.9870933212458
 21
548.000000000012
 31
0.0
  0
ARC
  5
2F8
330
1F
100
AcDbEntity
  8
0
  6
CONTINUOUS
 62
     7
100
AcDbCircle
 10
395.9999999999961
 20
559.0000000000155
 30
0.0
 40
1.000000000000556
100
AcDbArc
 50
90.0
 51
180.0
  0
LINE
  5
2F9
330
1F
100
AcDbEntity
  8
0
  6
CONTINUOUS
 62
     7
100
AcDbLine
 10
400.7999999999969
 20
112.4999999999819
 30
0.0
 11
401.7999999999973
 21
112.4999999999819
 31
0.0
  0
ARC
  5
2FA
330
1F
100
AcDbEntity
  8
0
  6
CONTINUOUS
 62
     7
100
AcDbCircle
 10
434.000000000004
 20
120.9999999999846
 30
0.0
 40
1.000000000000612
100
AcDbArc
 50
270.0
 51
359.9999999999998
  0
LINE
  5
2FB
330
1F
100
AcDbEntity
  8
0
  6
CONTINUOUS
 62
     7
100
AcDbLine
 10
401.7184512515281
 20
131.999999999988
 30
0.0
 11
399.5502525316905
 21
131.999999999988
 31
0.0
  0
LINE
  5
2FC
330
1F
100
AcDbEntity
  8
0
  6
CONTINUOUS
 62
     7
100
AcDbLine
 10
401.9344500236728
 20
131.999999999988
 30
0.0
 11
401.7184512515281
 21
131.999999999988
 31
0.0
  0
LINE
  5
2FD
330
1F
100
AcDbEntity
  8
0
  6
CONTINUOUS
 62
     7
100
AcDbLine
 10
430.0000000000031
 20
119.9999999999843
 30
0.0
 11
434.0000000000048
 21
119.9999999999843
 31
0.0
  0
LINE
  5
2FE
330
1F
100
AcDbEntity
  8
0
  6
CONTINUOUS
 62
     7
100
AcDbLine
 10
433.0000000000042
 20
590.0000000000251
 30
0.0
 11
432.6896381511125
 21
590.0000000000251
 31
0.0
  0
LINE
  5
2FF
330
1F
100
AcDbEntity
  8
0
  6
CONTINUOUS
 62
     7
100
AcDbLine
 10
428.2000000000028
 20
112.9999999999821
 30
0.0
 11
401.7999999999973
 21
112.9999999999821
 31
0.0
  0
LINE
  5
300
330
1F
100
AcDbEntity
  8
0
  6
CONTINUOUS
 62
     7
100
AcDbLine
 10
399.9999999999969
 20
119.9999999999843
 30
0.0
 11
395.9999999999952
 21
119.9999999999843
 31
0.0
  0
LINE
  5
301
330
1F
100
AcDbEntity
  8
0
  6
CONTINUOUS
 62
   253
100
AcDbLine
 10
395.8277316865798
 20
549.4015886317645
 30
0.0
 11
395.8375006077345
 21
549.4016697745159
 31
0.0
  0
LINE
  5
302
330
1F
100
AcDbEntity
  8
0
  6
CONTINUOUS
 62
     7
100
AcDbLine
 10
428.2000000000028
 20
89.99999999997479
 30
0.0
 11
401.7999999999973
 21
89.9999999999748
 31
0.0
  0
LINE
  5
303
330
1F
100
AcDbEntity
  8
0
  6
CONTINUOUS
 62
     7
100
AcDbLine
 10
400.7999999999971
 20
112.9999999999821
 30
0.0
 11
400.7999999999971
 21
117.5999999999835
 31
0.0
  0
LINE
  5
304
330
1F
100
AcDbEntity
  8
0
  6
CONTINUOUS
 62
   253
100
AcDbLine
 10
425.5000000000022
 20
138.9653487059104
 30
0.0
 11
404.4999999999978
 21
138.9653487059104
 31
0.0
  0
LINE
  5
305
330
1F
100
AcDbEntity
  8
0
  6
CONTINUOUS
 62
     7
100
AcDbLine
 10
401.7999999999973
 20
112.9999999999821
 30
0.0
 11
400.7999999999969
 21
112.9999999999821
 31
0.0
  0
LINE
  5
306
330
1F
100
AcDbEntity
  8
0
  6
CONTINUOUS
 62
     7
100
AcDbLine
 10
399.5502525316905
 20
131.999999999988
 30
0.0
 11
398.0763727897254
 21
131.999999999988
 31
0.0
  0
LINE
  5
307
330
1F
100
AcDbEntity
  8
0
  6
CONTINUOUS
 62
     7
100
AcDbLine
 10
435.0000000000042
 20
120.9999999999846
 30
0.0
 11
435.0000000000042
 21
122.499999999985
 31
0.0
  0
LINE
  5
308
330
1F
100
AcDbEntity
  8
0
  6
CONTINUOUS
 62
     7
100
AcDbLine
 10
429.2000000000032
 20
112.4999999999819
 30
0.0
 11
428.2000000000028
 21
112.4999999999819
 31
0.0
  0
LINE
  5
309
330
1F
100
AcDbEntity
  8
0
  6
CONTINUOUS
 62
     7
100
AcDbLine
 10
398.0763727897254
 20
131.999999999988
 30
0.0
 11
397.9870933212612
 21
131.999999999988
 31
0.0
  0
LINE
  5
30A
330
1F
100
AcDbEntity
  8
0
  6
CONTINUOUS
 62
   253
100
AcDbLine
 10
404.4999999999978
 20
146.9653487059129
 30
0.0
 11
394.2390366386219
 21
146.9653487059129
 31
0.0
  0
LINE
  5
30B
330
1F
100
AcDbEntity
  8
0
  6
CONTINUOUS
 62
     7
100
AcDbLine
 10
396.9743243722598
 20
548.5726555838532
 30
0.0
 11
395.8278414643144
 21
549.4015092412701
 31
0.0
  0
LINE
  5
30C
330
1F
100
AcDbEntity
  8
0
  6
CONTINUOUS
 62
     7
100
AcDbLine
 10
415.0
 20
131.999999999988
 30
0.0
 11
425.5000000000022
 21
131.999999999988
 31
0.0
  0
LINE
  5
30D
330
1F
100
AcDbEntity
  8
0
  6
CONTINUOUS
 62
   253
100
AcDbLine
 10
432.5000000000036
 20
131.999999999988
 30
0.0
 11
432.5315342059641
 21
131.8329168273538
 31
0.0
  0
SPLINE
  5
30E
330
1F
100
AcDbEntity
  8
0
  6
CONTINUOUS
 62
     7
100
AcDbSpline
210
0.0
220
0.0
230
1.0
 70
     8
 71
     3
 72
    11
 73
     7
 74
     0
 42
0.000000001
 43
0.0001
 40
0.9485184935384792
 40
0.9485184935384792
 40
0.9485184935384792
 40
0.9485184935384792
 40
0.9506083447057168
 40
0.9506083447057168
 40
0.9506083447057168
 40
0.9519178501939815
 40
0.9519178501939815
 40
0.9519178501939815
 40
0.9519178501939815
 10
397.4731164891778
 20
548.1603081825655
 30
0.0
 10
397.4718155051439
 20
548.1620560585562
 30
0.0
 10
397.4704805516084
 20
548.1637681365783
 30
0.0
 10
397.4691126599428
 20
548.1654432274203
 30
0.0
 10
397.4682555359181
 20
548.1664928431466
 30
0.0
 10
397.4673960530153
 20
548.1675416574998
 30
0.0
 10
397.4665342187956
 20
548.1685896504594
 30
0.0
  0
LINE
  5
30F
330
1F
100
AcDbEntity
  8
0
  6
CONTINUOUS
 62
     7
100
AcDbLine
 10
415.0
 20
131.999999999988
 30
0.0
 11
404.4999999999978
 21
131.999999999988
 31
0.0
  0
LINE
  5
310
330
1F
100
AcDbEntity
  8
0
  6
CONTINUOUS
 62
     7
100
AcDbLine
 10
400.4896381511055
 20
590.0000000000251
 30
0.0
 11
397.3103618488879
 21
590.0000000000251
 31
0.0
  0
LINE
  5
311
330
1F
100
AcDbEntity
  8
0
  6
CONTINUOUS
 62
     7
100
AcDbLine
 10
429.2000000000029
 20
89.99999999997479
 30
0.0
 11
429.2000000000029
 21
112.4999999999819
 31
0.0
  0
LINE
  5
312
330
1F
100
AcDbEntity
  8
0
  6
CONTINUOUS
 62
     7
100
AcDbLine
 10
428.2000000000028
 20
89.99999999997479
 30
0.0
 11
429.2000000000032
 21
89.99999999997479
 31
0.0
  0
LINE
  5
313
330
1F
100
AcDbEntity
  8
0
  6
CONTINUOUS
 62
     7
100
AcDbLine
 10
432.5334657812044
 20
548.1685896504594
 30
0.0
 11
434.1721585356856
 21
549.4015092412701
 31
0.0
  0
LINE
  5
314
330
1F
100
AcDbEntity
  8
0
  6
CONTINUOUS
 62
   253
100
AcDbLine
 10
432.5316547517992
 20
548.1672684683538
 30
0.0
 11
434.1624993922655
 21
549.4016697745159
 31
0.0
  0
LINE
  5
315
330
1F
100
AcDbEntity
  8
0
  6
CONTINUOUS
 62
     7
100
AcDbLine
 10
431.9236272102747
 20
131.999999999988
 30
0.0
 11
432.0129066787389
 21
131.999999999988
 31
0.0
  0
ARC
  5
316
330
1F
100
AcDbEntity
  8
0
  6
CONTINUOUS
 62
     7
100
AcDbCircle
 10
-433.0000004211271
 20
551.0220164469439
 30
0.0
 40
1.999999578877088
210
0.0
220
0.0
230
-1.0
100
AcDbArc
 50
180.0000012134137
 51
234.1168527091243
  0
LINE
  5
317
330
1F
100
AcDbEntity
  8
0
  6
CONTINUOUS
 62
     7
100
AcDbLine
 10
397.9870933212612
 20
131.999999999988
 30
0.0
 11
397.4999999999964
 21
131.999999999988
 31
0.0
  0
LINE
  5
318
330
1F
100
AcDbEntity
  8
0
  6
CONTINUOUS
 62
     7
100
AcDbLine
 10
404.4999999999978
 20
131.999999999988
 30
0.0
 11
401.9344500236728
 21
131.999999999988
 31
0.0
  0
LINE
  5
319
330
1F
100
AcDbEntity
  8
0
  6
CONTINUOUS
 62
     7
100
AcDbLine
 10
432.0129066787389
 20
131.999999999988
 30
0.0
 11
432.5000000000036
 21
131.999999999988
 31
0.0
  0
LINE
  5
31A
330
1F
100
AcDbEntity
  8
0
  6
CONTINUOUS
 62
     7
100
AcDbLine
 10
397.4431330297522
 20
548.1961752667899
 30
0.0
 11
396.9743243722598
 21
548.5726555838534
 31
0.0
  0
LINE
  5
31B
330
1F
100
AcDbEntity
  8
0
  6
CONTINUOUS
 62
     7
100
AcDbLine
 10
428.2815487484719
 20
131.999999999988
 30
0.0
 11
430.4497474683096
 21
131.999999999988
 31
0.0
  0
LINE
  5
31C
330
1F
100
AcDbEntity
  8
0
  6
CONTINUOUS
 62
   253
100
AcDbLine
 10
404.4999999999978
 20
137.0346512940695
 30
0.0
 11
394.239036638622
 21
137.0346512940695
 31
0.0
  0
LINE
  5
31D
330
1F
100
AcDbEntity
  8
0
  6
CONTINUOUS
 62
     7
100
AcDbLine
 10
430.4497474683096
 20
131.999999999988
 30
0.0
 11
431.9236272102747
 21
131.999999999988
 31
0.0
  0
LINE
  5
31E
330
1F
100
AcDbEntity
  8
0
  6
CONTINUOUS
 62
     7
100
AcDbLine
 10
432.6896381511121
 20
560.500000000016
 30
0.0
 11
429.5103618488946
 21
560.500000000016
 31
0.0
  0
LINE
  5
31F
330
1F
100
AcDbEntity
  8
0
  6
CONTINUOUS
 62
     7
100
AcDbLine
 10
428.0655499763273
 20
131.999999999988
 30
0.0
 11
428.2815487484719
 21
131.999999999988
 31
0.0
  0
LINE
  5
320
330
1F
100
AcDbEntity
  8
0
  6
CONTINUOUS
 62
     7
100
AcDbLine
 10
428.2000000000028
 20
117.5999999999835
 30
0.0
 11
401.7999999999973
 21
117.5999999999835
 31
0.0
  0
LINE
  5
321
330
1F
100
AcDbEntity
  8
0
  6
CONTINUOUS
 62
     7
100
AcDbLine
 10
435.0000000000042
 20
124.4999999999857
 30
0.0
 11
435.0000000000042
 21
128.7732218776777
 31
0.0
  0
LINE
  5
322
330
1F
100
AcDbEntity
  8
0
  6
CONTINUOUS
 62
     7
100
AcDbLine
 10
401.7999999999973
 20
89.9999999999748
 30
0.0
 11
400.7999999999969
 21
89.9999999999748
 31
0.0
  0
LINE
  5
323
330
1F
100
AcDbEntity
  8
0
  6
CONTINUOUS
 62
     7
100
AcDbLine
 10
400.7999999999971
 20
89.9999999999748
 30
0.0
 11
400.7999999999971
 21
112.4999999999819
 31
0.0
  0
LINE
  5
324
330
1F
100
AcDbEntity
  8
0
  6
CONTINUOUS
 62
     7
100
AcDbLine
 10
428.2000000000028
 20
112.4999999999819
 30
0.0
 11
401.7999999999973
 21
112.4999999999819
 31
0.0
  0
LINE
  5
325
330
1F
100
AcDbEntity
  8
0
  6
CONTINUOUS
 62
     7
100
AcDbLine
 10
429.2000000000032
 20
117.5999999999835
 30
0.0
 11
428.2000000000028
 21
117.5999999999835
 31
0.0
  0
LINE
  5
326
330
1F
100
AcDbEntity
  8
0
  6
CENTER
 62
     1
100
AcDbLine
 10
415.0
 20
11.30988648303873
 30
0.0
 11
415.0
 21
48.80988648304102
 31
0.0
  0
LINE
  5
327
330
1F
100
AcDbEntity
  8
0
  6
CONTINUOUS
 62
     7
100
AcDbLine
 10
432.5000000000037
 20
560.500000000016
 30
0.0
 11
432.5000000000037
 21
560.0000000000158
 31
0.0
  0
LINE
  5
328
330
1F
100
AcDbEntity
  8
0
  6
CONTINUOUS
 62
     7
100
AcDbLine
 10
396.9999999999963
 20
560.500000000016
 30
0.0
 11
396.9999999999963
 21
590.0000000000252
 31
0.0
  0
LINE
  5
329
330
1F
100
AcDbEntity
  8
0
  6
CONTINUOUS
 62
     7
100
AcDbLine
 10
425.5000000000022
 20
131.999999999988
 30
0.0
 11
428.0655499763273
 21
131.999999999988
 31
0.0
  0
LINE
  5
32A
330
1F
100
AcDbEntity
  8
0
  6
CONTINUOUS
 62
     7
100
AcDbLine
 10
397.4999999999964
 20
560.500000000016
 30
0.0
 11
397.4999999999964
 21
560.0000000000158
 31
0.0
  0
LINE
  5
32B
330
1F
100
AcDbEntity
  8
0
  6
CONTINUOUS
 62
   253
100
AcDbLine
 10
397.4999999999964
 20
131.999999999988
 30
0.0
 11
397.4683452482008
 21
131.8327315316463
 31
0.0
  0
LINE
  5
32C
330
1F
100
AcDbEntity
  8
0
  6
CONTINUOUS
 62
     7
100
AcDbLine
 10
429.5103618488946
 20
590.0000000000251
 30
0.0
 11
432.6896381511121
 21
590.0000000000251
 31
0.0
  0
LINE
  5
32D
330
1F
100
AcDbEntity
  8
0
  6
CONTINUOUS
 62
     7
100
AcDbLine
 10
428.2000000000028
 20
112.9999999999821
 30
0.0
 11
429.2000000000032
 21
112.9999999999821
 31
0.0
  0
LINE
  5
32E
330
1F
100
AcDbEntity
  8
0
  6
CONTINUOUS
 62
   253
100
AcDbLine
 10
425.5000000000022
 20
133.0346512940683
 30
0.0
 11
404.4999999999978
 21
133.0346512940683
 31
0.0
  0
LINE
  5
32F
330
1F
100
AcDbEntity
  8
0
  6
CONTINUOUS
 62
   253
100
AcDbLine
 10
425.5000000000022
 20
145.034651294072
 30
0.0
 11
435.7609633613781
 21
145.034651294072
 31
0.0
  0
LINE
  5
330
330
1F
100
AcDbEntity
  8
0
  6
CONTINUOUS
 62
     7
100
AcDbLine
 10
400.7999999999969
 20
117.5999999999835
 30
0.0
 11
401.7999999999973
 21
117.5999999999835
 31
0.0
  0
LINE
  5
331
330
1F
100
AcDbEntity
  8
0
  6
CONTINUOUS
 62
     7
100
AcDbLine
 10
394.9999999999959
 20
124.4999999999857
 30
0.0
 11
394.9999999999959
 21
128.7732218776777
 31
0.0
  0
LINE
  5
332
330
1F
100
AcDbEntity
  8
0
  6
CONTINUOUS
 62
     7
100
AcDbLine
 10
429.2000000000029
 20
112.9999999999821
 30
0.0
 11
429.2000000000029
 21
117.5999999999835
 31
0.0
  0
LINE
  5
333
330
1F
100
AcDbEntity
  8
0
  6
CONTINUOUS
 62
   253
100
AcDbLine
 10
395.8278414643144
 20
549.4015092412701
 30
0.0
 11
395.8277316865798
 21
549.4015886317645
 31
0.0
  0
LINE
  5
334
330
1F
100
AcDbEntity
  8
0
  6
CONTINUOUS
 62
   253
100
AcDbLine
 10
425.5000000000022
 20
146.9653487059129
 30
0.0
 11
404.4999999999978
 21
146.9653487059129
 31
0.0
  0
ENDSEC
  0
SECTION
  2
OBJECTS
  0
DICTIONARY
  5
C
330
0
100
AcDbDictionary
  3
ACAD_GROUP
350
D
  3
ACAD_LAYOUT
350
1A
  3
ACAD_MATERIAL
350
43
  3
ACAD_MLEADERSTYLE
350
6B
  3
ACAD_MLINESTYLE
350
17
  3
ACAD_PLOTSETTINGS
350
19
  3
ACAD_SCALELIST
350
47
  3
ACAD_VISUALSTYLE
350
2A
  3
ACDBHEADERROUNDTRIPXREC
350
335
  3
ACDBVARIABLEDICTIONARY
350
356
  0
DICTIONARY
  5
35D
330
8
100
AcDbDictionary
280
     1
  3
ACAD_XREC_ROUNDTRIP
360
35E
  0
DICTIONARY
  5
D
102
{ACAD_REACTORS
330
C
102
}
330
C
100
AcDbDictionary
  0
DICTIONARY
  5
1A
102
{ACAD_REACTORS
330
C
102
}
330
C
100
AcDbDictionary
  0
DICTIONARY
  5
43
102
{ACAD_REACTORS
330
C
102
}
330
C
100
AcDbDictionary
  3
BYBLOCK
350
45
  3
BYLAYER
350
44
  3
GLOBAL
350
46
  0
DICTIONARY
  5
6B
102
{ACAD_REACTORS
330
C
102
}
330
C
100
AcDbDictionary
  3
STANDARD
350
6C
  0
DICTIONARY
  5
17
102
{ACAD_REACTORS
330
C
102
}
330
C
100
AcDbDictionary
  3
STANDARD
350
18
  0
DICTIONARY
  5
19
102
{ACAD_REACTORS
330
C
102
}
330
C
100
AcDbDictionary
  0
DICTIONARY
  5
47
102
{ACAD_REACTORS
330
C
102
}
330
C
100
AcDbDictionary
  3
A0
350
48
  3
A1
350
49
  3
A2
350
4A
  3
A3
350
4B
  3
A4
350
4C
  3
A5
350
4D
  3
A6
350
4E
  3
A7
350
4F
  3
A8
350
50
  3
A9
350
51
  3
B0
350
52
  3
B1
350
53
  3
B2
350
54
  3
B3
350
55
  3
B4
350
56
  3
B5
350
57
  3
B6
350
58
  3
B7
350
59
  3
B8
350
5A
  3
B9
350
5B
  3
C0
350
5C
  3
C1
350
5D
  3
C2
350
5E
  3
C3
350
5F
  3
C4
350
60
  3
C5
350
61
  3
C6
350
62
  3
C7
350
63
  3
C8
350
64
  3
C9
350
65
  3
D0
350
66
  3
D1
350
67
  3
D2
350
68
  0
DICTIONARY
  5
2A
102
{ACAD_REACTORS
330
C
102
}
330
C
100
AcDbDictionary
  3
2DWIREFRAME
350
2F
  3
BASIC
350
32
  3
BRIGHTEN
350
36
  3
COLORCHANGE
350
3A
  3
CONCEPTUAL
350
34
  3
DIM
350
35
  3
EDGECOLOROFF
350
3D
  3
FACEPATTERN
350
39
  3
FLAT
350
2B
  3
FLATWITHEDGES
350
2C
  3
GOURAUD
350
2D
  3
GOURAUDWITHEDGES
350
2E
  3
HIDDEN
350
31
  3
JITTEROFF
350
3B
  3
LINEPATTERN
350
38
  3
OVERHANGOFF
350
3C
  3
REALISTIC
350
33
  3
SHADED
350
42
  3
SHADED_WITH_EDGES
350
41
  3
SHADES_OF_GRAY
350
3E
  3
SKETCHY
350
3F
  3
THICKEN
350
37
  3
WIREFRAME
350
30
  3
X-RAY
350
40
  0
DICTIONARY
  5
335
102
{ACAD_REACTORS
330
C
102
}
330
C
100
AcDbDictionary
  3
CEPSNID
350
33F
  3
CEPSNTYPE
350
33E
  3
DIMSTYLEDATA
350
355
  3
FINGERPRINTGUID
350
340
  3
HYPERLINKBASE
350
338
  3
INSUNITS
350
33D
  3
LAYOUTDICT
350
33A
  3
LWETCUNION
350
33C
  3
PLOTSETDICT
350
33B
  3
PSVPSCALE
350
342
  3
PUCSBASE
350
345
  3
PUCSORGBACK
350
34B
  3
PUCSORGBOTTOM
350
347
  3
PUCSORGFRONT
350
34A
  3
PUCSORGLEFT
350
348
  3
PUCSORGRIGHT
350
349
  3
PUCSORGTOP
350
346
  3
PUCSORTHOREF
350
343
  3
PUCSORTHOVIEW
350
344
  3
STYLESHEET
350
339
  3
TSTACKALIGN
350
336
  3
TSTACKSIZE
350
337
  3
UCSBASE
350
34E
  3
UCSORGBACK
350
354
  3
UCSORGBOTTOM
350
350
  3
UCSORGFRONT
350
353
  3
UCSORGLEFT
350
351
  3
UCSORGRIGHT
350
352
  3
UCSORGTOP
350
34F
  3
UCSORTHOREF
350
34C
  3
UCSORTHOVIEW
350
34D
  3
VERSIONGUID
350
341
  0
DICTIONARY
  5
356
102
{ACAD_REACTORS
330
C
102
}
330
C
100
AcDbDictionary
  3
CANNOSCALE
350
35F
  3
CMLEADERSTYLE
350
358
  3
CTABLESTYLE
350
357
  3
DIMASSOC
350
35B
  3
HIDETEXT
350
35C
  3
MSLTSCALE
350
360
  0
XRECORD
  5
35E
102
{ACAD_REACTORS
330
35D
102
}
330
35D
100
AcDbXrecord
102
VTR_0.000_0.000_1.000_1.000_VISUALSTYLE
340
2F
102
VTR_0.000_0.000_1.000_1.000_GRIDDISPLAY
 70
     3
102
VTR_0.000_0.000_1.000_1.000_GRIDMAJOR
 70
     5
102
VTR_0.000_0.000_1.000_1.000_DEFAULTLIGHTING
280
     1
102
VTR_0.000_0.000_1.000_1.000_DEFAULTLIGHTINGTYPE
 70
     1
102
VTR_0.000_0.000_1.000_1.000_BRIGHTNESS
141
0.0
102
VTR_0.000_0.000_1.000_1.000_CONTRAST
142
0.0
  0
MATERIAL
  5
45
102
{ACAD_REACTORS
330
43
102
}
102
{ACAD_XDICTIONARY
360
363
102
}
330
43
100
AcDbMaterial
  1
BYBLOCK
  0
MATERIAL
  5
44
102
{ACAD_REACTORS
330
43
102
}
102
{ACAD_XDICTIONARY
360
361
102
}
330
43
100
AcDbMaterial
  1
BYLAYER
  0
MATERIAL
  5
46
102
{ACAD_REACTORS
330
43
102
}
102
{ACAD_XDICTIONARY
360
365
102
}
330
43
100
AcDbMaterial
  1
GLOBAL
  0
ACAD_PROXY_OBJECT
  5
6C
102
{ACAD_REACTORS
330
6B
102
}
330
6B
100
AcDbProxyObject
 90
      499
 91
      505
 93
      610
310
40901902A4063FBFFFFFE056BD1B81E855B9FC0AD7A3703D0AD73F4214DD185B99185C9900AD7A3703D0AC73F90141901A02B5E8DC0F42B1CFC02B5E8DC0F42B1CFE5764000000000000300FC0
340
14
340
0
340
11
340
0
 94
        0
1001
ACAD_MLEADERVER
1070
     2
  0
MLINESTYLE
  5
18
102
{ACAD_REACTORS
330
17
102
}
330
17
100
AcDbMlineStyle
  2
Standard
 70
     0
  3

 62
   256
 51
90.0
 52
90.0
 71
     2
 49
0.5
 62
   256
  6
BYLAYER
 49
-0.5
 62
   256
  6
BYLAYER
  0
ACAD_PROXY_OBJECT
  5
48
102
{ACAD_REACTORS
330
47
102
}
330
47
100
AcDbProxyObject
 90
      499
 91
      503
 93
       41
310
903313A31580
  0
ACAD_PROXY_OBJECT
  5
49
102
{ACAD_REACTORS
330
47
102
}
330
47
100
AcDbProxyObject
 90
      499
 91
      503
 93
      105
310
903313A324000000000000004000
  0
ACAD_PROXY_OBJECT
  5
4A
102
{ACAD_REACTORS
330
47
102
}
330
47
100
AcDbProxyObject
 90
      499
 91
      503
 93
      105
310
903313A344000000000000104000
  0
ACAD_PROXY_OBJECT
  5
4B
102
{ACAD_REACTORS
330
47
102
}
330
47
100
AcDbProxyObject
 90
      499
 91
      503
 93
      105
310
903313A354000000000000144000
  0
ACAD_PROXY_OBJECT
  5
4C
102
{ACAD_REACTORS
330
47
102
}
330
47
100
AcDbProxyObject
 90
      499
 91
      503
 93
      105
310
903313A384000000000000204000
  0
ACAD_PROXY_OBJECT
  5
4D
102
{ACAD_REACTORS
330
47
102
}
330
47
100
AcDbProxyObject
 90
      499
 91
      503
 93
      113
310
904313A31304000000000000244000
  0
ACAD_PROXY_OBJECT
  5
4E
102
{ACAD_REACTORS
330
47
102
}
330
47
100
AcDbProxyObject
 90
      499
 91
      503
 93
      113
310
904313A31364000000000000304000
  0
ACAD_PROXY_OBJECT
  5
4F
102
{ACAD_REACTORS
330
47
102
}
330
47
100
AcDbProxyObject
 90
      499
 91
      503
 93
      113
310
904313A32304000000000000344000
  0
ACAD_PROXY_OBJECT
  5
50
102
{ACAD_REACTORS
330
47
102
}
330
47
100
AcDbProxyObject
 90
      499
 91
      503
 93
      113
310
904313A333040000000000003E4000
  0
ACAD_PROXY_OBJECT
  5
51
102
{ACAD_REACTORS
330
47
102
}
330
47
100
AcDbProxyObject
 90
      499
 91
      503
 93
      113
310
904313A34304000000000000444000
  0
ACAD_PROXY_OBJECT
  5
52
102
{ACAD_REACTORS
330
47
102
}
330
47
100
AcDbProxyObject
 90
      499
 91
      503
 93
      113
310
904313A35304000000000000494000
  0
ACAD_PROXY_OBJECT
  5
53
102
{ACAD_REACTORS
330
47
102
}
330
47
100
AcDbProxyObject
 90
      499
 91
      503
 93
      121
310
905313A3130304000000000000594000
  0
ACAD_PROXY_OBJECT
  5
54
102
{ACAD_REACTORS
330
47
102
}
330
47
100
AcDbProxyObject
 90
      499
 91
      503
 93
      105
310
903323A310000000000000010100
  0
ACAD_PROXY_OBJECT
  5
55
102
{ACAD_REACTORS
330
47
102
}
330
47
100
AcDbProxyObject
 90
      499
 91
      503
 93
      105
310
903343A310000000000000410100
  0
ACAD_PROXY_OBJECT
  5
56
102
{ACAD_REACTORS
330
47
102
}
330
47
100
AcDbProxyObject
 90
      499
 91
      503
 93
      105
310
903383A310000000000000810100
  0
ACAD_PROXY_OBJECT
  5
57
102
{ACAD_REACTORS
330
47
102
}
330
47
100
AcDbProxyObject
 90
      499
 91
      503
 93
      113
310
90431303A310000000000000910100
  0
ACAD_PROXY_OBJECT
  5
58
102
{ACAD_REACTORS
330
47
102
}
330
47
100
AcDbProxyObject
 90
      499
 91
      503
 93
      121
310
9053130303A310000000000001650100
  0
ACAD_PROXY_OBJECT
  5
59
102
{ACAD_REACTORS
330
47
102
}
330
47
100
AcDbProxyObject
 90
      499
 91
      503
 93
      257
310
90E312F31323822203D2031272D3022000000000000200FC000000000000284000
  0
ACAD_PROXY_OBJECT
  5
5A
102
{ACAD_REACTORS
330
47
102
}
330
47
100
AcDbProxyObject
 90
      499
 91
      503
 93
      249
310
90D312F363422203D2031272D3022000000000000240FC000000000000284000
  0
ACAD_PROXY_OBJECT
  5
5B
102
{ACAD_REACTORS
330
47
102
}
330
47
100
AcDbProxyObject
 90
      499
 91
      503
 93
      249
310
90D312F333222203D2031272D3022000000000000280FC000000000000284000
  0
ACAD_PROXY_OBJECT
  5
5C
102
{ACAD_REACTORS
330
47
102
}
330
47
100
AcDbProxyObject
 90
      499
 91
      503
 93
      249
310
90D312F313622203D2031272D30220000000000002C0FC000000000000284000
  0
ACAD_PROXY_OBJECT
  5
5D
102
{ACAD_REACTORS
330
47
102
}
330
47
100
AcDbProxyObject
 90
      499
 91
      503
 93
      249
310
90D332F333222203D2031272D30220000000000002E0FC000000000000284000
  0
ACAD_PROXY_OBJECT
  5
5E
102
{ACAD_REACTORS
330
47
102
}
330
47
100
AcDbProxyObject
 90
      499
 91
      503
 93
      241
310
90C312F3822203D2031272D3022000000000000300FC000000000000284000
  0
ACAD_PROXY_OBJECT
  5
5F
102
{ACAD_REACTORS
330
47
102
}
330
47
100
AcDbProxyObject
 90
      499
 91
      503
 93
      249
310
90D332F313622203D2031272D3022000000000000320FC000000000000284000
  0
ACAD_PROXY_OBJECT
  5
60
102
{ACAD_REACTORS
330
47
102
}
330
47
100
AcDbProxyObject
 90
      499
 91
      503
 93
      241
310
90C312F3422203D2031272D3022000000000000340FC000000000000284000
  0
ACAD_PROXY_OBJECT
  5
61
102
{ACAD_REACTORS
330
47
102
}
330
47
100
AcDbProxyObject
 90
      499
 91
      503
 93
      241
310
90C332F3822203D2031272D3022000000000000360FC000000000000284000
  0
ACAD_PROXY_OBJECT
  5
62
102
{ACAD_REACTORS
330
47
102
}
330
47
100
AcDbProxyObject
 90
      499
 91
      503
 93
      241
310
90C312F3222203D2031272D3022000000000000380FC000000000000284000
  0
ACAD_PROXY_OBJECT
  5
63
102
{ACAD_REACTORS
330
47
102
}
330
47
100
AcDbProxyObject
 90
      499
 91
      503
 93
      241
310
90C332F3422203D2031272D30220000000000003A0FC000000000000284000
  0
ACAD_PROXY_OBJECT
  5
64
102
{ACAD_REACTORS
330
47
102
}
330
47
100
AcDbProxyObject
 90
      499
 91
      503
 93
      161
310
90A3122203D2031272D30224000000000000284000
  0
ACAD_PROXY_OBJECT
  5
65
102
{ACAD_REACTORS
330
47
102
}
330
47
100
AcDbProxyObject
 90
      499
 91
      503
 93
      257
310
90E312D312F3222203D2031272D30220000000000003E0FC000000000000284000
  0
ACAD_PROXY_OBJECT
  5
66
102
{ACAD_REACTORS
330
47
102
}
330
47
100
AcDbProxyObject
 90
      499
 91
      503
 93
      225
310
90A3322203D2031272D302200000000000002100000000000000284000
  0
ACAD_PROXY_OBJECT
  5
67
102
{ACAD_REACTORS
330
47
102
}
330
47
100
AcDbProxyObject
 90
      499
 91
      503
 93
      225
310
90A3622203D2031272D302200000000000006100000000000000284000
  0
ACAD_PROXY_OBJECT
  5
68
102
{ACAD_REACTORS
330
47
102
}
330
47
100
AcDbProxyObject
 90
      499
 91
      503
 93
      249
310
90D31272D3022203D2031272D30220000000000000A100000000000000284000
  0
ACAD_PROXY_OBJECT
  5
2F
102
{ACAD_REACTORS
330
2A
102
}
330
2A
100
AcDbProxyObject
 90
      499
 91
      501
 93
      436
310
42CC9915DA5C99599C985B595049028333333333333E33F0000000000000F90107901411070040501600405405064090741402480A0340
1001
ACAD
1000
AcDbSavedByObjectVersion
1070
     0
  0
ACAD_PROXY_OBJECT
  5
32
102
{ACAD_REACTORS
330
2A
102
}
330
2A
100
AcDbProxyObject
 90
      499
 91
      501
 93
      388
310
4150985CDA58D07406404333333333333E33F0000000000000F90107A41107004050150841D405064090741402480A0350
1001
ACAD
1000
AcDbSavedByObjectVersion
1070
     0
  0
ACAD_PROXY_OBJECT
  5
36
102
{ACAD_REACTORS
330
2A
102
}
330
2A
100
AcDbProxyObject
 90
      499
 91
      501
 93
      428
310
42109C9A59DA1D195B90C409028333333333333E33F0000000000000F9010790141107004050150841D405064090741402480A029950
1001
ACAD
1000
AcDbSavedByObjectVersion
1070
     0
  0
ACAD_PROXY_OBJECT
  5
3A
102
{ACAD_REACTORS
330
2A
102
}
330
2A
100
AcDbProxyObject
 90
      499
 91
      501
 93
      452
310
42D0DBDB1BDC90DA185B99D95104090240C333333333333E33F0000000000000F90108901411070040501508421405064090741402480A0350
1001
ACAD
1000
AcDbSavedByObjectVersion
1070
     0
  0
ACAD_PROXY_OBJECT
  5
34
102
{ACAD_REACTORS
330
2A
102
}
330
2A
100
AcDbProxyObject
 90
      499
 91
      501
 93
      500
310
4290DBDB98D95C1D1D585B10940D028333333333333E33F0000000000000F90107902409070040501000000000018199010841D405064090740C02480A0340
1001
ACAD
1000
AcDbSavedByObjectVersion
1070
     0
  0
ACAD_PROXY_OBJECT
  5
35
102
{ACAD_REACTORS
330
2A
102
}
330
2A
100
AcDbProxyObject
 90
      499
 91
      501
 93
      412
310
40D11A5B50B409028333333333333E33F0000000000000F9010790141107004050150841D405064090741402480A02677FFFFFD0
1001
ACAD
1000
AcDbSavedByObjectVersion
1070
     0
  0
ACAD_PROXY_OBJECT
  5
3D
102
{ACAD_REACTORS
330
2A
102
}
330
2A
100
AcDbProxyObject
 90
      499
 91
      501
 93
      452
310
43115919D950DBDB1BDC93D999916409028333333333333E33F0000000000000F9010790141107004050150841D405064090741402480A0350
1001
ACAD
1000
AcDbSavedByObjectVersion
1070
     0
  0
ACAD_PROXY_OBJECT
  5
39
102
{ACAD_REACTORS
330
2A
102
}
330
2A
100
AcDbProxyObject
 90
      499
 91
      501
 93
      444
310
42D19858D95C185D1D195C9B90F409028333333333333E33F0000000000000F9010790141107004050150841D405064090741402480A0350
1001
ACAD
1000
AcDbSavedByObjectVersion
1070
     0
  0
ACAD_PROXY_OBJECT
  5
2B
102
{ACAD_REACTORS
330
2A
102
}
330
2A
100
AcDbProxyObject
 90
      499
 91
      501
 93
      380
310
41119B185D240901404333333333333E33F0000000000000F9010740A907004050150841D405064090741402480A1B50
1001
ACAD
1000
AcDbSavedByObjectVersion
1070
     0
  0
ACAD_PROXY_OBJECT
  5
2C
102
{ACAD_REACTORS
330
2A
102
}
330
2A
100
AcDbProxyObject
 90
      499
 91
      501
 93
      468
310
43519B185D15DA5D1A115919D95CD0140901404333333333333E33F0000000000000F90107409019070040501600405405064090741402480A1B50
1001
ACAD
1000
AcDbSavedByObjectVersion
1070
     0
  0
ACAD_PROXY_OBJECT
  5
2D
102
{ACAD_REACTORS
330
2A
102
}
330
2A
100
AcDbProxyObject
 90
      499
 91
      501
 93
      404
310
41D1DBDD5C985D5910240902404333333333333E33F0000000000000F9010740A9070040501641D405064090741402480A1B50
1001
ACAD
1000
AcDbSavedByObjectVersion
1070
     0
  0
ACAD_PROXY_OBJECT
  5
2E
102
{ACAD_REACTORS
330
2A
102
}
330
2A
100
AcDbProxyObject
 90
      499
 91
      501
 93
      492
310
4411DBDD5C985D5915DA5D1A115919D95CD0340902404333333333333E33F0000000000000F90107409019070040501600405405064090741402480A1B50
1001
ACAD
1000
AcDbSavedByObjectVersion
1070
     0
  0
ACAD_PROXY_OBJECT
  5
31
102
{ACAD_REACTORS
330
2A
102
}
330
2A
100
AcDbProxyObject
 90
      499
 91
      501
 93
      476
310
41921A5919195B90640502408333333333333E33F0000000000000F901079024090700405020000000000001110200405405064090740C02480A0340
1001
ACAD
1000
AcDbSavedByObjectVersion
1070
     0
  0
ACAD_PROXY_OBJECT
  5
3B
102
{ACAD_REACTORS
330
2A
102
}
330
2A
100
AcDbProxyObject
 90
      499
 91
      501
 93
      428
310
42529A5D1D195C93D999914409028333333333333E33F0000000000000F9010790141107004050150A41D405064090741402480A0350
1001
ACAD
1000
AcDbSavedByObjectVersion
1070
     0
  0
ACAD_PROXY_OBJECT
  5
38
102
{ACAD_REACTORS
330
2A
102
}
330
2A
100
AcDbProxyObject
 90
      499
 91
      501
 93
      444
310
42D31A5B995C185D1D195C9B90E409028333333333333E33F0000000000000F9010790141107004050750841D405064090741402483A0350
1001
ACAD
1000
AcDbSavedByObjectVersion
1070
     0
  0
ACAD_PROXY_OBJECT
  5
3C
102
{ACAD_REACTORS
330
2A
102
}
330
2A
100
AcDbProxyObject
 90
      499
 91
      501
 93
      444
310
42D3DD995C9A185B99D3D999915409028333333333333E33F0000000000000F9010790141107004050150941D405064090741402480A0350
1001
ACAD
1000
AcDbSavedByObjectVersion
1070
     0
  0
ACAD_PROXY_OBJECT
  5
33
102
{ACAD_REACTORS
330
2A
102
}
330
2A
100
AcDbProxyObject
 90
      499
 91
      501
 93
      428
310
425499585B1A5CDD1A58D08409038333333333333E33F0000000000000F9010740A907004050150800405405064090740C02480A1B40
1001
ACAD
1000
AcDbSavedByObjectVersion
1070
     0
  0
ACAD_PROXY_OBJECT
  5
42
102
{ACAD_REACTORS
330
2A
102
}
330
2A
100
AcDbProxyObject
 90
      499
 91
      501
 93
      420
310
4194DA1859195911B40902404333333333333E33F0000000000000F9010740A41107004050150800405405064090840C02480A0B40
1001
ACAD
1000
AcDbSavedByObjectVersion
1070
     0
  0
ACAD_PROXY_OBJECT
  5
41
102
{ACAD_REACTORS
330
2A
102
}
330
2A
100
AcDbProxyObject
 90
      499
 91
      501
 93
      516
310
4454DA18591959081DDA5D1A08195919D95CD1A40902404333333333333E33F0000000000000F901074090142907004050250800405405064090740C02480A0B40
1001
ACAD
1000
AcDbSavedByObjectVersion
1070
     0
  0
ACAD_PROXY_OBJECT
  5
3E
102
{ACAD_REACTORS
330
2A
102
}
330
2A
100
AcDbProxyObject
 90
      499
 91
      501
 93
      532
310
4394DA1859195CC81BD98811DC985E5174090240C333333333333E33F0000000000000F901079024090741D01000000000000111010841D405064090740C02480A0340
1001
ACAD
1000
AcDbSavedByObjectVersion
1070
     0
  0
ACAD_PROXY_OBJECT
  5
3F
102
{ACAD_REACTORS
330
2A
102
}
330
2A
100
AcDbProxyObject
 90
      499
 91
      501
 93
      476
310
41D4DAD95D18DA1E51840502408333333333333E33F0000000000000F901079024090741D01000000000000111010B41D405064090741802480A0340
1001
ACAD
1000
AcDbSavedByObjectVersion
1070
     0
  0
ACAD_PROXY_OBJECT
  5
37
102
{ACAD_REACTORS
330
2A
102
}
330
2A
100
AcDbProxyObject
 90
      499
 91
      501
 93
      412
310
41D51A1A58DAD95B90D409028333333333333E33F0000000000000F9010790141107004050150C41D405064090741402480A0350
1001
ACAD
1000
AcDbSavedByObjectVersion
1070
     0
  0
ACAD_PROXY_OBJECT
  5
30
102
{ACAD_REACTORS
330
2A
102
}
330
2A
100
AcDbProxyObject
 90
      499
 91
      501
 93
      420
310
4255DA5C99599C985B595059028333333333333E33F0000000000000F90107901411070040501600405405064090740C02480A0340
1001
ACAD
1000
AcDbSavedByObjectVersion
1070
     0
  0
ACAD_PROXY_OBJECT
  5
40
102
{ACAD_REACTORS
330
2A
102
}
330
2A
100
AcDbProxyObject
 90
      499
 91
      501
 93
      404
310
41560B54985E51940902404000000000000E03F0000000000000F9010740501907004050150841D405064090740C02480A1B40
1001
ACAD
1000
AcDbSavedByObjectVersion
1070
     0
  0
XRECORD
  5
33F
102
{ACAD_REACTORS
330
335
102
}
330
335
100
AcDbXrecord
340
0
  0
XRECORD
  5
33E
102
{ACAD_REACTORS
330
335
102
}
330
335
100
AcDbXrecord
 90
        0
  0
XRECORD
  5
355
102
{ACAD_REACTORS
330
335
102
}
330
335
100
AcDbXrecord
1000
DSTYLE
1002
{
1070
   179
 70
     2
1070
   171
 70
     2
1070
   143
 40
25.4
1070
   274
 70
     2
1070
    41
 40
3.0
1070
   141
 40
0.09
1070
    43
 40
0.38
1070
   278
 70
    46
1070
    44
 40
1.5
1070
    42
 40
0.0625
1070
   147
 40
1.5
1070
   272
 70
     4
1070
    73
 70
     1
1070
   172
 70
     0
1070
    74
 70
     1
1070
   283
 70
     1
1070
   340
340
6E
1070
   140
 40
3.0
1070
   284
 70
     0
1070
    78
 70
     0
1002
}
  0
XRECORD
  5
340
102
{ACAD_REACTORS
330
335
102
}
330
335
100
AcDbXrecord
  1
{A29953CF-0CC7-490E-A0D2-DA6E2A78A207}
  0
XRECORD
  5
338
102
{ACAD_REACTORS
330
335
102
}
330
335
100
AcDbXrecord
  1

  0
XRECORD
  5
33D
102
{ACAD_REACTORS
330
335
102
}
330
335
100
AcDbXrecord
 90
        4
  0
XRECORD
  5
33A
102
{ACAD_REACTORS
330
335
102
}
330
335
100
AcDbXrecord
340
1A
  0
XRECORD
  5
33C
102
{ACAD_REACTORS
330
335
102
}
330
335
100
AcDbXrecord
 90
    10269
  0
XRECORD
  5
33B
102
{ACAD_REACTORS
330
335
102
}
330
335
100
AcDbXrecord
340
19
  0
XRECORD
  5
342
102
{ACAD_REACTORS
330
335
102
}
330
335
100
AcDbXrecord
 40
0.0
  0
XRECORD
  5
345
102
{ACAD_REACTORS
330
335
102
}
330
335
100
AcDbXrecord
340
0
  0
XRECORD
  5
34B
102
{ACAD_REACTORS
330
335
102
}
330
335
100
AcDbXrecord
 10
0.0
 20
0.0
 30
0.0
  0
XRECORD
  5
347
102
{ACAD_REACTORS
330
335
102
}
330
335
100
AcDbXrecord
 10
0.0
 20
0.0
 30
0.0
  0
XRECORD
  5
34A
102
{ACAD_REACTORS
330
335
102
}
330
335
100
AcDbXrecord
 10
0.0
 20
0.0
 30
0.0
  0
XRECORD
  5
348
102
{ACAD_REACTORS
330
335
102
}
330
335
100
AcDbXrecord
 10
0.0
 20
0.0
 30
0.0
  0
XRECORD
  5
349
102
{ACAD_REACTORS
330
335
102
}
330
335
100
AcDbXrecord
 10
0.0
 20
0.0
 30
0.0
  0
XRECORD
  5
346
102
{ACAD_REACTORS
330
335
102
}
330
335
100
AcDbXrecord
 10
0.0
 20
0.0
 30
0.0
  0
XRECORD
  5
343
102
{ACAD_REACTORS
330
335
102
}
330
335
100
AcDbXrecord
340
0
  0
XRECORD
  5
344
102
{ACAD_REACTORS
330
335
102
}
330
335
100
AcDbXrecord
 70
     0
  0
XRECORD
  5
339
102
{ACAD_REACTORS
330
335
102
}
330
335
100
AcDbXrecord
  1

  0
XRECORD
  5
336
102
{ACAD_REACTORS
330
335
102
}
330
335
100
AcDbXrecord
 90
        1
  0
XRECORD
  5
337
102
{ACAD_REACTORS
330
335
102
}
330
335
100
AcDbXrecord
 90
       70
  0
XRECORD
  5
34E
102
{ACAD_REACTORS
330
335
102
}
330
335
100
AcDbXrecord
340
0
  0
XRECORD
  5
354
102
{ACAD_REACTORS
330
335
102
}
330
335
100
AcDbXrecord
 10
0.0
 20
0.0
 30
0.0
  0
XRECORD
  5
350
102
{ACAD_REACTORS
330
335
102
}
330
335
100
AcDbXrecord
 10
0.0
 20
0.0
 30
0.0
  0
XRECORD
  5
353
102
{ACAD_REACTORS
330
335
102
}
330
335
100
AcDbXrecord
 10
0.0
 20
0.0
 30
0.0
  0
XRECORD
  5
351
102
{ACAD_REACTORS
330
335
102
}
330
335
100
AcDbXrecord
 10
0.0
 20
0.0
 30
0.0
  0
XRECORD
  5
352
102
{ACAD_REACTORS
330
335
102
}
330
335
100
AcDbXrecord
 10
0.0
 20
0.0
 30
0.0
  0
XRECORD
  5
34F
102
{ACAD_REACTORS
330
335
102
}
330
335
100
AcDbXrecord
 10
0.0
 20
0.0
 30
0.0
  0
XRECORD
  5
34C
102
{ACAD_REACTORS
330
335
102
}
330
335
100
AcDbXrecord
340
0
  0
XRECORD
  5
34D
102
{ACAD_REACTORS
330
335
102
}
330
335
100
AcDbXrecord
 70
     0
  0
XRECORD
  5
341
102
{ACAD_REACTORS
330
335
102
}
330
335
100
AcDbXrecord
  1
{FAEB1C32-E019-11D5-929B-00C0DF256EC4}
  0
DICTIONARYVAR
  5
35F
102
{ACAD_REACTORS
330
356
102
}
330
356
100
DictionaryVariables
280
     0
  1
1:1
  0
DICTIONARYVAR
  5
358
102
{ACAD_REACTORS
330
356
102
}
330
356
100
DictionaryVariables
280
     0
  1
Standard
  0
DICTIONARYVAR
  5
357
102
{ACAD_REACTORS
330
356
102
}
330
356
100
DictionaryVariables
280
     0
  1
Standard
  0
DICTIONARYVAR
  5
35B
102
{ACAD_REACTORS
330
356
102
}
330
356
100
DictionaryVariables
280
     0
  1
2
  0
DICTIONARYVAR
  5
35C
102
{ACAD_REACTORS
330
356
102
}
330
356
100
DictionaryVariables
280
     0
  1
1
  0
DICTIONARYVAR
  5
360
102
{ACAD_REACTORS
330
356
102
}
330
356
100
DictionaryVariables
280
     0
  1
1
  0
DICTIONARY
  5
363
330
45
100
AcDbDictionary
280
     1
  3
ACAD_XREC_ROUNDTRIP
360
364
  0
DICTIONARY
  5
361
330
44
100
AcDbDictionary
280
     1
  3
ACAD_XREC_ROUNDTRIP
360
362
  0
DICTIONARY
  5
365
330
46
100
AcDbDictionary
280
     1
  3
ACAD_XREC_ROUNDTRIP
360
366
  0
XRECORD
  5
364
102
{ACAD_REACTORS
330
363
102
}
330
363
100
AcDbXrecord
102
MATERIAL
148
0.0
149
0.0
149
0.0
 93
        0
 94
      127
282
     0
 72
     1
 77
     1
171
     1
175
     1
179
     1
273
     0
  0
XRECORD
  5
362
102
{ACAD_REACTORS
330
361
102
}
330
361
100
AcDbXrecord
102
MATERIAL
148
0.0
149
0.0
149
0.0
 93
        0
 94
      127
282
     0
 72
     1
 77
     1
171
     1
175
     1
179
     1
273
     0
  0
XRECORD
  5
366
102
{ACAD_REACTORS
330
365
102
}
330
365
100
AcDbXrecord
102
MATERIAL
148
0.0
149
0.0
149
0.0
 93
        0
 94
      127
282
     0
 72
     1
 77
     1
171
     1
175
     1
179
     1
273
     0
  0
ENDSEC
  0
EOF
