  0
SECTION
  2
HEADER
  9
$ACADVER
  1
AC1014
  9
$ACADMAINTVER
 70
     9
  9
$DWGCODEPAGE
  3
ANSI_932
  9
$INSBASE
 10
0.0
 20
0.0
 30
0.0
  9
$EXTMIN
 10
588.4999999999999
 20
29.34432912342124
 30
0.0
  9
$EXTMAX
 10
1465.0
 20
900.0000000000001
 30
0.0
  9
$LIMMIN
 10
0.0
 20
0.0
  9
$LIMMAX
 10
12.0
 20
9.0
  9
$ORTHOMODE
 70
     0
  9
$REGENMODE
 70
     1
  9
$FILLMODE
 70
     1
  9
$QTEXTMODE
 70
     0
  9
$MIRRTEXT
 70
     1
  9
$DRAGMODE
 70
     2
  9
$LTSCALE
 40
1.0
  9
$OSMODE
 70
    37
  9
$ATTMODE
 70
     1
  9
$TEXTSIZE
 40
0.2
  9
$TRACEWID
 40
0.05
  9
$TEXTSTYLE
  7
STANDARD
  9
$CLAYER
  8
0
  9
$CELTYPE
  6
BYLAYER
  9
$CECOLOR
 62
   256
  9
$CELTSCALE
 40
1.0
  9
$DELOBJ
 70
     1
  9
$DISPSILH
 70
     0
  9
$DIMSCALE
 40
1.0
  9
$DIMASZ
 40
3.0
  9
$DIMEXO
 40
0.0625
  9
$DIMDLI
 40
0.38
  9
$DIMRND
 40
0.0
  9
$DIMDLE
 40
0.0
  9
$DIMEXE
 40
1.5
  9
$DIMTP
 40
0.0
  9
$DIMTM
 40
0.0
  9
$DIMTXT
 40
3.0
  9
$DIMCEN
 40
0.09
  9
$DIMTSZ
 40
0.0
  9
$DIMTOL
 70
     0
  9
$DIMLIM
 70
     0
  9
$DIMTIH
 70
     1
  9
$DIMTOH
 70
     1
  9
$DIMSE1
 70
     0
  9
$DIMSE2
 70
     0
  9
$DIMTAD
 70
     1
  9
$DIMZIN
 70
     0
  9
$DIMBLK
  1

  9
$DIMASO
 70
     1
  9
$DIMSHO
 70
     1
  9
$DIMPOST
  1

  9
$DIMAPOST
  1

  9
$DIMALT
 70
     0
  9
$DIMALTD
 70
     2
  9
$DIMALTF
 40
25.4
  9
$DIMLFAC
 40
1.0
  9
$DIMTOFL
 70
     0
  9
$DIMTVP
 40
0.0
  9
$DIMTIX
 70
     0
  9
$DIMSOXD
 70
     0
  9
$DIMSAH
 70
     0
  9
$DIMBLK1
  1

  9
$DIMBLK2
  1

  9
$DIMSTYLE
  2
STANDARD
  9
$DIMCLRD
 70
     0
  9
$DIMCLRE
 70
     0
  9
$DIMCLRT
 70
     0
  9
$DIMTFAC
 40
1.0
  9
$DIMGAP
 40
1.5
  9
$DIMJUST
 70
     0
  9
$DIMSD1
 70
     0
  9
$DIMSD2
 70
     0
  9
$DIMTOLJ
 70
     1
  9
$DIMTZIN
 70
     0
  9
$DIMALTZ
 70
     0
  9
$DIMALTTZ
 70
     0
  9
$DIMFIT
 70
     3
  9
$DIMUPT
 70
     0
  9
$DIMUNIT
 70
     2
  9
$DIMDEC
 70
     2
  9
$DIMTDEC
 70
     4
  9
$DIMALTU
 70
     2
  9
$DIMALTTD
 70
     2
  9
$DIMTXSTY
  7
ＭＳ_ゴシック
  9
$DIMAUNIT
 70
     0
  9
$LUNITS
 70
     2
  9
$LUPREC
 70
     4
  9
$SKETCHINC
 40
0.1
  9
$FILLETRAD
 40
0.5
  9
$AUNITS
 70
     0
  9
$AUPREC
 70
     0
  9
$MENU
  1
.
  9
$ELEVATION
 40
0.0
  9
$PELEVATION
 40
0.0
  9
$THICKNESS
 40
0.0
  9
$LIMCHECK
 70
     0
  9
$CHAMFERA
 40
0.0
  9
$CHAMFERB
 40
0.0
  9
$CHAMFERC
 40
0.0
  9
$CHAMFERD
 40
0.0
  9
$SKPOLY
 70
     0
  9
$TDCREATE
 40
2459230.564705486
  9
$TDUPDATE
 40
2459230.564705787
  9
$TDINDWG
 40
0.0000000116
  9
$TDUSRTIMER
 40
0.0000000116
  9
$USRTIMER
 70
     1
  9
$ANGBASE
 50
0.0
  9
$ANGDIR
 70
     0
  9
$PDMODE
 70
     0
  9
$PDSIZE
 40
0.0
  9
$PLINEWID
 40
0.0
  9
$COORDS
 70
     1
  9
$SPLFRAME
 70
     0
  9
$SPLINETYPE
 70
     6
  9
$SPLINESEGS
 70
     8
  9
$ATTDIA
 70
     0
  9
$ATTREQ
 70
     1
  9
$HANDLING
 70
     1
  9
$HANDSEED
  5
350
  9
$SURFTAB1
 70
     6
  9
$SURFTAB2
 70
     6
  9
$SURFTYPE
 70
     6
  9
$SURFU
 70
     6
  9
$SURFV
 70
     6
  9
$UCSNAME
  2

  9
$UCSORG
 10
0.0
 20
0.0
 30
0.0
  9
$UCSXDIR
 10
1.0
 20
0.0
 30
0.0
  9
$UCSYDIR
 10
0.0
 20
1.0
 30
0.0
  9
$PUCSNAME
  2

  9
$PUCSORG
 10
0.0
 20
0.0
 30
0.0
  9
$PUCSXDIR
 10
1.0
 20
0.0
 30
0.0
  9
$PUCSYDIR
 10
0.0
 20
1.0
 30
0.0
  9
$USERI1
 70
     0
  9
$USERI2
 70
     0
  9
$USERI3
 70
     0
  9
$USERI4
 70
     0
  9
$USERI5
 70
     0
  9
$USERR1
 40
0.0
  9
$USERR2
 40
0.0
  9
$USERR3
 40
0.0
  9
$USERR4
 40
0.0
  9
$USERR5
 40
0.0
  9
$WORLDVIEW
 70
     1
  9
$SHADEDGE
 70
     3
  9
$SHADEDIF
 70
    70
  9
$TILEMODE
 70
     1
  9
$MAXACTVP
 70
    64
  9
$PINSBASE
 10
0.0
 20
0.0
 30
0.0
  9
$PLIMCHECK
 70
     0
  9
$PEXTMIN
 10
1.000000000000000E+20
 20
1.000000000000000E+20
 30
1.000000000000000E+20
  9
$PEXTMAX
 10
-1.000000000000000E+20
 20
-1.000000000000000E+20
 30
-1.000000000000000E+20
  9
$PLIMMIN
 10
0.0
 20
0.0
  9
$PLIMMAX
 10
12.0
 20
9.0
  9
$UNITMODE
 70
     0
  9
$VISRETAIN
 70
     1
  9
$PLINEGEN
 70
     0
  9
$PSLTSCALE
 70
     1
  9
$TREEDEPTH
 70
  3020
  9
$PICKSTYLE
 70
     1
  9
$CMLSTYLE
  2
STANDARD
  9
$CMLJUST
 70
     0
  9
$CMLSCALE
 40
1.0
  9
$PROXYGRAPHICS
 70
     1
  9
$MEASUREMENT
 70
     1
  0
ENDSEC
  0
SECTION
  2
CLASSES
  0
CLASS
  1
ACDBDICTIONARYWDFLT
  2
AcDbDictionaryWithDefault
  3
ObjectDBX Classes
 90
        0
280
     0
281
     0
  0
CLASS
  1
VISUALSTYLE
  2
AcDbVisualStyle
  3
ObjectDBX Classes
 90
     4095
280
     0
281
     0
  0
CLASS
  1
MATERIAL
  2
AcDbMaterial
  3
ObjectDBX Classes
 90
     1153
280
     0
281
     0
  0
CLASS
  1
SCALE
  2
AcDbScale
  3
ObjectDBX Classes
 90
     1153
280
     0
281
     0
  0
CLASS
  1
TABLESTYLE
  2
AcDbTableStyle
  3
ObjectDBX Classes
 90
     4095
280
     0
281
     0
  0
CLASS
  1
MLEADERSTYLE
  2
AcDbMLeaderStyle
  3
ACDB_MLEADERSTYLE_CLASS
 90
     4095
280
     0
281
     0
  0
CLASS
  1
SUN
  2
AcDbSun
  3
SCENEOE
 90
     1153
280
     0
281
     0
  0
CLASS
  1
DICTIONARYVAR
  2
AcDbDictionaryVar
  3
ObjectDBX Classes
 90
        0
280
     0
281
     0
  0
CLASS
  1
XRECORD
  2
AcDbXrecord
  3
ObjectDBX Classes
 90
        0
280
     0
281
     0
  0
CLASS
  1
LWPOLYLINE
  2
AcDbPolyline
  3
ObjectDBX Classes
 90
        0
280
     0
281
     1
  0
CLASS
  1
HATCH
  2
AcDbHatch
  3
ObjectDBX Classes
 90
        0
280
     0
281
     1
  0
CLASS
  1
ACDBPLACEHOLDER
  2
AcDbPlaceHolder
  3
ObjectDBX Classes
 90
        0
280
     0
281
     0
  0
CLASS
  1
LAYOUT
  2
AcDbLayout
  3
ObjectDBX Classes
 90
        0
280
     0
281
     0
  0
ENDSEC
  0
SECTION
  2
TABLES
  0
TABLE
  2
VPORT
  5
8
102
{ACAD_XDICTIONARY
360
345
102
}
330
0
100
AcDbSymbolTable
 70
     1
  0
VPORT
  5
29
330
8
100
AcDbSymbolTableRecord
100
AcDbViewportTableRecord
  2
*ACTIVE
 70
     0
 10
0.0
 20
0.0
 11
1.0
 21
1.0
 12
1026.75
 22
464.6721645617107
 13
0.0
 23
0.0
 14
0.5
 24
0.5
 15
0.5
 25
0.5
 16
0.0
 26
0.0
 36
1.0
 17
0.0
 27
0.0
 37
0.0
 40
870.6556708765788
 41
1.6
 42
50.0
 43
0.0
 44
0.0
 50
0.0
 51
0.0
 71
     0
 72
   100
 73
     1
 74
     3
 75
     0
 76
     0
 77
     0
 78
     0
  0
ENDTAB
  0
TABLE
  2
LTYPE
  5
5
330
0
100
AcDbSymbolTable
 70
     3
  0
LTYPE
  5
14
330
5
100
AcDbSymbolTableRecord
100
AcDbLinetypeTableRecord
  2
BYBLOCK
 70
     0
  3

 72
    65
 73
     0
 40
0.0
  0
LTYPE
  5
15
330
5
100
AcDbSymbolTableRecord
100
AcDbLinetypeTableRecord
  2
BYLAYER
 70
     0
  3

 72
    65
 73
     0
 40
0.0
  0
LTYPE
  5
16
330
5
100
AcDbSymbolTableRecord
100
AcDbLinetypeTableRecord
  2
CONTINUOUS
 70
     0
  3
Solid line
 72
    65
 73
     0
 40
0.0
  0
LTYPE
  5
CD
330
5
100
AcDbSymbolTableRecord
100
AcDbLinetypeTableRecord
  2
DASHED
 70
     0
  3

 72
    65
 73
     0
 40
0.0
  0
LTYPE
  5
1CE
330
5
100
AcDbSymbolTableRecord
100
AcDbLinetypeTableRecord
  2
CENTER
 70
     0
  3

 72
    65
 73
     0
 40
0.0
  0
ENDTAB
  0
TABLE
  2
LAYER
  5
2
330
0
100
AcDbSymbolTable
 70
     1
  0
LAYER
  5
10
330
2
100
AcDbSymbolTableRecord
100
AcDbLayerTableRecord
  2
0
 70
     0
 62
     7
  6
CONTINUOUS
  0
ENDTAB
  0
TABLE
  2
STYLE
  5
3
330
0
100
AcDbSymbolTable
 70
     2
  0
STYLE
  5
11
330
3
100
AcDbSymbolTableRecord
100
AcDbTextStyleTableRecord
  2
STANDARD
 70
     0
 40
0.0
 41
1.0
 50
0.0
 71
     0
 42
0.2
  3
txt
  4

  0
STYLE
  5
6E
330
3
100
AcDbSymbolTableRecord
100
AcDbTextStyleTableRecord
  2
ＭＳ_ゴシック
 70
     0
 40
0.0
 41
1.0
 50
0.0
 71
     0
 42
0.2
  3
ＭＳ ゴシック.shx
  4

  0
ENDTAB
  0
TABLE
  2
VIEW
  5
6
330
0
100
AcDbSymbolTable
 70
     0
  0
ENDTAB
  0
TABLE
  2
UCS
  5
7
330
0
100
AcDbSymbolTable
 70
     0
  0
ENDTAB
  0
TABLE
  2
APPID
  5
9
330
0
100
AcDbSymbolTable
 70
     2
  0
APPID
  5
12
330
9
100
AcDbSymbolTableRecord
100
AcDbRegAppTableRecord
  2
ACAD
 70
     0
  0
APPID
  5
34F
330
9
100
AcDbSymbolTableRecord
100
AcDbRegAppTableRecord
  2
ACAD_MLEADERVER
 70
     0
  0
ENDTAB
  0
TABLE
  2
DIMSTYLE
  5
A
330
0
100
AcDbSymbolTable
 70
     1
  0
DIMSTYLE
105
27
330
A
100
AcDbSymbolTableRecord
100
AcDbDimStyleTableRecord
  2
STANDARD
 70
     0
  3

  4

  5

  6

  7

 40
1.0
 41
0.18
 42
0.0625
 43
0.38
 44
0.18
 45
0.0
 46
0.0
 47
0.0
 48
0.0
140
0.18
141
0.09
142
0.0
143
25.4
144
1.0
145
0.0
146
1.0
147
0.09
 71
     0
 72
     0
 73
     1
 74
     1
 75
     0
 76
     0
 77
     0
 78
     0
170
     0
171
     2
172
     0
173
     0
174
     0
175
     0
176
     0
177
     0
178
     0
270
     2
271
     4
272
     4
273
     2
274
     2
340
11
275
     0
280
     0
281
     0
282
     0
283
     1
284
     0
285
     0
286
     0
287
     3
288
     0
  0
ENDTAB
  0
TABLE
  2
BLOCK_RECORD
  5
1
330
0
100
AcDbSymbolTable
 70
     0
  0
BLOCK_RECORD
  5
1F
330
1
100
AcDbSymbolTableRecord
100
AcDbBlockTableRecord
  2
*MODEL_SPACE
  0
BLOCK_RECORD
  5
1B
330
1
100
AcDbSymbolTableRecord
100
AcDbBlockTableRecord
  2
*PAPER_SPACE
  0
ENDTAB
  0
ENDSEC
  0
SECTION
  2
BLOCKS
  0
BLOCK
  5
20
330
1F
100
AcDbEntity
  8
0
100
AcDbBlockBegin
  2
*MODEL_SPACE
 70
     0
 10
0.0
 20
0.0
 30
0.0
  3
*MODEL_SPACE
  1

  0
ENDBLK
  5
21
330
1F
100
AcDbEntity
  8
0
100
AcDbBlockEnd
  0
BLOCK
  5
1C
330
1B
100
AcDbEntity
 67
     1
  8
0
100
AcDbBlockBegin
  2
*PAPER_SPACE
 70
     0
 10
0.0
 20
0.0
 30
0.0
  3
*PAPER_SPACE
  1

  0
ENDBLK
  5
1D
330
1B
100
AcDbEntity
 67
     1
  8
0
100
AcDbBlockEnd
  0
ENDSEC
  0
SECTION
  2
ENTITIES
  0
MTEXT
  5
6F
330
1F
100
AcDbEntity
  8
0
 62
     1
100
AcDbMText
 10
675.2560335125671
 20
32.37160185069396
 30
0.0
 40
3.0
 41
0.0
 71
     1
 72
     1
  1
{\fＭＳ ゴシック;MIDF-60_}
  0
ARC
  5
70
330
1F
100
AcDbEntity
  8
0
  6
CONTINUOUS
 62
     7
100
AcDbCircle
 10
-594.5
 20
86.65035135626154
 30
0.0
 40
6.000000000000002
210
0.0
220
0.0
230
-1.0
100
AcDbArc
 50
180.0
 51
205.0006393566884
  0
LINE
  5
71
330
1F
100
AcDbEntity
  8
0
  6
CONTINUOUS
 62
     7
100
AcDbLine
 10
599.9378184262043
 20
84.11458110569997
 30
0.0
 11
596.0
 21
75.67014825839522
 31
0.0
  0
LINE
  5
72
330
1F
100
AcDbEntity
  8
0
  6
CONTINUOUS
 62
     7
100
AcDbLine
 10
596.0
 20
75.67014825839524
 30
0.0
 11
596.0
 21
60.3352498073284
 31
0.0
  0
LINE
  5
73
330
1F
100
AcDbEntity
  8
0
  6
CONTINUOUS
 62
     7
100
AcDbLine
 10
644.0
 20
60.3352498073284
 30
0.0
 11
596.0
 21
60.3352498073284
 31
0.0
  0
LINE
  5
74
330
1F
100
AcDbEntity
  8
0
  6
CONTINUOUS
 62
     7
100
AcDbLine
 10
644.0
 20
75.67014825839524
 30
0.0
 11
644.0
 21
60.3352498073284
 31
0.0
  0
LINE
  5
75
330
1F
100
AcDbEntity
  8
0
  6
CONTINUOUS
 62
     7
100
AcDbLine
 10
640.0621815737957
 20
84.11458110569997
 30
0.0
 11
644.0
 21
75.67014825839522
 31
0.0
  0
ARC
  5
76
330
1F
100
AcDbEntity
  8
0
  6
CONTINUOUS
 62
     7
100
AcDbCircle
 10
645.5
 20
86.65035135626154
 30
0.0
 40
6.000000000000002
100
AcDbArc
 50
180.0
 51
205.0006393566884
  0
LINE
  5
77
330
1F
100
AcDbEntity
  8
0
  6
CONTINUOUS
 62
     7
100
AcDbLine
 10
639.5
 20
88.33524980732837
 30
0.0
 11
639.5
 21
86.65035135626154
 31
0.0
  0
LINE
  5
78
330
1F
100
AcDbEntity
  8
0
  6
CONTINUOUS
 62
     7
100
AcDbLine
 10
600.5
 20
88.33524980732837
 30
0.0
 11
639.5
 21
88.33524980732837
 31
0.0
  0
LINE
  5
79
330
1F
100
AcDbEntity
  8
0
  6
CONTINUOUS
 62
     7
100
AcDbLine
 10
600.5
 20
88.33524980732837
 30
0.0
 11
600.5
 21
86.65035135626154
 31
0.0
  0
ARC
  5
7A
330
1F
100
AcDbEntity
  8
0
  6
CONTINUOUS
 62
     7
100
AcDbCircle
 10
-641.5
 20
90.33524980732838
 30
0.0
 40
1.000000000000001
210
0.0
220
0.0
230
-1.0
100
AcDbArc
 50
90.0
 51
180.0
  0
LINE
  5
7B
330
1F
100
AcDbEntity
  8
0
  6
CONTINUOUS
 62
     7
100
AcDbLine
 10
642.5
 20
90.33524980732838
 30
0.0
 11
642.5
 21
86.65035135626155
 31
0.0
  0
ARC
  5
7C
330
1F
100
AcDbEntity
  8
0
  6
CONTINUOUS
 62
     7
100
AcDbCircle
 10
645.5
 20
86.65035135626154
 30
0.0
 40
2.999999999999999
100
AcDbArc
 50
180.0
 51
205.0006393566884
  0
LINE
  5
7D
330
1F
100
AcDbEntity
  8
0
  6
CONTINUOUS
 62
     7
100
AcDbLine
 10
642.7810907868978
 20
85.38246623098078
 30
0.0
 11
646.7189092131022
 21
76.93803338367603
 31
0.0
  0
ARC
  5
7E
330
1F
100
AcDbEntity
  8
0
  6
CONTINUOUS
 62
     7
100
AcDbCircle
 10
-644.0
 20
75.67014825839524
 30
0.0
 40
3.0
210
0.0
220
0.0
230
-1.0
100
AcDbArc
 50
154.9993606433116
 51
180.0
  0
LINE
  5
7F
330
1F
100
AcDbEntity
  8
0
  6
CONTINUOUS
 62
     7
100
AcDbLine
 10
647.0
 20
75.67014825839524
 30
0.0
 11
647.0
 21
58.3352498073284
 31
0.0
  0
ARC
  5
80
330
1F
100
AcDbEntity
  8
0
  6
CONTINUOUS
 62
     7
100
AcDbCircle
 10
-646.0
 20
58.3352498073284
 30
0.0
 40
1.000000000000001
210
0.0
220
0.0
230
-1.0
100
AcDbArc
 50
179.9999999999999
 51
270.0
  0
ARC
  5
81
330
1F
100
AcDbEntity
  8
0
  6
CONTINUOUS
 62
     7
100
AcDbCircle
 10
594.0
 20
58.3352498073284
 30
0.0
 40
1.000000000000001
100
AcDbArc
 50
179.9999999999999
 51
270.0
  0
LINE
  5
82
330
1F
100
AcDbEntity
  8
0
  6
CONTINUOUS
 62
     7
100
AcDbLine
 10
593.0
 20
75.67014825839524
 30
0.0
 11
593.0
 21
58.3352498073284
 31
0.0
  0
ARC
  5
83
330
1F
100
AcDbEntity
  8
0
  6
CONTINUOUS
 62
     7
100
AcDbCircle
 10
596.0
 20
75.67014825839524
 30
0.0
 40
3.0
100
AcDbArc
 50
154.9993606433116
 51
180.0
  0
LINE
  5
84
330
1F
100
AcDbEntity
  8
0
  6
CONTINUOUS
 62
     7
100
AcDbLine
 10
597.2189092131022
 20
85.38246623098078
 30
0.0
 11
593.2810907868978
 21
76.93803338367603
 31
0.0
  0
ARC
  5
85
330
1F
100
AcDbEntity
  8
0
  6
CONTINUOUS
 62
     7
100
AcDbCircle
 10
-594.5
 20
86.65035135626154
 30
0.0
 40
2.999999999999999
210
0.0
220
0.0
230
-1.0
100
AcDbArc
 50
180.0
 51
205.0006393566884
  0
LINE
  5
86
330
1F
100
AcDbEntity
  8
0
  6
CONTINUOUS
 62
     7
100
AcDbLine
 10
597.5
 20
90.33524980732838
 30
0.0
 11
597.5
 21
86.65035135626155
 31
0.0
  0
ARC
  5
87
330
1F
100
AcDbEntity
  8
0
  6
CONTINUOUS
 62
     7
100
AcDbCircle
 10
598.5
 20
90.33524980732838
 30
0.0
 40
1.000000000000001
100
AcDbArc
 50
90.0
 51
180.0
  0
LINE
  5
88
330
1F
100
AcDbEntity
  8
0
  6
CONTINUOUS
 62
     7
100
AcDbLine
 10
598.5
 20
91.33524980732838
 30
0.0
 11
641.5
 21
91.33524980732838
 31
0.0
  0
LINE
  5
89
330
1F
100
AcDbEntity
  8
0
  6
CONTINUOUS
 62
     7
100
AcDbLine
 10
646.0
 20
57.3352498073284
 30
0.0
 11
594.0000000000001
 21
57.3352498073284
 31
0.0
  0
LINE
  5
8A
330
1F
100
AcDbEntity
  8
0
  6
CONTINUOUS
 62
     7
100
AcDbLine
 10
592.0
 20
73.33524980732837
 30
0.0
 11
592.0
 21
61.33524980732837
 31
0.0
  0
LINE
  5
8B
330
1F
100
AcDbEntity
  8
0
  6
CONTINUOUS
 62
     7
100
AcDbLine
 10
592.0
 20
73.33524980732837
 30
0.0
 11
593.0
 21
73.33524980732837
 31
0.0
  0
LINE
  5
8C
330
1F
100
AcDbEntity
  8
0
  6
CONTINUOUS
 62
     7
100
AcDbLine
 10
592.0
 20
61.3352498073284
 30
0.0
 11
593.0
 21
61.3352498073284
 31
0.0
  0
LINE
  5
8D
330
1F
100
AcDbEntity
  8
0
  6
CONTINUOUS
 62
     7
100
AcDbLine
 10
648.0
 20
73.33524980732837
 30
0.0
 11
648.0
 21
61.33524980732837
 31
0.0
  0
LINE
  5
8E
330
1F
100
AcDbEntity
  8
0
  6
CONTINUOUS
 62
     7
100
AcDbLine
 10
648.0
 20
61.3352498073284
 30
0.0
 11
647.0
 21
61.3352498073284
 31
0.0
  0
LINE
  5
8F
330
1F
100
AcDbEntity
  8
0
  6
CONTINUOUS
 62
     7
100
AcDbLine
 10
648.0
 20
73.33524980732837
 30
0.0
 11
647.0
 21
73.33524980732837
 31
0.0
  0
LINE
  5
90
330
1F
100
AcDbEntity
  8
0
  6
CONTINUOUS
 62
     7
100
AcDbLine
 10
643.5
 20
60.8352498073284
 30
0.0
 11
643.5
 21
75.5592980002397
 31
0.0
  0
LINE
  5
91
330
1F
100
AcDbEntity
  8
0
  6
CONTINUOUS
 62
     7
100
AcDbLine
 10
596.5
 20
75.55929800023969
 30
0.0
 11
601.0
 21
85.20929800023968
 31
0.0
  0
LINE
  5
92
330
1F
100
AcDbEntity
  8
0
  6
CONTINUOUS
 62
     7
100
AcDbLine
 10
596.5
 20
60.8352498073284
 30
0.0
 11
643.5000000000001
 21
60.8352498073284
 31
0.0
  0
LINE
  5
93
330
1F
100
AcDbEntity
  8
0
  6
CONTINUOUS
 62
     7
100
AcDbLine
 10
596.5
 20
60.8352498073284
 30
0.0
 11
596.5
 21
75.5592980002397
 31
0.0
  0
LINE
  5
94
330
1F
100
AcDbEntity
  8
0
  6
CONTINUOUS
 62
     7
100
AcDbLine
 10
643.5
 20
75.55929800023969
 30
0.0
 11
639.0
 21
85.20929800023968
 31
0.0
  0
LINE
  5
95
330
1F
100
AcDbEntity
  8
0
  6
CONTINUOUS
 62
     7
100
AcDbLine
 10
639.0
 20
85.20929800023968
 30
0.0
 11
639.0
 21
87.83524980732837
 31
0.0
  0
LINE
  5
96
330
1F
100
AcDbEntity
  8
0
  6
CONTINUOUS
 62
     7
100
AcDbLine
 10
639.0
 20
87.83524980732837
 30
0.0
 11
601.0
 21
87.83524980732837
 31
0.0
  0
LINE
  5
97
330
1F
100
AcDbEntity
  8
0
  6
CONTINUOUS
 62
     7
100
AcDbLine
 10
601.0
 20
85.20929800023968
 30
0.0
 11
601.0
 21
87.83524980732837
 31
0.0
  0
LINE
  5
98
330
1F
100
AcDbEntity
  8
0
  6
CONTINUOUS
 62
     7
100
AcDbLine
 10
621.1999999999999
 20
54.3352498073284
 30
0.0
 11
645.0
 21
54.3352498073284
 31
0.0
  0
LINE
  5
99
330
1F
100
AcDbEntity
  8
0
  6
CONTINUOUS
 62
     7
100
AcDbLine
 10
620.1999999999999
 20
55.3352498073284
 30
0.0
 11
621.1999999999999
 21
54.3352498073284
 31
0.0
  0
LINE
  5
9A
330
1F
100
AcDbEntity
  8
0
  6
CONTINUOUS
 62
     7
100
AcDbLine
 10
645.0
 20
94.33524980732838
 30
0.0
 11
595.0
 21
94.33524980732838
 31
0.0
  0
LINE
  5
9B
330
1F
100
AcDbEntity
  8
0
  6
CONTINUOUS
 62
     7
100
AcDbLine
 10
620.0
 20
55.53524980732838
 30
0.0
 11
620.1999999999999
 21
55.33524980732838
 31
0.0
  0
LINE
  5
9C
330
1F
100
AcDbEntity
  8
0
  6
CONTINUOUS
 62
     7
100
AcDbLine
 10
620.0
 20
55.53524980732838
 30
0.0
 11
619.8
 21
55.33524980732838
 31
0.0
  0
ARC
  5
9D
330
1F
100
AcDbEntity
  8
0
  6
CONTINUOUS
 62
     7
100
AcDbCircle
 10
-595.0
 20
89.33524980732838
 30
0.0
 40
5.000000000000001
210
0.0
220
0.0
230
-1.0
100
AcDbArc
 50
0.0
 51
90.0
  0
ARC
  5
9E
330
1F
100
AcDbEntity
  8
0
  6
CONTINUOUS
 62
     7
100
AcDbCircle
 10
645.0
 20
59.3352498073284
 30
0.0
 40
5.000000000000001
100
AcDbArc
 50
270.0
 51
0.0
  0
LINE
  5
9F
330
1F
100
AcDbEntity
  8
0
  6
CONTINUOUS
 62
     7
100
AcDbLine
 10
650.0
 20
59.3352498073284
 30
0.0
 11
650.0
 21
89.3352498073284
 31
0.0
  0
LINE
  5
A0
330
1F
100
AcDbEntity
  8
0
  6
CONTINUOUS
 62
     7
100
AcDbLine
 10
618.8
 20
54.3352498073284
 30
0.0
 11
595.0
 21
54.3352498073284
 31
0.0
  0
LINE
  5
A1
330
1F
100
AcDbEntity
  8
0
  6
CONTINUOUS
 62
     7
100
AcDbLine
 10
619.8
 20
55.3352498073284
 30
0.0
 11
618.8
 21
54.3352498073284
 31
0.0
  0
ARC
  5
A2
330
1F
100
AcDbEntity
  8
0
  6
CONTINUOUS
 62
     7
100
AcDbCircle
 10
-595.0
 20
59.3352498073284
 30
0.0
 40
5.000000000000001
210
0.0
220
0.0
230
-1.0
100
AcDbArc
 50
270.0
 51
0.0
  0
ARC
  5
A3
330
1F
100
AcDbEntity
  8
0
  6
CONTINUOUS
 62
     7
100
AcDbCircle
 10
645.0
 20
89.33524980732838
 30
0.0
 40
5.000000000000001
100
AcDbArc
 50
0.0
 51
90.0
  0
LINE
  5
A4
330
1F
100
AcDbEntity
  8
0
  6
CONTINUOUS
 62
     7
100
AcDbLine
 10
590.0
 20
59.3352498073284
 30
0.0
 11
590.0
 21
89.3352498073284
 31
0.0
  0
ARC
  5
A5
330
1F
100
AcDbEntity
  8
0
  6
CONTINUOUS
 62
     7
100
AcDbCircle
 10
646.5
 20
59.3352498073284
 30
0.0
 40
5.000000000000001
100
AcDbArc
 50
270.0
 51
0.0000000000000568
  0
ARC
  5
A6
330
1F
100
AcDbEntity
  8
0
  6
CONTINUOUS
 62
     7
100
AcDbCircle
 10
-593.5
 20
59.3352498073284
 30
0.0
 40
5.000000000000001
210
0.0
220
0.0
230
-1.0
100
AcDbArc
 50
270.0
 51
0.0000000000000568
  0
ARC
  5
A7
330
1F
100
AcDbEntity
  8
0
  6
CONTINUOUS
 62
     7
100
AcDbCircle
 10
-595.0
 20
89.33524980732838
 30
0.0
 40
6.499999999999999
210
0.0
220
0.0
230
-1.0
100
AcDbArc
 50
359.9999999999998
 51
90.00000000000011
  0
LINE
  5
A8
330
1F
100
AcDbEntity
  8
0
  6
CONTINUOUS
 62
     7
100
AcDbLine
 10
645.0
 20
95.83524980732838
 30
0.0
 11
595.0000000000001
 21
95.83524980732838
 31
0.0
  0
ARC
  5
A9
330
1F
100
AcDbEntity
  8
0
  6
CONTINUOUS
 62
     7
100
AcDbCircle
 10
645.0
 20
89.33524980732838
 30
0.0
 40
6.499999999999999
100
AcDbArc
 50
359.9999999999998
 51
90.00000000000011
  0
LINE
  5
AA
330
1F
100
AcDbEntity
  8
0
  6
CONTINUOUS
 62
     7
100
AcDbLine
 10
651.5
 20
59.3352498073284
 30
0.0
 11
651.5
 21
89.3352498073284
 31
0.0
  0
LINE
  5
AB
330
1F
100
AcDbEntity
  8
0
  6
CONTINUOUS
 62
     7
100
AcDbLine
 10
588.5
 20
59.3352498073284
 30
0.0
 11
588.5
 21
89.3352498073284
 31
0.0
  0
LINE
  5
AC
330
1F
100
AcDbEntity
  8
0
  6
CONTINUOUS
 62
     7
100
AcDbLine
 10
645.0
 20
54.3352498073284
 30
0.0
 11
646.5000000000001
 21
54.3352498073284
 31
0.0
  0
LINE
  5
AD
330
1F
100
AcDbEntity
  8
0
  6
CONTINUOUS
 62
     7
100
AcDbLine
 10
595.0
 20
54.3352498073284
 30
0.0
 11
593.4999999999999
 21
54.3352498073284
 31
0.0
  0
LWPOLYLINE
  5
AE
330
1F
100
AcDbEntity
  8
0
  6
CONTINUOUS
 62
     7
100
AcDbPolyline
 90
        4
 70
     0
 43
0.0
 10
636.4832471595886
 20
61.83633841394872
 42
0.1050255012884622
 10
639.3663653530031
 20
62.46062805523586
 42
0.1401410246413204
 10
642.7945780505619
 20
65.30893447372819
 42
0.0542806531018658
 10
643.500001034304
 20
66.65398510562594
  0
LWPOLYLINE
  5
AF
330
1F
100
AcDbEntity
  8
0
  6
CONTINUOUS
 62
     7
100
AcDbPolyline
 90
       45
 70
     0
 43
0.0
 10
-636.4810823998433
 20
61.83630651967486
 10
-636.4905993832432
 20
61.83522920590784
 10
-636.4999966829185
 20
61.83416455123358
 10
-636.5020174697346
 20
61.83307348953482
 10
-636.5038018580619
 20
61.8318892397261
 10
-636.5055968034557
 20
61.83050563272052
 10
-636.5071467194838
 20
61.82916584333503
 10
-636.508724451037
 20
61.8276722102119
 10
-636.5104038335137
 20
61.82594650584983
 10
-636.5118629689022
 20
61.8243393843233
 10
-636.5132840204999
 20
61.82268263119344
 10
-636.5146421694036
 20
61.82101846201792
 10
-636.5161788194267
 20
61.81904449946462
 10
-636.5174238988819
 20
61.81737700617506
 10
-636.518682916012
 20
61.81563121456429
 10
-636.5199710424615
 20
61.81378512844465
 10
-636.521319526185
 20
61.81178981712898
 10
-636.5226520172673
 20
61.80975727391408
 10
-636.5239883759609
 20
61.80766004884747
 10
-636.5253872674781
 20
61.8054036736671
 10
-636.526458499771
 20
61.80363485925899
 10
-636.5275383270807
 20
61.801816876986
 10
-636.5286267168382
 20
61.79994979484904
 10
-636.5296607261898
 20
61.79814449000364
 10
-636.5307234106783
 20
61.79625784727433
 10
-636.5318364881659
 20
61.79424849867948
 10
-636.5329365607366
 20
61.79222994640371
 10
-636.5340015345034
 20
61.79024551447554
 10
-636.5350739524232
 20
61.7882177316838
 10
-636.5361537875389
 20
61.78614663759458
 10
-636.5372215335492
 20
61.78407040525446
 10
-636.5383538278894
 20
61.78183849299251
 10
-636.5395229007444
 20
61.77950214803374
 10
-636.5406551944949
 20
61.7772089801053
 10
-636.541772420807
 20
61.77491763940546
 10
-636.5428969009389
 20
61.77258317806628
 10
-636.5440218505755
 20
61.77021989881748
 10
-636.5451403158432
 20
61.76784311839656
 10
-636.5462862273147
 20
61.76538044997576
 10
-636.547432402429
 20
61.76288978195693
 10
-636.5485717624421
 20
61.76038718609622
 10
-636.5497414302747
 20
61.75779074504817
 10
-636.5509181985889
 20
61.75515111023913
 42
0.0298358952564727
 10
-636.732123047028
 20
61.17158588467017
 42
0.0055964985938136
 10
-636.8159043013226
 20
60.83524999467915
210
0.0
220
0.0
230
-1.0
  0
LWPOLYLINE
  5
B0
330
1F
100
AcDbEntity
  8
0
  6
CONTINUOUS
 62
     7
100
AcDbPolyline
 90
        4
 70
     0
 43
0.0
 10
-603.5167528404114
 20
61.83633841394872
 42
0.1050255012884622
 10
-600.6336346469969
 20
62.46062805523586
 42
0.1401410246413179
 10
-597.205421949438
 20
65.30893447372819
 42
0.0542806531018683
 10
-596.4999989656959
 20
66.65398510562598
210
0.0
220
0.0
230
-1.0
  0
LWPOLYLINE
  5
B1
330
1F
100
AcDbEntity
  8
0
  6
CONTINUOUS
 62
     7
100
AcDbPolyline
 90
       40
 70
     0
 43
0.0
 10
603.5167528360743
 20
61.83633621020357
 10
603.5057727905257
 20
61.83491263859614
 10
603.5002828417024
 20
61.83420084699398
 10
603.4984813836139
 20
61.83325212317153
 10
603.4967635831334
 20
61.83199464993682
 10
603.4950132973623
 20
61.83048848115613
 10
603.4934622954897
 20
61.82897989675923
 10
603.4918824339845
 20
61.82728813202554
 10
603.4905251577295
 20
61.82571810776876
 10
603.4891498159096
 20
61.82402403450215
 10
603.4877582635185
 20
61.82221028704448
 10
603.4863246815411
 20
61.82024266276348
 10
603.4851596884364
 20
61.81857335163487
 10
603.4840034117357
 20
61.81685703484779
 10
603.4826308507425
 20
61.81474608395221
 10
603.4814185510519
 20
61.81281799973637
 10
603.4802069972966
 20
61.81083398477577
 10
603.4789668868425
 20
61.80874638169232
 10
603.4777048209639
 20
61.80656505977694
 10
603.4764270484972
 20
61.80430046489621
 10
603.4751607316197
 20
61.80200251073276
 10
603.4739616920302
 20
61.79977913613532
 10
603.4729985821995
 20
61.79796082872685
 10
603.4719993568093
 20
61.79604467313737
 10
603.4710195508729
 20
61.79413717349369
 10
603.4700882254882
 20
61.79229846900086
 10
603.469149631365
 20
61.79042078108132
 10
603.4682037869193
 20
61.78850414611714
 10
603.4672689318538
 20
61.78658621062177
 10
603.4663638391193
 20
61.78470749588338
 10
603.46538610845
 20
61.78265438309344
 10
603.4643676592702
 20
61.78049024415849
 10
603.4633806280215
 20
61.77836855781088
 10
603.4624061369483
 20
61.77625085396338
 10
603.4614247286852
 20
61.77409552306345
 10
603.460442324035
 20
61.77191575152935
 10
603.4594650059887
 20
61.76972561090022
 10
603.4584631152361
 20
61.76745841902765
 42
0.026328849678229
 10
603.2798567241243
 20
61.19470066720299
 42
0.0053554479638029
 10
603.1874816763225
 20
60.83525005362598
  0
LINE
  5
B2
330
1F
100
AcDbEntity
  8
0
  6
CONTINUOUS
 62
     7
100
AcDbLine
 10
620.0
 20
61.83524980732841
 30
0.0
 11
603.5167528360743
 21
61.83524980732841
 31
0.0
  0
LINE
  5
B3
330
1F
100
AcDbEntity
  8
0
  6
CONTINUOUS
 62
     7
100
AcDbLine
 10
619.9999999999999
 20
60.83525011279106
 30
0.0
 11
620.0
 21
61.83524980732837
 31
0.0
  0
LINE
  5
B4
330
1F
100
AcDbEntity
  8
0
  6
CONTINUOUS
 62
     7
100
AcDbLine
 10
620.0
 20
61.83524980732841
 30
0.0
 11
636.4832471639256
 21
61.83524980732841
 31
0.0
  0
LINE
  5
B5
330
1F
100
AcDbEntity
  8
0
  6
CONTINUOUS
 62
     7
100
AcDbLine
 10
638.0
 20
84.98759748392864
 30
0.0
 11
638.0
 21
86.83524980732838
 31
0.0
  0
LINE
  5
B6
330
1F
100
AcDbEntity
  8
0
  6
CONTINUOUS
 62
     7
100
AcDbLine
 10
597.5
 20
75.33759748392865
 30
0.0
 11
602.0000000000001
 21
84.98759748392865
 31
0.0
  0
LINE
  5
B7
330
1F
100
AcDbEntity
  8
0
  6
CONTINUOUS
 62
     7
100
AcDbLine
 10
602.0
 20
84.98759748392864
 30
0.0
 11
602.0
 21
86.83524980732838
 31
0.0
  0
LINE
  5
B8
330
1F
100
AcDbEntity
  8
0
  6
CONTINUOUS
 62
     7
100
AcDbLine
 10
642.5
 20
75.33759748392865
 30
0.0
 11
637.9999999999999
 21
84.98759748392865
 31
0.0
  0
LINE
  5
B9
330
1F
100
AcDbEntity
  8
0
  6
CONTINUOUS
 62
     7
100
AcDbLine
 10
597.5
 20
64.90143333720415
 30
0.0
 11
597.5
 21
75.33759748392862
 31
0.0
  0
LINE
  5
BA
330
1F
100
AcDbEntity
  8
0
  6
CONTINUOUS
 62
     7
100
AcDbLine
 10
638.0
 20
86.83524980732837
 30
0.0
 11
602.0000000000001
 21
86.83524980732837
 31
0.0
  0
LINE
  5
BB
330
1F
100
AcDbEntity
  8
0
  6
CONTINUOUS
 62
     7
100
AcDbLine
 10
642.5
 20
64.90143333720415
 30
0.0
 11
642.5
 21
75.33759748392862
 31
0.0
  0
LINE
  5
BC
330
1F
100
AcDbEntity
  8
0
  6
CONTINUOUS
 62
     7
100
AcDbLine
 10
640.0765822083441
 20
212.0
 30
0.0
 11
639.798784071112
 21
212.0
 31
0.0
  0
LINE
  5
BD
330
1F
100
AcDbEntity
  8
0
  6
CONTINUOUS
 62
     7
100
AcDbLine
 10
645.5
 20
212.0
 30
0.0
 11
644.8737371583703
 21
212.0
 31
0.0
  0
LINE
  5
BE
330
1F
100
AcDbEntity
  8
0
  6
CONTINUOUS
 62
     7
100
AcDbLine
 10
644.8737371583703
 20
212.0
 30
0.0
 11
644.7589492755598
 21
212.0
 31
0.0
  0
LINE
  5
BF
330
1F
100
AcDbEntity
  8
0
  6
CONTINUOUS
 62
     7
100
AcDbLine
 10
594.5
 20
212.0
 30
0.0
 11
595.1262628416296
 21
212.0
 31
0.0
  0
LINE
  5
C0
330
1F
100
AcDbEntity
  8
0
  6
CONTINUOUS
 62
     7
100
AcDbLine
 10
597.5
 20
900.0000000000001
 30
0.0
 11
597.5
 21
867.5000000000001
 31
0.0
  0
LINE
  5
C1
330
1F
100
AcDbEntity
  8
0
  6
CONTINUOUS
 62
     7
100
AcDbLine
 10
590.0
 20
848.1
 30
0.0
 11
590.0
 21
841.5770063569311
 31
0.0
  0
LINE
  5
C2
330
1F
100
AcDbEntity
  8
0
  6
CONTINUOUS
 62
     7
100
AcDbLine
 10
645.5
 20
838.0000000000001
 30
0.0
 11
644.8737371583642
 21
838.0000000000001
 31
0.0
  0
LINE
  5
C3
330
1F
100
AcDbEntity
  8
0
  6
CONTINUOUS
 62
     7
100
AcDbLine
 10
650.0
 20
854.0000000000001
 30
0.0
 11
650.0
 21
850.9000000000001
 31
0.0
  0
LINE
  5
C4
330
1F
100
AcDbEntity
  8
0
  6
CONTINUOUS
 62
     7
100
AcDbLine
 10
645.0
 20
855.0000000000001
 30
0.0
 11
649.0
 21
855.0000000000001
 31
0.0
  0
LINE
  5
C5
330
1F
100
AcDbEntity
  8
0
  6
CONTINUOUS
 62
     7
100
AcDbLine
 10
595.0
 20
855.0000000000001
 30
0.0
 11
645.0
 21
855.0000000000001
 31
0.0
  0
LINE
  5
C6
330
1F
100
AcDbEntity
  8
0
  6
CONTINUOUS
 62
     7
100
AcDbLine
 10
600.2012159049751
 20
838.0000000000001
 30
0.0
 11
603.5
 21
838.0000000000001
 31
0.0
  0
LINE
  5
C7
330
1F
100
AcDbEntity
  8
0
  6
CONTINUOUS
 62
     7
100
AcDbLine
 10
595.0
 20
855.0000000000001
 30
0.0
 11
591.0
 21
855.0000000000001
 31
0.0
  0
LINE
  5
C8
330
1F
100
AcDbEntity
  8
0
  6
CONTINUOUS
 62
     7
100
AcDbLine
 10
590.0
 20
854.0000000000001
 30
0.0
 11
590.0
 21
850.9000000000001
 31
0.0
  0
LINE
  5
C9
330
1F
100
AcDbEntity
  8
0
  6
CONTINUOUS
 62
     7
100
AcDbLine
 10
594.5
 20
838.0000000000001
 30
0.0
 11
595.1262628416358
 21
838.0000000000001
 31
0.0
  0
LINE
  5
CA
330
1F
100
AcDbEntity
  8
0
  6
CONTINUOUS
 62
     7
100
AcDbLine
 10
639.7987840950249
 20
838.0000000000001
 30
0.0
 11
636.4999999999999
 21
838.0000000000001
 31
0.0
  0
LINE
  5
CB
330
1F
100
AcDbEntity
  8
0
  6
CONTINUOUS
 62
     7
100
AcDbLine
 10
595.0
 20
195.0
 30
0.0
 11
645.0
 21
195.0
 31
0.0
  0
LINE
  5
CC
330
1F
100
AcDbEntity
  8
0
  6
DASHED
 62
     7
100
AcDbLine
 10
651.5000000000001
 20
239.0
 30
0.0
 11
651.5000000000001
 21
811.0
 31
0.0
  0
LINE
  5
CE
330
1F
100
AcDbEntity
  8
0
  6
DASHED
 62
     7
100
AcDbLine
 10
588.4999999999999
 20
811.0
 30
0.0
 11
588.4999999999999
 21
239.0
 31
0.0
  0
LINE
  5
CF
330
1F
100
AcDbEntity
  8
0
  6
CONTINUOUS
 62
   253
100
AcDbLine
 10
640.2245721957208
 20
839.5202460097038
 30
0.0
 11
640.224861435159
 21
839.5204348866633
 31
0.0
  0
LINE
  5
D0
330
1F
100
AcDbEntity
  8
0
  6
CONTINUOUS
 62
     7
100
AcDbLine
 10
599.9234178478855
 20
838.0000000000001
 30
0.0
 11
600.2012159049751
 21
838.0000000000001
 31
0.0
  0
LINE
  5
D1
330
1F
100
AcDbEntity
  8
0
  6
DASHED
 62
     7
100
AcDbLine
 10
804.0
 20
54.33524980732849
 30
0.0
 11
1376.0
 21
54.33524980732849
 31
0.0
  0
LINE
  5
D2
330
1F
100
AcDbEntity
  8
0
  6
CONTINUOUS
 62
     7
100
AcDbLine
 10
636.4999999999999
 20
838.0000000000001
 30
0.0
 11
620.0
 21
838.0000000000001
 31
0.0
  0
LINE
  5
D3
330
1F
100
AcDbEntity
  8
0
  6
CONTINUOUS
 62
     7
100
AcDbLine
 10
650.0
 20
201.9
 30
0.0
 11
650.0
 21
208.422993643069
 31
0.0
  0
LINE
  5
D4
330
1F
100
AcDbEntity
  8
0
  6
CONTINUOUS
 62
     7
100
AcDbLine
 10
650.0
 20
848.1
 30
0.0
 11
650.0
 21
841.5770063569311
 31
0.0
  0
LINE
  5
D5
330
1F
100
AcDbEntity
  8
0
  6
CONTINUOUS
 62
     7
100
AcDbLine
 10
598.5
 20
900.0000000000001
 30
0.0
 11
597.5
 21
900.0000000000001
 31
0.0
  0
LINE
  5
D6
330
1F
100
AcDbEntity
  8
0
  6
CONTINUOUS
 62
     7
100
AcDbLine
 10
640.0765821521145
 20
838.0000000000001
 30
0.0
 11
639.7987840950249
 21
838.0000000000001
 31
0.0
  0
SPLINE
  5
D7
330
1F
100
AcDbEntity
  8
0
  6
CONTINUOUS
 62
     7
100
AcDbSpline
210
0.0
220
0.0
230
1.0
 70
     8
 71
     3
 72
    17
 73
    13
 74
     0
 42
0.000000001
 43
0.0001
 40
0.8796854004728055
 40
0.8796854004728055
 40
0.8796854004728055
 40
0.8796854004728055
 40
0.9028494588739181
 40
0.9078006203846792
 40
0.9280541405843692
 40
0.9379564636058918
 40
0.9532588222948203
 40
0.9681123068271041
 40
0.9784635040052714
 40
0.9784635040052714
 40
0.9784635040052714
 40
0.9979593766906614
 40
0.9979593766906614
 40
0.9979593766906614
 40
0.9979593766906614
 10
645.4992287771756
 20
838.01135746723
 30
0.0
 10
645.4967712043734
 20
838.0543270323483
 30
0.0
 10
645.500131884114
 20
838.1063570660518
 30
0.0
 10
645.5189858584664
 20
838.191745261211
 30
0.0
 10
645.5410633391419
 20
838.2505336534556
 30
0.0
 10
645.581533990921
 20
838.3186379937666
 30
0.0
 10
645.625362817601
 20
838.3717833696082
 30
0.0
 10
645.6782317738955
 20
838.4155753145011
 30
0.0
 10
645.7147672268377
 20
838.4370111937956
 30
0.0
 10
645.7302804875912
 20
838.4447725202631
 30
0.0
 10
645.7594988042151
 20
838.4593905233866
 30
0.0
 10
645.7896972747466
 20
838.4724178223427
 30
0.0
 10
645.8205519989172
 20
838.483675663252
 30
0.0
  0
LINE
  5
D8
330
1F
100
AcDbEntity
  8
0
  6
CONTINUOUS
 62
     7
100
AcDbLine
 10
598.0
 20
867.5
 30
0.0
 11
598.0
 21
867.0
 31
0.0
  0
LINE
  5
D9
330
1F
100
AcDbEntity
  8
0
  6
CONTINUOUS
 62
     7
100
AcDbLine
 10
641.5
 20
900.0000000000001
 30
0.0
 11
642.5
 21
900.0000000000001
 31
0.0
  0
LINE
  5
DA
330
1F
100
AcDbEntity
  8
0
  6
CONTINUOUS
 62
     7
100
AcDbLine
 10
639.798784071112
 20
212.0
 30
0.0
 11
636.4999999999999
 21
212.0
 31
0.0
  0
LINE
  5
DB
330
1F
100
AcDbEntity
  8
0
  6
DASHED
 62
     7
100
AcDbLine
 10
1376.0
 20
95.83524980732828
 30
0.0
 11
804.0
 21
95.83524980732828
 31
0.0
  0
LINE
  5
DC
330
1F
100
AcDbEntity
  8
0
  6
CONTINUOUS
 62
     7
100
AcDbLine
 10
590.0
 20
196.0
 30
0.0
 11
590.0
 21
199.1
 31
0.0
  0
LINE
  5
DD
330
1F
100
AcDbEntity
  8
0
  6
CONTINUOUS
 62
     7
100
AcDbLine
 10
603.5
 20
838.0000000000001
 30
0.0
 11
620.0
 21
838.0000000000001
 31
0.0
  0
ARC
  5
DE
330
1F
100
AcDbEntity
  8
0
  6
CONTINUOUS
 62
     7
100
AcDbCircle
 10
-591.0
 20
854.0000000000001
 30
0.0
 40
1.000000000000001
210
0.0
220
0.0
230
-1.0
100
AcDbArc
 50
0.0
 51
90.00000000000006
  0
LINE
  5
DF
330
1F
100
AcDbEntity
  8
0
  6
CONTINUOUS
 62
     7
100
AcDbLine
 10
644.8737371583642
 20
838.0000000000001
 30
0.0
 11
644.758949270415
 21
838.0000000000001
 31
0.0
  0
LINE
  5
E0
330
1F
100
AcDbEntity
  8
0
  6
CONTINUOUS
 62
     7
100
AcDbLine
 10
595.1262628416358
 20
838.0000000000001
 30
0.0
 11
595.241050729585
 21
838.0000000000001
 31
0.0
  0
LINE
  5
E1
330
1F
100
AcDbEntity
  8
0
  6
CONTINUOUS
 62
   253
100
AcDbLine
 10
599.7754278042792
 20
839.5202460097038
 30
0.0
 11
599.775138564841
 21
839.5204348866633
 31
0.0
  0
ARC
  5
E2
330
1F
100
AcDbEntity
  8
0
  6
CONTINUOUS
 62
     7
100
AcDbCircle
 10
649.0
 20
854.0000000000001
 30
0.0
 40
1.000000000000001
100
AcDbArc
 50
0.0
 51
90.00000000000006
  0
ARC
  5
E3
330
1F
100
AcDbEntity
  8
0
  6
CONTINUOUS
 62
     7
100
AcDbCircle
 10
594.0
 20
826.0
 30
0.0
 40
0.5000000000000187
100
AcDbArc
 50
283.2917191676486
 51
76.70828083236313
  0
LINE
  5
E4
330
1F
100
AcDbEntity
  8
0
  6
CONTINUOUS
 62
     7
100
AcDbLine
 10
598.5
 20
867.5
 30
0.0
 11
641.5
 21
867.5
 31
0.0
  0
ARC
  5
E5
330
1F
100
AcDbEntity
  8
0
  6
CONTINUOUS
 62
     7
100
AcDbCircle
 10
-646.0
 20
814.0
 30
0.0
 40
0.5000000000000187
210
0.0
220
0.0
230
-1.0
100
AcDbArc
 50
283.2917191676486
 51
76.70828083236296
  0
LINE
  5
E6
330
1F
100
AcDbEntity
  8
0
  6
CONTINUOUS
 62
     7
100
AcDbLine
 10
642.5
 20
900.0000000000001
 30
0.0
 11
642.5
 21
867.5000000000001
 31
0.0
  0
LINE
  5
E7
330
1F
100
AcDbEntity
  8
0
  6
CONTINUOUS
 62
     7
100
AcDbLine
 10
598.5
 20
858.5
 30
0.0
 11
641.5
 21
858.5
 31
0.0
  0
LINE
  5
E8
330
1F
100
AcDbEntity
  8
0
  6
CONTINUOUS
 62
     7
100
AcDbLine
 10
597.5
 20
867.0
 30
0.0
 11
598.5
 21
867.0
 31
0.0
  0
LWPOLYLINE
  5
E9
330
1F
100
AcDbEntity
  8
0
  6
CONTINUOUS
 62
     7
100
AcDbPolyline
 90
      607
 70
     0
 43
0.0
 10
-1403.449778612421
 20
90.09539654560022
 10
-1403.44923465866
 20
90.09429698938304
 10
-1403.448688629487
 20
90.09319851613256
 10
-1403.44814052639
 20
90.09210112813354
 10
-1403.447590350853
 20
90.09100482771298
 10
-1403.447038104356
 20
90.08990961724034
 10
-1403.446483788378
 20
90.08881549912768
 10
-1403.445959253445
 20
90.0877849047676
 10
-1403.445432881326
 20
90.08675528576771
 10
-1403.444904673251
 20
90.08572664425435
 10
-1403.444374630444
 20
90.08469898238808
 10
-1403.44384275413
 20
90.08367230236335
 10
-1403.443398124152
 20
90.08281748730067
 10
-1403.442952222458
 20
90.08196335692713
 10
-1403.442505049766
 20
90.08110991259798
 10
-1403.442056607114
 20
90.08025715628892
 10
-1403.441606895828
 20
90.07940509053009
 10
-1403.441155917243
 20
90.07855371787227
 10
-1403.44072954932
 20
90.07775163219733
 10
-1403.440302057103
 20
90.076950167083
 10
-1403.439873441711
 20
90.0761493246694
 10
-1403.439443704264
 20
90.0753491070973
 10
-1403.439012845882
 20
90.07454951650817
 10
-1403.438554651224
 20
90.07370215340421
 10
-1403.438095198239
 20
90.07285550054999
 10
-1403.437634488266
 20
90.07200956050282
 10
-1403.437172522641
 20
90.07116433582051
 10
-1403.436709302701
 20
90.07031982906204
 10
-1403.436244829783
 20
90.06947604278697
 10
-1403.435878936844
 20
90.06881360304331
 10
-1403.435511896657
 20
90.06815175792188
 10
-1403.435143676153
 20
90.06749052251678
 10
-1403.4347742763
 20
90.06682989863307
 10
-1403.434403698064
 20
90.06616988807603
 10
-1403.43403194241
 20
90.06551049265133
 10
-1403.433659010307
 20
90.06485171416512
 10
-1403.433284902722
 20
90.06419355442391
 10
-1403.432909620622
 20
90.06353601523459
 10
-1403.432533164974
 20
90.0628790984045
 10
-1403.432155536748
 20
90.06222280574133
 10
-1403.43177673691
 20
90.06156713905317
 10
-1403.431418510549
 20
90.06094951399984
 10
-1403.431059244322
 20
90.06033244854933
 10
-1403.430698939042
 20
90.05971594421818
 10
-1403.430337595523
 20
90.05910000252321
 10
-1403.429975214576
 20
90.0584846249815
 10
-1403.429607285337
 20
90.0578621950317
 10
-1403.429238294467
 20
90.05724034643919
 10
-1403.42886824281
 20
90.05661908077916
 10
-1403.428497131209
 20
90.05599839962707
 10
-1403.428124960511
 20
90.05537830455884
 10
-1403.427751731559
 20
90.05475879715047
 10
-1403.427377445197
 20
90.05413987897853
 10
-1403.427002102272
 20
90.05352155161972
 10
-1403.426607753566
 20
90.05287441550335
 10
-1403.426212247175
 20
90.05222793135225
 10
-1403.425815584072
 20
90.05158210098053
 10
-1403.425417765229
 20
90.05093692620258
 10
-1403.425018791622
 20
90.05029240883327
 10
-1403.424618664221
 20
90.04964855068764
 10
-1403.424217384001
 20
90.04900535358139
 10
-1403.423814951936
 20
90.04836281933038
 10
-1403.423411369
 20
90.04772094975088
 10
-1403.423006636168
 20
90.04707974665965
 10
-1403.422600754415
 20
90.04643921187372
 10
-1403.422193724715
 20
90.04579934721046
 10
-1403.421808903306
 20
90.04519666165322
 10
-1403.421423063081
 20
90.04459457496128
 10
-1403.421036204857
 20
90.04399308865895
 10
-1403.420648329454
 20
90.04339220427066
 10
-1403.420259437689
 20
90.04279192332132
 10
-1403.419845867013
 20
90.04215592281383
 10
-1403.419431154946
 20
90.04152060464126
 10
-1403.419015302463
 20
90.04088597062399
 10
-1403.418598310543
 20
90.04025202258248
 10
-1403.418180180163
 20
90.03961876233785
 10
-1403.417760912301
 20
90.03898619171142
 10
-1403.417364561642
 20
90.03839040124856
 10
-1403.416967201474
 20
90.03779522698885
 10
-1403.41656883262
 20
90.03720067045978
 10
-1403.416169455898
 20
90.03660673318909
 10
-1403.415769072131
 20
90.03601341670486
 10
-1403.415367682139
 20
90.03542072253545
 10
-1403.414965286744
 20
90.03482865220941
 10
-1403.414561886767
 20
90.03423720725561
 10
-1403.414157483031
 20
90.03364638920335
 10
-1403.413752076357
 20
90.03305619958196
 10
-1403.413352933651
 20
90.03247716223916
 10
-1403.412952825079
 20
90.03189873400879
 10
-1403.412551751421
 20
90.03132091634053
 10
-1403.412149713457
 20
90.03074371068436
 10
-1403.411674851874
 20
90.03006451401019
 10
-1403.411198654356
 20
90.02938617108852
 10
-1403.410721122179
 20
90.0287086842913
 10
-1403.41024225662
 20
90.02803205599113
 10
-1403.409762058955
 20
90.0273562885609
 10
-1403.409280530462
 20
90.02668138437414
 10
-1403.408797672417
 20
90.02600734580463
 10
-1403.408353885661
 20
90.02539023956469
 10
-1403.407908983818
 20
90.02477386447244
 10
-1403.407462968142
 20
90.02415822215376
 10
-1403.407015839954
 20
90.02354331418549
 10
-1403.406567600571
 20
90.02292914214476
 10
-1403.406118251315
 20
90.02231570760927
 10
-1403.405667793506
 20
90.02170301215672
 10
-1403.405216228462
 20
90.0210910573655
 10
-1403.404763557508
 20
90.02047984481403
 10
-1403.404309781962
 20
90.01986937608136
 10
-1403.403854903145
 20
90.01925965274671
 10
-1403.403398922382
 20
90.01865067638964
 10
-1403.402967989555
 20
90.01807718427163
 10
-1403.402536079403
 20
90.01750435893052
 10
-1403.402103193034
 20
90.0169322016911
 10
-1403.401669331556
 20
90.01636071387858
 10
-1403.401234496079
 20
90.01578989681813
 10
-1403.40077224384
 20
90.01518521922364
 10
-1403.400308898536
 20
90.01458129922129
 10
-1403.39984446149
 20
90.01397813839328
 10
-1403.399378934027
 20
90.01337573832213
 10
-1403.398912317472
 20
90.01277410059055
 10
-1403.398444613149
 20
90.01217322678178
 10
-1403.398002639671
 20
90.01160738973284
 10
-1403.39755970148
 20
90.01104223453076
 10
-1403.397115799687
 20
90.01047776250337
 10
-1403.396670935402
 20
90.00991397497859
 10
-1403.396225109738
 20
90.0093508732847
 10
-1403.395726402578
 20
90.00872322306108
 10
-1403.395226500841
 20
90.00809643062097
 10
-1403.394725406073
 20
90.00747049781205
 10
-1403.394223119822
 20
90.00684542648219
 10
-1403.393719643634
 20
90.00622121847984
 10
-1403.393214979059
 20
90.00559787565365
 10
-1403.392709127644
 20
90.0049753998528
 10
-1403.392202090937
 20
90.00435379292676
 10
-1403.391719155433
 20
90.00376388484416
 10
-1403.391235152249
 20
90.00317476467978
 10
-1403.390750082716
 20
90.00258643402175
 10
-1403.390263948163
 20
90.00199889445854
 10
-1403.389776749922
 20
90.00141214757873
 10
-1403.389288489323
 20
90.00082619497147
 10
-1403.388827157493
 20
90.00027445428704
 10
-1403.388364883547
 20
89.99972342243983
 10
-1403.387901668603
 20
89.99917310076255
 10
-1403.387437513777
 20
89.99862349058785
 10
-1403.386972420185
 20
89.99807459324887
 10
-1403.386452235351
 20
89.9974628279942
 10
-1403.38593088412
 20
89.99685195417317
 10
-1403.385408368047
 20
89.99624197363998
 10
-1403.384884688686
 20
89.99563288824913
 10
-1403.384359847591
 20
89.99502469985543
 10
-1403.383833846317
 20
89.994417410314
 10
-1403.383306686418
 20
89.99381102148041
 10
-1403.382778369451
 20
89.99320553521045
 10
-1403.382248896971
 20
89.99260095336025
 10
-1403.381718270535
 20
89.99199727778634
 10
-1403.3811864917
 20
89.99139451034554
 10
-1403.380653562022
 20
89.99079265289488
 10
-1403.380119483059
 20
89.99019170729188
 10
-1403.379584256369
 20
89.98959167539428
 10
-1403.379047883511
 20
89.98899255906018
 10
-1403.378510366042
 20
89.98839436014788
 10
-1403.377946026536
 20
89.98776866159041
 10
-1403.377380434318
 20
89.98714397408602
 10
-1403.376813591181
 20
89.98652029977244
 10
-1403.37624549892
 20
89.98589764078784
 10
-1403.375676159328
 20
89.98527599927075
 10
-1403.375105574201
 20
89.98465537736
 10
-1403.374540950846
 20
89.98404356993895
 10
-1403.373975116593
 20
89.9834327607631
 10
-1403.373408073172
 20
89.98282295189247
 10
-1403.372839822312
 20
89.9822141453877
 10
-1403.372270365744
 20
89.98160634330942
 10
-1403.371709906113
 20
89.98101037451633
 10
-1403.37114828676
 20
89.9804153785388
 10
-1403.370585509324
 20
89.97982135732995
 10
-1403.370021575447
 20
89.97922831284343
 10
-1403.369444942336
 20
89.97862417426123
 10
-1403.368867108554
 20
89.97802105678487
 10
-1403.368288075845
 20
89.97741896249084
 10
-1403.367707845955
 20
89.97681789345602
 10
-1403.367126420628
 20
89.97621785175741
 10
-1403.366543801613
 20
89.97561883947247
 10
-1403.365959990654
 20
89.97502085867886
 10
-1403.365374989499
 20
89.97442391145461
 10
-1403.364788799895
 20
89.97382799987791
 10
-1403.36420142359
 20
89.9732331260274
 10
-1403.363612862334
 20
89.9726392919819
 10
-1403.363023117874
 20
89.97204649982055
 10
-1403.362432191959
 20
89.97145475162266
 10
-1403.361840086341
 20
89.9708640494679
 10
-1403.36118740969
 20
89.97021548776002
 10
-1403.360533310046
 20
89.96956819704977
 10
-1403.359877789738
 20
89.96892218010643
 10
-1403.359220851102
 20
89.9682774396961
 10
-1403.358562496642
 20
89.96763397846713
 10
-1403.357962766257
 20
89.96705012585254
 10
-1403.35736187005
 20
89.96646733435365
 10
-1403.356759810067
 20
89.96588560584395
 10
-1403.356156588353
 20
89.96530494219712
 10
-1403.355552206954
 20
89.96472534528709
 10
-1403.354946667916
 20
89.9641468169881
 10
-1403.354339973287
 20
89.96356935917443
 10
-1403.353671276929
 20
89.96293539422744
 10
-1403.353001187508
 20
89.96230272933153
 10
-1403.352329707751
 20
89.9616713669824
 10
-1403.351656840383
 20
89.9610413096763
 10
-1403.350982588133
 20
89.9604125599095
 10
-1403.35030695373
 20
89.95978512017871
 10
-1403.349629939902
 20
89.95915899298096
 10
-1403.34895154938
 20
89.95853418081356
 10
-1403.348271784894
 20
89.95791068617415
 10
-1403.347590649175
 20
89.95728851156053
 10
-1403.346920344516
 20
89.95667873450341
 10
-1403.346248722384
 20
89.95607023552598
 10
-1403.345575785368
 20
89.95546301699537
 10
-1403.344901536059
 20
89.95485708127899
 10
-1403.344276270266
 20
89.95429736045801
 10
-1403.343649884412
 20
89.95373874262292
 10
-1403.343022380552
 20
89.95318122965173
 10
-1403.342393760742
 20
89.95262482342258
 10
-1403.34176402704
 20
89.95206952581385
 10
-1403.341133181502
 20
89.95151533870404
 10
-1403.340501226186
 20
89.9509622639718
 10
-1403.339804796
 20
89.95035516880483
 10
-1403.339107028213
 20
89.94974942438894
 10
-1403.338407925566
 20
89.94914503322521
 10
-1403.337707490799
 20
89.94854199781498
 10
-1403.337005726655
 20
89.94794032065973
 10
-1403.336302635876
 20
89.94734000426119
 10
-1403.335598221207
 20
89.94674105112111
 10
-1403.33489248539
 20
89.94614346374163
 10
-1403.334185431172
 20
89.94554724462489
 10
-1403.333477061297
 20
89.94495239627331
 10
-1403.332780062917
 20
89.94436950690188
 10
-1403.332081800699
 20
89.9437879445617
 10
-1403.331382277249
 20
89.94320771162396
 10
-1403.330681495169
 20
89.9426288104599
 10
-1403.329966681124
 20
89.94204075458617
 10
-1403.329250567715
 20
89.94145408431619
 10
-1403.328533157693
 20
89.94086880215323
 10
-1403.327814453808
 20
89.94028491060074
 10
-1403.327094458812
 20
89.93970241216226
 10
-1403.326386066799
 20
89.93913167392475
 10
-1403.325676434639
 20
89.93856228427849
 10
-1403.32496556494
 20
89.93799424559568
 10
-1403.324253460313
 20
89.93742756024837
 10
-1403.323525552656
 20
89.93685070740203
 10
-1403.322796364644
 20
89.9362752686837
 10
-1403.32206589905
 20
89.93570124661404
 10
-1403.32133415865
 20
89.93512864371361
 10
-1403.320601146221
 20
89.93455746250334
 10
-1403.319866864539
 20
89.93398770550381
 10
-1403.319131316382
 20
89.93341937523597
 10
-1403.318463002037
 20
89.93290507482382
 10
-1403.317793649942
 20
89.93239195234499
 10
-1403.317123262171
 20
89.93188000968105
 10
-1403.3164518408
 20
89.9313692487137
 10
-1403.315779387905
 20
89.93085967132447
 10
-1403.315105905561
 20
89.93035127939503
 10
-1403.314431395846
 20
89.92984407480702
 10
-1403.313688251024
 20
89.9292875233853
 10
-1403.312943868369
 20
89.92873241343285
 10
-1403.312198250679
 20
89.92817874747799
 10
-1403.311451400758
 20
89.92762652805253
 10
-1403.310703321412
 20
89.92707575768772
 10
-1403.309954015446
 20
89.9265264389138
 10
-1403.309203485667
 20
89.92597857426027
 10
-1403.308451734881
 20
89.92543216625576
 10
-1403.307698765895
 20
89.92488721742808
 10
-1403.306944581515
 20
89.92434373030417
 10
-1403.306202684399
 20
89.92381137353588
 10
-1403.305459620277
 20
89.923280431563
 10
-1403.30471539181
 20
89.92275090677725
 10
-1403.303970001658
 20
89.92222280156959
 10
-1403.30320986815
 20
89.92168655544825
 10
-1403.302448535898
 20
89.9211517859953
 10
-1403.301686007713
 20
89.92061849573219
 10
-1403.300922286403
 20
89.92008668717943
 10
-1403.300157374779
 20
89.91955636285681
 10
-1403.29940496639
 20
89.91903695575925
 10
-1403.298651415237
 20
89.91851898510878
 10
-1403.297896724287
 20
89.91800245285913
 10
-1403.297140896597
 20
89.91748736083183
 10
-1403.296368475251
 20
89.9169632432224
 10
-1403.29559487673
 20
89.9164406290488
 10
-1403.294820104284
 20
89.91591952024369
 10
-1403.294044161163
 20
89.91539991873908
 10
-1403.293267050619
 20
89.91488182646617
 10
-1403.292488775903
 20
89.91436524535517
 10
-1403.291709340267
 20
89.91385017733589
 10
-1403.290930451333
 20
89.91333774316573
 10
-1403.290150413008
 20
89.91282681932778
 10
-1403.289369228523
 20
89.91231740773664
 10
-1403.288586901111
 20
89.91180951030636
 10
-1403.287803434001
 20
89.91130312895007
 10
-1403.287032851154
 20
89.91080726767503
 10
-1403.286261175129
 20
89.91031287246781
 10
-1403.285488408992
 20
89.90981994513885
 10
-1403.284714555803
 20
89.90932848749777
 10
-1403.283923792318
 20
89.90882851697084
 10
-1403.283131903404
 20
89.90833008053617
 10
-1403.282338892316
 20
89.90783318011425
 10
-1403.281544762309
 20
89.90733781762499
 10
-1403.28074951664
 20
89.90684399498738
 10
-1403.279953158564
 20
89.90635171411981
 10
-1403.279155691336
 20
89.90586097693992
 10
-1403.278357118214
 20
89.90537178536451
 10
-1403.277557442452
 20
89.90488414130965
 10
-1403.27675666731
 20
89.90439804669093
 10
-1403.275954796042
 20
89.90391350342286
 10
-1403.275151831907
 20
89.90343051341942
 10
-1403.274347778162
 20
89.90294907859392
 10
-1403.273542638065
 20
89.9024692008587
 10
-1403.272655733108
 20
89.90194313607108
 10
-1403.271767521944
 20
89.90141896021969
 10
-1403.270878008908
 20
89.900896675847
 10
-1403.269987198339
 20
89.90037628549452
 10
-1403.269095094573
 20
89.89985779170267
 10
-1403.268274693374
 20
89.89938330437991
 10
-1403.267453208548
 20
89.89891042066999
 10
-1403.266630643456
 20
89.89843914253825
 10
-1403.265807001457
 20
89.89796947194928
 10
-1403.264982285911
 20
89.89750141086688
 10
-1403.26415650018
 20
89.89703496125428
 10
-1403.263329647625
 20
89.89657012507391
 10
-1403.262501731605
 20
89.89610690428734
 10
-1403.261633254045
 20
89.89562336011547
 10
-1403.26076361688
 20
89.89514159325357
 10
-1403.259892823977
 20
89.89466160595455
 10
-1403.259020879201
 20
89.89418340047067
 10
-1403.258147786416
 20
89.89370697905308
 10
-1403.257273549489
 20
89.89323234395225
 10
-1403.256398172286
 20
89.89275949741781
 10
-1403.255521658673
 20
89.89228844169644
 10
-1403.254644012638
 20
89.89181917888538
 10
-1403.253765238362
 20
89.89135171083102
 10
-1403.252885340049
 20
89.89088603935541
 10
-1403.252004321901
 20
89.89042216627956
 10
-1403.251172625746
 20
89.88998644905938
 10
-1403.25033994134
 20
89.88955233372315
 10
-1403.249506272205
 20
89.88911982179509
 10
-1403.248671621865
 20
89.888688914799
 10
-1403.247835993844
 20
89.88825961425795
 10
-1403.246948657269
 20
89.88780605264628
 10
-1403.246060229082
 20
89.88735430164024
 10
-1403.245170713485
 20
89.88690436305474
 10
-1403.244280114683
 20
89.88645623870362
 10
-1403.243388436879
 20
89.88600993040008
 10
-1403.242495684278
 20
89.88556543995662
 10
-1403.241652965462
 20
89.88514801560603
 10
-1403.240809298436
 20
89.88473221042426
 10
-1403.239964686721
 20
89.88431802592834
 10
-1403.239119133844
 20
89.88390546363483
 10
-1403.238272643328
 20
89.88349452505977
 10
-1403.237425218697
 20
89.88308521171851
 10
-1403.236576863477
 20
89.88267752512563
 10
-1403.235727581191
 20
89.88227146679533
 10
-1403.234877375363
 20
89.88186703824114
 10
-1403.23402624952
 20
89.88146424097593
 10
-1403.233189430242
 20
89.88107022583613
 10
-1403.232351730252
 20
89.88067778713604
 10
-1403.231513152888
 20
89.88028692630728
 10
-1403.23067370149
 20
89.879897644781
 10
-1403.229766208768
 20
89.87947903887533
 10
-1403.22885770488
 20
89.87906227816106
 10
-1403.227948194032
 20
89.87864736443801
 10
-1403.227037680428
 20
89.87823429950564
 10
-1403.226126168275
 20
89.87782308516235
 10
-1403.225213661778
 20
89.87741372320585
 10
-1403.224352391549
 20
89.87702945161091
 10
-1403.223490244634
 20
89.87664682985324
 10
-1403.222627224555
 20
89.87626585943792
 10
-1403.221763334839
 20
89.8758865418695
 10
-1403.220898579011
 20
89.87550887865181
 10
-1403.219932431318
 20
89.87508933489806
 10
-1403.218965214074
 20
89.8746718557909
 10
-1403.217996932179
 20
89.8742564434185
 10
-1403.217027590534
 20
89.8738430998684
 10
-1403.216057194039
 20
89.8734318272269
 10
-1403.215085747596
 20
89.87302262757984
 10
-1403.214113256103
 20
89.8726155030119
 10
-1403.213139724463
 20
89.87221045560712
 10
-1403.212165157575
 20
89.87180748744844
 10
-1403.21118956034
 20
89.87140660061816
 10
-1403.210212937659
 20
89.87100779719765
 10
-1403.209235294431
 20
89.87061107926742
 10
-1403.208256635558
 20
89.87021644890724
 10
-1403.207276965939
 20
89.86982390819598
 10
-1403.206296290475
 20
89.8694334592116
 10
-1403.205314614066
 20
89.86904510403143
 10
-1403.204285122924
 20
89.86864050374533
 10
-1403.203254544251
 20
89.86823820608642
 10
-1403.20222288368
 20
89.86783821344008
 10
-1403.201190146846
 20
89.86744052819073
 10
-1403.200156339381
 20
89.86704515272193
 10
-1403.199121466919
 20
89.86665208941608
 10
-1403.198181809938
 20
89.86629754072872
 10
-1403.19724128547
 20
89.86594489832711
 10
-1403.19629989772
 20
89.86559416398754
 10
-1403.195357650893
 20
89.86524533948564
 10
-1403.194414549194
 20
89.8648984265964
 10
-1403.193470596825
 20
89.86455342709415
 10
-1403.192579809227
 20
89.86422989594911
 10
-1403.191688272663
 20
89.86390806882899
 10
-1403.190795990656
 20
89.86358794721954
 10
-1403.189902966731
 20
89.86326953260587
 10
-1403.18900920441
 20
89.86295282647266
 10
-1403.188114707218
 20
89.86263783030412
 10
-1403.187219478677
 20
89.86232454558396
 10
-1403.18632352231
 20
89.86201297379532
 10
-1403.185426841641
 20
89.861703116421
 10
-1403.184529440193
 20
89.86139497494322
 10
-1403.18364736559
 20
89.86109400763415
 10
-1403.182764602456
 20
89.86079469831942
 10
-1403.181881154128
 20
89.86049704840188
 10
-1403.180997023942
 20
89.860201059284
 10
-1403.180096121544
 20
89.85990139636368
 10
-1403.179194519251
 20
89.8596034581176
 10
-1403.178292220583
 20
89.85930724602476
 10
-1403.177389229063
 20
89.85901276156349
 10
-1403.176485548213
 20
89.85872000621193
 10
-1403.175597336952
 20
89.85843416313405
 10
-1403.174708467493
 20
89.85814999078784
 10
-1403.173818943173
 20
89.85786749057223
 10
-1403.172928767326
 20
89.85758666388577
 10
-1403.171868189305
 20
89.85725453037956
 10
-1403.170806698274
 20
89.85692477299439
 10
-1403.169744299862
 20
89.85659739408746
 10
-1403.168680999696
 20
89.85627239601496
 10
-1403.167616803402
 20
89.85594978113248
 10
-1403.166551716607
 20
89.85562955179465
 10
-1403.16564007466
 20
89.85535756280139
 10
-1403.164727788954
 20
89.85508732200748
 10
-1403.16381486301
 20
89.8548188308847
 10
-1403.162901300346
 20
89.85455209090426
 10
-1403.161987104482
 20
89.85428710353705
 10
-1403.161088620609
 20
89.85402855545743
 10
-1403.160189532676
 20
89.85377170076741
 10
-1403.159289844016
 20
89.85351654085932
 10
-1403.158389557964
 20
89.85326307712477
 10
-1403.15747028639
 20
89.85300619052656
 10
-1403.15655039994
 20
89.85275107252211
 10
-1403.155629902369
 20
89.85249772389847
 10
-1403.15470879743
 20
89.85224614543647
 10
-1403.153787088881
 20
89.85199633791635
 10
-1403.152864780475
 20
89.85174830211801
 10
-1403.151941875968
 20
89.85150203882081
 10
-1403.151018379114
 20
89.8512575488038
 10
-1403.150094293669
 20
89.85101483284546
 10
-1403.149169623385
 20
89.8507738917239
 10
-1403.148244372018
 20
89.8505347262168
 10
-1403.147318543321
 20
89.85029733710131
 10
-1403.146392141047
 20
89.8500617251543
 10
-1403.145465168951
 20
89.84982789115203
 10
-1403.144444845977
 20
89.84957272820188
 10
-1403.143423843055
 20
89.84931971853588
 10
-1403.142402165177
 20
89.84906886318561
 10
-1403.141379817338
 20
89.84882016318195
 10
-1403.140356804533
 20
89.84857361955517
 10
-1403.139416736626
 20
89.8483491059343
 10
-1403.138476115985
 20
89.84812641260554
 10
-1403.137534946475
 20
89.84790554036542
 10
-1403.136593231964
 20
89.84768649001012
 10
-1403.135650976317
 20
89.84746926233528
 10
-1403.134708183402
 20
89.8472538581363
 10
-1403.133764857083
 20
89.84704027820788
 10
-1403.132821001227
 20
89.84682852334453
 10
-1403.131831636131
 20
89.84660864320365
 10
-1403.130841698716
 20
89.84639076740652
 10
-1403.129851193597
 20
89.8461748963974
 10
-1403.128860125386
 20
89.84596103061997
 10
-1403.127868498694
 20
89.84574917051746
 10
-1403.126876318134
 20
89.84553931653261
 10
-1403.125883588316
 20
89.8453314691076
 10
-1403.124890313853
 20
89.84512562868419
 10
-1403.123896499354
 20
89.84492179570364
 10
-1403.12290214943
 20
89.84471997060672
 10
-1403.121907268691
 20
89.84452015383376
 10
-1403.120911861746
 20
89.84432234582457
 10
-1403.119972857377
 20
89.84413768138849
 10
-1403.119033393183
 20
89.84395480346086
 10
-1403.118093473025
 20
89.84377371240903
 10
-1403.117153100766
 20
89.84359440860024
 10
-1403.116212280267
 20
89.84341689240117
 10
-1403.115213954838
 20
89.8432305714557
 10
-1403.114215134142
 20
89.84304626221478
 10
-1403.113215822784
 20
89.84286396511453
 10
-1403.112216025372
 20
89.84268368059067
 10
-1403.11121574651
 20
89.84250540907846
 10
-1403.110214990803
 20
89.8423291510127
 10
-1403.109270988523
 20
89.84216480937923
 10
-1403.108326570291
 20
89.84200225840833
 10
-1403.107381739964
 20
89.84184149846335
 10
-1403.106436501402
 20
89.84168252990726
 10
-1403.105490858462
 20
89.84152535310258
 10
-1403.104544815003
 20
89.84136996841168
 10
-1403.10359837488
 20
89.84121637619641
 10
-1403.102651541953
 20
89.84106457681828
 10
-1403.101704320076
 20
89.84091457063853
 10
-1403.100756713106
 20
89.84076635801775
 10
-1403.099825656564
 20
89.84062253820069
 10
-1403.098894235892
 20
89.84048044914178
 10
-1403.097962454715
 20
89.84034009117819
 10
-1403.097030316662
 20
89.84020146464738
 10
-1403.096023313682
 20
89.84005370810227
 10
-1403.095015903326
 20
89.83990797150598
 10
-1403.094008090164
 20
89.83976425528311
 10
-1403.092999878766
 20
89.83962255985806
 10
-1403.091991273702
 20
89.83948288565524
 10
-1403.090982279542
 20
89.83934523309888
 10
-1403.090030589919
 20
89.83921729844712
 10
-1403.089078562293
 20
89.83909116173044
 10
-1403.088126200497
 20
89.83896682330416
 10
-1403.087173508362
 20
89.83884428352357
 10
-1403.086220489721
 20
89.83872354274402
 10
-1403.085267148406
 20
89.83860460132054
 10
-1403.084313488252
 20
89.83848745960815
 10
-1403.08335951309
 20
89.83837211796185
 10
-1403.082405226755
 20
89.8382585767365
 10
-1403.081450633082
 20
89.83814683628682
 10
-1403.080512790278
 20
89.83803884437319
 10
-1403.079574658345
 20
89.83793259017392
 10
-1403.078636240915
 20
89.8378280740249
 10
-1403.077697541623
 20
89.83772529626177
 10
-1403.07674148923
 20
89.8376224362426
 10
-1403.075785152234
 20
89.8375213790999
 10
-1403.074828534472
 20
89.83742212518759
 10
-1403.073871639779
 20
89.8373246748595
 10
-1403.072914471992
 20
89.8372290284693
 10
-1403.071974134378
 20
89.83713684629807
 10
-1403.071033540673
 20
89.83704640488943
 10
-1403.070092694512
 20
89.836957704578
 10
-1403.069151599532
 20
89.83687074569823
 10
-1403.068191045817
 20
89.83678380759791
 10
-1403.067230240674
 20
89.83669868343668
 10
-1403.066269187965
 20
89.8366153735694
 10
-1403.065307891555
 20
89.83653387835089
 10
-1403.06434635531
 20
89.83645419813568
 10
-1403.063384583093
 20
89.83637633327824
 10
-1403.062422578769
 20
89.83630028413269
 10
-1403.061404248776
 20
89.83622177988165
 10
-1403.06038566774
 20
89.83614531001116
 10
-1403.059366840243
 20
89.83607087494039
 10
-1403.058347770868
 20
89.83599847508816
 10
-1403.057328464198
 20
89.83592811087321
 10
-1403.056308924817
 20
89.8358597827138
 10
-1403.055347435803
 20
89.83579722425705
 10
-1403.054385747831
 20
89.83573647653408
 10
-1403.053423864745
 20
89.8356775398949
 10
-1403.052461790386
 20
89.83562041468923
 10
-1403.051499528599
 20
89.83556510126672
 10
-1403.050537083227
 20
89.83551159997654
 10
-1403.049574458114
 20
89.83545991116787
 10
-1403.048611657105
 20
89.83541003518941
 10
-1403.047648684043
 20
89.83536197238983
 10
-1403.046685542776
 20
89.83531572311742
 10
-1403.045739440451
 20
89.83527206530134
 10
-1403.044793183226
 20
89.835230157487
 10
-1403.043846774744
 20
89.83519000000383
 10
-1403.042900218647
 20
89.83515159318073
 10
-1403.041936304543
 20
89.83511428708618
 10
-1403.040972245034
 20
89.83507879657832
 10
-1403.040008043966
 20
89.83504512200352
 10
-1403.039043705186
 20
89.83501326370785
 10
-1403.038079232543
 20
89.83498322203714
 10
-1403.03713185605
 20
89.8349554854142
 10
-1403.036184357788
 20
89.8349295017764
 10
-1403.035236741405
 20
89.83490527145038
 10
-1403.034289010546
 20
89.83488279476276
 10
-1403.033321824022
 20
89.83486166739202
 10
-1403.032354525974
 20
89.83484236665274
 10
-1403.031387120277
 20
89.83482489289091
 10
-1403.030419610807
 20
89.83480924645198
 10
-1403.029452001438
 20
89.83479542768119
 10
-1403.028484296047
 20
89.83478343692325
 10
-1403.027516498511
 20
89.83477327452266
 10
-1403.02655072455
 20
89.8347649570152
 10
-1403.025584866556
 20
89.8347584605796
 10
-1403.024618928376
 20
89.83475378555683
 10
-1403.023652913834
 20
89.8347509322877
 10
-1403.022686826742
 20
89.83474990111279
 10
-1403.021737924273
 20
89.83475066225994
 10
-1403.020788959099
 20
89.83475318165873
 10
-1403.019839934826
 20
89.83475745963193
 10
-1403.01889085505
 20
89.83476349650226
 10
-1403.017922352818
 20
89.83477147001634
 10
-1403.016953800359
 20
89.83478127563104
 10
-1403.015985201484
 20
89.83479291368972
 10
-1403.015016560006
 20
89.83480638453572
 10
-1403.01404787973
 20
89.8348216885128
 10
-1403.013079164463
 20
89.83483882596465
 10
-1403.012110418003
 20
89.83485779723537
 10
-1403.011262742249
 20
89.83487590167243
 10
-1403.010415048062
 20
89.83489541062156
 10
-1403.009567337982
 20
89.83491632431361
 10
-1403.008719614548
 20
89.83493864297975
 10
-1403.007871880294
 20
89.83496236685129
 10
-1403.007024137755
 20
89.83498749615975
 10
-1403.006176389462
 20
89.83501403113681
 10
-1403.005328637945
 20
89.83504197201425
 10
-1403.004567391019
 20
89.8350682600037
 10
-1403.003806145361
 20
89.83509568196907
 10
-1403.003044902797
 20
89.83512423807865
 10
-1403.002283665155
 20
89.83515392850077
 10
-1403.001522434259
 20
89.83518475340402
 10
-1403.000761211933
 20
89.83521671295696
 10
-1403.0
 20
89.83524980732842
210
0.0
220
0.0
230
-1.0
  0
LINE
  5
EA
330
1F
100
AcDbEntity
  8
0
  6
CONTINUOUS
 62
     7
100
AcDbLine
 10
777.0
 20
87.2176199496109
 30
0.0
 11
777.0
 21
89.0940669205218
 31
0.0
  0
LINE
  5
EB
330
1F
100
AcDbEntity
  8
0
  6
CONTINUOUS
 62
     7
100
AcDbLine
 10
748.0
 20
57.3352498073284
 30
0.0
 11
748.0
 21
58.3352498073284
 31
0.0
  0
LINE
  5
EC
330
1F
100
AcDbEntity
  8
0
  6
CONTINUOUS
 62
   253
100
AcDbLine
 10
715.0
 20
85.38246623098078
 30
0.0
 11
747.5
 21
85.38246623098078
 31
0.0
  0
LINE
  5
ED
330
1F
100
AcDbEntity
  8
0
  6
CONTINUOUS
 62
     7
100
AcDbLine
 10
782.5133939444036
 20
90.22029526563108
 30
0.0
 11
781.4598181667894
 21
94.68011343242044
 31
0.0
  0
LINE
  5
EE
330
1F
100
AcDbEntity
  8
0
  6
CONTINUOUS
 62
     7
100
AcDbLine
 10
715.0
 20
57.3352498073284
 30
0.0
 11
747.5
 21
57.33524980732846
 31
0.0
  0
LINE
  5
EF
330
1F
100
AcDbEntity
  8
0
  6
CONTINUOUS
 62
     7
100
AcDbLine
 10
773.4636894261452
 20
94.33524980732838
 30
0.0
 11
766.9
 21
94.33524980732838
 31
0.0
  0
LINE
  5
F0
330
1F
100
AcDbEntity
  8
0
  6
CONTINUOUS
 62
     7
100
AcDbLine
 10
777.0
 20
61.07643272084401
 30
0.0
 11
777.0
 21
62.95292374097105
 31
0.0
  0
LINE
  5
F1
330
1F
100
AcDbEntity
  8
0
  6
CONTINUOUS
 62
     7
100
AcDbLine
 10
747.5
 20
57.3352498073284
 30
0.0
 11
747.5
 21
58.3352498073284
 31
0.0
  0
ARC
  5
F2
330
1F
100
AcDbEntity
  8
0
  6
CONTINUOUS
 62
     7
100
AcDbCircle
 10
795.0
 20
59.8352498073284
 30
0.0
 40
0.5000000000000059
100
AcDbArc
 50
13.29171916764209
 51
166.7082808323572
  0
LINE
  5
F3
330
1F
100
AcDbEntity
  8
0
  6
CONTINUOUS
 62
     7
100
AcDbLine
 10
748.0
 20
57.33524980732846
 30
0.0
 11
756.4999999999999
 21
57.3352498073284
 31
0.0
  0
LINE
  5
F4
330
1F
100
AcDbEntity
  8
0
  6
CONTINUOUS
 62
     7
100
AcDbLine
 10
715.0
 20
85.38246623098078
 30
0.0
 11
715.0
 21
76.93803338367606
 31
0.0
  0
LINE
  5
F5
330
1F
100
AcDbEntity
  8
0
  6
CONTINUOUS
 62
     7
100
AcDbLine
 10
777.0
 20
65.75897283950188
 30
0.0
 11
777.0
 21
66.03668556504216
 31
0.0
  0
LINE
  5
F6
330
1F
100
AcDbEntity
  8
0
  6
CONTINUOUS
 62
     7
100
AcDbLine
 10
777.0
 20
60.96159924964528
 30
0.0
 11
777.0
 21
61.07643272084401
 31
0.0
  0
LINE
  5
F7
330
1F
100
AcDbEntity
  8
0
  6
CONTINUOUS
 62
     7
100
AcDbLine
 10
747.5
 20
85.87439954917286
 30
0.0
 11
748.0
 21
85.87439954917286
 31
0.0
  0
LINE
  5
F8
330
1F
100
AcDbEntity
  8
0
  6
CONTINUOUS
 62
     7
100
AcDbLine
 10
715.0
 20
58.3352498073284
 30
0.0
 11
715.0
 21
57.3352498073284
 31
0.0
  0
ARC
  5
F9
330
1F
100
AcDbEntity
  8
0
  6
CONTINUOUS
 62
     7
100
AcDbCircle
 10
789.0
 20
59.8352498073284
 30
0.0
 40
0.5000000000000059
100
AcDbArc
 50
13.29171916764209
 51
166.7082808323572
  0
LINE
  5
FA
330
1F
100
AcDbEntity
  8
0
  6
CONTINUOUS
 62
     7
100
AcDbLine
 10
747.5
 20
75.67014825839524
 30
0.0
 11
747.5
 21
58.3352498073284
 31
0.0
  0
ARC
  5
FB
330
1F
100
AcDbEntity
  8
0
  6
CONTINUOUS
 62
     7
100
AcDbCircle
 10
-761.0
 20
55.3352498073284
 30
0.0
 40
1.000000000000001
210
0.0
220
0.0
230
-1.0
100
AcDbArc
 50
269.9999999999999
 51
0.0000000000000568
  0
LINE
  5
FC
330
1F
100
AcDbEntity
  8
0
  6
CONTINUOUS
 62
     7
100
AcDbLine
 10
715.0
 20
75.67014825839524
 30
0.0
 11
715.0
 21
58.3352498073284
 31
0.0
  0
LINE
  5
FD
330
1F
100
AcDbEntity
  8
0
  6
CONTINUOUS
 62
   253
100
AcDbLine
 10
747.5
 20
76.93803338367606
 30
0.0
 11
715.0
 21
76.93803338367606
 31
0.0
  0
ARC
  5
FE
330
1F
100
AcDbEntity
  8
0
  6
CONTINUOUS
 62
     7
100
AcDbCircle
 10
801.0
 20
59.8352498073284
 30
0.0
 40
0.5000000000000059
100
AcDbArc
 50
13.29171916764228
 51
166.7082808323571
  0
ARC
  5
FF
330
1F
100
AcDbEntity
  8
0
  6
CONTINUOUS
 62
     7
100
AcDbCircle
 10
783.0
 20
59.8352498073284
 30
0.0
 40
0.5000000000000059
100
AcDbArc
 50
13.29171916764209
 51
166.7082808323572
  0
LINE
  5
100
330
1F
100
AcDbEntity
  8
0
  6
CONTINUOUS
 62
     7
100
AcDbLine
 10
764.1
 20
94.33524980732838
 30
0.0
 11
761.0
 21
94.33524980732838
 31
0.0
  0
ARC
  5
101
330
1F
100
AcDbEntity
  8
0
  6
CONTINUOUS
 62
     7
100
AcDbCircle
 10
777.0
 20
59.8352498073284
 30
0.0
 40
0.5000000000000059
100
AcDbArc
 50
13.29171916764211
 51
90.00000000000038
  0
LINE
  5
102
330
1F
100
AcDbEntity
  8
0
  6
CONTINUOUS
 62
     7
100
AcDbLine
 10
760.0
 20
93.33524980732838
 30
0.0
 11
760.0
 21
89.33524980732842
 31
0.0
  0
LINE
  5
103
330
1F
100
AcDbEntity
  8
0
  6
CONTINUOUS
 62
     7
100
AcDbLine
 10
716.5
 20
61.3352498073284
 30
0.0
 11
746.5
 21
61.3352498073284
 31
0.0
  0
LINE
  5
104
330
1F
100
AcDbEntity
  8
0
  6
CONTINUOUS
 62
     7
100
AcDbLine
 10
746.5
 20
73.33524980732841
 30
0.0
 11
746.5
 21
61.3352498073284
 31
0.0
  0
LINE
  5
105
330
1F
100
AcDbEntity
  8
0
  6
CONTINUOUS
 62
     7
100
AcDbLine
 10
748.0
 20
75.67014825839524
 30
0.0
 11
748.0
 21
76.93803338367606
 31
0.0
  0
LINE
  5
106
330
1F
100
AcDbEntity
  8
0
  6
CONTINUOUS
 62
   253
100
AcDbLine
 10
748.0
 20
75.67014825839524
 30
0.0
 11
756.4999999999999
 21
75.67014825839524
 31
0.0
  0
SPLINE
  5
107
330
1F
100
AcDbEntity
  8
0
  6
CONTINUOUS
 62
     7
100
AcDbSpline
210
0.0
220
0.0
230
1.0
 70
     8
 71
     3
 72
    11
 73
     7
 74
     0
 42
0.000000001
 43
0.0001
 40
0.2770779922281502
 40
0.2770779922281502
 40
0.2770779922281502
 40
0.2770779922281502
 40
0.290982953760544
 40
0.290982953760544
 40
0.290982953760544
 40
0.893281588647544
 40
0.893281588647544
 40
0.893281588647544
 40
0.893281588647544
 10
776.550221391795
 20
90.09539653705728
 30
0.0
 10
776.5398745931735
 20
90.11636200952128
 30
0.0
 10
776.5306452021491
 20
90.13792677013438
 30
0.0
 10
776.5226198314747
 20
90.1599338774422
 30
0.0
 10
776.1749978844152
 20
91.11318000174212
 30
0.0
 10
775.8273759373557
 20
92.06642612604205
 30
0.0
 10
775.4797539902962
 20
93.01967225034203
 30
0.0
  0
LINE
  5
108
330
1F
100
AcDbEntity
  8
0
  6
CONTINUOUS
 62
     7
100
AcDbLine
 10
715.0
 20
76.93803338367606
 30
0.0
 11
715.0
 21
75.67014825839524
 31
0.0
  0
LINE
  5
109
330
1F
100
AcDbEntity
  8
0
  6
CONTINUOUS
 62
     7
100
AcDbLine
 10
800.5133939444036
 20
90.22029526563108
 30
0.0
 11
799.4598181667894
 21
94.68011343242044
 31
0.0
  0
LINE
  5
10A
330
1F
100
AcDbEntity
  8
0
  6
CONTINUOUS
 62
     7
100
AcDbLine
 10
777.0
 20
84.41152677489005
 30
0.0
 11
777.0
 21
87.21756551854482
 31
0.0
  0
LINE
  5
10B
330
1F
100
AcDbEntity
  8
0
  6
CONTINUOUS
 62
     7
100
AcDbLine
 10
777.0
 20
66.03668556504216
 30
0.0
 11
777.0
 21
69.33524980732841
 31
0.0
  0
LINE
  5
10C
330
1F
100
AcDbEntity
  8
0
  6
CONTINUOUS
 62
     7
100
AcDbLine
 10
796.5401818332106
 20
55.49038618223634
 30
0.0
 11
795.4866060555964
 21
59.95020434902576
 31
0.0
  0
LINE
  5
10D
330
1F
100
AcDbEntity
  8
0
  6
CONTINUOUS
 62
     7
100
AcDbLine
 10
716.5
 20
73.33524980732841
 30
0.0
 11
746.5
 21
73.33524980732841
 31
0.0
  0
LINE
  5
10E
330
1F
100
AcDbEntity
  8
0
  6
CONTINUOUS
 62
     7
100
AcDbLine
 10
777.0
 20
60.3352498073284
 30
0.0
 11
777.0
 21
60.96159924964528
 31
0.0
  0
LINE
  5
10F
330
1F
100
AcDbEntity
  8
0
  6
CONTINUOUS
 62
     7
100
AcDbLine
 10
756.4999999999999
 20
75.67014825839524
 30
0.0
 11
756.4999999999999
 21
76.93803338367606
 31
0.0
  0
LINE
  5
110
330
1F
100
AcDbEntity
  8
0
  6
CONTINUOUS
 62
     7
100
AcDbLine
 10
716.5
 20
73.33524980732841
 30
0.0
 11
716.5
 21
61.3352498073284
 31
0.0
  0
LINE
  5
111
330
1F
100
AcDbEntity
  8
0
  6
CONTINUOUS
 62
     7
100
AcDbLine
 10
784.5401818332106
 20
55.49038618223634
 30
0.0
 11
783.4866060555964
 21
59.95020434902576
 31
0.0
  0
LINE
  5
112
330
1F
100
AcDbEntity
  8
0
  6
CONTINUOUS
 62
     7
100
AcDbLine
 10
760.0
 20
59.3352498073284
 30
0.0
 11
760.0
 21
55.3352498073284
 31
0.0
  0
LINE
  5
113
330
1F
100
AcDbEntity
  8
0
  6
CONTINUOUS
 62
     7
100
AcDbLine
 10
761.0
 20
54.3352498073284
 30
0.0
 11
765.1
 21
54.3352498073284
 31
0.0
  0
LINE
  5
114
330
1F
100
AcDbEntity
  8
0
  6
CONTINUOUS
 62
     7
100
AcDbLine
 10
747.5
 20
76.22439954917287
 30
0.0
 11
748.0
 21
76.22439954917287
 31
0.0
  0
LINE
  5
115
330
1F
100
AcDbEntity
  8
0
  6
CONTINUOUS
 62
     7
100
AcDbLine
 10
777.0
 20
62.95293409611456
 30
0.0
 11
777.0
 21
65.75897283950194
 31
0.0
  0
LINE
  5
116
330
1F
100
AcDbEntity
  8
0
  6
CONTINUOUS
 62
     7
100
AcDbLine
 10
756.4999999999999
 20
57.3352498073284
 30
0.0
 11
756.4999999999999
 21
58.3352498073284
 31
0.0
  0
LINE
  5
117
330
1F
100
AcDbEntity
  8
0
  6
CONTINUOUS
 62
     7
100
AcDbLine
 10
776.4945257676949
 20
59.84812102652598
 30
0.0
 11
775.4003279784521
 21
55.81195573296221
 31
0.0
  0
ARC
  5
118
330
1F
100
AcDbEntity
  8
0
  6
CONTINUOUS
 62
     7
100
AcDbCircle
 10
761.0
 20
93.33524980732838
 30
0.0
 40
1.000000000000001
100
AcDbArc
 50
90.0
 51
180.0
  0
LINE
  5
119
330
1F
100
AcDbEntity
  8
0
  6
CONTINUOUS
 62
   253
100
AcDbLine
 10
748.0
 20
85.38246623098078
 30
0.0
 11
756.5
 21
85.38246623098078
 31
0.0
  0
LINE
  5
11A
330
1F
100
AcDbEntity
  8
0
  6
CONTINUOUS
 62
     7
100
AcDbLine
 10
748.0
 20
75.67014825839524
 30
0.0
 11
748.0
 21
58.3352498073284
 31
0.0
  0
LINE
  5
11B
330
1F
100
AcDbEntity
  8
0
  6
CONTINUOUS
 62
     7
100
AcDbLine
 10
756.4999999999999
 20
75.67014825839524
 30
0.0
 11
756.4999999999999
 21
58.3352498073284
 31
0.0
  0
LINE
  5
11C
330
1F
100
AcDbEntity
  8
0
  6
CONTINUOUS
 62
     7
100
AcDbLine
 10
765.9
 20
54.3352498073284
 30
0.0
 11
773.3894916248571
 21
54.3352498073284
 31
0.0
  0
LINE
  5
11D
330
1F
100
AcDbEntity
  8
0
  6
CONTINUOUS
 62
     7
100
AcDbLine
 10
777.0
 20
84.13381404084447
 30
0.0
 11
777.0
 21
84.41152677489005
 31
0.0
  0
LINE
  5
11E
330
1F
100
AcDbEntity
  8
0
  6
CONTINUOUS
 62
   253
100
AcDbLine
 10
756.4999999999999
 20
76.93803338367606
 30
0.0
 11
748.0
 21
76.93803338367606
 31
0.0
  0
LINE
  5
11F
330
1F
100
AcDbEntity
  8
0
  6
CONTINUOUS
 62
     7
100
AcDbLine
 10
760.0
 20
89.33524980732842
 30
0.0
 11
760.0
 21
59.3352498073284
 31
0.0
  0
LINE
  5
120
330
1F
100
AcDbEntity
  8
0
  6
CONTINUOUS
 62
     7
100
AcDbLine
 10
777.0
 20
89.2089003549934
 30
0.0
 11
777.0
 21
89.83524980732842
 31
0.0
  0
LINE
  5
121
330
1F
100
AcDbEntity
  8
0
  6
CONTINUOUS
 62
   253
100
AcDbLine
 10
715.0
 20
75.67014825839524
 30
0.0
 11
747.5
 21
75.67014825839524
 31
0.0
  0
LINE
  5
122
330
1F
100
AcDbEntity
  8
0
  6
CONTINUOUS
 62
     7
100
AcDbLine
 10
777.0
 20
80.83524980732842
 30
0.0
 11
777.0
 21
84.13381404084447
 31
0.0
  0
LINE
  5
123
330
1F
100
AcDbEntity
  8
0
  6
CONTINUOUS
 62
     7
100
AcDbLine
 10
777.0
 20
89.0940669205218
 30
0.0
 11
777.0
 21
89.2089003549934
 31
0.0
  0
LINE
  5
124
330
1F
100
AcDbEntity
  8
0
  6
CONTINUOUS
 62
     7
100
AcDbLine
 10
747.5
 20
75.67014825839524
 30
0.0
 11
747.5
 21
76.93803338367606
 31
0.0
  0
LINE
  5
125
330
1F
100
AcDbEntity
  8
0
  6
CONTINUOUS
 62
     7
100
AcDbLine
 10
747.5
 20
85.38246623098078
 30
0.0
 11
747.5
 21
76.93803338367606
 31
0.0
  0
LINE
  5
126
330
1F
100
AcDbEntity
  8
0
  6
CONTINUOUS
 62
     7
100
AcDbLine
 10
747.5
 20
57.8352498073284
 30
0.0
 11
748.0
 21
57.8352498073284
 31
0.0
  0
ARC
  5
127
330
1F
100
AcDbEntity
  8
0
  6
CONTINUOUS
 62
     7
100
AcDbCircle
 10
-777.0
 20
90.33524980732838
 30
0.0
 40
0.5000000000000059
210
0.0
220
0.0
230
-1.0
100
AcDbArc
 50
193.2917191676426
 51
270.0
  0
LINE
  5
128
330
1F
100
AcDbEntity
  8
0
  6
CONTINUOUS
 62
     7
100
AcDbLine
 10
777.0
 20
69.33524980732841
 30
0.0
 11
777.0
 21
80.83524980732842
 31
0.0
  0
LINE
  5
129
330
1F
100
AcDbEntity
  8
0
  6
CONTINUOUS
 62
     7
100
AcDbLine
 10
748.0
 20
85.38246623098078
 30
0.0
 11
748.0
 21
76.93803338367606
 31
0.0
  0
LINE
  5
12A
330
1F
100
AcDbEntity
  8
0
  6
CONTINUOUS
 62
     7
100
AcDbLine
 10
597.5
 20
867.0
 30
0.0
 11
597.5
 21
858.5
 31
0.0
  0
ARC
  5
12B
330
1F
100
AcDbEntity
  8
0
  6
CONTINUOUS
 62
     7
100
AcDbCircle
 10
594.0
 20
832.0
 30
0.0
 40
0.5000000000000187
100
AcDbArc
 50
283.2917191676486
 51
76.70828083236323
  0
ARC
  5
12C
330
1F
100
AcDbEntity
  8
0
  6
CONTINUOUS
 62
     7
100
AcDbCircle
 10
592.0
 20
841.401949723476
 30
0.0
 40
2.000000000000002
100
AcDbArc
 50
180.0
 51
250.0589798411079
  0
LINE
  5
12D
330
1F
100
AcDbEntity
  8
0
  6
CONTINUOUS
 62
     7
100
AcDbLine
 10
593.0
 20
900.0000000000001
 30
0.0
 11
593.0
 21
867.5000000000001
 31
0.0
  0
LINE
  5
12E
330
1F
100
AcDbEntity
  8
0
  6
CONTINUOUS
 62
     7
100
AcDbLine
 10
597.2189092131022
 20
900.0000000000001
 30
0.0
 11
593.2810907868978
 21
900.0000000000001
 31
0.0
  0
ARC
  5
12F
330
1F
100
AcDbEntity
  8
0
  6
CONTINUOUS
 62
     7
100
AcDbCircle
 10
-646.0
 20
838.0000000000001
 30
0.0
 40
0.5000000000000187
210
0.0
220
0.0
230
-1.0
100
AcDbArc
 50
283.2917191676486
 51
0.0000000000063665
  0
LINE
  5
130
330
1F
100
AcDbEntity
  8
0
  6
CONTINUOUS
 62
     7
100
AcDbLine
 10
642.0
 20
867.5
 30
0.0
 11
642.0
 21
867.0
 31
0.0
  0
ARC
  5
131
330
1F
100
AcDbEntity
  8
0
  6
CONTINUOUS
 62
     7
100
AcDbCircle
 10
594.0
 20
838.0000000000001
 30
0.0
 40
0.5000000000000187
100
AcDbArc
 50
283.2917191676486
 51
0.0000000000063665
  0
LINE
  5
132
330
1F
100
AcDbEntity
  8
0
  6
CONTINUOUS
 62
     7
100
AcDbLine
 10
593.0
 20
898.5000000000001
 30
0.0
 11
592.0
 21
868.5
 31
0.0
  0
LINE
  5
133
330
1F
100
AcDbEntity
  8
0
  6
CONTINUOUS
 62
     7
100
AcDbLine
 10
593.5
 20
867.5
 30
0.0
 11
593.5
 21
867.0
 31
0.0
  0
LINE
  5
134
330
1F
100
AcDbEntity
  8
0
  6
CONTINUOUS
 62
     7
100
AcDbLine
 10
597.2189092131022
 20
867.5
 30
0.0
 11
597.5
 21
867.5
 31
0.0
  0
LINE
  5
135
330
1F
100
AcDbEntity
  8
0
  6
CONTINUOUS
 62
     7
100
AcDbLine
 10
646.5
 20
867.5
 30
0.0
 11
646.5
 21
867.0
 31
0.0
  0
LINE
  5
136
330
1F
100
AcDbEntity
  8
0
  6
CONTINUOUS
 62
     7
100
AcDbLine
 10
642.7810907868978
 20
867.0000000000001
 30
0.0
 11
646.7189092131022
 21
867.0000000000001
 31
0.0
  0
ARC
  5
137
330
1F
100
AcDbEntity
  8
0
  6
CONTINUOUS
 62
     7
100
AcDbCircle
 10
594.0
 20
820.0
 30
0.0
 40
0.5000000000000187
100
AcDbArc
 50
283.2917191676486
 51
76.70828083236337
  0
LINE
  5
138
330
1F
100
AcDbEntity
  8
0
  6
CONTINUOUS
 62
     7
100
AcDbLine
 10
597.2189092131022
 20
900.0000000000001
 30
0.0
 11
597.5
 21
900.0000000000001
 31
0.0
  0
LINE
  5
139
330
1F
100
AcDbEntity
  8
0
  6
CONTINUOUS
 62
     7
100
AcDbLine
 10
650.0
 20
841.577006356931
 30
0.0
 11
650.0
 21
841.4019497275334
 31
0.0
  0
LINE
  5
13A
330
1F
100
AcDbEntity
  8
0
  6
CONTINUOUS
 62
     7
100
AcDbLine
 10
642.7810907868978
 20
858.5
 30
0.0
 11
646.7189092131022
 21
858.5
 31
0.0
  0
ARC
  5
13B
330
1F
100
AcDbEntity
  8
0
  6
CONTINUOUS
 62
     7
100
AcDbCircle
 10
648.0000000000001
 20
208.598050276524
 30
0.0
 40
2.000000000000002
100
AcDbArc
 50
0.0
 51
70.05897984110744
  0
LINE
  5
13C
330
1F
100
AcDbEntity
  8
0
  6
CONTINUOUS
 62
     7
100
AcDbLine
 10
593.0
 20
867.5
 30
0.0
 11
593.2810907868978
 21
867.5
 31
0.0
  0
LINE
  5
13D
330
1F
100
AcDbEntity
  8
0
  6
CONTINUOUS
 62
     7
100
AcDbLine
 10
598.5
 20
900.0000000000001
 30
0.0
 11
641.5
 21
900.0000000000001
 31
0.0
  0
LINE
  5
13E
330
1F
100
AcDbEntity
  8
0
  6
CONTINUOUS
 62
     7
100
AcDbLine
 10
647.0
 20
898.5000000000001
 30
0.0
 11
648.0
 21
868.5
 31
0.0
  0
LINE
  5
13F
330
1F
100
AcDbEntity
  8
0
  6
CONTINUOUS
 62
     7
100
AcDbLine
 10
642.7810907868978
 20
858.5
 30
0.0
 11
642.5
 21
858.5
 31
0.0
  0
LINE
  5
140
330
1F
100
AcDbEntity
  8
0
  6
CONTINUOUS
 62
     7
100
AcDbLine
 10
597.2189092131022
 20
858.5
 30
0.0
 11
593.2810907868978
 21
858.5
 31
0.0
  0
ARC
  5
141
330
1F
100
AcDbEntity
  8
0
  6
CONTINUOUS
 62
     7
100
AcDbCircle
 10
594.0
 20
814.0
 30
0.0
 40
0.5000000000000187
100
AcDbArc
 50
283.2917191676486
 51
76.70828083236296
  0
LINE
  5
142
330
1F
100
AcDbEntity
  8
0
  6
CONTINUOUS
 62
     7
100
AcDbLine
 10
590.0
 20
841.577006356931
 30
0.0
 11
590.0
 21
841.4019497275336
 31
0.0
  0
LINE
  5
143
330
1F
100
AcDbEntity
  8
0
  6
CONTINUOUS
 62
     7
100
AcDbLine
 10
642.5
 20
867.0
 30
0.0
 11
642.5
 21
858.5
 31
0.0
  0
LINE
  5
144
330
1F
100
AcDbEntity
  8
0
  6
CONTINUOUS
 62
     7
100
AcDbLine
 10
597.5
 20
867.5
 30
0.0
 11
598.5
 21
867.5
 31
0.0
  0
LINE
  5
145
330
1F
100
AcDbEntity
  8
0
  6
CONTINUOUS
 62
     7
100
AcDbLine
 10
597.5
 20
867.0000000000001
 30
0.0
 11
597.2189092131022
 21
867.0000000000001
 31
0.0
  0
LWPOLYLINE
  5
146
330
1F
100
AcDbEntity
  8
0
  6
CONTINUOUS
 62
     7
100
AcDbPolyline
 90
      231
 70
     0
 43
0.0
 10
-645.5
 20
838.0000000000001
 10
-645.4997999760338
 20
838.0026269996558
 10
-645.4996140645463
 20
838.0052383663542
 10
-645.4994430289061
 20
838.0078183885977
 10
-645.4992814599162
 20
838.0104509156623
 10
-645.4991329754376
 20
838.013083215194
 10
-645.4989975719044
 20
838.015715209337
 10
-645.4988752457505
 20
838.0183468202353
 10
-645.4987688516926
 20
838.0209048894553
 10
-645.4986798528856
 20
838.0233163198143
 10
-645.4985996412254
 20
838.025800288697
 10
-645.4985274120027
 20
838.0284297092322
 10
-645.4984682429332
 20
838.0310583701756
 10
-645.4984254745589
 20
838.0334672422181
 10
-645.4983936746032
 20
838.0358753505126
 10
-645.4983728403214
 20
838.0382826350475
 10
-645.498362968968
 20
838.0406890358112
 10
-645.4983637003726
 20
838.0429570645789
 10
-645.4983749892325
 20
838.0453428443052
 10
-645.498399848386
 20
838.0479647463461
 10
-645.4984377411718
 20
838.0505853090992
 10
-645.4984839228628
 20
838.0529862485557
 10
-645.49854105068
 20
838.0553859371627
 10
-645.4986091218751
 20
838.0577843149104
 10
-645.4986881336995
 20
838.0601813217896
 10
-645.4987726488155
 20
838.0624400473266
 10
-645.4988688891058
 20
838.0647430406739
 10
-645.4989796652598
 20
838.0671357251825
 10
-645.4990989510005
 20
838.0694812755005
 10
-645.4992235146124
 20
838.0717342279817
 10
-645.4993685850865
 20
838.0741598028884
 10
-645.4995307496132
 20
838.0766705446754
 10
-645.4997050049384
 20
838.0791792437369
 10
-645.4998984154305
 20
838.0817777662847
 10
-645.5001048133047
 20
838.0843739403907
 10
-645.5003116665513
 20
838.0868236560304
 10
-645.500523508335
 20
838.0891991893673
 10
-645.5007462545325
 20
838.0915725620671
 10
-645.5009799023891
 20
838.0939437141237
 10
-645.5012149334261
 20
838.0962223853161
 10
-645.5014550947902
 20
838.0984538348889
 10
-645.5017203937462
 20
838.100818196201
 10
-645.5019965836018
 20
838.1031801025621
 10
-645.5022669638789
 20
838.105404740398
 10
-645.5025580511491
 20
838.1077130294223
 10
-645.5028824570336
 20
838.1101904694892
 10
-645.5032189105708
 20
838.1126649270502
 10
-645.5035556694731
 20
838.115054500919
 10
-645.5038976276163
 20
838.1174002916719
 10
-645.5042368169577
 20
838.1196540044245
 10
-645.5045790494585
 20
838.1218604537453
 10
-645.5049309418147
 20
838.1240642433363
 10
-645.5052903110649
 20
838.1262522293606
 10
-645.5056547464405
 20
838.1284113337013
 10
-645.506035374688
 20
838.1306069098727
 10
-645.5064233019635
 20
838.1327865830317
 10
-645.5068159466745
 20
838.1349373288165
 10
-645.5072955126076
 20
838.1374940148895
 10
-645.5077882611731
 20
838.1400465755313
 10
-645.5082877307823
 20
838.1425628826793
 10
-645.508796938365
 20
838.1450600785134
 10
-645.5093124782205
 20
838.1475232505371
 10
-645.5098512596454
 20
838.1500324009475
 10
-645.5104028735543
 20
838.1525371448391
 10
-645.5109673034856
 20
838.1550374089734
 10
-645.5115445329776
 20
838.1575331201112
 10
-645.5121179838656
 20
838.1599550713297
 10
-645.5126697193901
 20
838.1622345597451
 10
-645.5132493812424
 20
838.1645789355865
 10
-645.513875521809
 20
838.1670565155321
 10
-645.5145143734175
 20
838.1695291912498
 10
-645.5151111317722
 20
838.1717914422954
 10
-645.5157185296044
 20
838.1740494590315
 10
-645.5163365471483
 20
838.1763031872256
 10
-645.5169651646385
 20
838.1785525726451
 10
-645.5175675520559
 20
838.1806693954018
 10
-645.5181818759286
 20
838.1827909864472
 10
-645.5188108228847
 20
838.1849259560161
 10
-645.5194493588251
 20
838.1870567786801
 10
-645.5201181979742
 20
838.1892508500812
 10
-645.520807733053
 20
838.1914740550023
 10
-645.5215077339993
 20
838.193692549263
 10
-645.5222181810483
 20
838.1959062786315
 10
-645.522911401797
 20
838.1980311288603
 10
-645.5236002408691
 20
838.2001095289368
 10
-645.524340919269
 20
838.2023091098694
 10
-645.5250919665954
 20
838.2045037141484
 10
-645.5258095762639
 20
838.2065683055346
 10
-645.5265363695604
 20
838.2086283791111
 10
-645.5272723299188
 20
838.2106838894222
 10
-645.5280085166517
 20
838.2127104028006
 10
-645.5287567560713
 20
838.2147408189959
 10
-645.5295294570665
 20
838.2168077396101
 10
-645.530311486023
 20
838.2188697971
 10
-645.531128099939
 20
838.2209921696198
 10
-645.5319673989418
 20
838.2231417925012
 10
-645.5328168773428
 20
838.2252859186694
 10
-645.5336765153792
 20
838.2274244938933
 10
-645.5345129733454
 20
838.2294763112876
 10
-645.5353419560216
 20
838.2314824188828
 10
-645.5362309933008
 20
838.2336045623797
 10
-645.5371301130467
 20
838.2357209431727
 10
-645.5379870714823
 20
838.2377110610295
 10
-645.5388529588919
 20
838.2396959622924
 10
-645.5397277587049
 20
838.2416756014917
 10
-645.5406008819061
 20
838.2436264605981
 10
-645.5415007933447
 20
838.2456118183786
 10
-645.5424571141123
 20
838.2476942496355
 10
-645.5434048866902
 20
838.2497310630589
 10
-645.5443248590585
 20
838.2516831727012
 10
-645.5452536427758
 20
838.2536297429995
 10
-645.5461912212679
 20
838.2555707284774
 10
-645.5471206018524
 20
838.2574715733813
 10
-645.548069853671
 20
838.2593898846272
 10
-645.5490335090165
 20
838.2613139795336
 10
-645.5499884527796
 20
838.2631981037387
 10
-645.5509649653992
 20
838.2651021425357
 10
-645.5519567361401
 20
838.267013098923
 10
-645.5529438160942
 20
838.2688927620261
 10
-645.5539123252609
 20
838.2707160336589
 10
-645.5548701446536
 20
838.2724992044114
 10
-645.556108841643
 20
838.2747766014729
 10
-645.5571553428541
 20
838.2766760935677
 10
-645.5582106073333
 20
838.2785693348842
 10
-645.5592746100518
 20
838.2804562843982
 10
-645.5603473259807
 20
838.2823369010846
 10
-645.561428730091
 20
838.2842111439179
 10
-645.562553544261
 20
838.2861381624867
 10
-645.563705070821
 20
838.2880877941245
 10
-645.5648307284108
 20
838.2899715334738
 10
-645.5659474515508
 20
838.2918192458275
 10
-645.5670727353352
 20
838.2936603752853
 10
-645.5682607586122
 20
838.2955820723039
 10
-645.5694581209901
 20
838.2974964523534
 10
-645.5706647936864
 20
838.2994034682589
 10
-645.5718807479171
 20
838.3013030728448
 10
-645.5730356943149
 20
838.3030872980465
 10
-645.57416270336
 20
838.3048099131594
 10
-645.5755801214724
 20
838.3069511080358
 10
-645.5769838317575
 20
838.3090444477355
 10
-645.5782468278553
 20
838.3109053912681
 10
-645.5795189259632
 20
838.3127586372956
 10
-645.5808000912849
 20
838.3146041428313
 10
-645.582090288929
 20
838.3164418649529
 10
-645.583315002513
 20
838.3181674068451
 10
-645.5845102145481
 20
838.3198339811768
 10
-645.5860147268565
 20
838.3219079016009
 10
-645.5876069644975
 20
838.324074334284
 10
-645.5888669525547
 20
838.3257684467866
 10
-645.5901347795909
 20
838.3274554055841
 10
-645.5914028002265
 20
838.3291251974109
 10
-645.5926631858254
 20
838.3307679799217
 10
-645.594225580275
 20
838.3327813857283
 10
-645.5957781122413
 20
838.334757355252
 10
-645.5973583890075
 20
838.3367438605378
 10
-645.5989578129139
 20
838.3387295166665
 10
-645.6005684189184
 20
838.3407042500705
 10
-645.6022308404423
 20
838.3427169490005
 10
-645.6035773424642
 20
838.3443284950015
 10
-645.6052607270741
 20
838.3463201854723
 10
-645.6069141712799
 20
838.3482519879409
 10
-645.6082864917117
 20
838.3498372698034
 10
-645.6096662206747
 20
838.3514148687284
 10
-645.6110533289108
 20
838.3529847487553
 10
-645.6124311433633
 20
838.3545283229558
 10
-645.6141996284213
 20
838.3564868945468
 10
-645.6159107209123
 20
838.3583580702528
 10
-645.6172872655651
 20
838.3598466787936
 10
-645.618713937999
 20
838.3613740117735
 10
-645.6201478016462
 20
838.3628933946733
 10
-645.6215802286046
 20
838.364395818832
 10
-645.6230024230034
 20
838.3658724653004
 10
-645.6244575160828
 20
838.367367974544
 10
-645.62591095988
 20
838.3688465611172
 10
-645.6273538349936
 20
838.370299551655
 10
-645.6288331331332
 20
838.3717740779524
 10
-645.63031944459
 20
838.3732403755084
 10
-645.6317728073066
 20
838.3746596277127
 10
-645.6336940763591
 20
838.3765140810773
 10
-645.6355159115218
 20
838.3782500823285
 10
-645.6373477317442
 20
838.3799739172932
 10
-645.6391729870752
 20
838.3816703087435
 10
-645.6410079285272
 20
838.3833546541683
 10
-645.6428608262139
 20
838.3850344110041
 10
-645.644707653385
 20
838.386687928073
 10
-645.6465922508273
 20
838.388354254459
 10
-645.6484844333077
 20
838.390006269721
 10
-645.6503756052805
 20
838.3916366823202
 10
-645.6522601424251
 20
838.3932410791047
 10
-645.654182777562
 20
838.394857342116
 10
-645.6561148210592
 20
838.3964608947924
 10
-645.6580562104873
 20
838.3980516877234
 10
-645.6601535563958
 20
838.3997475025365
 10
-645.6622102651446
 20
838.4013878321636
 10
-645.6641673434867
 20
838.4029281987907
 10
-645.6661168001428
 20
838.4044429658348
 10
-645.6681049034597
 20
838.4059678859155
 10
-645.6701019719144
 20
838.4074797447707
 10
-645.6721079431326
 20
838.4089784930022
 10
-645.6742742202588
 20
838.4105749684393
 10
-645.6763999072085
 20
838.4121195761147
 10
-645.678433297626
 20
838.413577035283
 10
-645.6806288330775
 20
838.4151289528289
 10
-645.6823205063911
 20
838.4163094857956
 10
-645.6840179834749
 20
838.4174808928034
 10
-645.6857009188018
 20
838.4186293637231
 10
-645.6878542242443
 20
838.4200802944877
 10
-645.6899212081369
 20
838.421453720682
 10
-645.6919788604276
 20
838.4228023611465
 10
-645.694076001337
 20
838.4241580307836
 10
-645.6961812890321
 20
838.425500049488
 10
-645.6982946545314
 20
838.4268283767046
 10
-645.7005754528676
 20
838.428241011816
 10
-645.7028120621588
 20
838.4296054268872
 10
-645.7049502262566
 20
838.4308907068447
 10
-645.7072574427241
 20
838.4322569248327
 10
-645.7090341516363
 20
838.4332945243989
 10
-645.7108160756496
 20
838.4343226388936
 10
-645.712581870683
 20
838.4353291752548
 10
-645.7148423277122
 20
838.4366000142767
 10
-645.7170230991929
 20
838.4378074388319
 10
-645.7193756888628
 20
838.4390897096074
 10
-645.7211869170037
 20
838.440062706977
 10
-645.7230030979001
 20
838.4410260650382
 10
-645.7248024843136
 20
838.4419684643822
 10
-645.7266066309741
 20
838.4429014082988
 10
-645.7284373227109
 20
838.4438359430219
 10
-645.730652123531
 20
838.4449504571593
 42
0.0258684584723307
 10
-645.8124456799917
 20
838.4806705732897
 10
-645.8216539460864
 20
838.4840762624322
 42
-0.0000014051382194
 10
-648.6821008697916
 20
839.5218597247549
210
0.0
220
0.0
230
-1.0
  0
LINE
  5
147
330
1F
100
AcDbEntity
  8
0
  6
CONTINUOUS
 62
     7
100
AcDbLine
 10
642.5
 20
867.0000000000001
 30
0.0
 11
642.7810907868978
 21
867.0000000000001
 31
0.0
  0
LINE
  5
148
330
1F
100
AcDbEntity
  8
0
  6
CONTINUOUS
 62
     7
100
AcDbLine
 10
647.0
 20
867.5
 30
0.0
 11
646.7189092131022
 21
867.5
 31
0.0
  0
LINE
  5
149
330
1F
100
AcDbEntity
  8
0
  6
CONTINUOUS
 62
     7
100
AcDbLine
 10
641.0
 20
858.5
 30
0.0
 11
641.0
 21
855.0000000000001
 31
0.0
  0
LINE
  5
14A
330
1F
100
AcDbEntity
  8
0
  6
CONTINUOUS
 62
     7
100
AcDbLine
 10
597.5
 20
858.5
 30
0.0
 11
598.5
 21
858.5
 31
0.0
  0
LINE
  5
14B
330
1F
100
AcDbEntity
  8
0
  6
CONTINUOUS
 62
     7
100
AcDbLine
 10
642.7810907868978
 20
867.5
 30
0.0
 11
642.5
 21
867.5
 31
0.0
  0
ARC
  5
14C
330
1F
100
AcDbEntity
  8
0
  6
CONTINUOUS
 62
     7
100
AcDbCircle
 10
648.0
 20
841.4019497234759
 30
0.0
 40
2.000000000000043
100
AcDbArc
 50
289.9410201588933
 51
0.0000000000010232
  0
LINE
  5
14D
330
1F
100
AcDbEntity
  8
0
  6
CONTINUOUS
 62
     7
100
AcDbLine
 10
642.7810907868978
 20
900.0000000000001
 30
0.0
 11
642.5
 21
900.0000000000001
 31
0.0
  0
LINE
  5
14E
330
1F
100
AcDbEntity
  8
0
  6
CONTINUOUS
 62
     7
100
AcDbLine
 10
642.5
 20
867.0
 30
0.0
 11
641.5
 21
867.0
 31
0.0
  0
LINE
  5
14F
330
1F
100
AcDbEntity
  8
0
  6
CONTINUOUS
 62
     7
100
AcDbLine
 10
642.5
 20
858.5
 30
0.0
 11
641.5
 21
858.5
 31
0.0
  0
LINE
  5
150
330
1F
100
AcDbEntity
  8
0
  6
CONTINUOUS
 62
     7
100
AcDbLine
 10
642.5
 20
867.5
 30
0.0
 11
641.5
 21
867.5
 31
0.0
  0
LINE
  5
151
330
1F
100
AcDbEntity
  8
0
  6
CONTINUOUS
 62
     7
100
AcDbLine
 10
644.758949270415
 20
838.0000000000001
 30
0.0
 11
642.8455532589649
 21
838.0000000000001
 31
0.0
  0
ARC
  5
152
330
1F
100
AcDbEntity
  8
0
  6
CONTINUOUS
 62
   253
100
AcDbCircle
 10
-592.046871036451
 20
841.4169363993457
 30
0.0
 40
2.046925896837807
210
0.0
220
0.0
230
-1.0
100
AcDbArc
 50
324.9578705346428
 51
359.5805144812424
  0
ARC
  5
153
330
1F
100
AcDbEntity
  8
0
  6
CONTINUOUS
 62
     7
100
AcDbCircle
 10
-646.0
 20
820.0
 30
0.0
 40
0.5000000000000187
210
0.0
220
0.0
230
-1.0
100
AcDbArc
 50
283.2917191676486
 51
76.70828083236337
  0
LINE
  5
154
330
1F
100
AcDbEntity
  8
0
  6
CONTINUOUS
 62
     7
100
AcDbLine
 10
593.0
 20
867.0
 30
0.0
 11
593.0
 21
858.5
 31
0.0
  0
LINE
  5
155
330
1F
100
AcDbEntity
  8
0
  6
CONTINUOUS
 62
     7
100
AcDbLine
 10
647.0
 20
867.0
 30
0.0
 11
646.7189092131022
 21
867.0
 31
0.0
  0
LINE
  5
156
330
1F
100
AcDbEntity
  8
0
  6
CONTINUOUS
 62
     7
100
AcDbLine
 10
642.8454985120871
 20
838.0000000000001
 30
0.0
 11
640.0765821521145
 21
838.0000000000001
 31
0.0
  0
LINE
  5
157
330
1F
100
AcDbEntity
  8
0
  6
CONTINUOUS
 62
     7
100
AcDbLine
 10
642.7810907868978
 20
867.5
 30
0.0
 11
646.7189092131022
 21
867.5
 31
0.0
  0
LINE
  5
158
330
1F
100
AcDbEntity
  8
0
  6
CONTINUOUS
 62
     7
100
AcDbLine
 10
642.7810907868978
 20
900.0000000000001
 30
0.0
 11
646.7189092131022
 21
900.0000000000001
 31
0.0
  0
LINE
  5
159
330
1F
100
AcDbEntity
  8
0
  6
CONTINUOUS
 62
     7
100
AcDbLine
 10
645.5
 20
858.5
 30
0.0
 11
645.5
 21
855.0000000000001
 31
0.0
  0
LINE
  5
15A
330
1F
100
AcDbEntity
  8
0
  6
CONTINUOUS
 62
     7
100
AcDbLine
 10
594.5
 20
858.5
 30
0.0
 11
594.5
 21
855.0000000000001
 31
0.0
  0
LINE
  5
15B
330
1F
100
AcDbEntity
  8
0
  6
CONTINUOUS
 62
     7
100
AcDbLine
 10
597.1545014879129
 20
838.0000000000001
 30
0.0
 11
599.9234178478855
 21
838.0000000000001
 31
0.0
  0
ARC
  5
15C
330
1F
100
AcDbEntity
  8
0
  6
CONTINUOUS
 62
     7
100
AcDbCircle
 10
591.9999999999999
 20
208.598050276524
 30
0.0
 40
2.000000000000005
100
AcDbArc
 50
109.9410201588909
 51
180.0
  0
LINE
  5
15D
330
1F
100
AcDbEntity
  8
0
  6
CONTINUOUS
 62
     7
100
AcDbLine
 10
598.5
 20
867.0
 30
0.0
 11
641.5
 21
867.0
 31
0.0
  0
LINE
  5
15E
330
1F
100
AcDbEntity
  8
0
  6
CONTINUOUS
 62
     7
100
AcDbLine
 10
647.0
 20
900.0000000000001
 30
0.0
 11
647.0
 21
867.5000000000001
 31
0.0
  0
LINE
  5
15F
330
1F
100
AcDbEntity
  8
0
  6
CONTINUOUS
 62
     7
100
AcDbLine
 10
597.2189092131022
 20
867.0000000000001
 30
0.0
 11
593.2810907868978
 21
867.0000000000001
 31
0.0
  0
ARC
  5
160
330
1F
100
AcDbEntity
  8
0
  6
CONTINUOUS
 62
     7
100
AcDbCircle
 10
-646.0
 20
832.0
 30
0.0
 40
0.5000000000000187
210
0.0
220
0.0
230
-1.0
100
AcDbArc
 50
283.2917191676486
 51
76.70828083236323
  0
LINE
  5
161
330
1F
100
AcDbEntity
  8
0
  6
CONTINUOUS
 62
     7
100
AcDbLine
 10
647.0
 20
867.0
 30
0.0
 11
647.0
 21
858.5
 31
0.0
  0
LINE
  5
162
330
1F
100
AcDbEntity
  8
0
  6
CONTINUOUS
 62
     7
100
AcDbLine
 10
648.0
 20
868.5
 30
0.0
 11
647.0
 21
868.5
 31
0.0
  0
LINE
  5
163
330
1F
100
AcDbEntity
  8
0
  6
CONTINUOUS
 62
     7
100
AcDbLine
 10
593.2810907868978
 20
900.0000000000001
 30
0.0
 11
593.0
 21
900.0000000000001
 31
0.0
  0
LWPOLYLINE
  5
164
330
1F
100
AcDbEntity
  8
0
  6
CONTINUOUS
 62
     7
100
AcDbPolyline
 90
      235
 70
     0
 43
0.0
 10
-648.6821008697721
 20
210.4781402752827
 42
0.0006146618048443
 10
-645.8038922207242
 20
211.5226007886742
 10
-645.8010704365729
 20
211.5237029821256
 42
0.0031145359362368
 10
-645.7910994683778
 20
211.5276897714011
 10
-645.7882968413352
 20
211.5288364052588
 42
0.0062349992418855
 10
-645.7684804613609
 20
211.5372749299481
 10
-645.7657149490503
 20
211.5384993225658
 42
0.011650240235132
 10
-645.729437585494
 20
211.555658572184
 10
-645.7272208450572
 20
211.5567836885487
 10
-645.7250407088031
 20
211.5579076635285
 10
-645.7228478727151
 20
211.5590557922546
 10
-645.7206719510706
 20
211.5602126837383
 10
-645.7185007729901
 20
211.5613847150601
 10
-645.7163149885862
 20
211.5625826271021
 10
-645.7141401930741
 20
211.5637926165341
 10
-645.7119933617626
 20
211.5650049350842
 10
-645.7098515752123
 20
211.5662322964064
 10
-645.707695752567
 20
211.5674859366335
 10
-645.7055476350403
 20
211.5687534874668
 10
-645.7034072916102
 20
211.5700349083502
 10
-645.7016474096006
 20
211.5711024933852
 10
-645.6994176558557
 20
211.5724733818088
 10
-645.6973140651974
 20
211.5737856260006
 10
-645.6952360200629
 20
211.5751001832654
 10
-645.6931343778411
 20
211.5764483297161
 10
-645.6910409133462
 20
211.5778101089093
 10
-645.6889556955687
 20
211.5791854802866
 10
-645.6867233630015
 20
211.5806791176814
 10
-645.6845523043963
 20
211.5821530894757
 10
-645.682493299246
 20
211.5835706709114
 10
-645.6802893750031
 20
211.5851095285481
 10
-645.6786047187458
 20
211.5863009858679
 10
-645.6769259432976
 20
211.5875015081079
 10
-645.6752729637295
 20
211.5886966149739
 10
-645.6731743789966
 20
211.5902327368038
 10
-645.6711770303157
 20
211.5917145750876
 10
-645.6692051399194
 20
211.5931967372304
 10
-645.667212084803
 20
211.5947144604294
 10
-645.6652280228031
 20
211.5962452226972
 10
-645.663253016305
 20
211.597788974633
 10
-645.6611400553616
 20
211.599462939026
 10
-645.6590864794541
 20
211.6011123517067
 10
-645.6571401735786
 20
211.6026963779312
 10
-645.6550582833236
 20
211.6044134649864
 10
-645.6534679011156
 20
211.6057412119947
 10
-645.6518839382491
 20
211.6070775974894
 10
-645.6503251715487
 20
211.6084065313286
 10
-645.6483453690752
 20
211.6101144337466
 10
-645.6464518305595
 20
211.6117691782166
 10
-645.6449439529416
 20
211.6131019834567
 10
-645.6433954641383
 20
211.6144847977793
 10
-645.6418536202043
 20
211.6158760721504
 10
-645.6403275742721
 20
211.6172674223405
 10
-645.6388263206155
 20
211.6186502661205
 10
-645.6373044606764
 20
211.6200665550097
 10
-645.6357983832899
 20
211.6214826889655
 10
-645.6343169603914
 20
211.622889939546
 10
-645.632812119519
 20
211.6243341572065
 10
-645.6313141977306
 20
211.625786678108
 10
-645.629862914255
 20
211.6272083975105
 10
-645.6279644713109
 20
211.6290899360082
 10
-645.6261850640136
 20
211.6308762813833
 10
-645.6244159557065
 20
211.6326745275618
 10
-645.6226728553706
 20
211.6344683973326
 10
-645.6209399720964
 20
211.6362738319929
 10
-645.619209620007
 20
211.6380989799644
 10
-645.6175041165345
 20
211.6399201599581
 10
-645.6157831636893
 20
211.6417806218575
 10
-645.6140747248945
 20
211.6436506070214
 10
-645.6123863643969
 20
211.6455215983355
 10
-645.6107227007785
 20
211.6473879875942
 10
-645.6090444305283
 20
211.6492940945
 10
-645.6073770215264
 20
211.6512115185309
 10
-645.6057205259029
 20
211.6531401956158
 10
-645.6044032220826
 20
211.6546911964084
 10
-645.6030521311048
 20
211.6562981313422
 10
-645.6014280702741
 20
211.6582517589027
 10
-645.5998365928531
 20
211.6601899754414
 10
-645.5982390515807
 20
211.6621597448464
 10
-645.5966446600135
 20
211.6641502792278
 10
-645.5950615260471
 20
211.6661516435003
 10
-645.5934505515503
 20
211.6682142142118
 10
-645.5921625823829
 20
211.669882500889
 10
-645.5905731959942
 20
211.6719653115726
 10
-645.5890341774684
 20
211.6740080363712
 10
-645.5877731510031
 20
211.6757012048385
 10
-645.5865199889024
 20
211.6774014957883
 10
-645.5852747204194
 20
211.6791088732403
 10
-645.5840520583981
 20
211.6808028500304
 10
-645.5828751134104
 20
211.6824502729578
 10
-645.5813983279775
 20
211.6845411775267
 10
-645.5799593260418
 20
211.6866046223963
 10
-645.5786840999094
 20
211.6884552063042
 10
-645.5774179638586
 20
211.6903135025703
 10
-645.5761609514013
 20
211.6921794673117
 10
-645.5749130920499
 20
211.6940530538532
 10
-645.5737449483103
 20
211.6958265168643
 10
-645.5725616422709
 20
211.6976427054946
 10
-645.571340533773
 20
211.6995381639912
 10
-645.57015168677
 20
211.7014047452357
 10
-645.5690174371108
 20
211.7032055418914
 10
-645.5678914735288
 20
211.7050128697236
 10
-645.5667738201488
 20
211.7068266891917
 10
-645.5656842371394
 20
211.7086143995554
 10
-645.5645453412225
 20
211.7105040116789
 10
-645.5633869640509
 20
211.7124484789306
 10
-645.5622816402198
 20
211.7143255910588
 10
-645.5612067221763
 20
211.7161718865431
 10
-645.5601402614221
 20
211.7180244325777
 10
-645.5590885544352
 20
211.719872107298
 10
-645.5580576967081
 20
211.7217036436716
 10
-645.5570165491808
 20
211.723574558597
 10
-645.5559900758947
 20
211.7254403762508
 10
-645.5549842193337
 20
211.7272897240883
 10
-645.5539663873807
 20
211.7291827945918
 10
-645.5529572182236
 20
211.7310818668527
 10
-645.5519833129756
 20
211.7329360034863
 10
-645.5510308373808
 20
211.7347702276714
 10
-645.5498269874353
 20
211.7371189171313
 10
-645.5489120721717
 20
211.7389272162174
 10
-645.5479376359539
 20
211.7408759289129
 10
-645.5469721656974
 20
211.7428304980489
 10
-645.5460156786014
 20
211.744790876436
 10
-645.5450681918646
 20
211.7467570168852
 10
-645.5441297226856
 20
211.748728872208
 10
-645.5431562551299
 20
211.7508007035456
 10
-645.5421927230437
 20
211.7528787009444
 10
-645.5412822743519
 20
211.7548679460887
 10
-645.540380913647
 20
211.7568627128607
 10
-645.5394745688441
 20
211.7588947478156
 10
-645.5385497614277
 20
211.7609961487058
 10
-645.537634985948
 20
211.763103450962
 10
-645.5367302621718
 20
211.7652166003421
 10
-645.5358525566444
 20
211.7672951280244
 10
-645.5350180883255
 20
211.769298142361
 10
-645.5341858224638
 20
211.7713228302869
 10
-645.5333593553125
 20
211.7733609417672
 10
-645.532542133796
 20
211.7754041422795
 10
-645.5316959322176
 20
211.7775500449659
 10
-645.5308599164036
 20
211.7797014268969
 10
-645.5300341061172
 20
211.7818582338412
 10
-645.5292185211214
 20
211.7840204115678
 10
-645.5284589242715
 20
211.7860639067544
 10
-645.5276933847083
 20
211.7881535080056
 10
-645.5269076138314
 20
211.7903309790199
 10
-645.5261468198732
 20
211.7924719872879
 10
-645.5254249323709
 20
211.7945344808982
 10
-645.5247122373496
 20
211.7966014680262
 10
-645.5240087513752
 20
211.7986729032161
 10
-645.5233268075236
 20
211.8007116341365
 10
-645.5226400506789
 20
211.8027965660918
 10
-645.5219558263877
 20
211.8049068730898
 10
-645.521281108747
 20
211.8070215529032
 10
-645.5205844769004
 20
211.8092415704795
 10
-645.519898317288
 20
211.8114662812471
 10
-645.5192226496748
 20
211.8136956309743
 10
-645.518557493826
 20
211.8159295654291
 10
-645.5179399925593
 20
211.8180399969968
 10
-645.5173196816386
 20
211.8201971667731
 10
-645.5166851720552
 20
211.8224441112089
 10
-645.5160730365697
 20
211.8246525058531
 10
-645.5154942942163
 20
211.8267790559851
 10
-645.5149249990212
 20
211.828909400843
 10
-645.5143651675514
 20
211.8310434949701
 10
-645.513824560844
 20
211.8331430857306
 10
-645.5132650670408
 20
211.835358316237
 10
-645.5127019962067
 20
211.8376335675301
 10
-645.5121704855496
 20
211.8398259240378
 10
-645.5116591319133
 20
211.841978417113
 10
-645.5111573247126
 20
211.8441343766582
 10
-645.5106679763403
 20
211.8462808919219
 10
-645.5101937732973
 20
211.848404973136
 10
-645.5097204409907
 20
211.8505709697794
 10
-645.5092594293676
 20
211.8527273229247
 10
-645.5088132544075
 20
211.8548609876336
 10
-645.5082941807323
 20
211.8574050667699
 10
-645.5077882611731
 20
211.8599534244688
 10
-645.5073016330776
 20
211.862473829421
 10
-645.5068306398339
 20
211.8649832194742
 10
-645.5063777641899
 20
211.8674663871222
 10
-645.5059284337275
 20
211.8700040797043
 10
-645.505492023531
 20
211.8725455818252
 10
-645.5050685371817
 20
211.8750908155922
 10
-645.5046579782603
 20
211.8776397031122
 10
-645.5042712209267
 20
211.8801212171375
 10
-645.503917761869
 20
211.8824639618148
 10
-645.5035649624238
 20
211.8848807114852
 10
-645.5032039918094
 20
211.8874428834595
 10
-645.5028559659258
 20
211.8900083326992
 10
-645.5025483168428
 20
211.8923628069611
 10
-645.5022515506931
 20
211.8947199095838
 10
-645.5019656702337
 20
211.8970795805665
 10
-645.5016906782212
 20
211.8994417599048
 10
-645.5014413754426
 20
211.9016712011025
 10
-645.5011894817777
 20
211.9040196299539
 10
-645.5009249118712
 20
211.9066043198962
 10
-645.5006733133195
 20
211.9091917074882
 10
-645.5004540793433
 20
211.9115657827223
 10
-645.5002457506679
 20
211.9139419992641
 10
-645.5000483300473
 20
211.9163202971073
 10
-645.4998618202353
 20
211.9187006162453
 10
-645.4996959640104
 20
211.9209467145732
 10
-645.4995367574596
 20
211.9232399331799
 10
-645.4993819565609
 20
211.9256257833856
 10
-645.4992407157274
 20
211.9279679254441
 10
-645.4991148675745
 20
211.930220678516
 10
-645.4989901515556
 20
211.932649413203
 10
-645.4988728497284
 20
211.9351671193749
 10
-645.4987676537934
 20
211.9376865390608
 10
-645.498671381567
 20
211.9403001411323
 10
-645.498588126979
 20
211.9429154317188
 10
-645.4985214537866
 20
211.9453869085834
 10
-645.4984678516277
 20
211.947787006665
 10
-645.4984251964803
 20
211.9501883362656
 10
-645.4983934910922
 20
211.9525908373752
 10
-645.498373328092
 20
211.9549028641431
 10
-645.4983634016203
 20
211.957170054791
 10
-645.4983635182554
 20
211.9595756185238
 10
-645.4983745953754
 20
211.9619821194381
 10
-645.4983950808934
 20
211.9642519104776
 10
-645.4984266804776
 20
211.9666102924944
 10
-645.4984723589258
 20
211.9691451833677
 10
-645.4985301862929
 20
211.9716808478918
 10
-645.4985976525919
 20
211.9741331723908
 10
-645.4986750357042
 20
211.976544060295
 10
-645.4987598312239
 20
211.9788635910416
 10
-645.4988528094091
 20
211.9811376010286
 10
-645.498968111318
 20
211.9836759764903
 10
-645.4990955804642
 20
211.9862147253049
 10
-645.4992352200481
 20
211.9887537775945
 10
-645.4993870332703
 20
211.9912930634811
 10
-645.4995510233318
 20
211.9938325130869
 10
-645.4997329856432
 20
211.9964526777233
 10
-645.4999310173852
 20
211.9991131758676
 10
-645.5
 20
212.0
210
0.0
220
0.0
230
-1.0
  0
LINE
  5
165
330
1F
100
AcDbEntity
  8
0
  6
CONTINUOUS
 62
     7
100
AcDbLine
 10
647.0
 20
858.5
 30
0.0
 11
646.7189092131022
 21
858.5
 31
0.0
  0
LINE
  5
166
330
1F
100
AcDbEntity
  8
0
  6
CONTINUOUS
 62
     7
100
AcDbLine
 10
597.2189092131022
 20
867.5
 30
0.0
 11
593.2810907868978
 21
867.5
 31
0.0
  0
ARC
  5
167
330
1F
100
AcDbEntity
  8
0
  6
CONTINUOUS
 62
     7
100
AcDbCircle
 10
-646.0
 20
826.0
 30
0.0
 40
0.5000000000000187
210
0.0
220
0.0
230
-1.0
100
AcDbArc
 50
283.2917191676486
 51
76.70828083236313
  0
LINE
  5
168
330
1F
100
AcDbEntity
  8
0
  6
CONTINUOUS
 62
     7
100
AcDbLine
 10
595.241050729585
 20
838.0000000000001
 30
0.0
 11
597.1544467410351
 21
838.0000000000001
 31
0.0
  0
LINE
  5
169
330
1F
100
AcDbEntity
  8
0
  6
CONTINUOUS
 62
     7
100
AcDbLine
 10
599.0
 20
858.5
 30
0.0
 11
599.0
 21
855.0000000000001
 31
0.0
  0
ARC
  5
16A
330
1F
100
AcDbEntity
  8
0
  6
CONTINUOUS
 62
     7
100
AcDbCircle
 10
-646.0
 20
218.0
 30
0.0
 40
0.5000000000000187
210
0.0
220
0.0
230
-1.0
100
AcDbArc
 50
283.2917191676424
 51
76.7082808323571
  0
LINE
  5
16B
330
1F
100
AcDbEntity
  8
0
  6
CONTINUOUS
 62
     7
100
AcDbLine
 10
593.5
 20
194.5
 30
0.0
 11
593.5
 21
195.0
 31
0.0
  0
LINE
  5
16C
330
1F
100
AcDbEntity
  8
0
  6
CONTINUOUS
 62
     7
100
AcDbLine
 10
644.7589492755598
 20
212.0
 30
0.0
 11
642.845553258965
 21
212.0
 31
0.0
  0
LINE
  5
16D
330
1F
100
AcDbEntity
  8
0
  6
CONTINUOUS
 62
     7
100
AcDbLine
 10
598.5
 20
194.5
 30
0.0
 11
597.5
 21
194.5
 31
0.0
  0
ARC
  5
16E
330
1F
100
AcDbEntity
  8
0
  6
CONTINUOUS
 62
     7
100
AcDbCircle
 10
-646.0
 20
230.0
 30
0.0
 40
0.5000000000000187
210
0.0
220
0.0
230
-1.0
100
AcDbArc
 50
283.2917191676424
 51
76.7082808323571
  0
LWPOLYLINE
  5
16F
330
1F
100
AcDbEntity
  8
0
  6
CONTINUOUS
 62
     7
100
AcDbPolyline
 90
      231
 70
     0
 43
0.0
 10
-594.5
 20
212.0
 10
-594.500200023966
 20
211.9973730003441
 10
-594.5003859354537
 20
211.9947616336458
 10
-594.5005569710939
 20
211.9921816114024
 10
-594.5007185400838
 20
211.9895490843378
 10
-594.5008670245622
 20
211.9869167848061
 10
-594.5010024280956
 20
211.984284790663
 10
-594.5011247542495
 20
211.9816531797648
 10
-594.5012311483073
 20
211.9790951105447
 10
-594.5013201471143
 20
211.9766836801858
 10
-594.5014003587746
 20
211.974199711303
 10
-594.5014725879973
 20
211.9715702907679
 10
-594.5015317570668
 20
211.9689416298244
 10
-594.501574525441
 20
211.966532757782
 10
-594.5016063253967
 20
211.9641246494874
 10
-594.5016271596786
 20
211.9617173649525
 10
-594.5016370310319
 20
211.9593109641889
 10
-594.5016362996274
 20
211.9570429354213
 10
-594.5016250107674
 20
211.9546571556949
 10
-594.5016001516138
 20
211.952035253654
 10
-594.5015622588282
 20
211.9494146909008
 10
-594.5015160771371
 20
211.9470137514444
 10
-594.50145894932
 20
211.9446140628374
 10
-594.5013908781248
 20
211.9422156850896
 10
-594.5013118663005
 20
211.9398186782105
 10
-594.5012273511845
 20
211.9375599526734
 10
-594.5011311108942
 20
211.9352569593262
 10
-594.5010203347401
 20
211.9328642748176
 10
-594.5009010489995
 20
211.9305187244995
 10
-594.5007764853875
 20
211.9282657720184
 10
-594.5006314149135
 20
211.9258401971116
 10
-594.5004692503868
 20
211.9233294553247
 10
-594.5002949950616
 20
211.9208207562631
 10
-594.5001015845694
 20
211.9182222337153
 10
-594.4998951866953
 20
211.9156260596094
 10
-594.4996883334487
 20
211.9131763439696
 10
-594.4994764916648
 20
211.9108008106328
 10
-594.4992537454675
 20
211.908427437933
 10
-594.4990200976109
 20
211.9060562858763
 10
-594.4987850665739
 20
211.903777614684
 10
-594.4985449052097
 20
211.9015461651112
 10
-594.4982796062537
 20
211.8991818037991
 10
-594.4980034163981
 20
211.896819897438
 10
-594.4977330361211
 20
211.8945952596021
 10
-594.4974419488509
 20
211.8922869705777
 10
-594.4971175429664
 20
211.8898095305108
 10
-594.4967810894292
 20
211.8873350729499
 10
-594.4964443305269
 20
211.8849454990811
 10
-594.4961023723837
 20
211.8825997083282
 10
-594.4957631830423
 20
211.8803459955755
 10
-594.4954209505415
 20
211.8781395462547
 10
-594.4950690581852
 20
211.8759357566638
 10
-594.4947096889351
 20
211.8737477706394
 10
-594.4943452535595
 20
211.8715886662988
 10
-594.4939646253118
 20
211.8693930901275
 10
-594.4935766980365
 20
211.8672134169684
 10
-594.4931840533255
 20
211.8650626711836
 10
-594.4927044873924
 20
211.8625059851105
 10
-594.4922117388268
 20
211.8599534244688
 10
-594.4917122692177
 20
211.8574371173208
 10
-594.4912030616349
 20
211.8549399214866
 10
-594.4906875217795
 20
211.8524767494631
 10
-594.4901487403546
 20
211.8499675990527
 10
-594.4895971264457
 20
211.8474628551609
 10
-594.4890326965144
 20
211.8449625910267
 10
-594.4884554670223
 20
211.8424668798888
 10
-594.4878820161344
 20
211.8400449286704
 10
-594.4873302806099
 20
211.8377654402549
 10
-594.4867506187576
 20
211.8354210644135
 10
-594.486124478191
 20
211.8329434844679
 10
-594.4854856265825
 20
211.8304708087503
 10
-594.4848888682278
 20
211.8282085577046
 10
-594.4842814703956
 20
211.8259505409685
 10
-594.4836634528516
 20
211.8236968127745
 10
-594.4830348353614
 20
211.8214474273549
 10
-594.4824324479441
 20
211.8193306045983
 10
-594.4818181240714
 20
211.8172090135529
 10
-594.4811891771153
 20
211.815074043984
 10
-594.4805506411749
 20
211.81294322132
 10
-594.4798818020258
 20
211.8107491499189
 10
-594.479192266947
 20
211.8085259449977
 10
-594.4784922660007
 20
211.806307450737
 10
-594.4777818189517
 20
211.8040937213685
 10
-594.477088598203
 20
211.8019688711398
 10
-594.4763997591309
 20
211.7998904710633
 10
-594.4756590807309
 20
211.7976908901307
 10
-594.4749080334047
 20
211.7954962858517
 10
-594.4741904237361
 20
211.7934316944654
 10
-594.4734636304396
 20
211.7913716208889
 10
-594.4727276700812
 20
211.7893161105778
 10
-594.4719914833482
 20
211.7872895971996
 10
-594.4712432439286
 20
211.7852591810041
 10
-594.4704705429334
 20
211.7831922603898
 10
-594.469688513977
 20
211.7811302029002
 10
-594.468871900061
 20
211.7790078303804
 10
-594.4680326010582
 20
211.7768582074988
 10
-594.4671831226572
 20
211.7747140813306
 10
-594.4663234846208
 20
211.7725755061068
 10
-594.4654870266546
 20
211.7705236887124
 10
-594.4646580439783
 20
211.7685175811172
 10
-594.4637690066992
 20
211.7663954376204
 10
-594.4628698869533
 20
211.7642790568272
 10
-594.4620129285177
 20
211.7622889389706
 10
-594.4611470411081
 20
211.7603040377077
 10
-594.460272241295
 20
211.7583243985084
 10
-594.4593991180939
 20
211.7563735394019
 10
-594.4584992066553
 20
211.7543881816214
 10
-594.4575428858877
 20
211.7523057503645
 10
-594.4565951133098
 20
211.7502689369412
 10
-594.4556751409415
 20
211.7483168272989
 10
-594.4547463572242
 20
211.7463702570006
 10
-594.4538087787321
 20
211.7444292715226
 10
-594.4528793981476
 20
211.7425284266188
 10
-594.451930146329
 20
211.7406101153728
 10
-594.4509664909834
 20
211.7386860204664
 10
-594.4500115472205
 20
211.7368018962613
 10
-594.4490350346008
 20
211.7348978574643
 10
-594.4480432638597
 20
211.7329869010771
 10
-594.4470561839058
 20
211.7311072379739
 10
-594.4460876747391
 20
211.7292839663411
 10
-594.4451298553464
 20
211.7275007955887
 10
-594.443891158357
 20
211.725223398527
 10
-594.4428446571458
 20
211.7233239064323
 10
-594.4417893926667
 20
211.7214306651158
 10
-594.4407253899482
 20
211.7195437156019
 10
-594.4396526740192
 20
211.7176630989156
 10
-594.438571269909
 20
211.7157888560822
 10
-594.437446455739
 20
211.7138618375133
 10
-594.4362949291789
 20
211.7119122058755
 10
-594.4351692715891
 20
211.7100284665262
 10
-594.4340525484492
 20
211.7081807541726
 10
-594.4329272646647
 20
211.7063396247147
 10
-594.4317392413878
 20
211.7044179276962
 10
-594.4305418790098
 20
211.7025035476466
 10
-594.4293352063136
 20
211.700596531741
 10
-594.4281192520829
 20
211.6986969271552
 10
-594.426964305685
 20
211.6969127019535
 10
-594.42583729664
 20
211.6951900868407
 10
-594.4244198785276
 20
211.6930488919642
 10
-594.4230161682424
 20
211.6909555522646
 10
-594.4217531721446
 20
211.689094608732
 10
-594.4204810740367
 20
211.6872413627044
 10
-594.4191999087151
 20
211.6853958571688
 10
-594.4179097110709
 20
211.6835581350472
 10
-594.416684997487
 20
211.681832593155
 10
-594.4154897854519
 20
211.6801660188233
 10
-594.4139852731433
 20
211.6780920983992
 10
-594.4123930355025
 20
211.675925665716
 10
-594.4111330474453
 20
211.6742315532135
 10
-594.4098652204091
 20
211.6725445944159
 10
-594.4085971997735
 20
211.6708748025891
 10
-594.4073368141745
 20
211.6692320200783
 10
-594.4057744197249
 20
211.6672186142717
 10
-594.4042218877587
 20
211.6652426447481
 10
-594.4026416109925
 20
211.6632561394623
 10
-594.4010421870861
 20
211.6612704833335
 10
-594.3994315810816
 20
211.6592957499295
 10
-594.3977691595577
 20
211.6572830509994
 10
-594.3964226575358
 20
211.6556715049986
 10
-594.3947392729258
 20
211.6536798145277
 10
-594.39308582872
 20
211.6517480120592
 10
-594.3917135082883
 20
211.6501627301967
 10
-594.3903337793253
 20
211.6485851312716
 10
-594.3889466710892
 20
211.6470152512447
 10
-594.3875688566367
 20
211.6454716770442
 10
-594.3858003715787
 20
211.6435131054532
 10
-594.3840892790877
 20
211.6416419297472
 10
-594.3827127344349
 20
211.6401533212065
 10
-594.3812860620009
 20
211.6386259882267
 10
-594.3798521983538
 20
211.6371066053267
 10
-594.3784197713953
 20
211.6356041811681
 10
-594.3769975769966
 20
211.6341275346996
 10
-594.3755424839172
 20
211.6326320254561
 10
-594.37408904012
 20
211.6311534388828
 10
-594.3726461650062
 20
211.6297004483451
 10
-594.3711668668667
 20
211.6282259220477
 10
-594.3696805554099
 20
211.6267596244917
 10
-594.3682271926934
 20
211.6253403722873
 10
-594.3663059236408
 20
211.6234859189228
 10
-594.3644840884782
 20
211.6217499176717
 10
-594.3626522682558
 20
211.6200260827068
 10
-594.3608270129248
 20
211.6183296912565
 10
-594.3589920714728
 20
211.6166453458317
 10
-594.357139173786
 20
211.6149655889959
 10
-594.355292346615
 20
211.6133120719271
 10
-594.3534077491727
 20
211.6116457455411
 10
-594.3515155666923
 20
211.6099937302792
 10
-594.3496243947195
 20
211.6083633176799
 10
-594.3477398575748
 20
211.6067589208955
 10
-594.345817222438
 20
211.6051426578841
 10
-594.3438851789408
 20
211.6035391052076
 10
-594.3419437895127
 20
211.6019483122767
 10
-594.3398464436042
 20
211.6002524974636
 10
-594.3377897348554
 20
211.5986121678365
 10
-594.3358326565133
 20
211.5970718012094
 10
-594.3338831998572
 20
211.5955570341652
 10
-594.3318950965403
 20
211.5940321140846
 10
-594.3298980280855
 20
211.5925202552294
 10
-594.3278920568674
 20
211.5910215069979
 10
-594.3257257797412
 20
211.5894250315608
 10
-594.3236000927915
 20
211.5878804238854
 10
-594.3215667023738
 20
211.5864229647171
 10
-594.3193711669225
 20
211.584871047171
 10
-594.3176794936089
 20
211.5836905142044
 10
-594.3159820165251
 20
211.5825191071966
 10
-594.3142990811981
 20
211.581370636277
 10
-594.3121457757557
 20
211.5799197055125
 10
-594.3100787918631
 20
211.5785462793179
 10
-594.3080211395724
 20
211.5771976388536
 10
-594.3059239986629
 20
211.5758419692164
 10
-594.3038187109679
 20
211.5744999505121
 10
-594.3017053454686
 20
211.5731716232955
 10
-594.2994245471324
 20
211.571758988184
 10
-594.2971879378412
 20
211.5703945731129
 10
-594.2950497737434
 20
211.5691092931554
 10
-594.2927425572759
 20
211.5677430751674
 10
-594.2909658483637
 20
211.5667054756011
 10
-594.2891839243504
 20
211.5656773611065
 10
-594.287418129317
 20
211.5646708247453
 10
-594.2851576722878
 20
211.5633999857234
 10
-594.282976900807
 20
211.5621925611681
 10
-594.2806243111371
 20
211.5609102903926
 10
-594.2788130829962
 20
211.559937293023
 10
-594.2769969020999
 20
211.5589739349619
 10
-594.2751975156864
 20
211.5580315356179
 10
-594.2733933690259
 20
211.5570985917013
 10
-594.2715626772891
 20
211.5561640569781
 10
-594.269347876469
 20
211.5550495428408
 42
0.0258684584724713
 10
-594.1875543200082
 20
211.5193294267104
 10
-594.1783460539227
 20
211.5159237376361
 42
-0.0000014051381602
 10
-591.3178991302175
 20
210.4781402753702
210
0.0
220
0.0
230
-1.0
  0
ARC
  5
170
330
1F
100
AcDbEntity
  8
0
  6
CONTINUOUS
 62
     7
100
AcDbCircle
 10
594.0
 20
218.0
 30
0.0
 40
0.5000000000000187
100
AcDbArc
 50
283.2917191676424
 51
76.7082808323571
  0
LINE
  5
171
330
1F
100
AcDbEntity
  8
0
  6
CONTINUOUS
 62
     7
100
AcDbLine
 10
598.5
 20
194.5
 30
0.0
 11
641.5
 21
194.5
 31
0.0
  0
LINE
  5
172
330
1F
100
AcDbEntity
  8
0
  6
CONTINUOUS
 62
     7
100
AcDbLine
 10
599.9234177916558
 20
212.0
 30
0.0
 11
600.201215928888
 21
212.0
 31
0.0
  0
LINE
  5
173
330
1F
100
AcDbEntity
  8
0
  6
CONTINUOUS
 62
     7
100
AcDbLine
 10
636.4999999999999
 20
212.0
 30
0.0
 11
620.0
 21
212.0
 31
0.0
  0
LINE
  5
174
330
1F
100
AcDbEntity
  8
0
  6
CONTINUOUS
 62
     7
100
AcDbLine
 10
595.2410507244402
 20
212.0
 30
0.0
 11
597.154446741035
 21
212.0
 31
0.0
  0
ARC
  5
175
330
1F
100
AcDbEntity
  8
0
  6
CONTINUOUS
 62
     7
100
AcDbCircle
 10
594.0
 20
236.0
 30
0.0
 40
0.5000000000000187
100
AcDbArc
 50
283.2917191676424
 51
76.70828083235699
  0
LINE
  5
176
330
1F
100
AcDbEntity
  8
0
  6
CONTINUOUS
 62
     7
100
AcDbLine
 10
598.5
 20
150.0
 30
0.0
 11
597.5
 21
150.0
 31
0.0
  0
LINE
  5
177
330
1F
100
AcDbEntity
  8
0
  6
CONTINUOUS
 62
     7
100
AcDbLine
 10
597.2189092131022
 20
858.5
 30
0.0
 11
597.5
 21
858.5
 31
0.0
  0
ARC
  5
178
330
1F
100
AcDbEntity
  8
0
  6
CONTINUOUS
 62
     7
100
AcDbCircle
 10
594.0
 20
230.0
 30
0.0
 40
0.5000000000000187
100
AcDbArc
 50
283.2917191676424
 51
76.7082808323571
  0
SPLINE
  5
179
330
1F
100
AcDbEntity
  8
0
  6
CONTINUOUS
 62
     7
100
AcDbSpline
210
0.0
220
0.0
230
1.0
 70
     8
 71
     3
 72
    17
 73
    13
 74
     0
 42
0.000000001
 43
0.0001
 40
0.879685400471923
 40
0.879685400471923
 40
0.879685400471923
 40
0.879685400471923
 40
0.9028494588737874
 40
0.9078006203845486
 40
0.9280541405842385
 40
0.9379564636057611
 40
0.9532588222946896
 40
0.9681123068269735
 40
0.9784635040051407
 40
0.9784635040051407
 40
0.9784635040051407
 40
0.9979593766914132
 40
0.9979593766914132
 40
0.9979593766914132
 40
0.9979593766914132
 10
594.500771222824
 20
211.9886425327743
 30
0.0
 10
594.5032287956268
 20
211.9456729676546
 30
0.0
 10
594.4998681158862
 20
211.8936429339496
 30
0.0
 10
594.4810141415335
 20
211.808254738789
 30
0.0
 10
594.4589366608581
 20
211.7494663465445
 30
0.0
 10
594.418466009079
 20
211.6813620062334
 30
0.0
 10
594.374637182399
 20
211.6282166303918
 30
0.0
 10
594.3217682261045
 20
211.584424685499
 30
0.0
 10
594.2852327731622
 20
211.5629888062046
 30
0.0
 10
594.2697195124086
 20
211.555227479737
 30
0.0
 10
594.2405011957835
 20
211.5406094766128
 30
0.0
 10
594.2103027252507
 20
211.5275821776561
 30
0.0
 10
594.1794480010786
 20
211.5163243367465
 30
0.0
  0
LINE
  5
17A
330
1F
100
AcDbEntity
  8
0
  6
CONTINUOUS
 62
     7
100
AcDbLine
 10
598.0
 20
194.5
 30
0.0
 11
598.0
 21
195.0
 31
0.0
  0
ARC
  5
17B
330
1F
100
AcDbEntity
  8
0
  6
CONTINUOUS
 62
     7
100
AcDbCircle
 10
594.0
 20
224.0
 30
0.0
 40
0.5000000000000187
100
AcDbArc
 50
283.2917191676424
 51
76.70828083235676
  0
ARC
  5
17C
330
1F
100
AcDbEntity
  8
0
  6
CONTINUOUS
 62
     7
100
AcDbCircle
 10
-646.0
 20
212.0
 30
0.0
 40
0.500000000000056
210
0.0
220
0.0
230
-1.0
100
AcDbArc
 50
0.0000000000015903
 51
76.70828083235716
  0
LINE
  5
17D
330
1F
100
AcDbEntity
  8
0
  6
CONTINUOUS
 62
     7
100
AcDbLine
 10
597.5
 20
150.0
 30
0.0
 11
597.5
 21
194.5
 31
0.0
  0
LINE
  5
17E
330
1F
100
AcDbEntity
  8
0
  6
CONTINUOUS
 62
     7
100
AcDbLine
 10
593.0
 20
858.5
 30
0.0
 11
593.2810907868978
 21
858.5
 31
0.0
  0
LINE
  5
17F
330
1F
100
AcDbEntity
  8
0
  6
CONTINUOUS
 62
     7
100
AcDbLine
 10
595.1262628416296
 20
212.0
 30
0.0
 11
595.2410507244402
 21
212.0
 31
0.0
  0
LINE
  5
180
330
1F
100
AcDbEntity
  8
0
  6
CONTINUOUS
 62
   253
100
AcDbLine
 10
650.344863625092
 20
821.5401818332107
 30
0.0
 11
636.4999999999999
 21
821.5401818332107
 31
0.0
  0
LINE
  5
181
330
1F
100
AcDbEntity
  8
0
  6
CONTINUOUS
 62
     7
100
AcDbLine
 10
597.2189092131022
 20
194.5
 30
0.0
 11
593.2810907868978
 21
194.5
 31
0.0
  0
LINE
  5
182
330
1F
100
AcDbEntity
  8
0
  6
CONTINUOUS
 62
     7
100
AcDbLine
 10
646.7189092131022
 20
900.0000000000001
 30
0.0
 11
647.0
 21
900.0000000000001
 31
0.0
  0
LINE
  5
183
330
1F
100
AcDbEntity
  8
0
  6
CONTINUOUS
 62
     7
100
AcDbLine
 10
647.0
 20
150.0
 30
0.0
 11
647.0
 21
194.5
 31
0.0
  0
LINE
  5
184
330
1F
100
AcDbEntity
  8
0
  6
CONTINUOUS
 62
     7
100
AcDbLine
 10
597.2189092131022
 20
150.0
 30
0.0
 11
593.2810907868978
 21
150.0
 31
0.0
  0
LINE
  5
185
330
1F
100
AcDbEntity
  8
0
  6
CONTINUOUS
 62
     7
100
AcDbLine
 10
593.0
 20
150.0
 30
0.0
 11
593.0
 21
194.5
 31
0.0
  0
ARC
  5
186
330
1F
100
AcDbEntity
  8
0
  6
CONTINUOUS
 62
     7
100
AcDbCircle
 10
594.0
 20
212.0
 30
0.0
 40
0.500000000000056
100
AcDbArc
 50
0.0000000000015903
 51
76.70828083235716
  0
LINE
  5
187
330
1F
100
AcDbEntity
  8
0
  6
CONTINUOUS
 62
     7
100
AcDbLine
 10
603.5
 20
212.0
 30
0.0
 11
620.0
 21
212.0
 31
0.0
  0
LINE
  5
188
330
1F
100
AcDbEntity
  8
0
  6
CONTINUOUS
 62
     7
100
AcDbLine
 10
645.0
 20
850.9000000000001
 30
0.0
 11
650.5
 21
850.9000000000001
 31
0.0
  0
LINE
  5
189
330
1F
100
AcDbEntity
  8
0
  6
CONTINUOUS
 62
   253
100
AcDbLine
 10
650.344863625092
 20
836.4598181667894
 30
0.0
 11
636.4999999999999
 21
836.4598181667894
 31
0.0
  0
LINE
  5
18A
330
1F
100
AcDbEntity
  8
0
  6
CONTINUOUS
 62
   253
100
AcDbLine
 10
650.344863625092
 20
824.4598181667894
 30
0.0
 11
636.4999999999999
 21
824.4598181667894
 31
0.0
  0
LINE
  5
18B
330
1F
100
AcDbEntity
  8
0
  6
CONTINUOUS
 62
     7
100
AcDbLine
 10
646.5
 20
194.5
 30
0.0
 11
646.5
 21
195.0
 31
0.0
  0
LINE
  5
18C
330
1F
100
AcDbEntity
  8
0
  6
CONTINUOUS
 62
     7
100
AcDbLine
 10
600.201215928888
 20
212.0
 30
0.0
 11
603.5
 21
212.0
 31
0.0
  0
ARC
  5
18D
330
1F
100
AcDbEntity
  8
0
  6
CONTINUOUS
 62
     7
100
AcDbCircle
 10
-646.0
 20
236.0
 30
0.0
 40
0.5000000000000187
210
0.0
220
0.0
230
-1.0
100
AcDbArc
 50
283.2917191676424
 51
76.70828083235699
  0
LINE
  5
18E
330
1F
100
AcDbEntity
  8
0
  6
CONTINUOUS
 62
     7
100
AcDbLine
 10
646.7189092131022
 20
150.0
 30
0.0
 11
647.0
 21
150.0
 31
0.0
  0
LWPOLYLINE
  5
18F
330
1F
100
AcDbEntity
  8
0
  6
CONTINUOUS
 62
     7
100
AcDbPolyline
 90
      235
 70
     0
 43
0.0
 10
-591.317899130228
 20
839.5218597247172
 42
0.0006146618048372
 10
-594.1961077792757
 20
838.4773992113259
 10
-594.1989295634271
 20
838.4762970178745
 42
0.0031145359360396
 10
-594.2089005316222
 20
838.4723102285989
 10
-594.2117031586648
 20
838.4711635947411
 42
0.0062349992436076
 10
-594.2315195386391
 20
838.462725070052
 10
-594.2342850509497
 20
838.4615006774343
 42
0.011650240233635
 10
-594.2705624145059
 20
838.444341427816
 10
-594.2727791549428
 20
838.4432163114514
 10
-594.2749592911969
 20
838.4420923364717
 10
-594.2771521272849
 20
838.4409442077454
 10
-594.2793280489293
 20
838.4397873162618
 10
-594.2814992270099
 20
838.4386152849399
 10
-594.2836850114138
 20
838.437417372898
 10
-594.2858598069259
 20
838.436207383466
 10
-594.2880066382374
 20
838.4349950649159
 10
-594.2901484247875
 20
838.4337677035936
 10
-594.292304247433
 20
838.4325140633666
 10
-594.2944523649597
 20
838.4312465125332
 10
-594.2965927083899
 20
838.4299650916498
 10
-594.2983525903994
 20
838.4288975066147
 10
-594.3005823441442
 20
838.4275266181912
 10
-594.3026859348026
 20
838.4262143739994
 10
-594.304763979937
 20
838.4248998167346
 10
-594.3068656221589
 20
838.423551670284
 10
-594.3089590866537
 20
838.4221898910909
 10
-594.3110443044312
 20
838.4208145197134
 10
-594.3132766369984
 20
838.4193208823186
 10
-594.3154476956037
 20
838.4178469105243
 10
-594.3175067007539
 20
838.4164293290886
 10
-594.3197106249969
 20
838.4148904714519
 10
-594.3213952812541
 20
838.4136990141321
 10
-594.3230740567024
 20
838.4124984918922
 10
-594.3247270362705
 20
838.4113033850263
 10
-594.3268256210033
 20
838.4097672631963
 10
-594.3288229696842
 20
838.4082854249125
 10
-594.3307948600806
 20
838.4068032627697
 10
-594.332787915197
 20
838.4052855395707
 10
-594.3347719771969
 20
838.4037547773029
 10
-594.336746983695
 20
838.402211025367
 10
-594.3388599446384
 20
838.400537060974
 10
-594.3409135205459
 20
838.3988876482932
 10
-594.3428598264214
 20
838.3973036220689
 10
-594.3449417166764
 20
838.3955865350136
 10
-594.3465320988843
 20
838.3942587880053
 10
-594.3481160617509
 20
838.3929224025106
 10
-594.3496748284513
 20
838.3915934686714
 10
-594.3516546309247
 20
838.3898855662535
 10
-594.3535481694405
 20
838.3882308217835
 10
-594.3550560470584
 20
838.3868980165435
 10
-594.3566045358617
 20
838.3855152022207
 10
-594.3581463797957
 20
838.3841239278496
 10
-594.3596724257278
 20
838.3827325776596
 10
-594.3611736793845
 20
838.3813497338796
 10
-594.3626955393236
 20
838.3799334449902
 10
-594.3642016167101
 20
838.3785173110346
 10
-594.3656830396086
 20
838.377110060454
 10
-594.367187880481
 20
838.3756658427934
 10
-594.3686858022694
 20
838.3742133218921
 10
-594.3701370857449
 20
838.3727916024895
 10
-594.3720355286891
 20
838.3709100639919
 10
-594.3738149359864
 20
838.3691237186168
 10
-594.3755840442934
 20
838.3673254724382
 10
-594.3773271446294
 20
838.3655316026675
 10
-594.3790600279035
 20
838.3637261680071
 10
-594.380790379993
 20
838.3619010200356
 10
-594.3824958834655
 20
838.360079840042
 10
-594.3842168363105
 20
838.3582193781426
 10
-594.3859252751055
 20
838.3563493929786
 10
-594.3876136356031
 20
838.3544784016646
 10
-594.3892772992214
 20
838.3526120124059
 10
-594.3909555694717
 20
838.3507059054999
 10
-594.3926229784735
 20
838.3487884814692
 10
-594.3942794740971
 20
838.3468598043843
 10
-594.3955967779173
 20
838.3453088035917
 10
-594.396947868895
 20
838.343701868658
 10
-594.3985719297259
 20
838.3417482410973
 10
-594.4001634071468
 20
838.3398100245587
 10
-594.4017609484193
 20
838.3378402551537
 10
-594.4033553399865
 20
838.3358497207722
 10
-594.4049384739529
 20
838.3338483564997
 10
-594.4065494484497
 20
838.3317857857883
 10
-594.4078374176171
 20
838.330117499111
 10
-594.4094268040058
 20
838.3280346884275
 10
-594.4109658225315
 20
838.3259919636289
 10
-594.4122268489969
 20
838.3242987951616
 10
-594.4134800110976
 20
838.3225985042118
 10
-594.4147252795806
 20
838.3208911267598
 10
-594.4159479416018
 20
838.3191971499696
 10
-594.4171248865896
 20
838.3175497270423
 10
-594.4186016720225
 20
838.3154588224733
 10
-594.4200406739582
 20
838.3133953776037
 10
-594.4213159000905
 20
838.3115447936957
 10
-594.4225820361414
 20
838.3096864974298
 10
-594.4238390485987
 20
838.3078205326883
 10
-594.42508690795
 20
838.305946946147
 10
-594.4262550516896
 20
838.3041734831357
 10
-594.427438357729
 20
838.3023572945054
 10
-594.428659466227
 20
838.3004618360088
 10
-594.42984831323
 20
838.2985952547643
 10
-594.4309825628892
 20
838.2967944581088
 10
-594.4321085264712
 20
838.2949871302764
 10
-594.4332261798512
 20
838.2931733108084
 10
-594.4343157628605
 20
838.2913856004445
 10
-594.4354546587774
 20
838.2894959883212
 10
-594.4366130359491
 20
838.2875515210694
 10
-594.4377183597802
 20
838.2856744089412
 10
-594.4387932778236
 20
838.283828113457
 10
-594.4398597385779
 20
838.2819755674225
 10
-594.4409114455648
 20
838.2801278927021
 10
-594.441942303292
 20
838.2782963563284
 10
-594.4429834508192
 20
838.276425441403
 10
-594.4440099241053
 20
838.2745596237493
 10
-594.4450157806662
 20
838.2727102759118
 10
-594.4460336126193
 20
838.2708172054083
 10
-594.4470427817764
 20
838.2689181331474
 10
-594.4480166870244
 20
838.2670639965137
 10
-594.4489691626192
 20
838.2652297723287
 10
-594.4501730125647
 20
838.2628810828687
 10
-594.4510879278283
 20
838.2610727837827
 10
-594.4520623640461
 20
838.2591240710872
 10
-594.4530278343025
 20
838.2571695019511
 10
-594.4539843213985
 20
838.2552091235641
 10
-594.4549318081354
 20
838.2532429831149
 10
-594.4558702773144
 20
838.251271127792
 10
-594.4568437448701
 20
838.2491992964544
 10
-594.4578072769561
 20
838.2471212990556
 10
-594.4587177256481
 20
838.2451320539112
 10
-594.4596190863529
 20
838.2431372871392
 10
-594.4605254311559
 20
838.2411052521845
 10
-594.4614502385723
 20
838.2390038512943
 10
-594.462365014052
 20
838.2368965490381
 10
-594.4632697378281
 20
838.2347833996579
 10
-594.4641474433556
 20
838.2327048719757
 10
-594.4649819116745
 20
838.2307018576391
 10
-594.4658141775362
 20
838.2286771697131
 10
-594.4666406446875
 20
838.2266390582329
 10
-594.4674578662039
 20
838.2245958577206
 10
-594.4683040677822
 20
838.2224499550341
 10
-594.4691400835962
 20
838.2202985731032
 10
-594.4699658938828
 20
838.2181417661589
 10
-594.4707814788785
 20
838.2159795884323
 10
-594.4715410757285
 20
838.2139360932457
 10
-594.4723066152917
 20
838.2118464919945
 10
-594.4730923861686
 20
838.2096690209802
 10
-594.4738531801266
 20
838.2075280127121
 10
-594.474575067629
 20
838.2054655191018
 10
-594.4752877626503
 20
838.2033985319739
 10
-594.4759912486248
 20
838.201327096784
 10
-594.4766731924763
 20
838.1992883658635
 10
-594.477359949321
 20
838.1972034339083
 10
-594.4780441736123
 20
838.1950931269101
 10
-594.478718891253
 20
838.192978447097
 10
-594.4794155230995
 20
838.1907584295207
 10
-594.480101682712
 20
838.1885337187529
 10
-594.4807773503251
 20
838.1863043690257
 10
-594.481442506174
 20
838.1840704345709
 10
-594.4820600074407
 20
838.1819600030034
 10
-594.4826803183614
 20
838.179802833227
 10
-594.4833148279448
 20
838.1775558887912
 10
-594.4839269634303
 20
838.1753474941469
 10
-594.4845057057837
 20
838.1732209440149
 10
-594.4850750009788
 20
838.1710905991571
 10
-594.4856348324486
 20
838.16895650503
 10
-594.4861754391559
 20
838.1668569142695
 10
-594.486734932959
 20
838.1646416837631
 10
-594.4872980037933
 20
838.16236643247
 10
-594.4878295144504
 20
838.1601740759623
 10
-594.4883408680867
 20
838.1580215828869
 10
-594.4888426752873
 20
838.1558656233418
 10
-594.4893320236597
 20
838.1537191080781
 10
-594.4898062267026
 20
838.1515950268641
 10
-594.4902795590092
 20
838.1494290302206
 10
-594.4907405706323
 20
838.1472726770753
 10
-594.4911867455924
 20
838.1451390123665
 10
-594.4917058192676
 20
838.1425949332302
 10
-594.4922117388268
 20
838.1400465755313
 10
-594.4926983669224
 20
838.1375261705791
 10
-594.493169360166
 20
838.1350167805259
 10
-594.49362223581
 20
838.1325336128778
 10
-594.4940715662725
 20
838.1299959202958
 10
-594.494507976469
 20
838.1274544181748
 10
-594.4949314628183
 20
838.1249091844078
 10
-594.4953420217397
 20
838.1223602968879
 10
-594.4957287790731
 20
838.1198787828627
 10
-594.4960822381308
 20
838.1175360381852
 10
-594.4964350375762
 20
838.1151192885148
 10
-594.4967960081906
 20
838.1125571165405
 10
-594.497144034074
 20
838.109991667301
 10
-594.4974516831572
 20
838.107637193039
 10
-594.4977484493068
 20
838.1052800904163
 10
-594.4980343297663
 20
838.1029204194335
 10
-594.4983093217788
 20
838.1005582400953
 10
-594.4985586245574
 20
838.0983287988976
 10
-594.4988105182223
 20
838.0959803700462
 10
-594.4990750881288
 20
838.0933956801039
 10
-594.4993266866804
 20
838.090808292512
 10
-594.4995459206567
 20
838.0884342172778
 10
-594.4997542493321
 20
838.0860580007359
 10
-594.4999516699526
 20
838.0836797028927
 10
-594.5001381797647
 20
838.0812993837548
 10
-594.5003040359896
 20
838.0790532854269
 10
-594.5004632425404
 20
838.0767600668202
 10
-594.5006180434391
 20
838.0743742166144
 10
-594.5007592842726
 20
838.072032074556
 10
-594.5008851324255
 20
838.0697793214841
 10
-594.5010098484444
 20
838.067350586797
 10
-594.5011271502716
 20
838.0648328806251
 10
-594.5012323462065
 20
838.0623134609393
 10
-594.5013286184329
 20
838.0596998588677
 10
-594.501411873021
 20
838.0570845682813
 10
-594.5014785462133
 20
838.0546130914166
 10
-594.5015321483723
 20
838.052212993335
 10
-594.5015748035197
 20
838.0498116637344
 10
-594.5016065089078
 20
838.0474091626248
 10
-594.501626671908
 20
838.0450971358571
 10
-594.5016365983797
 20
838.042829945209
 10
-594.5016364817445
 20
838.0404243814763
 10
-594.5016254046246
 20
838.0380178805619
 10
-594.5016049191066
 20
838.0357480895225
 10
-594.5015733195224
 20
838.0333897075056
 10
-594.501527641074
 20
838.0308548166324
 10
-594.5014698137071
 20
838.0283191521082
 10
-594.5014023474081
 20
838.0258668276092
 10
-594.5013249642956
 20
838.0234559397051
 10
-594.5012401687761
 20
838.0211364089585
 10
-594.5011471905909
 20
838.0188623989715
 10
-594.501031888682
 20
838.0163240235098
 10
-594.5009044195357
 20
838.0137852746951
 10
-594.5007647799519
 20
838.0112462224055
 10
-594.5006129667297
 20
838.0087069365189
 10
-594.500448976668
 20
838.0061674869131
 10
-594.5002670143567
 20
838.0035473222769
 10
-594.5000689826147
 20
838.0008868241324
 10
-594.5
 20
838.0000000000001
210
0.0
220
0.0
230
-1.0
  0
LINE
  5
190
330
1F
100
AcDbEntity
  8
0
  6
CONTINUOUS
 62
     7
100
AcDbLine
 10
597.2189092131022
 20
194.5
 30
0.0
 11
597.5
 21
194.5
 31
0.0
  0
LINE
  5
191
330
1F
100
AcDbEntity
  8
0
  6
CONTINUOUS
 62
     7
100
AcDbLine
 10
642.8454985120687
 20
212.0
 30
0.0
 11
640.0765822083441
 21
212.0
 31
0.0
  0
LINE
  5
192
330
1F
100
AcDbEntity
  8
0
  6
CONTINUOUS
 62
     7
100
AcDbLine
 10
642.7810907868978
 20
194.5
 30
0.0
 11
642.5
 21
194.5
 31
0.0
  0
LINE
  5
193
330
1F
100
AcDbEntity
  8
0
  6
CONTINUOUS
 62
     7
100
AcDbLine
 10
642.5
 20
150.0
 30
0.0
 11
642.5
 21
194.5
 31
0.0
  0
LINE
  5
194
330
1F
100
AcDbEntity
  8
0
  6
CONTINUOUS
 62
     7
100
AcDbLine
 10
642.7810907868978
 20
194.5
 30
0.0
 11
646.7189092131022
 21
194.5
 31
0.0
  0
LINE
  5
195
330
1F
100
AcDbEntity
  8
0
  6
CONTINUOUS
 62
     7
100
AcDbLine
 10
593.2810907868978
 20
150.0
 30
0.0
 11
593.0
 21
150.0
 31
0.0
  0
LINE
  5
196
330
1F
100
AcDbEntity
  8
0
  6
CONTINUOUS
 62
     7
100
AcDbLine
 10
648.0
 20
191.5
 30
0.0
 11
647.0
 21
151.5000000000001
 31
0.0
  0
LINE
  5
197
330
1F
100
AcDbEntity
  8
0
  6
CONTINUOUS
 62
     7
100
AcDbLine
 10
590.0
 20
208.422993643069
 30
0.0
 11
590.0
 21
208.5980502724665
 31
0.0
  0
LINE
  5
198
330
1F
100
AcDbEntity
  8
0
  6
CONTINUOUS
 62
     7
100
AcDbLine
 10
642.0
 20
194.5
 30
0.0
 11
642.0
 21
195.0
 31
0.0
  0
LINE
  5
199
330
1F
100
AcDbEntity
  8
0
  6
CONTINUOUS
 62
     7
100
AcDbLine
 10
642.7810907868978
 20
150.0
 30
0.0
 11
642.5
 21
150.0
 31
0.0
  0
LINE
  5
19A
330
1F
100
AcDbEntity
  8
0
  6
CONTINUOUS
 62
     7
100
AcDbLine
 10
597.1545014879313
 20
212.0
 30
0.0
 11
599.9234177916558
 21
212.0
 31
0.0
  0
LINE
  5
19B
330
1F
100
AcDbEntity
  8
0
  6
CONTINUOUS
 62
     7
100
AcDbLine
 10
650.0
 20
208.422993643069
 30
0.0
 11
650.0
 21
208.5980502724663
 31
0.0
  0
LINE
  5
19C
330
1F
100
AcDbEntity
  8
0
  6
CONTINUOUS
 62
     7
100
AcDbLine
 10
593.0
 20
867.0
 30
0.0
 11
593.2810907868978
 21
867.0
 31
0.0
  0
LINE
  5
19D
330
1F
100
AcDbEntity
  8
0
  6
CONTINUOUS
 62
     7
100
AcDbLine
 10
641.5
 20
150.0
 30
0.0
 11
642.5
 21
150.0
 31
0.0
  0
LINE
  5
19E
330
1F
100
AcDbEntity
  8
0
  6
CONTINUOUS
 62
     7
100
AcDbLine
 10
598.5
 20
150.0
 30
0.0
 11
641.5
 21
150.0
 31
0.0
  0
ARC
  5
19F
330
1F
100
AcDbEntity
  8
0
  6
CONTINUOUS
 62
     7
100
AcDbCircle
 10
-646.0
 20
224.0
 30
0.0
 40
0.5000000000000187
210
0.0
220
0.0
230
-1.0
100
AcDbArc
 50
283.2917191676424
 51
76.70828083235676
  0
LINE
  5
1A0
330
1F
100
AcDbEntity
  8
0
  6
CONTINUOUS
 62
     7
100
AcDbLine
 10
641.5
 20
194.5
 30
0.0
 11
642.5
 21
194.5
 31
0.0
  0
LINE
  5
1A1
330
1F
100
AcDbEntity
  8
0
  6
CONTINUOUS
 62
     7
100
AcDbLine
 10
647.0
 20
191.5
 30
0.0
 11
648.0
 21
191.5
 31
0.0
  0
ARC
  5
1A2
330
1F
100
AcDbEntity
  8
0
  6
CONTINUOUS
 62
     7
100
AcDbCircle
 10
650.0
 20
835.0000000000001
 30
0.0
 40
1.500000000000005
100
AcDbArc
 50
283.2917191676404
 51
76.70828083235665
  0
ARC
  5
1A3
330
1F
100
AcDbEntity
  8
0
  6
CONTINUOUS
 62
   253
100
AcDbCircle
 10
-647.9531289635497
 20
208.5830636006545
 30
0.0
 40
2.046925896837177
210
0.0
220
0.0
230
-1.0
100
AcDbArc
 50
144.9578705341484
 51
179.5805144812437
  0
LINE
  5
1A4
330
1F
100
AcDbEntity
  8
0
  6
CONTINUOUS
 62
     7
100
AcDbLine
 10
592.0
 20
191.5
 30
0.0
 11
593.0
 21
151.5000000000001
 31
0.0
  0
LINE
  5
1A5
330
1F
100
AcDbEntity
  8
0
  6
CONTINUOUS
 62
     7
100
AcDbLine
 10
642.7810907868978
 20
150.0
 30
0.0
 11
646.7189092131022
 21
150.0
 31
0.0
  0
ARC
  5
1A6
330
1F
100
AcDbEntity
  8
0
  6
CONTINUOUS
 62
     7
100
AcDbCircle
 10
-589.5
 20
849.9000000000001
 30
0.0
 40
1.000000000000001
210
0.0
220
0.0
230
-1.0
100
AcDbArc
 50
0.0
 51
90.0
  0
LINE
  5
1A7
330
1F
100
AcDbEntity
  8
0
  6
CONTINUOUS
 62
     7
100
AcDbLine
 10
593.0
 20
191.5
 30
0.0
 11
592.0
 21
191.5
 31
0.0
  0
LINE
  5
1A8
330
1F
100
AcDbEntity
  8
0
  6
CONTINUOUS
 62
     7
100
AcDbLine
 10
592.0
 20
868.5
 30
0.0
 11
593.0
 21
868.5
 31
0.0
  0
LINE
  5
1A9
330
1F
100
AcDbEntity
  8
0
  6
CONTINUOUS
 62
     7
100
AcDbLine
 10
597.2189092131022
 20
150.0
 30
0.0
 11
597.5
 21
150.0
 31
0.0
  0
LINE
  5
1AA
330
1F
100
AcDbEntity
  8
0
  6
CONTINUOUS
 62
   253
100
AcDbLine
 10
1398.540181833211
 20
55.49038618223634
 30
0.0
 11
1398.540181833211
 21
69.33524980732841
 31
0.0
  0
LINE
  5
1AB
330
1F
100
AcDbEntity
  8
0
  6
CONTINUOUS
 62
   253
100
AcDbLine
 10
1380.54018183321
 20
55.49038618223634
 30
0.0
 11
1380.54018183321
 21
69.33524980732841
 31
0.0
  0
LINE
  5
1AC
330
1F
100
AcDbEntity
  8
0
  6
CONTINUOUS
 62
     7
100
AcDbLine
 10
589.5
 20
848.1
 30
0.0
 11
595.0
 21
848.1
 31
0.0
  0
ARC
  5
1AD
330
1F
100
AcDbEntity
  8
0
  6
CONTINUOUS
 62
     7
100
AcDbCircle
 10
1414.1
 20
55.3352498073284
 30
0.0
 40
0.999999999999936
100
AcDbArc
 50
230.3265983991729
 51
270.000000000001
  0
LINE
  5
1AE
330
1F
100
AcDbEntity
  8
0
  6
CONTINUOUS
 62
     7
100
AcDbLine
 10
1415.9
 20
89.33524980732838
 30
0.0
 11
1415.9
 21
59.3352498073284
 31
0.0
  0
LINE
  5
1AF
330
1F
100
AcDbEntity
  8
0
  6
CONTINUOUS
 62
   253
100
AcDbLine
 10
1386.540181833211
 20
69.33524980732841
 30
0.0
 11
1386.540181833211
 21
80.83524980732842
 31
0.0
  0
ARC
  5
1B0
330
1F
100
AcDbEntity
  8
0
  6
CONTINUOUS
 62
     7
100
AcDbCircle
 10
1382.0
 20
94.33524980732838
 30
0.0
 40
1.4999999999999
100
AcDbArc
 50
13.29171916764189
 51
166.7082808323578
  0
LINE
  5
1B1
330
1F
100
AcDbEntity
  8
0
  6
CONTINUOUS
 62
   253
100
AcDbLine
 10
1395.459818166789
 20
69.33524980732841
 30
0.0
 11
1395.459818166789
 21
80.83524980732842
 31
0.0
  0
LINE
  5
1B2
330
1F
100
AcDbEntity
  8
0
  6
CONTINUOUS
 62
   253
100
AcDbLine
 10
1392.540181833211
 20
69.33524980732841
 30
0.0
 11
1392.540181833211
 21
80.83524980732842
 31
0.0
  0
LINE
  5
1B3
330
1F
100
AcDbEntity
  8
0
  6
CONTINUOUS
 62
   253
100
AcDbLine
 10
1395.459818166789
 20
55.49038618223634
 30
0.0
 11
1395.459818166789
 21
69.33524980732841
 31
0.0
  0
LINE
  5
1B4
330
1F
100
AcDbEntity
  8
0
  6
CONTINUOUS
 62
     7
100
AcDbLine
 10
595.0
 20
850.9000000000001
 30
0.0
 11
589.5
 21
850.9000000000001
 31
0.0
  0
ARC
  5
1B5
330
1F
100
AcDbEntity
  8
0
  6
CONTINUOUS
 62
     7
100
AcDbCircle
 10
650.5
 20
849.9000000000001
 30
0.0
 40
1.000000000000001
100
AcDbArc
 50
0.0
 51
90.0
  0
ARC
  5
1B6
330
1F
100
AcDbEntity
  8
0
  6
CONTINUOUS
 62
     7
100
AcDbCircle
 10
1388.0
 20
94.33524980732838
 30
0.0
 40
1.4999999999999
100
AcDbArc
 50
13.29171916764189
 51
166.7082808323578
  0
LINE
  5
1B7
330
1F
100
AcDbEntity
  8
0
  6
CONTINUOUS
 62
     7
100
AcDbLine
 10
1413.1
 20
56.02806066849764
 30
0.0
 11
1413.1
 21
59.3352498073284
 31
0.0
  0
ARC
  5
1B8
330
1F
100
AcDbEntity
  8
0
  6
CONTINUOUS
 62
     7
100
AcDbCircle
 10
-589.5
 20
849.1
 30
0.0
 40
1.000000000000001
210
0.0
220
0.0
230
-1.0
100
AcDbArc
 50
270.0
 51
0.0000000000002274
  0
ARC
  5
1B9
330
1F
100
AcDbEntity
  8
0
  6
CONTINUOUS
 62
     7
100
AcDbCircle
 10
-1382.0
 20
55.8352498073284
 30
0.0
 40
1.499999999999902
210
0.0
220
0.0
230
-1.0
100
AcDbArc
 50
193.2917191676422
 51
346.7082808323581
  0
ARC
  5
1BA
330
1F
100
AcDbEntity
  8
0
  6
CONTINUOUS
 62
     7
100
AcDbCircle
 10
-1394.0
 20
55.8352498073284
 30
0.0
 40
1.499999999999906
210
0.0
220
0.0
230
-1.0
100
AcDbArc
 50
193.2917191676429
 51
346.7082808323589
  0
LINE
  5
1BB
330
1F
100
AcDbEntity
  8
0
  6
CONTINUOUS
 62
   253
100
AcDbLine
 10
1392.540181833211
 20
80.83524980732842
 30
0.0
 11
1392.540181833211
 21
94.68011343242044
 31
0.0
  0
LINE
  5
1BC
330
1F
100
AcDbEntity
  8
0
  6
CONTINUOUS
 62
   253
100
AcDbLine
 10
1389.459818166789
 20
69.33524980732841
 30
0.0
 11
1389.459818166789
 21
80.83524980732842
 31
0.0
  0
LINE
  5
1BD
330
1F
100
AcDbEntity
  8
0
  6
CONTINUOUS
 62
   253
100
AcDbLine
 10
1401.459818166789
 20
80.83524980732842
 30
0.0
 11
1401.459818166789
 21
94.68011343242044
 31
0.0
  0
LINE
  5
1BE
330
1F
100
AcDbEntity
  8
0
  6
CONTINUOUS
 62
     7
100
AcDbLine
 10
646.7189092131022
 20
194.5
 30
0.0
 11
647.0
 21
194.5
 31
0.0
  0
LINE
  5
1BF
330
1F
100
AcDbEntity
  8
0
  6
CONTINUOUS
 62
   253
100
AcDbLine
 10
1395.459818166789
 20
80.83524980732842
 30
0.0
 11
1395.459818166789
 21
94.68011343242044
 31
0.0
  0
LINE
  5
1C0
330
1F
100
AcDbEntity
  8
0
  6
CONTINUOUS
 62
     7
100
AcDbLine
 10
1415.9
 20
59.3352498073284
 30
0.0
 11
1415.9
 21
56.02806066849769
 31
0.0
  0
ARC
  5
1C1
330
1F
100
AcDbEntity
  8
0
  6
CONTINUOUS
 62
     7
100
AcDbCircle
 10
650.0
 20
823.0
 30
0.0
 40
1.500000000000005
100
AcDbArc
 50
283.2917191676404
 51
76.70828083235665
  0
LINE
  5
1C2
330
1F
100
AcDbEntity
  8
0
  6
CONTINUOUS
 62
     7
100
AcDbLine
 10
1414.9
 20
54.3352498073284
 30
0.0
 11
1414.1
 21
54.3352498073284
 31
0.0
  0
LINE
  5
1C3
330
1F
100
AcDbEntity
  8
0
  6
CONTINUOUS
 62
     7
100
AcDbLine
 10
1413.1
 20
89.33524980732838
 30
0.0
 11
1413.1
 21
94.83524980732844
 31
0.0
  0
LINE
  5
1C4
330
1F
100
AcDbEntity
  8
0
  6
CONTINUOUS
 62
   253
100
AcDbLine
 10
1389.459818166789
 20
55.49038618223634
 30
0.0
 11
1389.459818166789
 21
69.33524980732841
 31
0.0
  0
LWPOLYLINE
  5
1C5
330
1F
100
AcDbEntity
  8
0
  6
CONTINUOUS
 62
     7
100
AcDbPolyline
 90
       97
 70
     0
 43
0.0
 10
-1413.461589429381
 20
54.56555380024369
 10
-1413.459847244607
 20
54.56700438185241
 10
-1413.458112140108
 20
54.56846018211309
 10
-1413.456384077788
 20
54.56992119658194
 10
-1413.454663019551
 20
54.57138742081541
 10
-1413.4529489273
 20
54.57285885036978
 10
-1413.451241633623
 20
54.57433559337655
 10
-1413.449541220515
 20
54.57581754430496
 10
-1413.447847651924
 20
54.57730469882621
 10
-1413.446160891795
 20
54.5787970526117
 10
-1413.444480904076
 20
54.58029460133257
 10
-1413.442836628784
 20
54.58177122149188
 10
-1413.441198809566
 20
54.58325286341792
 10
-1413.439567414677
 20
54.58473952312892
 10
-1413.437942412375
 20
54.58623119664302
 10
-1413.436323770916
 20
54.58772787997834
 10
-1413.434711458557
 20
54.58922956915308
 10
-1413.433105443556
 20
54.5907362601854
 10
-1413.431505694167
 20
54.5922479490934
 10
-1413.42991217865
 20
54.5937646318953
 10
-1413.42832485947
 20
54.59528631069554
 10
-1413.42674369577
 20
54.59681299265728
 10
-1413.425168658633
 20
54.59834467392288
 10
-1413.423599719141
 20
54.59988135063476
 10
-1413.422036848377
 20
54.60142301893522
 10
-1413.420480017422
 20
54.60296967496681
 10
-1413.41892919736
 20
54.60452131487175
 10
-1413.417384359272
 20
54.60607793479255
 10
-1413.415845474242
 20
54.60763953087161
 10
-1413.414121301147
 20
54.60940227777178
 10
-1413.41240456776
 20
54.61117133336507
 10
-1413.410695236465
 20
54.61294669228683
 10
-1413.408993269647
 20
54.61472834917247
 10
-1413.407298629687
 20
54.61651629865732
 10
-1413.405611278972
 20
54.61831053537674
 10
-1413.403931179885
 20
54.62011105396608
 10
-1413.402258294809
 20
54.62191784906079
 10
-1413.400589296438
 20
54.62373451056301
 10
-1413.398927449395
 20
54.62555748323616
 10
-1413.397272719018
 20
54.62738676177248
 10
-1413.395625070644
 20
54.62922234086415
 10
-1413.39398446961
 20
54.63106421520325
 10
-1413.392350881253
 20
54.63291237948204
 10
-1413.390724270911
 20
54.63476682839264
 10
-1413.389104603921
 20
54.63662755662729
 10
-1413.387379668313
 20
54.63862494896804
 10
-1413.385662563973
 20
54.6406295500248
 10
-1413.3839532537
 20
54.64264135338959
 10
-1413.382251700295
 20
54.64466035265409
 10
-1413.380557866557
 20
54.64668654141036
 10
-1413.378871715287
 20
54.64871991325015
 10
-1413.377193209285
 20
54.65076046176542
 10
-1413.375522311351
 20
54.65280818054801
 10
-1413.373858984285
 20
54.65486306318984
 10
-1413.372203190888
 20
54.65692510328274
 10
-1413.370554893958
 20
54.65899429441862
 10
-1413.368914056297
 20
54.66107063018938
 10
-1413.367280640705
 20
54.66315410418682
 10
-1413.365654609982
 20
54.66524471000284
 10
-1413.364035926928
 20
54.66734244122939
 10
-1413.362424554342
 20
54.66944729145828
 10
-1413.360820451232
 20
54.67155926136002
 10
-1413.359223555067
 20
54.67367838495807
 10
-1413.35763383448
 20
54.67580465585625
 10
-1413.356051258103
 20
54.6779380676583
 10
-1413.354475794571
 20
54.68007861396817
 10
-1413.352907412517
 20
54.68222628838964
 10
-1413.351346080573
 20
54.68438108452656
 10
-1413.349791767373
 20
54.68654299598269
 10
-1413.34824444155
 20
54.68871201636194
 10
-1413.346704071738
 20
54.69088813926809
 10
-1413.345170626569
 20
54.69307135830503
 10
-1413.343644074677
 20
54.6952616670765
 10
-1413.342124384696
 20
54.69745905918644
 10
-1413.340611525257
 20
54.69966352823857
 10
-1413.339105464996
 20
54.7018750678368
 10
-1413.337606172543
 20
54.70409367158491
 10
-1413.336014344862
 20
54.70646797342571
 10
-1413.334430114865
 20
54.70885035034262
 10
-1413.332853450102
 20
54.71124079447564
 10
-1413.33128431812
 20
54.71363929796491
 10
-1413.329722686471
 20
54.71604585295031
 10
-1413.328168522703
 20
54.71846045157186
 10
-1413.326621794365
 20
54.72088308596967
 10
-1413.325082469007
 20
54.72331374828365
 10
-1413.323550514177
 20
54.72575243065386
 10
-1413.322025897426
 20
54.72819912522031
 10
-1413.320508586301
 20
54.73065382412301
 10
-1413.318998548354
 20
54.73311651950191
 10
-1413.317495751131
 20
54.73558720349714
 10
-1413.316000162184
 20
54.73806586824864
 10
-1413.314511749061
 20
54.74055250589643
 10
-1413.313020114599
 20
54.74306463606066
 10
-1413.311535664665
 20
54.74558488810954
 10
-1413.310058370733
 20
54.74811325383932
 42
0.0928027650438699
 10
-1413.145521701982
 20
55.28003186598951
 42
0.0367309460883541
 10
-1413.1
 20
56.02806066849769
210
0.0
220
0.0
230
-1.0
  0
LINE
  5
1C6
330
1F
100
AcDbEntity
  8
0
  6
CONTINUOUS
 62
   253
100
AcDbLine
 10
1380.54018183321
 20
80.83524980732842
 30
0.0
 11
1380.54018183321
 21
94.68011343242044
 31
0.0
  0
LINE
  5
1C7
330
1F
100
AcDbEntity
  8
0
  6
CONTINUOUS
 62
   253
100
AcDbLine
 10
1401.459818166789
 20
55.49038618223634
 30
0.0
 11
1401.459818166789
 21
69.33524980732841
 31
0.0
  0
LINE
  5
1C8
330
1F
100
AcDbEntity
  8
0
  6
CONTINUOUS
 62
     7
100
AcDbLine
 10
1413.1
 20
59.3352498073284
 30
0.0
 11
1413.1
 21
89.33524980732838
 31
0.0
  0
ARC
  5
1C9
330
1F
100
AcDbEntity
  8
0
  6
CONTINUOUS
 62
     7
100
AcDbCircle
 10
-1414.1
 20
94.83524980732844
 30
0.0
 40
0.9999999999998899
210
0.0
220
0.0
230
-1.0
100
AcDbArc
 50
0.0
 51
90.0
  0
ARC
  5
1CA
330
1F
100
AcDbEntity
  8
0
  6
CONTINUOUS
 62
     7
100
AcDbCircle
 10
-590.0
 20
239.0
 30
0.0
 40
1.500000000000005
210
0.0
220
0.0
230
-1.0
100
AcDbArc
 50
283.2917191676419
 51
0.0
  0
ARC
  5
1CB
330
1F
100
AcDbEntity
  8
0
  6
CONTINUOUS
 62
     7
100
AcDbCircle
 10
-590.0
 20
811.0
 30
0.0
 40
1.500000000000005
210
0.0
220
0.0
230
-1.0
100
AcDbArc
 50
0.0
 51
76.70828083235665
  0
ARC
  5
1CC
330
1F
100
AcDbEntity
  8
0
  6
CONTINUOUS
 62
     7
100
AcDbCircle
 10
650.0
 20
239.0
 30
0.0
 40
1.500000000000005
100
AcDbArc
 50
283.2917191676419
 51
0.0
  0
LINE
  5
1CD
330
1F
100
AcDbEntity
  8
0
  6
CENTER
 62
     1
100
AcDbLine
 10
620.0
 20
49.99999999999995
 30
0.0
 11
620.0
 21
99.99999999999994
 31
0.0
  0
ARC
  5
1CF
330
1F
100
AcDbEntity
  8
0
  6
CONTINUOUS
 62
     7
100
AcDbCircle
 10
804.0
 20
94.33524980732838
 30
0.0
 40
1.49999999999991
100
AcDbArc
 50
90.00000000000001
 51
166.708280832358
  0
ARC
  5
1D0
330
1F
100
AcDbEntity
  8
0
  6
CONTINUOUS
 62
     7
100
AcDbCircle
 10
-1376.0
 20
55.8352498073284
 30
0.0
 40
1.499999999999902
210
0.0
220
0.0
230
-1.0
100
AcDbArc
 50
193.2917191676422
 51
270.0
  0
LINE
  5
1D1
330
1F
100
AcDbEntity
  8
0
  6
CONTINUOUS
 62
     7
100
AcDbLine
 10
588.5
 20
849.9000000000001
 30
0.0
 11
588.5
 21
849.1
 31
0.0
  0
LINE
  5
1D2
330
1F
100
AcDbEntity
  8
0
  6
CONTINUOUS
 62
     7
100
AcDbLine
 10
595.0
 20
850.9000000000001
 30
0.0
 11
645.0
 21
850.9000000000001
 31
0.0
  0
LINE
  5
1D3
330
1F
100
AcDbEntity
  8
0
  6
CONTINUOUS
 62
   253
100
AcDbLine
 10
1383.459818166789
 20
55.49038618223634
 30
0.0
 11
1383.459818166789
 21
69.33524980732841
 31
0.0
  0
ARC
  5
1D4
330
1F
100
AcDbEntity
  8
0
  6
CONTINUOUS
 62
     7
100
AcDbCircle
 10
1394.0
 20
94.33524980732838
 30
0.0
 40
1.499999999999906
100
AcDbArc
 50
13.29171916764291
 51
166.7082808323588
  0
LINE
  5
1D5
330
1F
100
AcDbEntity
  8
0
  6
CONTINUOUS
 62
     7
100
AcDbLine
 10
1414.9
 20
95.83524980732844
 30
0.0
 11
1414.1
 21
95.83524980732844
 31
0.0
  0
LINE
  5
1D6
330
1F
100
AcDbEntity
  8
0
  6
CONTINUOUS
 62
   253
100
AcDbLine
 10
1386.540181833211
 20
80.83524980732842
 30
0.0
 11
1386.540181833211
 21
94.68011343242044
 31
0.0
  0
LINE
  5
1D7
330
1F
100
AcDbEntity
  8
0
  6
CONTINUOUS
 62
   253
100
AcDbLine
 10
1380.54018183321
 20
69.33524980732841
 30
0.0
 11
1380.54018183321
 21
80.83524980732842
 31
0.0
  0
LINE
  5
1D8
330
1F
100
AcDbEntity
  8
0
  6
CONTINUOUS
 62
   253
100
AcDbLine
 10
1383.459818166789
 20
80.83524980732842
 30
0.0
 11
1383.459818166789
 21
94.68011343242044
 31
0.0
  0
ARC
  5
1D9
330
1F
100
AcDbEntity
  8
0
  6
CONTINUOUS
 62
     7
100
AcDbCircle
 10
-804.0
 20
55.8352498073284
 30
0.0
 40
1.49999999999991
210
0.0
220
0.0
230
-1.0
100
AcDbArc
 50
270.0
 51
346.7082808323581
  0
ARC
  5
1DA
330
1F
100
AcDbEntity
  8
0
  6
CONTINUOUS
 62
     7
100
AcDbCircle
 10
1400.0
 20
94.33524980732838
 30
0.0
 40
1.500000000000123
100
AcDbArc
 50
13.29171916764098
 51
166.7082808323568
  0
LINE
  5
1DB
330
1F
100
AcDbEntity
  8
0
  6
CONTINUOUS
 62
     7
100
AcDbLine
 10
1415.9
 20
94.83524980732844
 30
0.0
 11
1415.9
 21
89.33524980732838
 31
0.0
  0
ARC
  5
1DC
330
1F
100
AcDbEntity
  8
0
  6
CONTINUOUS
 62
     7
100
AcDbCircle
 10
1376.0
 20
94.33524980732838
 30
0.0
 40
1.4999999999999
100
AcDbArc
 50
13.29171916764189
 51
90.0
  0
LINE
  5
1DD
330
1F
100
AcDbEntity
  8
0
  6
CONTINUOUS
 62
     7
100
AcDbLine
 10
593.2810907868978
 20
194.5
 30
0.0
 11
593.0
 21
194.5
 31
0.0
  0
LINE
  5
1DE
330
1F
100
AcDbEntity
  8
0
  6
CONTINUOUS
 62
   253
100
AcDbLine
 10
650.344863625092
 20
833.5401818332107
 30
0.0
 11
636.4999999999999
 21
833.5401818332107
 31
0.0
  0
ARC
  5
1DF
330
1F
100
AcDbEntity
  8
0
  6
CONTINUOUS
 62
     7
100
AcDbCircle
 10
-1400.0
 20
55.8352498073284
 30
0.0
 40
1.500000000000123
210
0.0
220
0.0
230
-1.0
100
AcDbArc
 50
193.291719167641
 51
346.708280832357
  0
LWPOLYLINE
  5
1E0
330
1F
100
AcDbEntity
  8
0
  6
CONTINUOUS
 62
     7
100
AcDbPolyline
 90
       84
 70
     0
 43
0.0
 10
-1415.9
 20
56.02806066849769
 42
0.0512868295826037
 10
-1415.827034681001
 20
55.12897705136371
 42
0.0902515556159079
 10
-1415.67033824255
 20
54.71614018925042
 10
-1415.668861963275
 20
54.71386392749766
 10
-1415.667378968732
 20
54.71159484740345
 10
-1415.665889229793
 20
54.70933295557278
 10
-1415.664392717332
 20
54.70707825861076
 10
-1415.662889402222
 20
54.70483076312238
 10
-1415.661379255336
 20
54.70259047571258
 10
-1415.659862247547
 20
54.70035740298646
 10
-1415.658338349728
 20
54.69813155154895
 10
-1415.656804358829
 20
54.69590834634113
 10
-1415.655263369741
 20
54.69369237846583
 10
-1415.653715350345
 20
54.69148365452864
 10
-1415.65216026852
 20
54.68928218113522
 10
-1415.650598092147
 20
54.6870879648913
 10
-1415.649028789105
 20
54.68490101240242
 10
-1415.647452327276
 20
54.68272133027424
 10
-1415.645868674539
 20
54.68054892511254
 10
-1415.644277798774
 20
54.6783838035228
 10
-1415.642757132694
 20
54.67633017210211
 10
-1415.641229845725
 20
54.67428311883604
 10
-1415.639695906852
 20
54.67224264941073
 10
-1415.638155285057
 20
54.67020876951229
 10
-1415.636607949326
 20
54.66818148482677
 10
-1415.635053868641
 20
54.66616080104048
 10
-1415.633493011986
 20
54.6641467238394
 10
-1415.631925348346
 20
54.66213925890973
 10
-1415.630350846704
 20
54.66013841193757
 10
-1415.628769476043
 20
54.65814418860909
 10
-1415.627181205349
 20
54.65615659461043
 10
-1415.625586003603
 20
54.65417563562763
 10
-1415.623983839791
 20
54.65220131734688
 10
-1415.622374661788
 20
54.65023362008975
 10
-1415.620758427297
 20
54.64827254002829
 10
-1415.619135100717
 20
54.64631808290077
 10
-1415.617504646447
 20
54.64437025444541
 10
-1415.615867028883
 20
54.64242906040045
 10
-1415.614222212425
 20
54.64049450650415
 10
-1415.612570161472
 20
54.63856659849476
 10
-1415.610910840421
 20
54.63664534211043
 10
-1415.60924421367
 20
54.6347307430895
 10
-1415.607570245618
 20
54.63282280717014
 10
-1415.605888900664
 20
54.63092154009058
 10
-1415.604200143206
 20
54.62902694758909
 10
-1415.602503937642
 20
54.62713903540389
 10
-1415.600922166976
 20
54.62539193629945
 10
-1415.599333883173
 20
54.62365057576818
 10
-1415.597739053274
 20
54.62191495851687
 10
-1415.596137644318
 20
54.62018508925226
 10
-1415.594529623347
 20
54.61846097268113
 10
-1415.5929149574
 20
54.61674261351018
 10
-1415.591293613519
 20
54.61503001644624
 10
-1415.589665558743
 20
54.61332318619599
 10
-1415.588030760114
 20
54.61162212746628
 10
-1415.586389184671
 20
54.60992684496385
 10
-1415.584740799456
 20
54.60823734339537
 10
-1415.583085571508
 20
54.60655362746775
 10
-1415.581423467869
 20
54.6048757018876
 10
-1415.579754455578
 20
54.60320357136178
 10
-1415.578070389623
 20
54.60152920626577
 10
-1415.576379244024
 20
54.59986066891692
 10
-1415.574680979803
 20
54.59819796430509
 10
-1415.572975557977
 20
54.59654109742024
 10
-1415.571262939568
 20
54.59489007325219
 10
-1415.569543085596
 20
54.59324489679091
 10
-1415.567815957079
 20
54.59160557302628
 10
-1415.56608151504
 20
54.58997210694822
 10
-1415.564339720496
 20
54.5883445035466
 10
-1415.562590534469
 20
54.5867227678114
 10
-1415.560833917978
 20
54.58510690473251
 10
-1415.559069832044
 20
54.58349691929975
 10
-1415.557298237686
 20
54.58189281650316
 10
-1415.555519095924
 20
54.58029460133257
 10
-1415.55383922941
 20
54.5787971602501
 10
-1415.552152591463
 20
54.57730491335511
 10
-1415.550459146041
 20
54.57581786497534
 10
-1415.548758857096
 20
54.57433601943862
 10
-1415.547051688583
 20
54.5728593810727
 10
-1415.545337475156
 20
54.57138784387833
 10
-1415.54361629475
 20
54.56992151275358
 10
-1415.541888109262
 20
54.56846039214314
 10
-1415.540152880586
 20
54.5670044864916
 10
-1415.538410570619
 20
54.56555380024369
210
0.0
220
0.0
230
-1.0
  0
ARC
  5
1E1
330
1F
100
AcDbEntity
  8
0
  6
CONTINUOUS
 62
     7
100
AcDbCircle
 10
1414.9
 20
55.3352498073284
 30
0.0
 40
1.000000000000001
100
AcDbArc
 50
270.0
 51
309.6734016008275
  0
LINE
  5
1E2
330
1F
100
AcDbEntity
  8
0
  6
CONTINUOUS
 62
   253
100
AcDbLine
 10
1392.540181833211
 20
55.49038618223634
 30
0.0
 11
1392.540181833211
 21
69.33524980732841
 31
0.0
  0
LINE
  5
1E3
330
1F
100
AcDbEntity
  8
0
  6
CONTINUOUS
 62
   253
100
AcDbLine
 10
1389.459818166789
 20
80.83524980732842
 30
0.0
 11
1389.459818166789
 21
94.68011343242044
 31
0.0
  0
LINE
  5
1E4
330
1F
100
AcDbEntity
  8
0
  6
CONTINUOUS
 62
   253
100
AcDbLine
 10
1386.540181833211
 20
55.49038618223634
 30
0.0
 11
1386.540181833211
 21
69.33524980732841
 31
0.0
  0
ARC
  5
1E5
330
1F
100
AcDbEntity
  8
0
  6
CONTINUOUS
 62
     7
100
AcDbCircle
 10
-1388.0
 20
55.8352498073284
 30
0.0
 40
1.499999999999902
210
0.0
220
0.0
230
-1.0
100
AcDbArc
 50
193.2917191676422
 51
346.7082808323581
  0
LINE
  5
1E6
330
1F
100
AcDbEntity
  8
0
  6
CONTINUOUS
 62
   253
100
AcDbLine
 10
1383.459818166789
 20
69.33524980732841
 30
0.0
 11
1383.459818166789
 21
80.83524980732842
 31
0.0
  0
LINE
  5
1E7
330
1F
100
AcDbEntity
  8
0
  6
CONTINUOUS
 62
   253
100
AcDbLine
 10
1401.459818166789
 20
69.33524980732841
 30
0.0
 11
1401.459818166789
 21
80.83524980732842
 31
0.0
  0
LINE
  5
1E8
330
1F
100
AcDbEntity
  8
0
  6
CONTINUOUS
 62
   253
100
AcDbLine
 10
1398.540181833211
 20
80.83524980732842
 30
0.0
 11
1398.540181833211
 21
94.68011343242044
 31
0.0
  0
LINE
  5
1E9
330
1F
100
AcDbEntity
  8
0
  6
CONTINUOUS
 62
   253
100
AcDbLine
 10
1398.540181833211
 20
69.33524980732841
 30
0.0
 11
1398.540181833211
 21
80.83524980732842
 31
0.0
  0
ARC
  5
1EA
330
1F
100
AcDbEntity
  8
0
  6
CONTINUOUS
 62
     7
100
AcDbCircle
 10
-1414.9
 20
94.83524980732844
 30
0.0
 40
1.000000000000001
210
0.0
220
0.0
230
-1.0
100
AcDbArc
 50
90.0
 51
180.0
  0
LINE
  5
1EB
330
1F
100
AcDbEntity
  8
0
  6
CONTINUOUS
 62
   253
100
AcDbLine
 10
589.6551363749079
 20
821.5401818332107
 30
0.0
 11
603.5
 21
821.5401818332107
 31
0.0
  0
LINE
  5
1EC
330
1F
100
AcDbEntity
  8
0
  6
CONTINUOUS
 62
     7
100
AcDbLine
 10
645.8850454583026
 20
832.4866060555966
 30
0.0
 11
650.344863625092
 21
833.5401818332107
 31
0.0
  0
LINE
  5
1ED
330
1F
100
AcDbEntity
  8
0
  6
CONTINUOUS
 62
   253
100
AcDbLine
 10
589.6551363749079
 20
830.4598181667894
 30
0.0
 11
603.5
 21
830.4598181667894
 31
0.0
  0
ARC
  5
1EE
330
1F
100
AcDbEntity
  8
0
  6
CONTINUOUS
 62
     7
100
AcDbCircle
 10
-590.0
 20
823.0
 30
0.0
 40
1.500000000000005
210
0.0
220
0.0
230
-1.0
100
AcDbArc
 50
283.2917191676404
 51
76.70828083235665
  0
LINE
  5
1EF
330
1F
100
AcDbEntity
  8
0
  6
CONTINUOUS
 62
   253
100
AcDbLine
 10
589.6551363749079
 20
815.5401818332107
 30
0.0
 11
603.5
 21
815.5401818332107
 31
0.0
  0
LINE
  5
1F0
330
1F
100
AcDbEntity
  8
0
  6
CONTINUOUS
 62
     7
100
AcDbLine
 10
650.344863625092
 20
824.4598181667894
 30
0.0
 11
645.8850454583026
 21
825.5133939444036
 31
0.0
  0
ARC
  5
1F1
330
1F
100
AcDbEntity
  8
0
  6
CONTINUOUS
 62
     7
100
AcDbCircle
 10
650.0
 20
829.0
 30
0.0
 40
1.500000000000005
100
AcDbArc
 50
283.2917191676404
 51
76.70828083235665
  0
LINE
  5
1F2
330
1F
100
AcDbEntity
  8
0
  6
CONTINUOUS
 62
   253
100
AcDbLine
 10
636.4999999999999
 20
821.5401818332107
 30
0.0
 11
603.5
 21
821.5401818332107
 31
0.0
  0
LINE
  5
1F3
330
1F
100
AcDbEntity
  8
0
  6
CONTINUOUS
 62
   253
100
AcDbLine
 10
636.4999999999999
 20
815.5401818332107
 30
0.0
 11
603.5
 21
815.5401818332107
 31
0.0
  0
LINE
  5
1F4
330
1F
100
AcDbEntity
  8
0
  6
CONTINUOUS
 62
   253
100
AcDbLine
 10
636.4999999999999
 20
830.4598181667894
 30
0.0
 11
603.5
 21
830.4598181667894
 31
0.0
  0
LINE
  5
1F5
330
1F
100
AcDbEntity
  8
0
  6
CONTINUOUS
 62
   253
100
AcDbLine
 10
589.6551363749079
 20
818.4598181667894
 30
0.0
 11
603.5
 21
818.4598181667894
 31
0.0
  0
LINE
  5
1F6
330
1F
100
AcDbEntity
  8
0
  6
CONTINUOUS
 62
     7
100
AcDbLine
 10
645.0
 20
848.1
 30
0.0
 11
595.0
 21
848.1
 31
0.0
  0
LINE
  5
1F7
330
1F
100
AcDbEntity
  8
0
  6
CONTINUOUS
 62
   253
100
AcDbLine
 10
650.344863625092
 20
827.5401818332107
 30
0.0
 11
636.4999999999999
 21
827.5401818332107
 31
0.0
  0
LINE
  5
1F8
330
1F
100
AcDbEntity
  8
0
  6
CONTINUOUS
 62
     7
100
AcDbLine
 10
650.344863625092
 20
818.4598181667894
 30
0.0
 11
645.8850454583026
 21
819.5133939444036
 31
0.0
  0
LINE
  5
1F9
330
1F
100
AcDbEntity
  8
0
  6
CONTINUOUS
 62
     7
100
AcDbLine
 10
594.1149545416973
 20
820.4866060555966
 30
0.0
 11
589.6551363749079
 21
821.5401818332107
 31
0.0
  0
ARC
  5
1FA
330
1F
100
AcDbEntity
  8
0
  6
CONTINUOUS
 62
     7
100
AcDbCircle
 10
765.1
 20
94.83524980732844
 30
0.0
 40
1.000000000000001
100
AcDbArc
 50
90.0
 51
180.0
  0
LINE
  5
1FB
330
1F
100
AcDbEntity
  8
0
  6
CONTINUOUS
 62
   253
100
AcDbLine
 10
787.4598181667894
 20
69.33524980732841
 30
0.0
 11
787.4598181667894
 21
80.83524980732842
 31
0.0
  0
LINE
  5
1FC
330
1F
100
AcDbEntity
  8
0
  6
CONTINUOUS
 62
     7
100
AcDbLine
 10
650.344863625092
 20
830.4598181667894
 30
0.0
 11
645.8850454583026
 21
831.5133939444036
 31
0.0
  0
LINE
  5
1FD
330
1F
100
AcDbEntity
  8
0
  6
CONTINUOUS
 62
     7
100
AcDbLine
 10
645.8850454583026
 20
814.4866060555966
 30
0.0
 11
650.344863625092
 21
815.5401818332107
 31
0.0
  0
LINE
  5
1FE
330
1F
100
AcDbEntity
  8
0
  6
CONTINUOUS
 62
     7
100
AcDbLine
 10
1465.0
 20
90.33524980732838
 30
0.0
 11
1465.0
 21
86.6503513562616
 31
0.0
  0
LINE
  5
1FF
330
1F
100
AcDbEntity
  8
0
  6
CONTINUOUS
 62
     7
100
AcDbLine
 10
589.6551363749079
 20
818.4598181667894
 30
0.0
 11
594.1149545416973
 21
819.5133939444036
 31
0.0
  0
LINE
  5
200
330
1F
100
AcDbEntity
  8
0
  6
CONTINUOUS
 62
     7
100
AcDbLine
 10
1420.5
 20
90.33524980732838
 30
0.0
 11
1420.5
 21
86.6503513562616
 31
0.0
  0
LINE
  5
201
330
1F
100
AcDbEntity
  8
0
  6
CONTINUOUS
 62
     7
100
AcDbLine
 10
650.344863625092
 20
812.4598181667894
 30
0.0
 11
645.8850454583026
 21
813.5133939444036
 31
0.0
  0
LINE
  5
202
330
1F
100
AcDbEntity
  8
0
  6
CONTINUOUS
 62
   253
100
AcDbLine
 10
589.6551363749079
 20
833.5401818332107
 30
0.0
 11
603.5
 21
833.5401818332107
 31
0.0
  0
ARC
  5
203
330
1F
100
AcDbEntity
  8
0
  6
CONTINUOUS
 62
     7
100
AcDbCircle
 10
650.0
 20
811.0
 30
0.0
 40
1.500000000000005
100
AcDbArc
 50
0.0
 51
76.70828083235665
  0
LINE
  5
204
330
1F
100
AcDbEntity
  8
0
  6
CONTINUOUS
 62
   253
100
AcDbLine
 10
1404.520434886663
 20
93.02019030061703
 30
0.0
 11
1404.518988090681
 21
93.02406924297696
 31
0.0
  0
ARC
  5
205
330
1F
100
AcDbEntity
  8
0
  6
CONTINUOUS
 62
   253
100
AcDbCircle
 10
-1406.399492197867
 20
92.33524986126778
 30
0.0
 40
1.99999994606063
210
0.0
220
0.0
230
-1.0
100
AcDbArc
 50
20.02744541469254
 51
89.99999946541556
  0
LINE
  5
206
330
1F
100
AcDbEntity
  8
0
  6
CONTINUOUS
 62
   253
100
AcDbLine
 10
1420.5
 20
86.6503513562616
 30
0.0
 11
1465.0
 21
86.6503513562616
 31
0.0
  0
LINE
  5
207
330
1F
100
AcDbEntity
  8
0
  6
CONTINUOUS
 62
   253
100
AcDbLine
 10
636.4999999999999
 20
836.4598181667894
 30
0.0
 11
603.5
 21
836.4598181667894
 31
0.0
  0
ARC
  5
208
330
1F
100
AcDbEntity
  8
0
  6
CONTINUOUS
 62
     7
100
AcDbCircle
 10
650.0
 20
817.0
 30
0.0
 40
1.500000000000005
100
AcDbArc
 50
283.2917191676404
 51
76.70828083235665
  0
LINE
  5
209
330
1F
100
AcDbEntity
  8
0
  6
CONTINUOUS
 62
   253
100
AcDbLine
 10
636.4999999999999
 20
824.4598181667894
 30
0.0
 11
603.5
 21
824.4598181667894
 31
0.0
  0
LINE
  5
20A
330
1F
100
AcDbEntity
  8
0
  6
CONTINUOUS
 62
   253
100
AcDbLine
 10
650.344863625092
 20
815.5401818332107
 30
0.0
 11
636.4999999999999
 21
815.5401818332107
 31
0.0
  0
ARC
  5
20B
330
1F
100
AcDbEntity
  8
0
  6
CONTINUOUS
 62
     7
100
AcDbCircle
 10
-590.0
 20
817.0
 30
0.0
 40
1.500000000000005
210
0.0
220
0.0
230
-1.0
100
AcDbArc
 50
283.2917191676404
 51
76.70828083235665
  0
LINE
  5
20C
330
1F
100
AcDbEntity
  8
0
  6
CONTINUOUS
 62
     7
100
AcDbLine
 10
650.344863625092
 20
836.4598181667894
 30
0.0
 11
645.8850454583026
 21
837.5133939444036
 31
0.0
  0
ARC
  5
20D
330
1F
100
AcDbEntity
  8
0
  6
CONTINUOUS
 62
     7
100
AcDbCircle
 10
-1379.0
 20
90.33524980732838
 30
0.0
 40
0.4999999999998979
210
0.0
220
0.0
230
-1.0
100
AcDbArc
 50
193.2917191676454
 51
346.7082808323607
  0
LINE
  5
20E
330
1F
100
AcDbEntity
  8
0
  6
CONTINUOUS
 62
     7
100
AcDbLine
 10
1420.5
 20
90.83524980732844
 30
0.0
 11
1420.0
 21
90.83524980732844
 31
0.0
  0
LINE
  5
20F
330
1F
100
AcDbEntity
  8
0
  6
CONTINUOUS
 62
   253
100
AcDbLine
 10
650.344863625092
 20
818.4598181667894
 30
0.0
 11
636.4999999999999
 21
818.4598181667894
 31
0.0
  0
LINE
  5
210
330
1F
100
AcDbEntity
  8
0
  6
CONTINUOUS
 62
     7
100
AcDbLine
 10
594.1149545416973
 20
832.4866060555966
 30
0.0
 11
589.6551363749079
 21
833.5401818332107
 31
0.0
  0
LINE
  5
211
330
1F
100
AcDbEntity
  8
0
  6
CONTINUOUS
 62
     7
100
AcDbLine
 10
589.6551363749079
 20
824.4598181667894
 30
0.0
 11
594.1149545416973
 21
825.5133939444036
 31
0.0
  0
LINE
  5
212
330
1F
100
AcDbEntity
  8
0
  6
CONTINUOUS
 62
     7
100
AcDbLine
 10
645.8850454583026
 20
826.4866060555966
 30
0.0
 11
650.344863625092
 21
827.5401818332107
 31
0.0
  0
LINE
  5
213
330
1F
100
AcDbEntity
  8
0
  6
CONTINUOUS
 62
   253
100
AcDbLine
 10
589.6551363749079
 20
824.4598181667894
 30
0.0
 11
603.5
 21
824.4598181667894
 31
0.0
  0
LINE
  5
214
330
1F
100
AcDbEntity
  8
0
  6
CONTINUOUS
 62
     7
100
AcDbLine
 10
651.5
 20
849.9000000000001
 30
0.0
 11
651.5
 21
849.1
 31
0.0
  0
LINE
  5
215
330
1F
100
AcDbEntity
  8
0
  6
CONTINUOUS
 62
     7
100
AcDbLine
 10
1406.399492179206
 20
94.33524980732838
 30
0.0
 11
1406.536310573855
 21
94.33524980732838
 31
0.0
  0
ARC
  5
216
330
1F
100
AcDbEntity
  8
0
  6
CONTINUOUS
 62
     7
100
AcDbCircle
 10
650.5
 20
849.1
 30
0.0
 40
1.000000000000001
100
AcDbArc
 50
270.0
 51
0.0000000000002274
  0
LINE
  5
217
330
1F
100
AcDbEntity
  8
0
  6
CONTINUOUS
 62
   253
100
AcDbLine
 10
650.344863625092
 20
830.4598181667894
 30
0.0
 11
636.4999999999999
 21
830.4598181667894
 31
0.0
  0
LINE
  5
218
330
1F
100
AcDbEntity
  8
0
  6
CONTINUOUS
 62
     7
100
AcDbLine
 10
1420.5
 20
91.33524980732844
 30
0.0
 11
1465.0
 21
91.33524980732838
 31
0.0
  0
ARC
  5
219
330
1F
100
AcDbEntity
  8
0
  6
CONTINUOUS
 62
     7
100
AcDbCircle
 10
1406.529999284774
 20
56.3352498174145
 30
0.0
 40
2.000000010086238
100
AcDbArc
 50
195.1733324659415
 51
269.9999997977509
  0
LINE
  5
21A
330
1F
100
AcDbEntity
  8
0
  6
CONTINUOUS
 62
   253
100
AcDbLine
 10
1404.520246009704
 20
93.01967225034203
 30
0.0
 11
1404.520434886663
 21
93.02019030061703
 31
0.0
  0
SPLINE
  5
21B
330
1F
100
AcDbEntity
  8
0
  6
CONTINUOUS
 62
     7
100
AcDbSpline
210
0.0
220
0.0
230
1.0
 70
     8
 71
     3
 72
    20
 73
    16
 74
     0
 42
0.000000001
 43
0.0001
 40
0.2763578445423389
 40
0.2763578445423389
 40
0.2763578445423389
 40
0.2763578445423389
 40
0.3015625262527901
 40
0.3065136877635512
 40
0.3267672079632412
 40
0.3366695309847638
 40
0.3519718896736923
 40
0.3668253742059761
 40
0.3771765713841433
 40
0.3771765713841433
 40
0.3771765713841433
 40
0.3969812174271886
 40
0.3969812174271886
 40
0.3969812174271886
 40
1.0
 40
1.0
 40
1.0
 40
1.0
 10
1403.0
 20
89.83524980732842
 30
0.0
 10
1403.042458885905
 20
89.83524980732842
 30
0.0
 10
1403.093255229925
 20
89.84177071701754
 30
0.0
 10
1403.174896444571
 20
89.86521064669445
 30
0.0
 10
1403.229476883832
 20
89.88877674927792
 30
0.0
 10
1403.294469141257
 20
89.9294513602491
 30
0.0
 10
1403.346781489806
 20
89.97239615034047
 30
0.0
 10
1403.392511657605
 20
90.02329936519565
 30
0.0
 10
1403.416648525661
 20
90.05829860909104
 30
0.0
 10
1403.425786728802
 20
90.07314949368738
 30
0.0
 10
1403.443270588451
 20
90.10156326146651
 30
0.0
 10
1403.45791946069
 20
90.13172388076296
 30
0.0
 10
1403.469409720866
 20
90.16304494689552
 30
0.0
 10
1403.819269177471
 20
91.11671971225599
 30
0.0
 10
1404.169128634076
 20
92.0703944776165
 30
0.0
 10
1404.518988090681
 20
93.02406924297696
 30
0.0
  0
LINE
  5
21C
330
1F
100
AcDbEntity
  8
0
  6
CONTINUOUS
 62
     7
100
AcDbLine
 10
1406.610508375143
 20
54.3352498073284
 30
0.0
 11
1406.529999277714
 21
54.3352498073284
 31
0.0
  0
LINE
  5
21D
330
1F
100
AcDbEntity
  8
0
  6
CONTINUOUS
 62
     7
100
AcDbLine
 10
594.1149545416973
 20
826.4866060555966
 30
0.0
 11
589.6551363749079
 21
827.5401818332107
 31
0.0
  0
LINE
  5
21E
330
1F
100
AcDbEntity
  8
0
  6
CONTINUOUS
 62
   253
100
AcDbLine
 10
589.6551363749079
 20
827.5401818332107
 30
0.0
 11
603.5
 21
827.5401818332107
 31
0.0
  0
LINE
  5
21F
330
1F
100
AcDbEntity
  8
0
  6
CONTINUOUS
 62
     7
100
AcDbLine
 10
589.6551363749079
 20
836.4598181667894
 30
0.0
 11
594.1149545416973
 21
837.5133939444036
 31
0.0
  0
LINE
  5
220
330
1F
100
AcDbEntity
  8
0
  6
CONTINUOUS
 62
   253
100
AcDbLine
 10
636.4999999999999
 20
818.4598181667894
 30
0.0
 11
603.5
 21
818.4598181667894
 31
0.0
  0
LINE
  5
221
330
1F
100
AcDbEntity
  8
0
  6
CONTINUOUS
 62
     7
100
AcDbLine
 10
589.6551363749079
 20
830.4598181667894
 30
0.0
 11
594.1149545416973
 21
831.5133939444036
 31
0.0
  0
LINE
  5
222
330
1F
100
AcDbEntity
  8
0
  6
CONTINUOUS
 62
   253
100
AcDbLine
 10
636.4999999999999
 20
827.5401818332107
 30
0.0
 11
603.5
 21
827.5401818332107
 31
0.0
  0
LINE
  5
223
330
1F
100
AcDbEntity
  8
0
  6
CONTINUOUS
 62
     7
100
AcDbLine
 10
650.5
 20
848.1
 30
0.0
 11
645.0
 21
848.1
 31
0.0
  0
LINE
  5
224
330
1F
100
AcDbEntity
  8
0
  6
CONTINUOUS
 62
     7
100
AcDbLine
 10
594.1149545416973
 20
814.4866060555966
 30
0.0
 11
589.6551363749079
 21
815.5401818332107
 31
0.0
  0
ARC
  5
225
330
1F
100
AcDbEntity
  8
0
  6
CONTINUOUS
 62
     7
100
AcDbCircle
 10
-590.0
 20
835.0000000000001
 30
0.0
 40
1.500000000000005
210
0.0
220
0.0
230
-1.0
100
AcDbArc
 50
283.2917191676404
 51
76.70828083235665
  0
LINE
  5
226
330
1F
100
AcDbEntity
  8
0
  6
CONTINUOUS
 62
     7
100
AcDbLine
 10
589.6551363749079
 20
812.4598181667894
 30
0.0
 11
594.1149545416973
 21
813.5133939444036
 31
0.0
  0
LINE
  5
227
330
1F
100
AcDbEntity
  8
0
  6
CONTINUOUS
 62
   253
100
AcDbLine
 10
589.6551363749079
 20
836.4598181667894
 30
0.0
 11
603.5
 21
836.4598181667894
 31
0.0
  0
LINE
  5
228
330
1F
100
AcDbEntity
  8
0
  6
CONTINUOUS
 62
   253
100
AcDbLine
 10
636.4999999999999
 20
833.5401818332107
 30
0.0
 11
603.5
 21
833.5401818332107
 31
0.0
  0
ARC
  5
229
330
1F
100
AcDbEntity
  8
0
  6
CONTINUOUS
 62
     7
100
AcDbCircle
 10
-590.0
 20
829.0
 30
0.0
 40
1.500000000000005
210
0.0
220
0.0
230
-1.0
100
AcDbArc
 50
283.2917191676404
 51
76.70828083235665
  0
LINE
  5
22A
330
1F
100
AcDbEntity
  8
0
  6
CONTINUOUS
 62
     7
100
AcDbLine
 10
645.8850454583026
 20
820.4866060555966
 30
0.0
 11
650.344863625092
 21
821.5401818332107
 31
0.0
  0
LINE
  5
22B
330
1F
100
AcDbEntity
  8
0
  6
CONTINUOUS
 62
     7
100
AcDbLine
 10
1403.0
 20
80.83524980732842
 30
0.0
 11
1403.0
 21
84.13381404082875
 31
0.0
  0
ARC
  5
22C
330
1F
100
AcDbEntity
  8
0
  6
CONTINUOUS
 62
     7
100
AcDbCircle
 10
-1391.0
 20
90.33524980732838
 30
0.0
 40
0.4999999999998979
210
0.0
220
0.0
230
-1.0
100
AcDbArc
 50
193.2917191676454
 51
346.7082808323604
  0
LINE
  5
22D
330
1F
100
AcDbEntity
  8
0
  6
CONTINUOUS
 62
     7
100
AcDbLine
 10
764.1
 20
94.83524980732844
 30
0.0
 11
764.1
 21
89.33524980732838
 31
0.0
  0
LINE
  5
22E
330
1F
100
AcDbEntity
  8
0
  6
CONTINUOUS
 62
     7
100
AcDbLine
 10
1420.0
 20
93.33524980732838
 30
0.0
 11
1420.0
 21
89.33524980732842
 31
0.0
  0
LINE
  5
22F
330
1F
100
AcDbEntity
  8
0
  6
CONTINUOUS
 62
     7
100
AcDbLine
 10
1415.9
 20
94.33524980732838
 30
0.0
 11
1419.0
 21
94.33524980732838
 31
0.0
  0
LINE
  5
230
330
1F
100
AcDbEntity
  8
0
  6
CONTINUOUS
 62
     7
100
AcDbLine
 10
1423.5
 20
61.3352498073284
 30
0.0
 11
1463.5
 21
61.3352498073284
 31
0.0
  0
LINE
  5
231
330
1F
100
AcDbEntity
  8
0
  6
CONTINUOUS
 62
     7
100
AcDbLine
 10
1403.0
 20
65.75897283951886
 30
0.0
 11
1403.0
 21
66.03668556502396
 31
0.0
  0
ARC
  5
232
330
1F
100
AcDbEntity
  8
0
  6
CONTINUOUS
 62
     7
100
AcDbCircle
 10
-765.1
 20
55.3352498073284
 30
0.0
 40
1.000000000000001
210
0.0
220
0.0
230
-1.0
100
AcDbArc
 50
270.0000000000001
 51
309.673401600828
  0
LINE
  5
233
330
1F
100
AcDbEntity
  8
0
  6
CONTINUOUS
 62
     7
100
AcDbLine
 10
1465.0
 20
91.33524980732838
 30
0.0
 11
1465.0
 21
90.33524980732838
 31
0.0
  0
LINE
  5
234
330
1F
100
AcDbEntity
  8
0
  6
CONTINUOUS
 62
     7
100
AcDbLine
 10
1384.513393944404
 20
90.22029526563108
 30
0.0
 11
1383.459818166789
 21
94.68011343242044
 31
0.0
  0
LINE
  5
235
330
1F
100
AcDbEntity
  8
0
  6
CONTINUOUS
 62
     7
100
AcDbLine
 10
1378.513393944404
 20
59.95020434902576
 30
0.0
 11
1377.459818166789
 21
55.49038618223634
 31
0.0
  0
LINE
  5
236
330
1F
100
AcDbEntity
  8
0
  6
CONTINUOUS
 62
     7
100
AcDbLine
 10
1465.0
 20
58.3352498073284
 30
0.0
 11
1465.0
 21
57.3352498073284
 31
0.0
  0
LINE
  5
237
330
1F
100
AcDbEntity
  8
0
  6
CONTINUOUS
 62
     7
100
AcDbLine
 10
1403.0
 20
69.33524980732841
 30
0.0
 11
1403.0
 21
80.83524980732842
 31
0.0
  0
LINE
  5
238
330
1F
100
AcDbEntity
  8
0
  6
CONTINUOUS
 62
     7
100
AcDbLine
 10
1403.0
 20
60.3352498073284
 30
0.0
 11
1403.0
 21
60.96159925005534
 31
0.0
  0
LINE
  5
239
330
1F
100
AcDbEntity
  8
0
  6
CONTINUOUS
 62
     7
100
AcDbLine
 10
1423.5
 20
73.33524980732841
 30
0.0
 11
1463.5
 21
73.33524980732841
 31
0.0
  0
SPLINE
  5
23A
330
1F
100
AcDbEntity
  8
0
  6
CONTINUOUS
 62
     7
100
AcDbSpline
210
0.0
220
0.0
230
1.0
 70
     8
 71
     3
 72
    11
 73
     7
 74
     0
 42
0.000000001
 43
0.0001
 40
0.2770779922281502
 40
0.2770779922281502
 40
0.2770779922281502
 40
0.2770779922281502
 40
0.2909829537581343
 40
0.2909829537581343
 40
0.2909829537581343
 40
0.8932815886451344
 40
0.8932815886451344
 40
0.8932815886451344
 40
0.8932815886451344
 10
1403.44977860821
 20
90.09539653706821
 30
0.0
 10
1403.46012540683
 20
90.11636200952877
 30
0.0
 10
1403.469354797852
 20
90.13792677013821
 30
0.0
 10
1403.477380168525
 20
90.1599338774422
 30
0.0
 10
1403.825002115585
 20
91.11318000174212
 30
0.0
 10
1404.172624062644
 20
92.06642612604205
 30
0.0
 10
1404.520246009704
 20
93.01967225034203
 30
0.0
  0
LINE
  5
23B
330
1F
100
AcDbEntity
  8
0
  6
CONTINUOUS
 62
     7
100
AcDbLine
 10
765.1
 20
54.3352498073284
 30
0.0
 11
765.9
 21
54.3352498073284
 31
0.0
  0
LINE
  5
23C
330
1F
100
AcDbEntity
  8
0
  6
CONTINUOUS
 62
     7
100
AcDbLine
 10
1406.536310573855
 20
94.33524980732838
 30
0.0
 11
1413.1
 21
94.33524980732838
 31
0.0
  0
LINE
  5
23D
330
1F
100
AcDbEntity
  8
0
  6
CONTINUOUS
 62
     7
100
AcDbLine
 10
1414.1
 20
54.3352498073284
 30
0.0
 11
1406.610508375143
 21
54.3352498073284
 31
0.0
  0
LINE
  5
23E
330
1F
100
AcDbEntity
  8
0
  6
CONTINUOUS
 62
     7
100
AcDbLine
 10
1404.599722430448
 20
55.81176982161923
 30
0.0
 11
1404.599672021548
 21
55.81195573296227
 31
0.0
  0
LINE
  5
23F
330
1F
100
AcDbEntity
  8
0
  6
CONTINUOUS
 62
     7
100
AcDbLine
 10
765.1
 20
95.83524980732844
 30
0.0
 11
765.9
 21
95.83524980732844
 31
0.0
  0
LINE
  5
240
330
1F
100
AcDbEntity
  8
0
  6
CONTINUOUS
 62
     7
100
AcDbLine
 10
1403.0
 20
89.20890036441386
 30
0.0
 11
1403.0
 21
89.83524980732842
 31
0.0
  0
ARC
  5
241
330
1F
100
AcDbEntity
  8
0
  6
CONTINUOUS
 62
     7
100
AcDbCircle
 10
-1406.396626989739
 20
92.33524978819219
 30
0.0
 40
2.000000019136233
210
0.0
220
0.0
230
-1.0
100
AcDbArc
 50
20.14576730378817
 51
90.00000015613345
  0
ARC
  5
242
330
1F
100
AcDbEntity
  8
0
  6
CONTINUOUS
 62
     7
100
AcDbCircle
 10
1419.0
 20
55.3352498073284
 30
0.0
 40
1.000000000000001
100
AcDbArc
 50
270.0
 51
0.0000000000000568
  0
LWPOLYLINE
  5
243
330
1F
100
AcDbEntity
  8
0
  6
CONTINUOUS
 62
     7
100
AcDbPolyline
 90
       96
 70
     0
 43
0.0
 10
764.1
 20
56.02806066849769
 42
0.0512868295824887
 10
764.172965318999
 20
55.12897705136371
 42
0.0779317335237178
 10
764.3098548877091
 20
54.74846301309627
 10
764.311338416989
 20
54.74592121071264
 10
764.312829175924
 20
54.74338759300995
 10
764.3143271939985
 20
54.74086216828727
 10
764.3158325006966
 20
54.73834494484381
 10
764.3173451255027
 20
54.73583593097864
 10
764.3188650979012
 20
54.73333513499101
 10
764.3203924473759
 20
54.73084256517996
 10
764.3218643400502
 20
54.72845959022887
 10
764.3233431146514
 20
54.7260841339291
 10
764.3248288028229
 20
54.72371620342103
 10
764.3263214362086
 20
54.72135580584531
 10
764.3278210464518
 20
54.71900294834236
 10
764.3293276651966
 20
54.71665763805261
 10
764.3308413240864
 20
54.71431988211667
 10
764.3323620547646
 20
54.71198968767499
 10
764.3338898888753
 20
54.70966706186802
 10
764.3354248580619
 20
54.70735201183629
 10
764.336966993968
 20
54.70504454472024
 10
764.3385163282373
 20
54.7027446676605
 10
764.3400728925136
 20
54.70045238779741
 10
764.3416367184402
 20
54.69816771227159
 10
764.3432078376612
 20
54.69589064822344
 10
764.3447862818198
 20
54.69362120279347
 10
764.3463720825598
 20
54.6913593831222
 10
764.3479652715249
 20
54.68910519635012
 10
764.3495658803588
 20
54.6868586496177
 10
764.351173940705
 20
54.68461975006544
 10
764.3527618107884
 20
54.68242657759398
 10
764.354356987606
 20
54.68024075483812
 10
764.3559595068896
 20
54.67806228852606
 10
764.3575694043709
 20
54.67589118538596
 10
764.3591867157814
 20
54.67372745214588
 10
764.3608114768533
 20
54.67157109553406
 10
764.3624437233177
 20
54.66942212227854
 10
764.3640834909068
 20
54.66728053910763
 10
764.3657308153521
 20
54.66514635274932
 10
764.3673857323854
 20
54.66301956993191
 10
764.3690482777382
 20
54.6609001973834
 10
764.3707184871424
 20
54.65878824183207
 10
764.3723963963298
 20
54.65668371000598
 10
764.3739614022466
 20
54.65473612839927
 10
764.3755331388159
 20
54.65279492360897
 10
764.3771116390958
 20
54.6508601010618
 10
764.3786969361448
 20
54.6489316661844
 10
764.3802890630211
 20
54.64700962440339
 10
764.3818880527832
 20
54.64509398114547
 10
764.383493938489
 20
54.64318474183732
 10
764.3851067531972
 20
54.64128191190559
 10
764.3867265299659
 20
54.639385496777
 10
764.3883533018535
 20
54.63749550187807
 10
764.3899871019183
 20
54.63561193263561
 10
764.3916279632184
 20
54.6337347944762
 10
764.3932759188125
 20
54.63186409282655
 10
764.3949310017586
 20
54.62999983311334
 10
764.3965932715761
 20
54.62814199160154
 10
764.3982627721219
 20
54.62629056629542
 10
764.399939541908
 20
54.6244455627507
 10
764.4016236194461
 20
54.62260698652332
 10
764.4033150432483
 20
54.62077484316896
 10
764.4050138518263
 20
54.61894913824361
 10
764.4067200836921
 20
54.61712987730294
 10
764.4084337773576
 20
54.61531706590284
 10
764.4101549713346
 20
54.61351070959913
 10
764.411883704135
 20
54.61171081394767
 10
764.4136200142709
 20
54.60991738450427
 10
764.415363940254
 20
54.60813042682467
 10
764.4171155205962
 20
54.6063499464648
 10
764.4188747938096
 20
54.60457594898044
 10
764.4205325944425
 20
54.60291726290784
 10
764.422197272054
 20
54.60126426024908
 10
764.4238688640462
 20
54.59961694580623
 10
764.4255474078216
 20
54.59797532438159
 10
764.427232940782
 20
54.59633940077724
 10
764.4289255003303
 20
54.59470917979547
 10
764.4306251238681
 20
54.59308466623835
 10
764.4323318487982
 20
54.59146586490815
 10
764.4340457125224
 20
54.58985278060696
 10
764.4357667524434
 20
54.58824541813706
 10
764.4374950059632
 20
54.58664378230055
 10
764.4392305104841
 20
54.5850478778997
 10
764.4409733034084
 20
54.58345770973661
 10
764.4427234221383
 20
54.58187328261349
 10
764.4444809040762
 20
54.58029460133257
 10
764.4461607705906
 20
54.5787971602501
 10
764.4478474085364
 20
54.57730491335511
 10
764.449540853959
 20
54.57581786497534
 10
764.4512411429039
 20
54.57433601943862
 10
764.4529483114165
 20
54.5728593810727
 10
764.4546625248441
 20
54.57138784387833
 10
764.4563837052497
 20
54.56992151275358
 10
764.4581118907381
 20
54.56846039214314
 10
764.4598471194136
 20
54.5670044864916
 10
764.4615894293812
 20
54.56555380024369
  0
LINE
  5
244
330
1F
100
AcDbEntity
  8
0
  6
CONTINUOUS
 62
     7
100
AcDbLine
 10
1396.513393944403
 20
90.22029526563108
 30
0.0
 11
1395.459818166789
 21
94.68011343242044
 31
0.0
  0
LINE
  5
245
330
1F
100
AcDbEntity
  8
0
  6
CONTINUOUS
 62
     7
100
AcDbLine
 10
1403.0
 20
84.13381404082875
 30
0.0
 11
1403.0
 21
84.4115267630089
 31
0.0
  0
LINE
  5
246
330
1F
100
AcDbEntity
  8
0
  6
CONTINUOUS
 62
     7
100
AcDbLine
 10
1423.5
 20
73.33524980732841
 30
0.0
 11
1423.5
 21
61.3352498073284
 31
0.0
  0
LINE
  5
247
330
1F
100
AcDbEntity
  8
0
  6
CONTINUOUS
 62
     7
100
AcDbLine
 10
1390.513393944404
 20
90.22029526563108
 30
0.0
 11
1389.459818166789
 21
94.68011343242044
 31
0.0
  0
LINE
  5
248
330
1F
100
AcDbEntity
  8
0
  6
CONTINUOUS
 62
     7
100
AcDbLine
 10
1402.513393944404
 20
59.95020434902576
 30
0.0
 11
1401.459818166789
 21
55.49038618223634
 31
0.0
  0
LINE
  5
249
330
1F
100
AcDbEntity
  8
0
  6
CONTINUOUS
 62
     7
100
AcDbLine
 10
1380.54018183321
 20
55.49038618223634
 30
0.0
 11
1379.486606055596
 21
59.95020434902576
 31
0.0
  0
LINE
  5
24A
330
1F
100
AcDbEntity
  8
0
  6
CONTINUOUS
 62
     7
100
AcDbLine
 10
1420.5
 20
85.38246623098078
 30
0.0
 11
1420.5
 21
86.6503513562616
 31
0.0
  0
LINE
  5
24B
330
1F
100
AcDbEntity
  8
0
  6
CONTINUOUS
 62
     7
100
AcDbLine
 10
766.9
 20
89.33524980732838
 30
0.0
 11
766.9
 21
94.83524980732844
 31
0.0
  0
LINE
  5
24C
330
1F
100
AcDbEntity
  8
0
  6
CONTINUOUS
 62
     7
100
AcDbLine
 10
1420.0
 20
89.33524980732842
 30
0.0
 11
1420.0
 21
59.3352498073284
 31
0.0
  0
LINE
  5
24D
330
1F
100
AcDbEntity
  8
0
  6
CONTINUOUS
 62
     7
100
AcDbLine
 10
1403.505469606401
 20
59.84813791693338
 30
0.0
 11
1404.599672021548
 21
55.81195573296221
 31
0.0
  0
LINE
  5
24E
330
1F
100
AcDbEntity
  8
0
  6
CONTINUOUS
 62
     7
100
AcDbLine
 10
1465.0
 20
57.3352498073284
 30
0.0
 11
1420.5
 21
57.33524980732846
 31
0.0
  0
LINE
  5
24F
330
1F
100
AcDbEntity
  8
0
  6
CONTINUOUS
 62
     7
100
AcDbLine
 10
1398.540181833211
 20
55.49038618223634
 30
0.0
 11
1397.486606055597
 21
59.95020434902576
 31
0.0
  0
LINE
  5
250
330
1F
100
AcDbEntity
  8
0
  6
CONTINUOUS
 62
     7
100
AcDbLine
 10
1420.5
 20
58.3352498073284
 30
0.0
 11
1420.5
 21
57.3352498073284
 31
0.0
  0
LINE
  5
251
330
1F
100
AcDbEntity
  8
0
  6
CONTINUOUS
 62
     7
100
AcDbLine
 10
1420.5
 20
91.33524980732838
 30
0.0
 11
1420.5
 21
90.33524980732838
 31
0.0
  0
LINE
  5
252
330
1F
100
AcDbEntity
  8
0
  6
CONTINUOUS
 62
   253
100
AcDbLine
 10
784.5401818332106
 20
69.33524980732841
 30
0.0
 11
784.5401818332106
 21
80.83524980732842
 31
0.0
  0
LINE
  5
253
330
1F
100
AcDbEntity
  8
0
  6
CONTINUOUS
 62
     7
100
AcDbLine
 10
766.9
 20
59.3352498073284
 30
0.0
 11
766.9
 21
89.33524980732838
 31
0.0
  0
LINE
  5
254
330
1F
100
AcDbEntity
  8
0
  6
CONTINUOUS
 62
     7
100
AcDbLine
 10
1390.513393944404
 20
59.95020434902576
 30
0.0
 11
1389.459818166789
 21
55.49038618223634
 31
0.0
  0
LINE
  5
255
330
1F
100
AcDbEntity
  8
0
  6
CONTINUOUS
 62
     7
100
AcDbLine
 10
1465.0
 20
85.38246623098078
 30
0.0
 11
1465.0
 21
86.6503513562616
 31
0.0
  0
LINE
  5
256
330
1F
100
AcDbEntity
  8
0
  6
CONTINUOUS
 62
     7
100
AcDbLine
 10
1392.540181833211
 20
55.49038618223634
 30
0.0
 11
1391.486606055596
 21
59.95020434902576
 31
0.0
  0
ARC
  5
257
330
1F
100
AcDbEntity
  8
0
  6
CONTINUOUS
 62
     7
100
AcDbCircle
 10
-1419.0
 20
93.33524980732838
 30
0.0
 40
1.000000000000001
210
0.0
220
0.0
230
-1.0
100
AcDbArc
 50
90.0
 51
180.0
  0
LINE
  5
258
330
1F
100
AcDbEntity
  8
0
  6
CONTINUOUS
 62
     7
100
AcDbLine
 10
1392.540181833211
 20
94.68011343242044
 30
0.0
 11
1391.486606055596
 21
90.22029526563102
 31
0.0
  0
LINE
  5
259
330
1F
100
AcDbEntity
  8
0
  6
CONTINUOUS
 62
     7
100
AcDbLine
 10
1420.5
 20
75.67014825839524
 30
0.0
 11
1420.5
 21
58.3352498073284
 31
0.0
  0
LINE
  5
25A
330
1F
100
AcDbEntity
  8
0
  6
CONTINUOUS
 62
     7
100
AcDbLine
 10
764.1
 20
59.3352498073284
 30
0.0
 11
764.1
 21
56.02806066849769
 31
0.0
  0
LINE
  5
25B
330
1F
100
AcDbEntity
  8
0
  6
CONTINUOUS
 62
   253
100
AcDbLine
 10
778.5401818332106
 20
69.33524980732841
 30
0.0
 11
778.5401818332106
 21
80.83524980732842
 31
0.0
  0
LINE
  5
25C
330
1F
100
AcDbEntity
  8
0
  6
CONTINUOUS
 62
     7
100
AcDbLine
 10
1378.513393944404
 20
90.22029526563108
 30
0.0
 11
1377.459818166789
 21
94.68011343242044
 31
0.0
  0
LINE
  5
25D
330
1F
100
AcDbEntity
  8
0
  6
CONTINUOUS
 62
     7
100
AcDbLine
 10
1403.0
 20
66.03668556502396
 30
0.0
 11
1403.0
 21
69.33524980732841
 31
0.0
  0
LINE
  5
25E
330
1F
100
AcDbEntity
  8
0
  6
CONTINUOUS
 62
     7
100
AcDbLine
 10
764.1
 20
89.33524980732838
 30
0.0
 11
764.1
 21
59.3352498073284
 31
0.0
  0
LINE
  5
25F
330
1F
100
AcDbEntity
  8
0
  6
CONTINUOUS
 62
     7
100
AcDbLine
 10
1386.540181833211
 20
94.68011343242044
 30
0.0
 11
1385.486606055597
 21
90.22029526563102
 31
0.0
  0
ARC
  5
260
330
1F
100
AcDbEntity
  8
0
  6
CONTINUOUS
 62
     7
100
AcDbCircle
 10
765.9
 20
94.83524980732844
 30
0.0
 40
1.000000000000001
100
AcDbArc
 50
0.0
 51
90.0
  0
LINE
  5
261
330
1F
100
AcDbEntity
  8
0
  6
CONTINUOUS
 62
     7
100
AcDbLine
 10
1386.540181833211
 20
55.49038618223634
 30
0.0
 11
1385.486606055597
 21
59.95020434902576
 31
0.0
  0
LINE
  5
262
330
1F
100
AcDbEntity
  8
0
  6
CONTINUOUS
 62
     7
100
AcDbLine
 10
1396.513393944403
 20
59.95020434902576
 30
0.0
 11
1395.459818166789
 21
55.49038618223634
 31
0.0
  0
LINE
  5
263
330
1F
100
AcDbEntity
  8
0
  6
CONTINUOUS
 62
     7
100
AcDbLine
 10
1384.513393944403
 20
59.95020434902576
 30
0.0
 11
1383.459818166789
 21
55.49038618223634
 31
0.0
  0
LINE
  5
264
330
1F
100
AcDbEntity
  8
0
  6
CONTINUOUS
 62
   253
100
AcDbLine
 10
790.5401818332106
 20
69.33524980732841
 30
0.0
 11
790.5401818332106
 21
80.83524980732842
 31
0.0
  0
LINE
  5
265
330
1F
100
AcDbEntity
  8
0
  6
CONTINUOUS
 62
     7
100
AcDbLine
 10
1403.0
 20
60.96159925005534
 30
0.0
 11
1403.0
 21
61.07643269464097
 31
0.0
  0
LINE
  5
266
330
1F
100
AcDbEntity
  8
0
  6
CONTINUOUS
 62
     7
100
AcDbLine
 10
1420.0
 20
59.3352498073284
 30
0.0
 11
1420.0
 21
55.3352498073284
 31
0.0
  0
LINE
  5
267
330
1F
100
AcDbEntity
  8
0
  6
CONTINUOUS
 62
   253
100
AcDbLine
 10
793.4598181667894
 20
69.33524980732841
 30
0.0
 11
793.4598181667894
 21
80.83524980732842
 31
0.0
  0
LINE
  5
268
330
1F
100
AcDbEntity
  8
0
  6
CONTINUOUS
 62
     7
100
AcDbLine
 10
1398.540181833211
 20
94.68011343242044
 30
0.0
 11
1397.486606055597
 21
90.22029526563102
 31
0.0
  0
LINE
  5
269
330
1F
100
AcDbEntity
  8
0
  6
CONTINUOUS
 62
     7
100
AcDbLine
 10
1380.54018183321
 20
94.68011343242044
 30
0.0
 11
1379.486606055596
 21
90.22029526563102
 31
0.0
  0
LINE
  5
26A
330
1F
100
AcDbEntity
  8
0
  6
CONTINUOUS
 62
   253
100
AcDbLine
 10
781.4598181667894
 20
69.33524980732841
 30
0.0
 11
781.4598181667894
 21
80.83524980732842
 31
0.0
  0
ARC
  5
26B
330
1F
100
AcDbEntity
  8
0
  6
CONTINUOUS
 62
     7
100
AcDbCircle
 10
786.0
 20
94.33524980732838
 30
0.0
 40
1.500000000000018
100
AcDbArc
 50
13.29171916764209
 51
166.708280832358
  0
LWPOLYLINE
  5
26C
330
1F
100
AcDbEntity
  8
0
  6
CONTINUOUS
 62
     7
100
AcDbPolyline
 90
       97
 70
     0
 43
0.0
 10
766.5384105706188
 20
54.56555380024369
 10
766.5401527553931
 20
54.56700438185241
 10
766.541887859892
 20
54.56846018211309
 10
766.5436159222118
 20
54.56992119658194
 10
766.545336980449
 20
54.57138742081541
 10
766.5470510727002
 20
54.57285885036978
 10
766.5487583663773
 20
54.57433559337655
 10
766.5504587794849
 20
54.57581754430496
 10
766.5521523480762
 20
54.57730469882621
 10
766.5538391082048
 20
54.5787970526117
 10
766.5555190959238
 20
54.58029460133257
 10
766.5571633712156
 20
54.58177122149188
 10
766.5588011904341
 20
54.58325286341792
 10
766.560432585323
 20
54.58473952312892
 10
766.5620575876252
 20
54.58623119664302
 10
766.5636762290841
 20
54.58772787997834
 10
766.5652885414428
 20
54.58922956915308
 10
766.5668945564446
 20
54.5907362601854
 10
766.5684943058327
 20
54.5922479490934
 10
766.5700878213505
 20
54.5937646318953
 10
766.5716751405303
 20
54.59528631069554
 10
766.5732563042297
 20
54.59681299265728
 10
766.5748313413667
 20
54.59834467392288
 10
766.5764002808587
 20
54.59988135063476
 10
766.5779631516232
 20
54.60142301893522
 10
766.5795199825778
 20
54.60296967496681
 10
766.5810708026403
 20
54.60452131487175
 10
766.5826156407279
 20
54.60607793479255
 10
766.5841545257585
 20
54.60763953087161
 10
766.5858786988532
 20
54.60940227777178
 10
766.5875954322398
 20
54.61117133336507
 10
766.5893047635345
 20
54.61294669228683
 10
766.5910067303533
 20
54.61472834917247
 10
766.5927013703124
 20
54.61651629865732
 10
766.5943887210277
 20
54.61831053537674
 10
766.5960688201154
 20
54.62011105396608
 10
766.5977417051914
 20
54.62191784906079
 10
766.5994107035622
 20
54.62373451056301
 10
766.6010725506046
 20
54.62555748323616
 10
766.6027272809816
 20
54.62738676177248
 10
766.604374929356
 20
54.62922234086415
 10
766.6060155303903
 20
54.63106421520325
 10
766.6076491187471
 20
54.63291237948204
 10
766.6092757290893
 20
54.63476682839264
 10
766.6108953960795
 20
54.63662755662729
 10
766.612620331687
 20
54.63862494896804
 10
766.6143374360273
 20
54.64062955002485
 10
766.6160467463001
 20
54.64264135338959
 10
766.6177482997055
 20
54.64466035265409
 10
766.6194421334432
 20
54.64668654141036
 10
766.6211282847131
 20
54.64871991325015
 10
766.6228067907151
 20
54.65076046176542
 10
766.624477688649
 20
54.65280818054801
 10
766.626141015715
 20
54.65486306318984
 10
766.6277968091125
 20
54.65692510328274
 10
766.6294451060418
 20
54.65899429441862
 10
766.6310859437024
 20
54.66107063018938
 10
766.6327193592946
 20
54.66315410418682
 10
766.6343453900179
 20
54.66524471000284
 10
766.6359640730723
 20
54.66734244122939
 10
766.6375754456578
 20
54.66944729145828
 10
766.6391795487676
 20
54.67155926136002
 10
766.6407764449327
 20
54.67367838495807
 10
766.6423661655201
 20
54.67580465585625
 10
766.6439487418966
 20
54.6779380676583
 10
766.6455242054287
 20
54.68007861396817
 10
766.6470925874833
 20
54.68222628838964
 10
766.6486539194273
 20
54.68438108452656
 10
766.6502082326273
 20
54.68654299598269
 10
766.6517555584501
 20
54.68871201636194
 10
766.6532959282624
 20
54.69088813926809
 10
766.6548293734311
 20
54.69307135830503
 10
766.6563559253229
 20
54.6952616670765
 10
766.6578756153046
 20
54.69745905918644
 10
766.659388474743
 20
54.69966352823857
 10
766.6608945350047
 20
54.7018750678368
 10
766.6623938274566
 20
54.70409367158491
 10
766.6639856551377
 20
54.70646797342571
 10
766.6655698851348
 20
54.70885035034262
 10
766.6671465498985
 20
54.71124079447564
 10
766.6687156818796
 20
54.71363929796491
 10
766.6702773135288
 20
54.71604585295031
 10
766.671831477297
 20
54.71846045157186
 10
766.6733782056349
 20
54.72088308596967
 10
766.6749175309933
 20
54.72331374828365
 10
766.6764494858228
 20
54.72575243065386
 10
766.6779741025744
 20
54.72819912522031
 10
766.6794914136987
 20
54.73065382412301
 10
766.6810014516465
 20
54.73311651950191
 10
766.6825042488687
 20
54.73558720349714
 10
766.6839998378158
 20
54.73806586824864
 10
766.6854882509386
 20
54.74055250589643
 10
766.6869798854012
 20
54.74306463606066
 10
766.6884643353353
 20
54.74558488810954
 10
766.6899416292675
 20
54.74811325383932
 42
0.092802765044043
 10
766.8544782980176
 20
55.28003186598945
 42
0.0367309460883445
 10
766.9
 20
56.02806066849768
  0
LINE
  5
26D
330
1F
100
AcDbEntity
  8
0
  6
CONTINUOUS
 62
     7
100
AcDbLine
 10
1420.5
 20
57.8352498073284
 30
0.0
 11
1420.0
 21
57.8352498073284
 31
0.0
  0
ARC
  5
26E
330
1F
100
AcDbEntity
  8
0
  6
CONTINUOUS
 62
     7
100
AcDbCircle
 10
780.0
 20
94.33524980732838
 30
0.0
 40
1.500000000000018
100
AcDbArc
 50
13.29171916764209
 51
166.708280832358
  0
ARC
  5
26F
330
1F
100
AcDbEntity
  8
0
  6
CONTINUOUS
 62
     7
100
AcDbCircle
 10
-1403.0
 20
90.33524980732838
 30
0.0
 40
0.4999999999999449
210
0.0
220
0.0
230
-1.0
100
AcDbArc
 50
270.0
 51
346.7082808323581
  0
ARC
  5
270
330
1F
100
AcDbEntity
  8
0
  6
CONTINUOUS
 62
     7
100
AcDbCircle
 10
1391.0
 20
59.8352498073284
 30
0.0
 40
0.4999999999998979
100
AcDbArc
 50
13.29171916764538
 51
166.7082808323605
  0
LINE
  5
271
330
1F
100
AcDbEntity
  8
0
  6
CONTINUOUS
 62
     7
100
AcDbLine
 10
802.5401818332106
 20
55.49038618223634
 30
0.0
 11
801.4866060555966
 21
59.95020434902576
 31
0.0
  0
ARC
  5
272
330
1F
100
AcDbEntity
  8
0
  6
CONTINUOUS
 62
     7
100
AcDbCircle
 10
792.0
 20
94.33524980732838
 30
0.0
 40
1.500000000000018
100
AcDbArc
 50
13.29171916764209
 51
166.708280832358
  0
ARC
  5
273
330
1F
100
AcDbEntity
  8
0
  6
CONTINUOUS
 62
     7
100
AcDbCircle
 10
1385.0
 20
59.8352498073284
 30
0.0
 40
0.5000000000001187
100
AcDbArc
 50
13.29171916764187
 51
166.7082808323573
  0
ARC
  5
274
330
1F
100
AcDbEntity
  8
0
  6
CONTINUOUS
 62
     7
100
AcDbCircle
 10
1397.0
 20
59.8352498073284
 30
0.0
 40
0.5000000000001139
100
AcDbArc
 50
13.29171916763954
 51
166.708280832355
  0
LINE
  5
275
330
1F
100
AcDbEntity
  8
0
  6
CONTINUOUS
 62
     7
100
AcDbLine
 10
1420.5
 20
85.87439954917286
 30
0.0
 11
1420.0
 21
85.87439954917286
 31
0.0
  0
LINE
  5
276
330
1F
100
AcDbEntity
  8
0
  6
CONTINUOUS
 62
     7
100
AcDbLine
 10
1403.0
 20
89.09406689617083
 30
0.0
 11
1403.0
 21
89.20890036441386
 31
0.0
  0
LINE
  5
277
330
1F
100
AcDbEntity
  8
0
  6
CONTINUOUS
 62
   253
100
AcDbLine
 10
778.5401818332106
 20
80.83524980732842
 30
0.0
 11
778.5401818332106
 21
94.68011343242044
 31
0.0
  0
LINE
  5
278
330
1F
100
AcDbEntity
  8
0
  6
CONTINUOUS
 62
     7
100
AcDbLine
 10
1465.0
 20
75.67014825839524
 30
0.0
 11
1465.0
 21
58.3352498073284
 31
0.0
  0
LINE
  5
279
330
1F
100
AcDbEntity
  8
0
  6
CONTINUOUS
 62
   253
100
AcDbLine
 10
790.5401818332106
 20
80.83524980732842
 30
0.0
 11
790.5401818332106
 21
94.68011343242044
 31
0.0
  0
LINE
  5
27A
330
1F
100
AcDbEntity
  8
0
  6
CONTINUOUS
 62
   253
100
AcDbLine
 10
796.5401818332106
 20
55.49038618223634
 30
0.0
 11
796.5401818332106
 21
69.33524980732841
 31
0.0
  0
LINE
  5
27B
330
1F
100
AcDbEntity
  8
0
  6
CONTINUOUS
 62
   253
100
AcDbLine
 10
799.4598181667894
 20
69.33524980732841
 30
0.0
 11
799.4598181667894
 21
80.83524980732842
 31
0.0
  0
ARC
  5
27C
330
1F
100
AcDbEntity
  8
0
  6
CONTINUOUS
 62
     7
100
AcDbCircle
 10
-792.0
 20
55.8352498073284
 30
0.0
 40
1.500000000000018
210
0.0
220
0.0
230
-1.0
100
AcDbArc
 50
193.291719167642
 51
346.7082808323581
  0
LINE
  5
27D
330
1F
100
AcDbEntity
  8
0
  6
CONTINUOUS
 62
   253
100
AcDbLine
 10
781.4598181667894
 20
80.83524980732842
 30
0.0
 11
781.4598181667894
 21
94.68011343242044
 31
0.0
  0
LINE
  5
27E
330
1F
100
AcDbEntity
  8
0
  6
CONTINUOUS
 62
     7
100
AcDbLine
 10
1465.0
 20
85.38246623098078
 30
0.0
 11
1465.0
 21
76.93803338367606
 31
0.0
  0
LINE
  5
27F
330
1F
100
AcDbEntity
  8
0
  6
CONTINUOUS
 62
   253
100
AcDbLine
 10
790.5401818332106
 20
55.49038618223634
 30
0.0
 11
790.5401818332106
 21
69.33524980732841
 31
0.0
  0
ARC
  5
280
330
1F
100
AcDbEntity
  8
0
  6
CONTINUOUS
 62
     7
100
AcDbCircle
 10
-798.0
 20
55.8352498073284
 30
0.0
 40
1.500000000000018
210
0.0
220
0.0
230
-1.0
100
AcDbArc
 50
193.291719167642
 51
346.7082808323581
  0
LINE
  5
281
330
1F
100
AcDbEntity
  8
0
  6
CONTINUOUS
 62
     7
100
AcDbLine
 10
788.5133939444036
 20
59.95020434902576
 30
0.0
 11
787.4598181667894
 21
55.49038618223634
 31
0.0
  0
LINE
  5
282
330
1F
100
AcDbEntity
  8
0
  6
CONTINUOUS
 62
   253
100
AcDbLine
 10
784.5401818332106
 20
80.83524980732842
 30
0.0
 11
784.5401818332106
 21
94.68011343242044
 31
0.0
  0
LINE
  5
283
330
1F
100
AcDbEntity
  8
0
  6
CONTINUOUS
 62
   253
100
AcDbLine
 10
787.4598181667894
 20
80.83524980732842
 30
0.0
 11
787.4598181667894
 21
94.68011343242044
 31
0.0
  0
ARC
  5
284
330
1F
100
AcDbEntity
  8
0
  6
CONTINUOUS
 62
     7
100
AcDbCircle
 10
798.0
 20
94.33524980732838
 30
0.0
 40
1.500000000000018
100
AcDbArc
 50
13.29171916764209
 51
166.708280832358
  0
LINE
  5
285
330
1F
100
AcDbEntity
  8
0
  6
CONTINUOUS
 62
   253
100
AcDbLine
 10
787.4598181667894
 20
55.49038618223634
 30
0.0
 11
787.4598181667894
 21
69.33524980732841
 31
0.0
  0
LINE
  5
286
330
1F
100
AcDbEntity
  8
0
  6
CONTINUOUS
 62
   253
100
AcDbLine
 10
793.4598181667894
 20
80.83524980732842
 30
0.0
 11
793.4598181667894
 21
94.68011343242044
 31
0.0
  0
LINE
  5
287
330
1F
100
AcDbEntity
  8
0
  6
CONTINUOUS
 62
     7
100
AcDbLine
 10
1403.0
 20
87.21761994962922
 30
0.0
 11
1403.0
 21
89.09406689617083
 31
0.0
  0
LINE
  5
288
330
1F
100
AcDbEntity
  8
0
  6
CONTINUOUS
 62
     7
100
AcDbLine
 10
1402.513393944404
 20
90.22029526563108
 30
0.0
 11
1401.459818166789
 21
94.68011343242044
 31
0.0
  0
ARC
  5
289
330
1F
100
AcDbEntity
  8
0
  6
CONTINUOUS
 62
     7
100
AcDbCircle
 10
-1397.0
 20
90.33524980732838
 30
0.0
 40
0.5000000000001139
210
0.0
220
0.0
230
-1.0
100
AcDbArc
 50
193.2917191676395
 51
346.708280832355
  0
LINE
  5
28A
330
1F
100
AcDbEntity
  8
0
  6
CONTINUOUS
 62
   253
100
AcDbLine
 10
799.4598181667894
 20
55.49038618223634
 30
0.0
 11
799.4598181667894
 21
69.33524980732841
 31
0.0
  0
ARC
  5
28B
330
1F
100
AcDbEntity
  8
0
  6
CONTINUOUS
 62
     7
100
AcDbCircle
 10
1403.0
 20
59.8352498073284
 30
0.0
 40
0.5000000000000004
100
AcDbArc
 50
90.0
 51
166.7082808323557
  0
LINE
  5
28C
330
1F
100
AcDbEntity
  8
0
  6
CONTINUOUS
 62
     7
100
AcDbLine
 10
1465.0
 20
76.93803338367606
 30
0.0
 11
1465.0
 21
75.67014825839524
 31
0.0
  0
LINE
  5
28D
330
1F
100
AcDbEntity
  8
0
  6
CONTINUOUS
 62
   253
100
AcDbLine
 10
1465.0
 20
75.67014825839524
 30
0.0
 11
1420.5
 21
75.67014825839524
 31
0.0
  0
LINE
  5
28E
330
1F
100
AcDbEntity
  8
0
  6
CONTINUOUS
 62
     7
100
AcDbLine
 10
766.9
 20
56.02806066849764
 30
0.0
 11
766.9
 21
59.3352498073284
 31
0.0
  0
ARC
  5
28F
330
1F
100
AcDbEntity
  8
0
  6
CONTINUOUS
 62
     7
100
AcDbCircle
 10
-780.0
 20
55.8352498073284
 30
0.0
 40
1.500000000000018
210
0.0
220
0.0
230
-1.0
100
AcDbArc
 50
193.291719167642
 51
346.7082808323581
  0
ARC
  5
290
330
1F
100
AcDbEntity
  8
0
  6
CONTINUOUS
 62
     7
100
AcDbCircle
 10
-1385.0
 20
90.33524980732838
 30
0.0
 40
0.5000000000001139
210
0.0
220
0.0
230
-1.0
100
AcDbArc
 50
193.2917191676395
 51
346.708280832355
  0
LINE
  5
291
330
1F
100
AcDbEntity
  8
0
  6
CONTINUOUS
 62
   253
100
AcDbLine
 10
784.5401818332106
 20
55.49038618223634
 30
0.0
 11
784.5401818332106
 21
69.33524980732841
 31
0.0
  0
LINE
  5
292
330
1F
100
AcDbEntity
  8
0
  6
CONTINUOUS
 62
     7
100
AcDbLine
 10
1403.0
 20
62.95293409611456
 30
0.0
 11
1403.0
 21
65.75897283951886
 31
0.0
  0
LINE
  5
293
330
1F
100
AcDbEntity
  8
0
  6
CONTINUOUS
 62
   253
100
AcDbLine
 10
1465.0
 20
85.38246623098078
 30
0.0
 11
1420.5
 21
85.38246623098078
 31
0.0
  0
LINE
  5
294
330
1F
100
AcDbEntity
  8
0
  6
CONTINUOUS
 62
   253
100
AcDbLine
 10
799.4598181667894
 20
80.83524980732842
 30
0.0
 11
799.4598181667894
 21
94.68011343242044
 31
0.0
  0
LINE
  5
295
330
1F
100
AcDbEntity
  8
0
  6
CONTINUOUS
 62
     7
100
AcDbLine
 10
1403.0
 20
61.07643269464097
 30
0.0
 11
1403.0
 21
62.95288404957207
 31
0.0
  0
LINE
  5
296
330
1F
100
AcDbEntity
  8
0
  6
CONTINUOUS
 62
     7
100
AcDbLine
 10
794.5133939444036
 20
90.22029526563108
 30
0.0
 11
793.4598181667894
 21
94.68011343242044
 31
0.0
  0
LINE
  5
297
330
1F
100
AcDbEntity
  8
0
  6
CONTINUOUS
 62
     7
100
AcDbLine
 10
802.5401818332106
 20
94.68011343242044
 30
0.0
 11
801.4866060555966
 21
90.22029526563102
 31
0.0
  0
LINE
  5
298
330
1F
100
AcDbEntity
  8
0
  6
CONTINUOUS
 62
     7
100
AcDbLine
 10
778.5401818332106
 20
94.68011343242044
 30
0.0
 11
777.4866060555964
 21
90.22029526563102
 31
0.0
  0
LINE
  5
299
330
1F
100
AcDbEntity
  8
0
  6
CONTINUOUS
 62
     7
100
AcDbLine
 10
794.5133939444036
 20
59.95020434902576
 30
0.0
 11
793.4598181667894
 21
55.49038618223634
 31
0.0
  0
LINE
  5
29A
330
1F
100
AcDbEntity
  8
0
  6
CONTINUOUS
 62
     7
100
AcDbLine
 10
796.5401818332106
 20
94.68011343242044
 30
0.0
 11
795.4866060555964
 21
90.22029526563102
 31
0.0
  0
LINE
  5
29B
330
1F
100
AcDbEntity
  8
0
  6
CONTINUOUS
 62
   253
100
AcDbLine
 10
796.5401818332106
 20
69.33524980732841
 30
0.0
 11
796.5401818332106
 21
80.83524980732842
 31
0.0
  0
LINE
  5
29C
330
1F
100
AcDbEntity
  8
0
  6
CONTINUOUS
 62
     7
100
AcDbLine
 10
1463.5
 20
73.33524980732841
 30
0.0
 11
1463.5
 21
61.3352498073284
 31
0.0
  0
LINE
  5
29D
330
1F
100
AcDbEntity
  8
0
  6
CONTINUOUS
 62
   253
100
AcDbLine
 10
796.5401818332106
 20
80.83524980732842
 30
0.0
 11
796.5401818332106
 21
94.68011343242044
 31
0.0
  0
ARC
  5
29E
330
1F
100
AcDbEntity
  8
0
  6
CONTINUOUS
 62
     7
100
AcDbCircle
 10
-786.0
 20
55.8352498073284
 30
0.0
 40
1.500000000000018
210
0.0
220
0.0
230
-1.0
100
AcDbArc
 50
193.291719167642
 51
346.7082808323581
  0
LINE
  5
29F
330
1F
100
AcDbEntity
  8
0
  6
CONTINUOUS
 62
     7
100
AcDbLine
 10
1420.5
 20
76.22439954917287
 30
0.0
 11
1420.0
 21
76.22439954917287
 31
0.0
  0
LINE
  5
2A0
330
1F
100
AcDbEntity
  8
0
  6
CONTINUOUS
 62
     7
100
AcDbLine
 10
1419.0
 20
54.3352498073284
 30
0.0
 11
1414.9
 21
54.3352498073284
 31
0.0
  0
ARC
  5
2A1
330
1F
100
AcDbEntity
  8
0
  6
CONTINUOUS
 62
     7
100
AcDbCircle
 10
-765.9
 20
55.3352498073284
 30
0.0
 40
0.9999999999999523
210
0.0
220
0.0
230
-1.0
100
AcDbArc
 50
230.326598399172
 51
270.0
  0
LINE
  5
2A2
330
1F
100
AcDbEntity
  8
0
  6
CONTINUOUS
 62
     7
100
AcDbLine
 10
790.5401818332106
 20
55.49038618223634
 30
0.0
 11
789.4866060555964
 21
59.95020434902576
 31
0.0
  0
LINE
  5
2A3
330
1F
100
AcDbEntity
  8
0
  6
CONTINUOUS
 62
   253
100
AcDbLine
 10
793.4598181667894
 20
55.49038618223634
 30
0.0
 11
793.4598181667894
 21
69.33524980732841
 31
0.0
  0
LINE
  5
2A4
330
1F
100
AcDbEntity
  8
0
  6
CONTINUOUS
 62
     7
100
AcDbLine
 10
1420.5
 20
85.38246623098078
 30
0.0
 11
1420.5
 21
76.93803338367606
 31
0.0
  0
LINE
  5
2A5
330
1F
100
AcDbEntity
  8
0
  6
CONTINUOUS
 62
   253
100
AcDbLine
 10
778.5401818332106
 20
55.49038618223634
 30
0.0
 11
778.5401818332106
 21
69.33524980732841
 31
0.0
  0
LINE
  5
2A6
330
1F
100
AcDbEntity
  8
0
  6
CONTINUOUS
 62
   253
100
AcDbLine
 10
781.4598181667894
 20
55.49038618223634
 30
0.0
 11
781.4598181667894
 21
69.33524980732841
 31
0.0
  0
ARC
  5
2A7
330
1F
100
AcDbEntity
  8
0
  6
CONTINUOUS
 62
     7
100
AcDbCircle
 10
1379.0
 20
59.8352498073284
 30
0.0
 40
0.4999999999998979
100
AcDbArc
 50
13.29171916764538
 51
166.7082808323606
  0
LINE
  5
2A8
330
1F
100
AcDbEntity
  8
0
  6
CONTINUOUS
 62
     7
100
AcDbLine
 10
1420.5
 20
76.93803338367606
 30
0.0
 11
1420.5
 21
75.67014825839524
 31
0.0
  0
LINE
  5
2A9
330
1F
100
AcDbEntity
  8
0
  6
CONTINUOUS
 62
     7
100
AcDbLine
 10
1403.0
 20
84.4115267630089
 30
0.0
 11
1403.0
 21
87.21756551854482
 31
0.0
  0
LINE
  5
2AA
330
1F
100
AcDbEntity
  8
0
  6
CONTINUOUS
 62
   253
100
AcDbLine
 10
1420.5
 20
76.93803338367606
 30
0.0
 11
1465.0
 21
76.93803338367606
 31
0.0
  0
LINE
  5
2AB
330
1F
100
AcDbEntity
  8
0
  6
CONTINUOUS
 62
     7
100
AcDbLine
 10
800.5133939444036
 20
59.95020434902576
 30
0.0
 11
799.4598181667894
 21
55.49038618223634
 31
0.0
  0
LINE
  5
2AC
330
1F
100
AcDbEntity
  8
0
  6
CONTINUOUS
 62
     7
100
AcDbLine
 10
790.5401818332106
 20
94.68011343242044
 30
0.0
 11
789.4866060555964
 21
90.22029526563102
 31
0.0
  0
LINE
  5
2AD
330
1F
100
AcDbEntity
  8
0
  6
CONTINUOUS
 62
     7
100
AcDbLine
 10
788.5133939444036
 20
90.22029526563108
 30
0.0
 11
787.4598181667894
 21
94.68011343242044
 31
0.0
  0
LINE
  5
2AE
330
1F
100
AcDbEntity
  8
0
  6
CONTINUOUS
 62
     7
100
AcDbLine
 10
778.5401818332106
 20
55.49038618223634
 30
0.0
 11
777.4866060555964
 21
59.95020434902576
 31
0.0
  0
LINE
  5
2AF
330
1F
100
AcDbEntity
  8
0
  6
CONTINUOUS
 62
     7
100
AcDbLine
 10
782.5133939444036
 20
59.95020434902576
 30
0.0
 11
781.4598181667894
 21
55.49038618223634
 31
0.0
  0
LINE
  5
2B0
330
1F
100
AcDbEntity
  8
0
  6
CONTINUOUS
 62
     7
100
AcDbLine
 10
784.5401818332106
 20
94.68011343242044
 30
0.0
 11
783.4866060555964
 21
90.22029526563102
 31
0.0
  0
LINE
  5
2B1
330
1F
100
AcDbEntity
  8
0
  6
CONTINUOUS
 62
     7
100
AcDbLine
 10
748.0
 20
90.33524980732838
 30
0.0
 11
748.0
 21
91.33524980732838
 31
0.0
  0
ARC
  5
2B2
330
1F
100
AcDbEntity
  8
0
  6
CONTINUOUS
 62
     7
100
AcDbCircle
 10
773.6033730049058
 20
92.33524978052348
 30
0.0
 40
2.000000026804936
100
AcDbArc
 50
20.14576745720201
 51
90.00000000271936
  0
ARC
  5
2B3
330
1F
100
AcDbEntity
  8
0
  6
CONTINUOUS
 62
     7
100
AcDbCircle
 10
-801.0
 20
90.33524980732838
 30
0.0
 40
0.5000000000000059
210
0.0
220
0.0
230
-1.0
100
AcDbArc
 50
193.2917191676426
 51
346.7082808323581
  0
LINE
  5
2B4
330
1F
100
AcDbEntity
  8
0
  6
CONTINUOUS
 62
     7
100
AcDbLine
 10
756.5
 20
89.83524980732842
 30
0.0
 11
760.0
 21
89.83524980732842
 31
0.0
  0
LINE
  5
2B5
330
1F
100
AcDbEntity
  8
0
  6
CONTINUOUS
 62
     7
100
AcDbLine
 10
594.1149545416973
 20
230.4866060555965
 30
0.0
 11
589.6551363749079
 21
231.5401818332106
 31
0.0
  0
LINE
  5
2B6
330
1F
100
AcDbEntity
  8
0
  6
CONTINUOUS
 62
     7
100
AcDbLine
 10
595.0
 20
195.0
 30
0.0
 11
591.0
 21
195.0
 31
0.0
  0
LINE
  5
2B7
330
1F
100
AcDbEntity
  8
0
  6
CONTINUOUS
 62
     7
100
AcDbLine
 10
589.6551363749079
 20
228.4598181667894
 30
0.0
 11
594.1149545416973
 21
229.5133939444035
 31
0.0
  0
LINE
  5
2B8
330
1F
100
AcDbEntity
  8
0
  6
CONTINUOUS
 62
     7
100
AcDbLine
 10
715.0
 20
91.33524980732838
 30
0.0
 11
715.0
 21
90.33524980732838
 31
0.0
  0
LINE
  5
2B9
330
1F
100
AcDbEntity
  8
0
  6
CONTINUOUS
 62
   253
100
AcDbLine
 10
589.6551363749079
 20
213.5401818332106
 30
0.0
 11
603.5
 21
213.5401818332106
 31
0.0
  0
ARC
  5
2BA
330
1F
100
AcDbEntity
  8
0
  6
CONTINUOUS
 62
     7
100
AcDbCircle
 10
-590.0
 20
215.0
 30
0.0
 40
1.500000000000005
210
0.0
220
0.0
230
-1.0
100
AcDbArc
 50
283.2917191676419
 51
76.70828083235824
  0
LINE
  5
2BB
330
1F
100
AcDbEntity
  8
0
  6
CONTINUOUS
 62
   253
100
AcDbLine
 10
589.6551363749079
 20
228.4598181667894
 30
0.0
 11
603.5
 21
228.4598181667894
 31
0.0
  0
ARC
  5
2BC
330
1F
100
AcDbEntity
  8
0
  6
CONTINUOUS
 62
     7
100
AcDbCircle
 10
589.5
 20
200.9
 30
0.0
 40
1.000000000000001
100
AcDbArc
 50
89.99999999999982
 51
180.0
  0
LWPOLYLINE
  5
2BD
330
1F
100
AcDbEntity
  8
0
  6
CONTINUOUS
 62
     7
100
AcDbPolyline
 90
      262
 70
     0
 43
0.0
 10
-1403.0
 20
60.3352498073284
 10
-1403.002137514759
 20
60.33516365767694
 10
-1403.004274978819
 20
60.33506795155796
 10
-1403.006446278909
 20
60.33496094901602
 10
-1403.008685292084
 20
60.33484029014802
 10
-1403.010924118752
 20
60.33470916888967
 10
-1403.013162714148
 20
60.33456759408718
 10
-1403.015358401695
 20
60.33441856771715
 10
-1403.017468530136
 20
60.33426586383711
 10
-1403.019663573977
 20
60.33409715081278
 10
-1403.021900837453
 20
60.33391484205869
 10
-1403.024052446854
 20
60.33372965540601
 10
-1403.02616100672
 20
60.3335387954525
 10
-1403.028513745399
 20
60.33331487203064
 10
-1403.030865837926
 20
60.33307945000721
 10
-1403.033178285503
 20
60.33283672342782
 10
-1403.035412139265
 20
60.33259162770654
 10
-1403.037778170979
 20
60.33232064328536
 10
-1403.04040903024
 20
60.33200556467205
 10
-1403.043092400342
 20
60.33166925509315
 10
-1403.045774500293
 20
60.33131801054259
 10
-1403.048455251504
 20
60.33095184645077
 10
-1403.05113457538
 20
60.33057077825449
 10
-1403.053738030529
 20
60.33018602110446
 10
-1403.056191348176
 20
60.32981037311291
 10
-1403.05871560944
 20
60.32941059579483
 10
-1403.061382904719
 20
60.32897352099681
 10
-1403.064016679672
 20
60.32852714721415
 10
-1403.066650563503
 20
60.32806602770674
 10
-1403.06931809105
 20
60.32758397666687
 10
-1403.071983577951
 20
60.32708714219876
 10
-1403.0746469456
 20
60.32657553979603
 10
-1403.077308115392
 20
60.32604918495882
 10
-1403.07981935348
 20
60.3255385402004
 10
-1403.08225472707
 20
60.32503035604414
 10
-1403.084835473113
 20
60.32447786803374
 10
-1403.087487489556
 20
60.32389510590408
 10
-1403.090063368179
 20
60.32331445994321
 10
-1403.092489757118
 20
60.32275429973327
 10
-1403.094913855206
 20
60.32218183107268
 10
-1403.097335601891
 20
60.32159706593831
 10
-1403.099708876958
 20
60.32101150337787
 10
-1403.101987745328
 20
60.3204375503536
 10
-1403.104498728743
 20
60.31979183836372
 10
-1403.107123949123
 20
60.3191017876804
 10
-1403.109699226174
 20
60.31840994702198
 10
-1403.112306365653
 20
60.31769443681573
 10
-1403.114927695982
 20
60.3169596420316
 10
-1403.117545630075
 20
60.31621033187712
 10
-1403.12016008931
 20
60.31544652195525
 10
-1403.122770995104
 20
60.31466822786275
 10
-1403.12516113678
 20
60.31394208096991
 10
-1403.127548166181
 20
60.31320378842908
 10
-1403.130148577691
 20
60.31238454041765
 10
-1403.132745134931
 20
60.31155086792972
 10
-1403.135193829243
 20
60.31075027991967
 10
-1403.137567085871
 20
60.30996096011537
 10
-1403.13993691519
 20
60.30915955719185
 10
-1403.142303256759
 20
60.30834608314856
 10
-1403.144947095878
 20
60.30742146953549
 10
-1403.147657813964
 20
60.30645611551682
 10
-1403.150226197094
 20
60.30552514451676
 10
-1403.152790115967
 20
60.30457987014892
 10
-1403.15560517743
 20
60.30352356825824
 10
-1403.158414644528
 20
60.30245001926138
 10
-1403.161218422245
 20
60.30135927228475
 10
-1403.163983140553
 20
60.30026466647187
 10
-1403.166742119787
 20
60.2991533652934
 10
-1403.169528402868
 20
60.298011725199
 10
-1403.17227555718
 20
60.296866976072
 10
-1403.175018716199
 20
60.29570481192103
 10
-1403.176868745485
 20
60.29491020571132
 10
-1403.178715954386
 20
60.29410806801616
 10
-1403.180560314577
 20
60.293298413518
 10
-1403.18321108899
 20
60.29211935420753
 10
-1403.185855813597
 20
60.29092478418968
 10
-1403.188343794903
 20
60.28978431145393
 10
-1403.190826253838
 20
60.28863013226715
 10
-1403.193303120447
 20
60.28746228664605
 10
-1403.195744939251
 20
60.28629495973753
 10
-1403.198181162299
 20
60.28511436751932
 10
-1403.200640971158
 20
60.28390608475021
 10
-1403.203065730785
 20
60.28269891905508
 10
-1403.205486473566
 20
60.28147769931019
 10
-1403.207933933936
 20
60.28022657965865
 10
-1403.21037528882
 20
60.27896201324779
 10
-1403.212805161463
 20
60.27768684321361
 10
-1403.215214407205
 20
60.27640607393264
 10
-1403.217588697335
 20
60.27512776683125
 10
-1403.219468693172
 20
60.27410415285384
 10
-1403.221344793357
 20
60.2730725200521
 10
-1403.223216964762
 20
60.27203288736798
 10
-1403.22508517426
 20
60.27098527374258
 10
-1403.226949388725
 20
60.26992969811634
 10
-1403.228809575029
 20
60.26886617942889
 10
-1403.230559745743
 20
60.26785617505831
 10
-1403.232306278291
 20
60.26683914217812
 10
-1403.234757622483
 20
60.26539619518906
 10
-1403.237121076172
 20
60.26398771429853
 10
-1403.239435580859
 20
60.26259182629218
 10
-1403.242035896953
 20
60.26100381394034
 10
-1403.243861909321
 20
60.25987606838762
 10
-1403.245683589588
 20
60.25874055351238
 10
-1403.247500904627
 20
60.25759728824559
 10
-1403.249313821315
 20
60.25644629151733
 10
-1403.251122306526
 20
60.25528758225679
 10
-1403.252823361092
 20
60.25418803791044
 10
-1403.254520418953
 20
60.25308166997162
 10
-1403.256264693269
 20
60.25193465560253
 10
-1403.258055775348
 20
60.25074637530181
 10
-1403.259842265058
 20
60.24955047439695
 10
-1403.26157328336
 20
60.24838146291972
 10
-1403.263249186333
 20
60.24723999043019
 10
-1403.264920920966
 20
60.24609179240259
 10
-1403.266588459494
 20
60.2449368846959
 10
-1403.268251774137
 20
60.24377528318065
 10
-1403.269896042792
 20
60.24261746439846
 10
-1403.272332449412
 20
60.24088429428431
 10
-1403.274001323249
 20
60.2396848997716
 10
-1403.275665739365
 20
60.23847871800125
 10
-1403.277325668687
 20
60.23726576563165
 10
-1403.27898108214
 20
60.23604605932614
 10
-1403.280710449571
 20
60.23476104591285
 10
-1403.282434795463
 20
60.23346865748236
 10
-1403.284154086382
 20
60.23216891321248
 10
-1403.285868288891
 20
60.23086183228759
 10
-1403.287577369551
 20
60.22954743389857
 10
-1403.289281294921
 20
60.22822573724279
 10
-1403.290883101255
 20
60.22697289874779
 10
-1403.292480266897
 20
60.22571360543477
 10
-1403.29412094997
 20
60.22440941996915
 10
-1403.295804687092
 20
60.22305976545739
 10
-1403.297483120788
 20
60.22170292465473
 10
-1403.299108495365
 20
60.22037799574697
 10
-1403.300681230997
 20
60.21908559909389
 10
-1403.302249182137
 20
60.21778688571033
 10
-1403.30381232618
 20
60.21648187881651
 10
-1403.305370640522
 20
60.21517060163816
 10
-1403.306910253898
 20
60.21386486858798
 10
-1403.309190013159
 20
60.21191262292474
 10
-1403.310824681668
 20
60.21049882801005
 10
-1403.312453802254
 20
60.20907809805092
 10
-1403.314077347944
 20
60.20765046079895
 10
-1403.315602989208
 20
60.20629810124372
 10
-1403.317123627914
 20
60.20493964919937
 10
-1403.31863924145
 20
60.20357512794833
 10
-1403.320149807207
 20
60.20220456078018
 10
-1403.321655302573
 20
60.20082797099213
 10
-1403.323863934985
 20
60.19878903647374
 10
-1403.325343486724
 20
60.1974101009699
 10
-1403.326831241948
 20
60.19601282736792
 10
-1403.328313825829
 20
60.1946096352482
 10
-1403.330488520802
 20
60.19253169952498
 10
-1403.331946722613
 20
60.19112510093899
 10
-1403.333414407331
 20
60.18969846053263
 10
-1403.334876796592
 20
60.18826598050597
 10
-1403.336333867633
 20
60.18682768439631
 10
-1403.338422627507
 20
60.18474640132321
 10
-1403.34050024477
 20
60.18265317768439
 10
-1403.342448875294
 20
60.18066869503969
 10
-1403.344462289312
 20
60.17859632691541
 10
-1403.345897882942
 20
60.17710490439482
 10
-1403.347327874849
 20
60.17560773592817
 10
-1403.348752242294
 20
60.17410484696206
 10
-1403.350731209798
 20
60.17199729515854
 10
-1403.352626006366
 20
60.16995782666029
 10
-1403.354476928904
 20
60.16794488641685
 10
-1403.35634282824
 20
60.16589461709015
 10
-1403.358210817048
 20
60.16382053889546
 10
-1403.360066935129
 20
60.16173796006513
 10
-1403.361909810691
 20
60.15964849127842
 10
-1403.3637203475
 20
60.1575742201434
 10
-1403.365521817375
 20
60.15548884958588
 10
-1403.367336958557
 20
60.15336559223155
 10
-1403.369141299914
 20
60.15123262606991
 10
-1403.370934785883
 20
60.1490900138889
 10
-1403.372717360906
 20
60.1469378185398
 10
-1403.374390835375
 20
60.14489644693943
 10
-1403.376005691159
 20
60.14290704505876
 10
-1403.377705712191
 20
60.14079161679614
 10
-1403.379442178715
 20
60.13860806763044
 10
-1403.381136803068
 20
60.13645451781429
 10
-1403.38284347328
 20
60.1342626351255
 10
-1403.384550346299
 20
60.13204691871682
 10
-1403.386245874914
 20
60.1298221119731
 10
-1403.387930003742
 20
60.12758827818604
 10
-1403.389602678249
 20
60.12534547956449
 10
-1403.391125854595
 20
60.12328175825454
 10
-1403.392639318797
 20
60.12121060350417
 10
-1403.394279244929
 20
60.11894274002666
 10
-1403.395907508914
 20
60.11666614842969
 10
-1403.397434556653
 20
60.11450807546181
 10
-1403.398906653861
 20
60.11240613180041
 10
-1403.400368821369
 20
60.11029700221238
 10
-1403.40182101746
 20
60.10818073407903
 10
-1403.403208446075
 20
60.10613839529177
 10
-1403.404559385833
 20
60.1041301798162
 10
-1403.406107916568
 20
60.10180397664805
 10
-1403.407635375186
 20
60.09948349172289
 10
-1403.409132899341
 20
60.09718290851757
 10
-1403.410649022581
 20
60.09482736411869
 10
-1403.412153027334
 20
60.09246380129457
 10
-1403.413644878358
 20
60.09009229346923
 10
-1403.415124540417
 20
60.08771291399345
 10
-1403.416551381498
 20
60.08539215129077
 10
-1403.417886076745
 20
60.08319731266781
 10
-1403.41925041523
 20
60.08092923217028
 10
-1403.420683026664
 20
60.07852035616773
 10
-1403.422103278951
 20
60.07610396194868
 10
-1403.423136921993
 20
60.07432720348604
 10
-1403.424163885764
 20
60.07254646980719
 10
-1403.425184156392
 20
60.07076178960241
 10
-1403.426197720007
 20
60.06897319153664
 10
-1403.427204562742
 20
60.06718070424966
 10
-1403.428186870799
 20
60.06541646768471
 10
-1403.429162669357
 20
60.06364853424417
 10
-1403.430506679223
 20
60.06118780379926
 10
-1403.431838080031
 20
60.05872007125734
 10
-1403.433244303324
 20
60.05608018675545
 10
-1403.434202714518
 20
60.05426073797803
 10
-1403.435154291948
 20
60.05243763230533
 10
-1403.436099021764
 20
60.05061089813485
 10
-1403.43703689012
 20
60.04878056383672
 10
-1403.437951318667
 20
60.04697943723408
 10
-1403.438859102149
 20
60.04517489209726
 10
-1403.439776549839
 20
60.04333405241913
 10
-1403.440687081195
 20
60.04148972481133
 10
-1403.441582645216
 20
60.03965845083281
 10
-1403.442463412586
 20
60.03784034941673
 10
-1403.443346353052
 20
60.03600036203066
 10
-1403.444231245359
 20
60.03413841504729
 10
-1403.44510912203
 20
60.0322731054585
 10
-1403.445979969145
 20
60.03040446154584
 10
-1403.447221591573
 20
60.02770785692185
 10
-1403.44844856757
 20
60.0250044813066
 10
-1403.449591978648
 20
60.02244945840513
 10
-1403.45072229968
 20
60.01988856293266
 10
-1403.451839498268
 20
60.01732186693276
 10
-1403.452930476137
 20
60.01478009987204
 10
-1403.454008579269
 20
60.01223280914419
 10
-1403.455086531313
 20
60.00964927505137
 10
-1403.45613863519
 20
60.00709108015906
 10
-1403.457236697826
 20
60.00438107171774
 10
-1403.458046682828
 20
60.00235485579264
 10
-1403.458848561252
 20
60.00032541123629
 10
-1403.459585151593
 20
59.99843996752446
 10
-1403.460592307193
 20
59.99582794317981
 10
-1403.461574288471
 20
59.9932419699638
 10
-1403.462598042925
 20
59.99050299983338
 10
-1403.463352451791
 20
59.9884554398708
 10
-1403.464098649584
 20
59.98640488110052
 10
-1403.464836620981
 20
59.98435135711478
 10
-1403.465566350661
 20
59.98229490147755
 10
-1403.466287823293
 20
59.98023554776027
 10
-1403.466980761296
 20
59.97823228958482
 10
-1403.467645839981
 20
59.97628539499522
 10
-1403.468303538478
 20
59.9743360112634
 10
-1403.46918656728
 20
59.9716796136065
 10
-1403.470050742258
 20
59.96903458240821
 10
-1403.470891222023
 20
59.9664169436363
 10
-1403.471679317743
 20
59.96392005659251
 42
0.0083604525055757
 10
-1403.505696016247
 20
59.84731085635715
210
0.0
220
0.0
230
-1.0
  0
LWPOLYLINE
  5
2BE
330
1F
100
AcDbEntity
  8
0
  6
CONTINUOUS
 62
     7
100
AcDbPolyline
 90
      268
 70
     0
 43
0.0
 10
-776.4943039837541
 20
59.84731085636152
 42
0.0082742084761832
 10
-776.5280261976038
 20
59.96297612038632
 10
-776.5287678774808
 20
59.96534203646275
 10
-776.5296200869299
 20
59.96801481517861
 10
-776.5304861213841
 20
59.97068318704246
 10
-776.5314250928568
 20
59.97352451263504
 10
-776.5320797180484
 20
59.97547492333166
 10
-776.532761904878
 20
59.97748184591939
 10
-776.5334723303648
 20
59.97954501611813
 10
-776.5341910334248
 20
59.98160533317526
 10
-776.5348971137252
 20
59.98360402006892
 10
-776.5355898698456
 20
59.98554128768474
 10
-776.5362899447939
 20
59.987475931841
 10
-776.536997325728
 20
59.98940792439205
 10
-776.5377119998047
 20
59.99133723716976
 10
-776.5384274759856
 20
59.99324665221872
 10
-776.539143548668
 20
59.995136214329
 10
-776.5398956476881
 20
59.99709842674278
 10
-776.5406846306606
 20
59.99913292532511
 10
-776.5414817445358
 20
60.00116424889151
 10
-776.5422638549445
 20
60.00313446236616
 10
-776.54303027269
 20
60.00504380326499
 10
-776.5438038789265
 20
60.00695023405211
 10
-776.5445846608028
 20
60.00885372633902
 10
-776.5453726054666
 20
60.01075425171165
 10
-776.5461605694093
 20
60.01263485283415
 10
-776.5469483504789
 20
60.0144955818841
 10
-776.5477502595476
 20
60.01637024277129
 10
-776.5485664730617
 20
60.01825872634858
 10
-776.549389785545
 20
60.02014410157047
 10
-776.5502052935274
 20
60.02199275614173
 10
-776.5510276246205
 20
60.02383835772707
 10
-776.5518737587076
 20
60.02571844944737
 10
-776.5527269710451
 20
60.02759530562018
 10
-776.5535872477311
 20
60.02946889805155
 10
-776.5544371525789
 20
60.03130181053212
 10
-776.5556982389403
 20
60.03398925607556
 10
-776.5569494412688
 20
60.03661874273291
 10
-776.5581652121846
 20
60.03913971981517
 10
-776.5593938461784
 20
60.04165435800579
 10
-776.5606353083969
 20
60.04416258625606
 10
-776.5618670545743
 20
60.04661971661223
 10
-776.5631262630576
 20
60.0491001955592
 10
-776.5644056982297
 20
60.0515889252865
 10
-776.5656746382508
 20
60.05402669866777
 10
-776.5669733002474
 20
60.05649098075305
 10
-776.568293311602
 20
60.05896495954083
 10
-776.5696249898798
 20
60.06143020965599
 10
-776.5709672895805
 20
60.06388488763309
 10
-776.5723059027932
 20
60.0663034183947
 10
-776.5736577027411
 20
60.06871677235526
 10
-776.5750401879545
 20
60.07115556264453
 10
-776.5764351392003
 20
60.07358705590526
 10
-776.5778425213076
 20
60.07601117942607
 10
-776.5792622990984
 20
60.07842786040912
 10
-776.5807903518945
 20
60.0809973680072
 10
-776.5818490239243
 20
60.08275889828746
 10
-776.5833498855505
 20
60.0852305897413
 10
-776.584813622347
 20
60.08761287577274
 10
-776.5862630694634
 20
60.0899450667367
 10
-776.587744185204
 20
60.09230127740639
 10
-776.5892473568687
 20
60.09466538791042
 10
-776.5907626494387
 20
60.09702148503121
 10
-776.592290027662
 20
60.09936949527839
 10
-776.5938294562775
 20
60.10170934509235
 10
-776.5952511549867
 20
60.10384697582699
 10
-776.5966829225622
 20
60.10597763090658
 10
-776.5982563023869
 20
60.10829395945011
 10
-776.5998415934921
 20
60.11060184752176
 10
-776.6013497034334
 20
60.11277371255047
 10
-776.6028235303804
 20
60.11487439647411
 10
-776.6043072380145
 20
60.11696783876818
 10
-776.6058007846024
 20
60.11905399197276
 10
-776.6072466791591
 20
60.12105375057119
 10
-776.608672703816
 20
60.12300728126169
 10
-776.6103297915595
 20
60.12525441910876
 10
-776.6119883742423
 20
60.12747939848973
 10
-776.6136381638158
 20
60.12966907254524
 10
-776.6153329117301
 20
60.13189450090906
 10
-776.6170390078601
 20
60.13411084329368
 10
-776.6187563966645
 20
60.13631803627778
 10
-776.6204850225996
 20
60.13851601651993
 10
-776.6221763516396
 20
60.14064404923208
 10
-776.6237806677944
 20
60.14264239728445
 10
-776.6254433339469
 20
60.14469304368897
 10
-776.6272145209523
 20
60.14685512300078
 10
-776.6289966765917
 20
60.1490076844744
 10
-776.6303105297324
 20
60.15058014400354
 10
-776.6316302297723
 20
60.15214742642183
 10
-776.6329557548
 20
60.15370950695692
 10
-776.6342870829038
 20
60.15526636085422
 10
-776.6356241921709
 20
60.15681796337707
 10
-776.6369430305172
 20
60.15833672324388
 10
-776.6382674035029
 20
60.15985037036342
 10
-776.6401153403738
 20
60.16194344189984
 10
-776.6419738509869
 20
60.16402654977093
 10
-776.6439678543115
 20
60.16623747891309
 10
-776.6453456385465
 20
60.16775083605014
 10
-776.6467290254301
 20
60.16925874091444
 10
-776.6481179930471
 20
60.17076116891317
 10
-776.6495125194818
 20
60.17225809546755
 10
-776.6515770365073
 20
60.17445331478194
 10
-776.6529726196309
 20
60.1759233112974
 10
-776.6543862339278
 20
60.17740098940211
 10
-776.6558053092033
 20
60.17887305649649
 10
-776.6579058136884
 20
60.18103145301251
 10
-776.65932705611
 20
60.1824781352478
 10
-776.6607680360055
 20
60.18393373812897
 10
-776.6622144023127
 20
60.18538359575248
 10
-776.6636661323688
 20
60.18682768439787
 10
-776.6657659669531
 20
60.18889695645729
 10
-776.6678768082766
 20
60.1909541472011
 10
-776.6698770503019
 20
60.19288265556294
 10
-776.671964917528
 20
60.19487427819398
 10
-776.6734669004952
 20
60.19629370179641
 10
-776.6749741791626
 20
60.1977070544315
 10
-776.6764867300656
 20
60.19911431188929
 10
-776.6780045297393
 20
60.20051544996879
 10
-776.6795275547196
 20
60.20191044447737
 10
-776.6810557815429
 20
60.20329927123086
 10
-776.6825891867461
 20
60.20468190605332
 10
-776.6841644418869
 20
60.20609102068919
 10
-776.685781897864
 20
60.20752613370694
 10
-776.6874049580546
 20
60.2089543696036
 10
-776.6889965192577
 20
60.21034347452508
 10
-776.6905561855318
 20
60.21169388353864
 10
-776.6921208860697
 20
60.21303795227794
 10
-776.6936905974131
 20
60.21437565661952
 10
-776.6953028495249
 20
60.21573859237939
 10
-776.6969579810556
 20
60.21712626557307
 10
-776.6986185329044
 20
60.21850687253066
 10
-776.7002844781043
 20
60.21988038554598
 10
-776.7019557896894
 20
60.22124677692003
 10
-776.7036324406945
 20
60.22260601896095
 10
-776.7052662745795
 20
60.22391955340667
 10
-776.7068568253428
 20
60.22518795356724
 10
-776.7084520528554
 20
60.22644992645354
 10
-776.7100717947632
 20
60.22772097537921
 10
-776.7116962760132
 20
60.22898539859445
 10
-776.7133254675192
 20
60.23024317939446
 10
-776.7149593401964
 20
60.23149430107982
 10
-776.7166760054929
 20
60.23279783948337
 10
-776.7183977430436
 20
60.23409403196156
 10
-776.7201245194124
 20
60.23538285933327
 10
-776.7218563011647
 20
60.23666430242375
 10
-776.7235930548679
 20
60.23793834206447
 10
-776.7253347470912
 20
60.23920495909351
 10
-776.7269814072909
 20
60.24039238228934
 10
-776.7286323999984
 20
60.24157317385498
 10
-776.7303379246189
 20
60.24278279391865
 10
-776.7320983522966
 20
60.24402060149275
 10
-776.7338635561495
 20
60.24525089347676
 10
-776.7355828674777
 20
60.24643881965513
 10
-776.7372558622907
 20
60.24758499079419
 10
-776.738933017069
 20
60.24872443161161
 10
-776.7406143040484
 20
60.24985712624753
 10
-776.7422996954646
 20
60.25098305884114
 10
-776.7448051769202
 20
60.25263937952069
 10
-776.7473300569247
 20
60.25428759204393
 10
-776.7490525878285
 20
60.25540009970626
 10
-776.7507791837635
 20
60.2565055956174
 10
-776.7525098159197
 20
60.25760406331482
 10
-776.7542858050351
 20
60.25872138659993
 10
-776.7561074121477
 20
60.2598570320016
 10
-776.757933351919
 20
60.26098490839915
 10
-776.7597635912234
 20
60.2621049968608
 10
-776.7615980969357
 20
60.26321727845363
 10
-776.7634368359301
 20
60.26432173424412
 10
-776.7652270616907
 20
60.26538712259172
 10
-776.7669683954238
 20
60.26641408007583
 10
-776.7687134066379
 20
60.26743403152484
 10
-776.7705681637046
 20
60.26850812470364
 10
-776.7724269931558
 20
60.26957430010449
 10
-776.7742898618649
 20
60.27063253878878
 10
-776.7760499508005
 20
60.27162302029016
 10
-776.7778135733387
 20
60.27260641350058
 10
-776.7795807017133
 20
60.27358270254413
 10
-776.7813513081574
 20
60.27455187154435
 10
-776.7831253649044
 20
60.27551390462421
 10
-776.7857451578013
 20
60.27691815188329
 10
-776.7882418474471
 20
60.27823833423451
 10
-776.790679705802
 20
60.27951051452662
 10
-776.7932052814147
 20
60.2808109978003
 10
-776.795001563713
 20
60.28172520136071
 10
-776.796801084001
 20
60.28263214758495
 10
-776.7986038145106
 20
60.28353182059137
 10
-776.8004097274732
 20
60.28442420449775
 10
-776.8030921431307
 20
60.28573340312021
 10
-776.8057813984198
 20
60.28702650282663
 10
-776.8075996542906
 20
60.28788983436984
 10
-776.8094209547602
 20
60.28874579796284
 10
-776.8121096086708
 20
60.28999335941432
 10
-776.8148414337187
 20
60.29124148830444
 10
-776.8166785484154
 20
60.29206986990532
 10
-776.8185185824449
 20
60.29289077205646
 10
-776.8212101878173
 20
60.29407581360962
 10
-776.8238708579458
 20
60.29522892208483
 10
-776.8264356662876
 20
60.29632335592366
 10
-776.8289548440998
 20
60.29738204601681
 10
-776.8314790567264
 20
60.29842676804381
 10
-776.8339931641123
 20
60.29945139153908
 10
-776.8364819115645
 20
60.30045011780105
 10
-776.8390206893222
 20
60.30145305075479
 10
-776.8415490660449
 20
60.30243602551693
 10
-776.8440517071979
 20
60.30339349568325
 10
-776.8466100089099
 20
60.30435639936837
 10
-776.8491728708094
 20
60.30530502166198
 10
-776.8517364778077
 20
60.30623799561518
 10
-776.8543026043549
 20
60.30715603198389
 10
-776.8568271001199
 20
60.3080437864899
 10
-776.8593901069183
 20
60.30892955877276
 10
-776.8619744721827
 20
60.30980696210275
 10
-776.8645629301352
 20
60.31066998828305
 10
-776.8671554023074
 20
60.31151862173584
 10
-776.8697518102298
 20
60.31235284688447
 10
-776.8721352412526
 20
60.31310488267339
 10
-776.8745218530183
 20
60.31384478640101
 10
-776.8771232938122
 20
60.31463638831341
 10
-776.8797128370068
 20
60.31540900179699
 10
-776.8822748051067
 20
60.31615836831228
 10
-776.8848925032038
 20
60.31690867420946
 10
-776.8875136029334
 20
60.31764446580706
 10
-776.8901380256731
 20
60.31836572750798
 10
-776.8927656928015
 20
60.31907244372114
 10
-776.8953234049566
 20
60.31974556908803
 10
-776.8977376379522
 20
60.3203676111721
 10
-776.9002276806309
 20
60.32099567991767
 10
-776.9028670562564
 20
60.32164649410843
 10
-776.9055092962785
 20
60.32228268754391
 10
-776.9079337987812
 20
60.32285300764789
 10
-776.9103605815593
 20
60.32341101721023
 10
-776.9127895840597
 20
60.32395670425933
 10
-776.9152207457303
 20
60.32449005682816
 10
-776.9175149070963
 20
60.32498162398231
 10
-776.9199291746032
 20
60.32548665774168
 10
-776.9225821738736
 20
60.32602715907475
 10
-776.9252058195244
 20
60.32654681483479
 10
-776.9278335435555
 20
60.32705249838083
 10
-776.9304988875064
 20
60.32755034699477
 10
-776.9331662774986
 20
60.32803341324372
 10
-776.935835634928
 20
60.32850168164
 10
-776.9385068811918
 20
60.32895513670239
 10
-776.9410313883957
 20
60.32936978412129
 10
-776.9434831268322
 20
60.32975957457709
 10
-776.9460849819966
 20
60.33015934604635
 10
-776.9487627406501
 20
60.33055587336178
 10
-776.951367564467
 20
60.33092711269006
 10
-776.9538247826682
 20
60.33126423638324
 10
-776.9562831440562
 20
60.33158882545558
 10
-776.9587425880954
 20
60.3319008680207
 10
-776.9611561790545
 20
60.33219476513535
 10
-776.9634769121666
 20
60.33246584864998
 10
-776.9658176398751
 20
60.33272784900384
 10
-776.968168731853
 20
60.33297947277122
 10
-776.9705205439593
 20
60.33321961246002
 10
-776.9729850622961
 20
60.33345885875724
 10
-776.9754502532585
 20
60.33368547808732
 10
-776.977916056788
 20
60.33389945862911
 10
-776.9803824128384
 20
60.33410078855717
 10
-776.9827082863828
 20
60.3342790163594
 10
-776.9850815462465
 20
60.33444923437025
 10
-776.987549166822
 20
60.33461375016924
 10
-776.9899700946137
 20
60.33476279603573
 10
-776.9922972416824
 20
60.3348945280564
 10
-776.9946245690256
 20
60.33501495258187
 10
-776.9969520263854
 20
60.33512405967295
 10
-776.999237999942
 20
60.33522019270931
 10
-777.0
 20
60.3352498073284
210
0.0
220
0.0
230
-1.0
  0
LINE
  5
2BF
330
1F
100
AcDbEntity
  8
0
  6
CONTINUOUS
 62
     7
100
AcDbLine
 10
650.0
 20
196.0
 30
0.0
 11
650.0
 21
199.1
 31
0.0
  0
LINE
  5
2C0
330
1F
100
AcDbEntity
  8
0
  6
CONTINUOUS
 62
     7
100
AcDbLine
 10
748.0
 20
90.33524980732838
 30
0.0
 11
748.0
 21
86.6503513562616
 31
0.0
  0
LINE
  5
2C1
330
1F
100
AcDbEntity
  8
0
  6
CONTINUOUS
 62
     7
100
AcDbLine
 10
773.3894916248571
 20
54.3352498073284
 30
0.0
 11
773.4700007222862
 21
54.3352498073284
 31
0.0
  0
LINE
  5
2C2
330
1F
100
AcDbEntity
  8
0
  6
CONTINUOUS
 62
     7
100
AcDbLine
 10
756.4999999999999
 20
90.33524980732838
 30
0.0
 11
756.5
 21
86.6503513562616
 31
0.0
  0
ARC
  5
2C3
330
1F
100
AcDbEntity
  8
0
  6
CONTINUOUS
 62
     7
100
AcDbCircle
 10
-795.0
 20
90.33524980732838
 30
0.0
 40
0.5000000000000059
210
0.0
220
0.0
230
-1.0
100
AcDbArc
 50
193.2917191676426
 51
346.7082808323583
  0
LINE
  5
2C4
330
1F
100
AcDbEntity
  8
0
  6
CONTINUOUS
 62
     7
100
AcDbLine
 10
589.6551363749079
 20
234.4598181667894
 30
0.0
 11
594.1149545416973
 21
235.5133939444035
 31
0.0
  0
LINE
  5
2C5
330
1F
100
AcDbEntity
  8
0
  6
CONTINUOUS
 62
     7
100
AcDbLine
 10
715.0
 20
85.38246623098078
 30
0.0
 11
715.0
 21
86.6503513562616
 31
0.0
  0
LINE
  5
2C6
330
1F
100
AcDbEntity
  8
0
  6
CONTINUOUS
 62
     7
100
AcDbLine
 10
715.0
 20
90.33524980732838
 30
0.0
 11
715.0
 21
86.6503513562616
 31
0.0
  0
LINE
  5
2C7
330
1F
100
AcDbEntity
  8
0
  6
CONTINUOUS
 62
     7
100
AcDbLine
 10
645.8850454583026
 20
224.4866060555965
 30
0.0
 11
650.344863625092
 21
225.5401818332106
 31
0.0
  0
LINE
  5
2C8
330
1F
100
AcDbEntity
  8
0
  6
CONTINUOUS
 62
     7
100
AcDbLine
 10
775.4002775695523
 20
55.81176982161923
 30
0.0
 11
775.4003279784522
 21
55.81195573296227
 31
0.0
  0
LINE
  5
2C9
330
1F
100
AcDbEntity
  8
0
  6
CONTINUOUS
 62
   253
100
AcDbLine
 10
589.6551363749079
 20
216.4598181667894
 30
0.0
 11
603.5
 21
216.4598181667894
 31
0.0
  0
ARC
  5
2CA
330
1F
100
AcDbEntity
  8
0
  6
CONTINUOUS
 62
   253
100
AcDbCircle
 10
773.6005077781051
 20
92.33524982693419
 30
0.0
 40
1.999999980394173
100
AcDbArc
 50
20.02744610305565
 51
89.99999877705127
  0
LINE
  5
2CB
330
1F
100
AcDbEntity
  8
0
  6
CONTINUOUS
 62
     7
100
AcDbLine
 10
594.1149545416973
 20
236.4866060555965
 30
0.0
 11
589.6551363749079
 21
237.5401818332106
 31
0.0
  0
ARC
  5
2CC
330
1F
100
AcDbEntity
  8
0
  6
CONTINUOUS
 62
     7
100
AcDbCircle
 10
589.5
 20
200.1
 30
0.0
 40
1.000000000000001
100
AcDbArc
 50
180.0
 51
270.0
  0
LINE
  5
2CD
330
1F
100
AcDbEntity
  8
0
  6
CONTINUOUS
 62
     7
100
AcDbLine
 10
594.1149545416973
 20
212.4866060555965
 30
0.0
 11
589.6551363749079
 21
213.5401818332106
 31
0.0
  0
LINE
  5
2CE
330
1F
100
AcDbEntity
  8
0
  6
CONTINUOUS
 62
     7
100
AcDbLine
 10
773.6005078207941
 20
94.33524980732838
 30
0.0
 11
773.4636894261452
 21
94.33524980732838
 31
0.0
  0
LINE
  5
2CF
330
1F
100
AcDbEntity
  8
0
  6
CONTINUOUS
 62
   253
100
AcDbLine
 10
775.4797539902963
 20
93.01967225034203
 30
0.0
 11
775.4795651133367
 21
93.02019030061703
 31
0.0
  0
LINE
  5
2D0
330
1F
100
AcDbEntity
  8
0
  6
CONTINUOUS
 62
     7
100
AcDbLine
 10
747.5
 20
90.33524980732838
 30
0.0
 11
747.5
 21
91.33524980732838
 31
0.0
  0
LINE
  5
2D1
330
1F
100
AcDbEntity
  8
0
  6
CONTINUOUS
 62
   253
100
AcDbLine
 10
756.5
 20
86.6503513562616
 30
0.0
 11
748.0
 21
86.6503513562616
 31
0.0
  0
LINE
  5
2D2
330
1F
100
AcDbEntity
  8
0
  6
CONTINUOUS
 62
     7
100
AcDbLine
 10
594.1149545416973
 20
224.4866060555965
 30
0.0
 11
589.6551363749079
 21
225.5401818332106
 31
0.0
  0
LINE
  5
2D3
330
1F
100
AcDbEntity
  8
0
  6
CONTINUOUS
 62
     7
100
AcDbLine
 10
747.5
 20
91.33524980732844
 30
0.0
 11
715.0
 21
91.33524980732838
 31
0.0
  0
LINE
  5
2D4
330
1F
100
AcDbEntity
  8
0
  6
CONTINUOUS
 62
     7
100
AcDbLine
 10
645.8850454583026
 20
218.4866060555965
 30
0.0
 11
650.344863625092
 21
219.5401818332106
 31
0.0
  0
LINE
  5
2D5
330
1F
100
AcDbEntity
  8
0
  6
CONTINUOUS
 62
   253
100
AcDbLine
 10
775.4795651133367
 20
93.02019030061703
 30
0.0
 11
775.4810119093188
 21
93.02406924297696
 31
0.0
  0
LINE
  5
2D6
330
1F
100
AcDbEntity
  8
0
  6
CONTINUOUS
 62
     7
100
AcDbLine
 10
756.5
 20
76.00269903286183
 30
0.0
 11
760.0
 21
76.00269903286183
 31
0.0
  0
LINE
  5
2D7
330
1F
100
AcDbEntity
  8
0
  6
CONTINUOUS
 62
     7
100
AcDbLine
 10
645.0
 20
195.0
 30
0.0
 11
649.0
 21
195.0
 31
0.0
  0
LINE
  5
2D8
330
1F
100
AcDbEntity
  8
0
  6
CONTINUOUS
 62
   253
100
AcDbLine
 10
636.4999999999999
 20
219.5401818332106
 30
0.0
 11
603.5
 21
219.5401818332106
 31
0.0
  0
ARC
  5
2D9
330
1F
100
AcDbEntity
  8
0
  6
CONTINUOUS
 62
     7
100
AcDbCircle
 10
-773.4700007225217
 20
56.33524980787713
 30
0.0
 40
2.000000000548762
210
0.0
220
0.0
230
-1.0
100
AcDbArc
 50
195.1733322569448
 51
270.0000000067459
  0
LINE
  5
2DA
330
1F
100
AcDbEntity
  8
0
  6
CONTINUOUS
 62
     7
100
AcDbLine
 10
747.5
 20
85.38246623098078
 30
0.0
 11
747.5
 21
86.6503513562616
 31
0.0
  0
LINE
  5
2DB
330
1F
100
AcDbEntity
  8
0
  6
CONTINUOUS
 62
     7
100
AcDbLine
 10
756.4999999999999
 20
90.33524980732838
 30
0.0
 11
756.4999999999999
 21
91.33524980732838
 31
0.0
  0
LINE
  5
2DC
330
1F
100
AcDbEntity
  8
0
  6
CONTINUOUS
 62
     7
100
AcDbLine
 10
747.5
 20
90.83524980732844
 30
0.0
 11
748.0
 21
90.83524980732844
 31
0.0
  0
LWPOLYLINE
  5
2DD
330
1F
100
AcDbEntity
  8
0
  6
CONTINUOUS
 62
     7
100
AcDbPolyline
 90
      210
 70
     0
 43
0.0
 10
-777.0
 20
89.83524980732842
 10
-776.9973692535341
 20
89.83514025062017
 10
-776.9947540961291
 20
89.83504477413423
 10
-776.9921702618981
 20
89.83496358286303
 10
-776.9895337750074
 20
89.83489419299877
 10
-776.9868974433372
 20
89.83483839053736
 10
-776.9842613433553
 20
89.83479616853546
 10
-776.9816255517155
 20
89.8347675200632
 10
-776.9789023059054
 20
89.83475216903885
 10
-776.9760039141623
 20
89.83475173722083
 10
-776.972989123188
 20
89.83476869277112
 10
-776.9709407064322
 20
89.83479034111463
 10
-776.9688927128004
 20
89.83482017945016
 10
-776.9659970584485
 20
89.83487635534864
 10
-776.963102427887
 20
89.83494889708632
 10
-776.9602089250369
 20
89.8350377953619
 10
-776.9573510779467
 20
89.83514169181622
 10
-776.9544361445695
 20
89.83526415623128
 10
-776.9523929073413
 20
89.83535993756792
 10
-776.9503504262192
 20
89.83546387901143
 10
-776.9474048244816
 20
89.8356282258776
 10
-776.9445192595235
 20
89.83580578872807
 10
-776.9416354899791
 20
89.83599964774436
 10
-776.938770767755
 20
89.83620849443146
 10
-776.935942296266
 20
89.83643063629503
 10
-776.933064483935
 20
89.83667293975095
 10
-776.9302059893151
 20
89.83692991451181
 10
-776.9273839702595
 20
89.83719958059993
 10
-776.9245067585408
 20
89.83749089761672
 10
-776.9216320742013
 20
89.83779851573276
 10
-776.9186484642221
 20
89.83813534161183
 10
-776.9166238665385
 20
89.8383741117399
 10
-776.9146006692911
 20
89.83862098290751
 10
-776.9117417523058
 20
89.8389839531496
 10
-776.9088858131477
 20
89.83936311075952
 10
-776.9060329552769
 20
89.83975844614139
 10
-776.9032171876765
 20
89.84016495578572
 10
-776.9004046291881
 20
89.84058724166715
 10
-776.8975615537594
 20
89.84103066834525
 10
-776.8947557546987
 20
89.8414846686203
 10
-776.8919514003948
 20
89.84195476932521
 10
-776.8891128399306
 20
89.84244730552648
 10
-776.886278099166
 20
89.84295602261277
 10
-776.8834534549851
 20
89.84347974786787
 10
-776.880649599956
 20
89.84401630296068
 10
-776.8778833174209
 20
89.84456203787178
 10
-776.8750647747746
 20
89.84513489011592
 10
-776.8722505734448
 20
89.84572387369438
 10
-776.8694408184687
 20
89.84632897854483
 10
-776.8666356149025
 20
89.84695019455896
 10
-776.8637417964941
 20
89.84760902940059
 10
-776.8616911960057
 20
89.84808700555024
 10
-776.8596431954675
 20
89.84857361955517
 10
-776.8568263468361
 20
89.84925807419796
 10
-776.8540146120617
 20
89.84995888275043
 10
-776.8511635903543
 20
89.85068753838404
 10
-776.8492066937312
 20
89.85119825453485
 10
-776.8472524298606
 20
89.85171691918947
 10
-776.8453008343441
 20
89.8522435249645
 10
-776.8433519427869
 20
89.85277806446756
 10
-776.8414057907913
 20
89.85332053027322
 10
-776.8386026698676
 20
89.85411717931612
 10
-776.8358607593927
 20
89.85491400822836
 10
-776.8339254944043
 20
89.85548693359668
 10
-776.8319931335792
 20
89.85606772190351
 10
-776.8300637105134
 20
89.85665635909373
 10
-776.8273400357938
 20
89.85750223290052
 10
-776.8246223994576
 20
89.85836373812667
 10
-776.8219108965766
 20
89.85924083491902
 10
-776.819237790877
 20
89.86012276530747
 10
-776.8165163965203
 20
89.86103833957975
 10
-776.8146118992431
 20
89.86168977336445
 10
-776.8127106444587
 20
89.86234892818301
 10
-776.8099731878164
 20
89.86331357294198
 10
-776.8072966547144
 20
89.86427464586394
 10
-776.8046268667022
 20
89.86525105315346
 10
-776.8019797493793
 20
89.86623680651473
 10
-776.7993710635918
 20
89.86722555812959
 10
-776.7973992950751
 20
89.86798438512034
 10
-776.795431456657
 20
89.86875161853308
 10
-776.7934675875363
 20
89.86952724177155
 10
-776.7915077269138
 20
89.87031123822625
 10
-776.7894588816727
 20
89.87114153053017
 10
-776.787414523879
 20
89.87198097511512
 10
-776.7853746986075
 20
89.87282955283699
 10
-776.7826065480558
 20
89.87399881319958
 10
-776.7798469860159
 20
89.8751848988491
 10
-776.7772530816354
 20
89.87631857530364
 10
-776.7746670083914
 20
89.87746712549954
 10
-776.7720888614608
 20
89.87863050879774
 10
-776.7695492852014
 20
89.87979457176786
 10
-776.7670176323941
 20
89.88097303775506
 10
-776.7644636388206
 20
89.8821803262696
 10
-776.7619482065829
 20
89.88338765256304
 10
-776.759298097066
 20
89.88467942964678
 10
-776.7573264385551
 20
89.88565381516617
 10
-776.7553599884695
 20
89.88663704469896
 10
-776.7535405338898
 20
89.88755701441231
 10
-776.7510317678308
 20
89.88884180474015
 10
-776.7485615213612
 20
89.89012549625902
 10
-776.7460981560165
 20
89.89142422170177
 10
-776.7436104799383
 20
89.892754835798
 10
-776.7411319350143
 20
89.89409984007735
 10
-776.7386626098624
 20
89.89545918399816
 10
-776.7362025925325
 20
89.89683281626276
 10
-776.733588932527
 20
89.89831371508039
 10
-776.7317982980526
 20
89.89934119701098
 10
-776.7292673673502
 20
89.90081156932183
 10
-776.7268192714258
 20
89.90225421367192
 10
-776.7243811095456
 20
89.90371118426721
 10
-776.7218375983979
 20
89.90525284221373
 10
-776.7193051936677
 20
89.9068101036159
 10
-776.7167839995633
 20
89.90838290713332
 10
-776.714274120268
 20
89.90997119135075
 10
-776.7119181196709
 20
89.91148284028056
 10
-776.7095250745638
 20
89.9130390995717
 10
-776.7070486526932
 20
89.9146720025334
 10
-776.7046307887122
 20
89.91628861045065
 10
-776.7023175442858
 20
89.9178562051045
 10
-776.70001489778
 20
89.91943724213674
 10
-776.6977229324461
 20
89.92103166405762
 10
-776.6954823659023
 20
89.92261057775758
 10
-776.6931337668243
 20
89.92428740414138
 10
-776.6907379099292
 20
89.92602126930387
 10
-776.688444988816
 20
89.92770299662361
 10
-776.6862086516915
 20
89.92936459296064
 10
-776.6839834584257
 20
89.93103915946382
 10
-776.6817826289004
 20
89.93271654590463
 10
-776.6796191154361
 20
89.93438630009037
 10
-776.677427530326
 20
89.936099067843
 10
-776.6752603287565
 20
89.93781422869435
 10
-776.6731302556251
 20
89.93952110961412
 10
-776.6709682339498
 20
89.94127532076823
 10
-776.6688179252943
 20
89.9430420864859
 10
-776.666811495724
 20
89.94471079112004
 10
-776.6648812180804
 20
89.94633481159624
 10
-776.6628969074272
 20
89.94802365090398
 10
-776.6607961593988
 20
89.94983331893181
 10
-776.6587074285325
 20
89.95165516310993
 10
-776.6566307888045
 20
89.95348911591533
 10
-776.6546030726483
 20
89.95530204046625
 10
-776.6525627983423
 20
89.95714870145022
 10
-776.650522581299
 20
89.95901829248749
 10
-776.6485308512347
 20
89.96086602342956
 10
-776.6465242856353
 20
89.96275048347235
 10
-776.6445167966228
 20
89.96465930982794
 10
-776.6425234130974
 20
89.96657842567329
 10
-776.6405456181221
 20
89.96850632857506
 10
-776.6386038908964
 20
89.970422579505
 10
-776.6367545316338
 20
89.97226973739753
 10
-776.63505245594
 20
89.97398915536286
 10
-776.6333603218247
 20
89.97571725870223
 10
-776.6316781716322
 20
89.97745399705387
 10
-776.6300060476749
 20
89.97919932007648
 10
-776.6283439922329
 20
89.98095317744975
 10
-776.6266136364368
 20
89.9827996506598
 10
-776.6248944257989
 20
89.98465537735994
 10
-776.6232078384048
 20
89.98649676849801
 10
-776.6215421527544
 20
89.98833602976185
 10
-776.6199070966483
 20
89.99016185734082
 10
-776.6182496621213
 20
89.99203369676518
 10
-776.6166033752168
 20
89.99391431912812
 10
-776.6149682827516
 20
89.99580366858312
 10
-776.613344431507
 20
89.99770168931414
 10
-776.611776508815
 20
89.99955524757874
 10
-776.6103079927234
 20
90.00131030097668
 10
-776.6088049745567
 20
90.00312601662252
 10
-776.6072246473827
 20
90.00505676074627
 10
-776.6056557870309
 20
90.0069959068232
 10
-776.6042277781033
 20
90.00878079076895
 10
-776.6028094794723
 20
90.0105726451309
 10
-776.6014009269593
 20
90.0123714271156
 10
-776.6000021563608
 20
90.01417709395525
 10
-776.5986923070866
 20
90.015885847395
 10
-776.5973233560424
 20
90.0176905687638
 10
-776.5958294618321
 20
90.01968249622321
 10
-776.594347380121
 20
90.02168241263558
 10
-776.5929992217259
 20
90.02352264014823
 10
-776.5916610636726
 20
90.02536949148903
 10
-776.5903329400493
 20
90.02722292292059
 10
-776.5890148789075
 20
90.029082886178
 10
-776.5877813758159
 20
90.03084250409677
 10
-776.5865322191054
 20
90.03264356555034
 10
-776.5852435375895
 20
90.03452222241165
 10
-776.5839892796494
 20
90.03637125493353
 10
-776.5827929739689
 20
90.03815418645166
 10
-776.5816057509293
 20
90.03994266925386
 10
-776.5804276326745
 20
90.04173666211018
 10
-776.5792794360127
 20
90.04350394285049
 10
-776.5781167587071
 20
90.04531291474265
 10
-776.5769517361078
 20
90.0471455812285
 10
-776.5757961359599
 20
90.048983726565
 10
-776.5745956383337
 20
90.05091523255842
 10
-776.5734055333052
 20
90.05285265578088
 10
-776.5722258471411
 20
90.0547959472427
 10
-776.5710566060852
 20
90.056745057985
 10
-776.5699637692303
 20
90.05858807699579
 10
-776.5688584704287
 20
90.06047357241286
 10
-776.5677197185535
 20
90.06243930941265
 10
-776.5666129049599
 20
90.06437307272064
 10
-776.5655586631897
 20
90.06623680018704
 10
-776.5643229625017
 20
90.06844920033669
 10
-776.5630049609655
 20
90.07084040624675
 10
-776.5616982493933
 20
90.07323574833886
 10
-776.5604035089368
 20
90.07563330178914
 10
-776.5591340944331
 20
90.07800784892144
 42
0.0052379196589499
 10
-776.5529339988249
 20
90.08996481755399
 10
-776.551893825945
 20
90.09203252342913
 10
-776.5507767047362
 20
90.09427407541975
 10
-776.5502213875791
 20
90.09539654560017
210
0.0
220
0.0
230
-1.0
  0
LINE
  5
2DE
330
1F
100
AcDbEntity
  8
0
  6
CONTINUOUS
 62
     7
100
AcDbLine
 10
747.5
 20
90.33524980732838
 30
0.0
 11
747.5
 21
86.6503513562616
 31
0.0
  0
ARC
  5
2DF
330
1F
100
AcDbEntity
  8
0
  6
CONTINUOUS
 62
     7
100
AcDbCircle
 10
-789.0
 20
90.33524980732838
 30
0.0
 40
0.5000000000000059
210
0.0
220
0.0
230
-1.0
100
AcDbArc
 50
193.2917191676425
 51
346.7082808323581
  0
LINE
  5
2E0
330
1F
100
AcDbEntity
  8
0
  6
CONTINUOUS
 62
     7
100
AcDbLine
 10
595.0
 20
199.1
 30
0.0
 11
589.5
 21
199.1
 31
0.0
  0
SPLINE
  5
2E1
330
1F
100
AcDbEntity
  8
0
  6
CONTINUOUS
 62
     7
100
AcDbSpline
210
0.0
220
0.0
230
1.0
 70
     8
 71
     3
 72
    20
 73
    16
 74
     0
 42
0.000000001
 43
0.0001
 40
0.2763578445423389
 40
0.2763578445423389
 40
0.2763578445423389
 40
0.2763578445423389
 40
0.3015625262527901
 40
0.3065136877635512
 40
0.3267672079632412
 40
0.3366695309847638
 40
0.3519718896736923
 40
0.3668253742059761
 40
0.3771765713841433
 40
0.3771765713841433
 40
0.3771765713841433
 40
0.3969812174271886
 40
0.3969812174271886
 40
0.3969812174271886
 40
1.0
 40
1.0
 40
1.0
 40
1.0
 10
777.0
 20
89.83524980732842
 30
0.0
 10
776.957541114095
 20
89.83524980732842
 30
0.0
 10
776.9067447700754
 20
89.84177071701754
 30
0.0
 10
776.8251035554297
 20
89.86521064669445
 30
0.0
 10
776.770523116168
 20
89.88877674927792
 30
0.0
 10
776.7055308587428
 20
89.9294513602491
 30
0.0
 10
776.6532185101938
 20
89.97239615034047
 30
0.0
 10
776.6074883423951
 20
90.02329936519565
 30
0.0
 10
776.5833514743388
 20
90.05829860909104
 30
0.0
 10
776.5742132711985
 20
90.07314949368738
 30
0.0
 10
776.5567294115493
 20
90.10156326146651
 30
0.0
 10
776.5420805393104
 20
90.13172388076296
 30
0.0
 10
776.5305902791341
 20
90.16304494689552
 30
0.0
 10
776.1807308225291
 20
91.11671971225599
 30
0.0
 10
775.8308713659239
 20
92.0703944776165
 30
0.0
 10
775.4810119093188
 20
93.02406924297696
 30
0.0
  0
ARC
  5
2E2
330
1F
100
AcDbEntity
  8
0
  6
CONTINUOUS
 62
     7
100
AcDbCircle
 10
591.0
 20
196.0
 30
0.0
 40
1.000000000000001
100
AcDbArc
 50
180.0
 51
270.0
  0
LINE
  5
2E3
330
1F
100
AcDbEntity
  8
0
  6
CONTINUOUS
 62
   253
100
AcDbLine
 10
636.4999999999999
 20
222.4598181667894
 30
0.0
 11
603.5
 21
222.4598181667894
 31
0.0
  0
LINE
  5
2E4
330
1F
100
AcDbEntity
  8
0
  6
CONTINUOUS
 62
     7
100
AcDbLine
 10
756.5
 20
58.8352498073284
 30
0.0
 11
760.0
 21
58.8352498073284
 31
0.0
  0
LINE
  5
2E5
330
1F
100
AcDbEntity
  8
0
  6
CONTINUOUS
 62
     7
100
AcDbLine
 10
756.5
 20
85.38246623098078
 30
0.0
 11
756.5
 21
86.6503513562616
 31
0.0
  0
LINE
  5
2E6
330
1F
100
AcDbEntity
  8
0
  6
CONTINUOUS
 62
     7
100
AcDbLine
 10
645.8850454583026
 20
236.4866060555965
 30
0.0
 11
650.344863625092
 21
237.5401818332106
 31
0.0
  0
ARC
  5
2E7
330
1F
100
AcDbEntity
  8
0
  6
CONTINUOUS
 62
     7
100
AcDbCircle
 10
-649.0
 20
196.0
 30
0.0
 40
1.000000000000001
210
0.0
220
0.0
230
-1.0
100
AcDbArc
 50
180.0
 51
270.0
  0
LINE
  5
2E8
330
1F
100
AcDbEntity
  8
0
  6
CONTINUOUS
 62
     7
100
AcDbLine
 10
756.5
 20
85.38246623098078
 30
0.0
 11
756.4999999999999
 21
76.93803338367606
 31
0.0
  0
LINE
  5
2E9
330
1F
100
AcDbEntity
  8
0
  6
CONTINUOUS
 62
   253
100
AcDbLine
 10
640.2245721957208
 20
210.4797539902963
 30
0.0
 11
640.224861435159
 21
210.4795651133367
 31
0.0
  0
LINE
  5
2EA
330
1F
100
AcDbEntity
  8
0
  6
CONTINUOUS
 62
     7
100
AcDbLine
 10
590.0
 20
201.9
 30
0.0
 11
590.0
 21
208.422993643069
 31
0.0
  0
LINE
  5
2EB
330
1F
100
AcDbEntity
  8
0
  6
CONTINUOUS
 62
   253
100
AcDbLine
 10
747.5
 20
86.6503513562616
 30
0.0
 11
715.0
 21
86.6503513562616
 31
0.0
  0
ARC
  5
2EC
330
1F
100
AcDbEntity
  8
0
  6
CONTINUOUS
 62
     7
100
AcDbCircle
 10
-783.0
 20
90.33524980732838
 30
0.0
 40
0.5000000000000059
210
0.0
220
0.0
230
-1.0
100
AcDbArc
 50
193.2917191676426
 51
346.7082808323581
  0
LINE
  5
2ED
330
1F
100
AcDbEntity
  8
0
  6
CONTINUOUS
 62
     7
100
AcDbLine
 10
756.5
 20
85.65269903286182
 30
0.0
 11
760.0
 21
85.65269903286182
 31
0.0
  0
LINE
  5
2EE
330
1F
100
AcDbEntity
  8
0
  6
CONTINUOUS
 62
     7
100
AcDbLine
 10
748.0
 20
86.6503513562616
 30
0.0
 11
748.0
 21
85.38246623098078
 31
0.0
  0
LINE
  5
2EF
330
1F
100
AcDbEntity
  8
0
  6
CONTINUOUS
 62
   253
100
AcDbLine
 10
599.7754278042792
 20
210.4797539902963
 30
0.0
 11
599.775138564841
 21
210.4795651133367
 31
0.0
  0
LINE
  5
2F0
330
1F
100
AcDbEntity
  8
0
  6
CONTINUOUS
 62
     7
100
AcDbLine
 10
756.4999999999999
 20
91.33524980732838
 30
0.0
 11
748.0
 21
91.33524980732844
 31
0.0
  0
ARC
  5
2F1
330
1F
100
AcDbEntity
  8
0
  6
CONTINUOUS
 62
     7
100
AcDbCircle
 10
650.0
 20
221.0
 30
0.0
 40
1.500000000000005
100
AcDbArc
 50
283.2917191676419
 51
76.70828083235824
  0
ARC
  5
2F2
330
1F
100
AcDbEntity
  8
0
  6
CONTINUOUS
 62
     7
100
AcDbCircle
 10
-590.0
 20
221.0
 30
0.0
 40
1.500000000000005
210
0.0
220
0.0
230
-1.0
100
AcDbArc
 50
283.2917191676419
 51
76.70828083235824
  0
LINE
  5
2F3
330
1F
100
AcDbEntity
  8
0
  6
CONTINUOUS
 62
   253
100
AcDbLine
 10
636.4999999999999
 20
234.4598181667894
 30
0.0
 11
603.5
 21
234.4598181667894
 31
0.0
  0
ARC
  5
2F4
330
1F
100
AcDbEntity
  8
0
  6
CONTINUOUS
 62
     7
100
AcDbCircle
 10
650.0
 20
233.0
 30
0.0
 40
1.499999999999978
100
AcDbArc
 50
283.2917191676419
 51
76.70828083235824
  0
LINE
  5
2F5
330
1F
100
AcDbEntity
  8
0
  6
CONTINUOUS
 62
     7
100
AcDbLine
 10
650.344863625092
 20
222.4598181667894
 30
0.0
 11
645.8850454583026
 21
223.5133939444036
 31
0.0
  0
LINE
  5
2F6
330
1F
100
AcDbEntity
  8
0
  6
CONTINUOUS
 62
     7
100
AcDbLine
 10
589.6551363749079
 20
222.4598181667894
 30
0.0
 11
594.1149545416973
 21
223.5133939444036
 31
0.0
  0
LINE
  5
2F7
330
1F
100
AcDbEntity
  8
0
  6
CONTINUOUS
 62
   253
100
AcDbLine
 10
636.4999999999999
 20
231.5401818332106
 30
0.0
 11
603.5
 21
231.5401818332106
 31
0.0
  0
LINE
  5
2F8
330
1F
100
AcDbEntity
  8
0
  6
CONTINUOUS
 62
     7
100
AcDbLine
 10
650.344863625092
 20
216.4598181667894
 30
0.0
 11
645.8850454583026
 21
217.5133939444036
 31
0.0
  0
LINE
  5
2F9
330
1F
100
AcDbEntity
  8
0
  6
CONTINUOUS
 62
   253
100
AcDbLine
 10
636.4999999999999
 20
228.4598181667894
 30
0.0
 11
603.5
 21
228.4598181667894
 31
0.0
  0
LINE
  5
2FA
330
1F
100
AcDbEntity
  8
0
  6
CONTINUOUS
 62
   253
100
AcDbLine
 10
650.344863625092
 20
222.4598181667894
 30
0.0
 11
636.4999999999999
 21
222.4598181667894
 31
0.0
  0
LINE
  5
2FB
330
1F
100
AcDbEntity
  8
0
  6
CONTINUOUS
 62
     7
100
AcDbLine
 10
650.344863625092
 20
228.4598181667894
 30
0.0
 11
645.8850454583026
 21
229.5133939444035
 31
0.0
  0
LINE
  5
2FC
330
1F
100
AcDbEntity
  8
0
  6
CONTINUOUS
 62
     7
100
AcDbLine
 10
589.5
 20
201.9
 30
0.0
 11
595.0
 21
201.9
 31
0.0
  0
ARC
  5
2FD
330
1F
100
AcDbEntity
  8
0
  6
CONTINUOUS
 62
     7
100
AcDbCircle
 10
-590.0
 20
227.0
 30
0.0
 40
1.499999999999978
210
0.0
220
0.0
230
-1.0
100
AcDbArc
 50
283.2917191676419
 51
76.70828083235824
  0
LINE
  5
2FE
330
1F
100
AcDbEntity
  8
0
  6
CONTINUOUS
 62
   253
100
AcDbLine
 10
636.4999999999999
 20
225.5401818332106
 30
0.0
 11
603.5
 21
225.5401818332106
 31
0.0
  0
LINE
  5
2FF
330
1F
100
AcDbEntity
  8
0
  6
CONTINUOUS
 62
   253
100
AcDbLine
 10
650.344863625092
 20
216.4598181667894
 30
0.0
 11
636.4999999999999
 21
216.4598181667894
 31
0.0
  0
LINE
  5
300
330
1F
100
AcDbEntity
  8
0
  6
CONTINUOUS
 62
     7
100
AcDbLine
 10
650.344863625092
 20
234.4598181667894
 30
0.0
 11
645.8850454583026
 21
235.5133939444035
 31
0.0
  0
LINE
  5
301
330
1F
100
AcDbEntity
  8
0
  6
CONTINUOUS
 62
     7
100
AcDbLine
 10
645.0
 20
201.9
 30
0.0
 11
595.0
 21
201.9
 31
0.0
  0
LINE
  5
302
330
1F
100
AcDbEntity
  8
0
  6
CONTINUOUS
 62
     7
100
AcDbLine
 10
645.0
 20
199.1
 30
0.0
 11
650.5
 21
199.1
 31
0.0
  0
LINE
  5
303
330
1F
100
AcDbEntity
  8
0
  6
CONTINUOUS
 62
   253
100
AcDbLine
 10
589.6551363749079
 20
222.4598181667894
 30
0.0
 11
603.5
 21
222.4598181667894
 31
0.0
  0
LINE
  5
304
330
1F
100
AcDbEntity
  8
0
  6
CONTINUOUS
 62
     7
100
AcDbLine
 10
651.5
 20
200.1
 30
0.0
 11
651.5
 21
200.9
 31
0.0
  0
LINE
  5
305
330
1F
100
AcDbEntity
  8
0
  6
CONTINUOUS
 62
     7
100
AcDbLine
 10
594.1149545416973
 20
218.4866060555965
 30
0.0
 11
589.6551363749079
 21
219.5401818332106
 31
0.0
  0
LINE
  5
306
330
1F
100
AcDbEntity
  8
0
  6
CONTINUOUS
 62
   253
100
AcDbLine
 10
650.344863625092
 20
219.5401818332106
 30
0.0
 11
636.4999999999999
 21
219.5401818332106
 31
0.0
  0
LINE
  5
307
330
1F
100
AcDbEntity
  8
0
  6
CONTINUOUS
 62
   253
100
AcDbLine
 10
650.344863625092
 20
225.5401818332106
 30
0.0
 11
636.4999999999999
 21
225.5401818332106
 31
0.0
  0
LINE
  5
308
330
1F
100
AcDbEntity
  8
0
  6
CONTINUOUS
 62
     7
100
AcDbLine
 10
645.8850454583026
 20
212.4866060555965
 30
0.0
 11
650.344863625092
 21
213.5401818332106
 31
0.0
  0
ARC
  5
309
330
1F
100
AcDbEntity
  8
0
  6
CONTINUOUS
 62
     7
100
AcDbCircle
 10
650.0
 20
227.0
 30
0.0
 40
1.499999999999978
100
AcDbArc
 50
283.2917191676419
 51
76.70828083235824
  0
LINE
  5
30A
330
1F
100
AcDbEntity
  8
0
  6
CONTINUOUS
 62
     7
100
AcDbLine
 10
645.8850454583026
 20
230.4866060555965
 30
0.0
 11
650.344863625092
 21
231.5401818332106
 31
0.0
  0
LINE
  5
30B
330
1F
100
AcDbEntity
  8
0
  6
CONTINUOUS
 62
     7
100
AcDbLine
 10
650.5
 20
201.9
 30
0.0
 11
645.0
 21
201.9
 31
0.0
  0
LINE
  5
30C
330
1F
100
AcDbEntity
  8
0
  6
CONTINUOUS
 62
   253
100
AcDbLine
 10
650.344863625092
 20
231.5401818332106
 30
0.0
 11
636.4999999999999
 21
231.5401818332106
 31
0.0
  0
LINE
  5
30D
330
1F
100
AcDbEntity
  8
0
  6
CONTINUOUS
 62
   253
100
AcDbLine
 10
650.344863625092
 20
228.4598181667894
 30
0.0
 11
636.4999999999999
 21
228.4598181667894
 31
0.0
  0
LINE
  5
30E
330
1F
100
AcDbEntity
  8
0
  6
CONTINUOUS
 62
   253
100
AcDbLine
 10
589.6551363749079
 20
219.5401818332106
 30
0.0
 11
603.5
 21
219.5401818332106
 31
0.0
  0
LINE
  5
30F
330
1F
100
AcDbEntity
  8
0
  6
CONTINUOUS
 62
   253
100
AcDbLine
 10
650.344863625092
 20
213.5401818332106
 30
0.0
 11
636.4999999999999
 21
213.5401818332106
 31
0.0
  0
ARC
  5
310
330
1F
100
AcDbEntity
  8
0
  6
CONTINUOUS
 62
     7
100
AcDbCircle
 10
-650.5
 20
200.1
 30
0.0
 40
1.000000000000001
210
0.0
220
0.0
230
-1.0
100
AcDbArc
 50
180.0
 51
270.0
  0
LINE
  5
311
330
1F
100
AcDbEntity
  8
0
  6
CONTINUOUS
 62
     7
100
AcDbLine
 10
595.0
 20
199.1
 30
0.0
 11
645.0
 21
199.1
 31
0.0
  0
LINE
  5
312
330
1F
100
AcDbEntity
  8
0
  6
CONTINUOUS
 62
   253
100
AcDbLine
 10
589.6551363749079
 20
234.4598181667894
 30
0.0
 11
603.5
 21
234.4598181667894
 31
0.0
  0
ARC
  5
313
330
1F
100
AcDbEntity
  8
0
  6
CONTINUOUS
 62
     7
100
AcDbCircle
 10
-590.0
 20
233.0
 30
0.0
 40
1.499999999999978
210
0.0
220
0.0
230
-1.0
100
AcDbArc
 50
283.2917191676419
 51
76.70828083235824
  0
LINE
  5
314
330
1F
100
AcDbEntity
  8
0
  6
CONTINUOUS
 62
     7
100
AcDbLine
 10
589.6551363749079
 20
216.4598181667894
 30
0.0
 11
594.1149545416973
 21
217.5133939444036
 31
0.0
  0
LINE
  5
315
330
1F
100
AcDbEntity
  8
0
  6
CONTINUOUS
 62
   253
100
AcDbLine
 10
589.6551363749079
 20
225.5401818332106
 30
0.0
 11
603.5
 21
225.5401818332106
 31
0.0
  0
LINE
  5
316
330
1F
100
AcDbEntity
  8
0
  6
CONTINUOUS
 62
   253
100
AcDbLine
 10
636.4999999999999
 20
213.5401818332106
 30
0.0
 11
603.5
 21
213.5401818332106
 31
0.0
  0
ARC
  5
317
330
1F
100
AcDbEntity
  8
0
  6
CONTINUOUS
 62
     7
100
AcDbCircle
 10
650.0
 20
215.0
 30
0.0
 40
1.500000000000005
100
AcDbArc
 50
283.2917191676419
 51
76.70828083235824
  0
LINE
  5
318
330
1F
100
AcDbEntity
  8
0
  6
CONTINUOUS
 62
     7
100
AcDbLine
 10
588.5
 20
200.1
 30
0.0
 11
588.5
 21
200.9
 31
0.0
  0
ARC
  5
319
330
1F
100
AcDbEntity
  8
0
  6
CONTINUOUS
 62
     7
100
AcDbCircle
 10
-650.5
 20
200.9
 30
0.0
 40
1.000000000000001
210
0.0
220
0.0
230
-1.0
100
AcDbArc
 50
89.99999999999982
 51
180.0
  0
LINE
  5
31A
330
1F
100
AcDbEntity
  8
0
  6
CONTINUOUS
 62
   253
100
AcDbLine
 10
650.344863625092
 20
234.4598181667894
 30
0.0
 11
636.4999999999999
 21
234.4598181667894
 31
0.0
  0
LINE
  5
31B
330
1F
100
AcDbEntity
  8
0
  6
CONTINUOUS
 62
   253
100
AcDbLine
 10
636.4999999999999
 20
216.4598181667894
 30
0.0
 11
603.5
 21
216.4598181667894
 31
0.0
  0
LINE
  5
31C
330
1F
100
AcDbEntity
  8
0
  6
CONTINUOUS
 62
   253
100
AcDbLine
 10
589.6551363749079
 20
231.5401818332106
 30
0.0
 11
603.5
 21
231.5401818332106
 31
0.0
  0
ENDSEC
  0
SECTION
  2
OBJECTS
  0
DICTIONARY
  5
C
330
0
100
AcDbDictionary
  3
ACAD_GROUP
350
D
  3
ACAD_LAYOUT
350
1A
  3
ACAD_MATERIAL
350
43
  3
ACAD_MLEADERSTYLE
350
6B
  3
ACAD_MLINESTYLE
350
17
  3
ACAD_PLOTSETTINGS
350
19
  3
ACAD_SCALELIST
350
47
  3
ACAD_VISUALSTYLE
350
2A
  3
ACDBHEADERROUNDTRIPXREC
350
31D
  3
ACDBVARIABLEDICTIONARY
350
33E
  0
DICTIONARY
  5
345
330
8
100
AcDbDictionary
280
     1
  3
ACAD_XREC_ROUNDTRIP
360
346
  0
DICTIONARY
  5
D
102
{ACAD_REACTORS
330
C
102
}
330
C
100
AcDbDictionary
  0
DICTIONARY
  5
1A
102
{ACAD_REACTORS
330
C
102
}
330
C
100
AcDbDictionary
  0
DICTIONARY
  5
43
102
{ACAD_REACTORS
330
C
102
}
330
C
100
AcDbDictionary
  3
BYBLOCK
350
45
  3
BYLAYER
350
44
  3
GLOBAL
350
46
  0
DICTIONARY
  5
6B
102
{ACAD_REACTORS
330
C
102
}
330
C
100
AcDbDictionary
  3
STANDARD
350
6C
  0
DICTIONARY
  5
17
102
{ACAD_REACTORS
330
C
102
}
330
C
100
AcDbDictionary
  3
STANDARD
350
18
  0
DICTIONARY
  5
19
102
{ACAD_REACTORS
330
C
102
}
330
C
100
AcDbDictionary
  0
DICTIONARY
  5
47
102
{ACAD_REACTORS
330
C
102
}
330
C
100
AcDbDictionary
  3
A0
350
48
  3
A1
350
49
  3
A2
350
4A
  3
A3
350
4B
  3
A4
350
4C
  3
A5
350
4D
  3
A6
350
4E
  3
A7
350
4F
  3
A8
350
50
  3
A9
350
51
  3
B0
350
52
  3
B1
350
53
  3
B2
350
54
  3
B3
350
55
  3
B4
350
56
  3
B5
350
57
  3
B6
350
58
  3
B7
350
59
  3
B8
350
5A
  3
B9
350
5B
  3
C0
350
5C
  3
C1
350
5D
  3
C2
350
5E
  3
C3
350
5F
  3
C4
350
60
  3
C5
350
61
  3
C6
350
62
  3
C7
350
63
  3
C8
350
64
  3
C9
350
65
  3
D0
350
66
  3
D1
350
67
  3
D2
350
68
  0
DICTIONARY
  5
2A
102
{ACAD_REACTORS
330
C
102
}
330
C
100
AcDbDictionary
  3
2DWIREFRAME
350
2F
  3
BASIC
350
32
  3
BRIGHTEN
350
36
  3
COLORCHANGE
350
3A
  3
CONCEPTUAL
350
34
  3
DIM
350
35
  3
EDGECOLOROFF
350
3D
  3
FACEPATTERN
350
39
  3
FLAT
350
2B
  3
FLATWITHEDGES
350
2C
  3
GOURAUD
350
2D
  3
GOURAUDWITHEDGES
350
2E
  3
HIDDEN
350
31
  3
JITTEROFF
350
3B
  3
LINEPATTERN
350
38
  3
OVERHANGOFF
350
3C
  3
REALISTIC
350
33
  3
SHADED
350
42
  3
SHADED_WITH_EDGES
350
41
  3
SHADES_OF_GRAY
350
3E
  3
SKETCHY
350
3F
  3
THICKEN
350
37
  3
WIREFRAME
350
30
  3
X-RAY
350
40
  0
DICTIONARY
  5
31D
102
{ACAD_REACTORS
330
C
102
}
330
C
100
AcDbDictionary
  3
CEPSNID
350
327
  3
CEPSNTYPE
350
326
  3
DIMSTYLEDATA
350
33D
  3
FINGERPRINTGUID
350
328
  3
HYPERLINKBASE
350
320
  3
INSUNITS
350
325
  3
LAYOUTDICT
350
322
  3
LWETCUNION
350
324
  3
PLOTSETDICT
350
323
  3
PSVPSCALE
350
32A
  3
PUCSBASE
350
32D
  3
PUCSORGBACK
350
333
  3
PUCSORGBOTTOM
350
32F
  3
PUCSORGFRONT
350
332
  3
PUCSORGLEFT
350
330
  3
PUCSORGRIGHT
350
331
  3
PUCSORGTOP
350
32E
  3
PUCSORTHOREF
350
32B
  3
PUCSORTHOVIEW
350
32C
  3
STYLESHEET
350
321
  3
TSTACKALIGN
350
31E
  3
TSTACKSIZE
350
31F
  3
UCSBASE
350
336
  3
UCSORGBACK
350
33C
  3
UCSORGBOTTOM
350
338
  3
UCSORGFRONT
350
33B
  3
UCSORGLEFT
350
339
  3
UCSORGRIGHT
350
33A
  3
UCSORGTOP
350
337
  3
UCSORTHOREF
350
334
  3
UCSORTHOVIEW
350
335
  3
VERSIONGUID
350
329
  0
DICTIONARY
  5
33E
102
{ACAD_REACTORS
330
C
102
}
330
C
100
AcDbDictionary
  3
CANNOSCALE
350
347
  3
CMLEADERSTYLE
350
340
  3
CTABLESTYLE
350
33F
  3
DIMASSOC
350
343
  3
HIDETEXT
350
344
  3
MSLTSCALE
350
348
  0
XRECORD
  5
346
102
{ACAD_REACTORS
330
345
102
}
330
345
100
AcDbXrecord
102
VTR_0.000_0.000_1.000_1.000_VISUALSTYLE
340
2F
102
VTR_0.000_0.000_1.000_1.000_GRIDDISPLAY
 70
     3
102
VTR_0.000_0.000_1.000_1.000_GRIDMAJOR
 70
     5
102
VTR_0.000_0.000_1.000_1.000_DEFAULTLIGHTING
280
     1
102
VTR_0.000_0.000_1.000_1.000_DEFAULTLIGHTINGTYPE
 70
     1
102
VTR_0.000_0.000_1.000_1.000_BRIGHTNESS
141
0.0
102
VTR_0.000_0.000_1.000_1.000_CONTRAST
142
0.0
  0
MATERIAL
  5
45
102
{ACAD_REACTORS
330
43
102
}
102
{ACAD_XDICTIONARY
360
34B
102
}
330
43
100
AcDbMaterial
  1
BYBLOCK
  0
MATERIAL
  5
44
102
{ACAD_REACTORS
330
43
102
}
102
{ACAD_XDICTIONARY
360
349
102
}
330
43
100
AcDbMaterial
  1
BYLAYER
  0
MATERIAL
  5
46
102
{ACAD_REACTORS
330
43
102
}
102
{ACAD_XDICTIONARY
360
34D
102
}
330
43
100
AcDbMaterial
  1
GLOBAL
  0
ACAD_PROXY_OBJECT
  5
6C
102
{ACAD_REACTORS
330
6B
102
}
330
6B
100
AcDbProxyObject
 90
      499
 91
      505
 93
      610
310
40901902A4063FBFFFFFE056BD1B81E855B9FC0AD7A3703D0AD73F4214DD185B99185C9900AD7A3703D0AC73F90141901A02B5E8DC0F42B1CFC02B5E8DC0F42B1CFE5764000000000000300FC0
340
14
340
0
340
11
340
0
 94
        0
1001
ACAD_MLEADERVER
1070
     2
  0
MLINESTYLE
  5
18
102
{ACAD_REACTORS
330
17
102
}
330
17
100
AcDbMlineStyle
  2
Standard
 70
     0
  3

 62
   256
 51
90.0
 52
90.0
 71
     2
 49
0.5
 62
   256
  6
BYLAYER
 49
-0.5
 62
   256
  6
BYLAYER
  0
ACAD_PROXY_OBJECT
  5
48
102
{ACAD_REACTORS
330
47
102
}
330
47
100
AcDbProxyObject
 90
      499
 91
      503
 93
       41
310
903313A31580
  0
ACAD_PROXY_OBJECT
  5
49
102
{ACAD_REACTORS
330
47
102
}
330
47
100
AcDbProxyObject
 90
      499
 91
      503
 93
      105
310
903313A324000000000000004000
  0
ACAD_PROXY_OBJECT
  5
4A
102
{ACAD_REACTORS
330
47
102
}
330
47
100
AcDbProxyObject
 90
      499
 91
      503
 93
      105
310
903313A344000000000000104000
  0
ACAD_PROXY_OBJECT
  5
4B
102
{ACAD_REACTORS
330
47
102
}
330
47
100
AcDbProxyObject
 90
      499
 91
      503
 93
      105
310
903313A354000000000000144000
  0
ACAD_PROXY_OBJECT
  5
4C
102
{ACAD_REACTORS
330
47
102
}
330
47
100
AcDbProxyObject
 90
      499
 91
      503
 93
      105
310
903313A384000000000000204000
  0
ACAD_PROXY_OBJECT
  5
4D
102
{ACAD_REACTORS
330
47
102
}
330
47
100
AcDbProxyObject
 90
      499
 91
      503
 93
      113
310
904313A31304000000000000244000
  0
ACAD_PROXY_OBJECT
  5
4E
102
{ACAD_REACTORS
330
47
102
}
330
47
100
AcDbProxyObject
 90
      499
 91
      503
 93
      113
310
904313A31364000000000000304000
  0
ACAD_PROXY_OBJECT
  5
4F
102
{ACAD_REACTORS
330
47
102
}
330
47
100
AcDbProxyObject
 90
      499
 91
      503
 93
      113
310
904313A32304000000000000344000
  0
ACAD_PROXY_OBJECT
  5
50
102
{ACAD_REACTORS
330
47
102
}
330
47
100
AcDbProxyObject
 90
      499
 91
      503
 93
      113
310
904313A333040000000000003E4000
  0
ACAD_PROXY_OBJECT
  5
51
102
{ACAD_REACTORS
330
47
102
}
330
47
100
AcDbProxyObject
 90
      499
 91
      503
 93
      113
310
904313A34304000000000000444000
  0
ACAD_PROXY_OBJECT
  5
52
102
{ACAD_REACTORS
330
47
102
}
330
47
100
AcDbProxyObject
 90
      499
 91
      503
 93
      113
310
904313A35304000000000000494000
  0
ACAD_PROXY_OBJECT
  5
53
102
{ACAD_REACTORS
330
47
102
}
330
47
100
AcDbProxyObject
 90
      499
 91
      503
 93
      121
310
905313A3130304000000000000594000
  0
ACAD_PROXY_OBJECT
  5
54
102
{ACAD_REACTORS
330
47
102
}
330
47
100
AcDbProxyObject
 90
      499
 91
      503
 93
      105
310
903323A310000000000000010100
  0
ACAD_PROXY_OBJECT
  5
55
102
{ACAD_REACTORS
330
47
102
}
330
47
100
AcDbProxyObject
 90
      499
 91
      503
 93
      105
310
903343A310000000000000410100
  0
ACAD_PROXY_OBJECT
  5
56
102
{ACAD_REACTORS
330
47
102
}
330
47
100
AcDbProxyObject
 90
      499
 91
      503
 93
      105
310
903383A310000000000000810100
  0
ACAD_PROXY_OBJECT
  5
57
102
{ACAD_REACTORS
330
47
102
}
330
47
100
AcDbProxyObject
 90
      499
 91
      503
 93
      113
310
90431303A310000000000000910100
  0
ACAD_PROXY_OBJECT
  5
58
102
{ACAD_REACTORS
330
47
102
}
330
47
100
AcDbProxyObject
 90
      499
 91
      503
 93
      121
310
9053130303A310000000000001650100
  0
ACAD_PROXY_OBJECT
  5
59
102
{ACAD_REACTORS
330
47
102
}
330
47
100
AcDbProxyObject
 90
      499
 91
      503
 93
      257
310
90E312F31323822203D2031272D3022000000000000200FC000000000000284000
  0
ACAD_PROXY_OBJECT
  5
5A
102
{ACAD_REACTORS
330
47
102
}
330
47
100
AcDbProxyObject
 90
      499
 91
      503
 93
      249
310
90D312F363422203D2031272D3022000000000000240FC000000000000284000
  0
ACAD_PROXY_OBJECT
  5
5B
102
{ACAD_REACTORS
330
47
102
}
330
47
100
AcDbProxyObject
 90
      499
 91
      503
 93
      249
310
90D312F333222203D2031272D3022000000000000280FC000000000000284000
  0
ACAD_PROXY_OBJECT
  5
5C
102
{ACAD_REACTORS
330
47
102
}
330
47
100
AcDbProxyObject
 90
      499
 91
      503
 93
      249
310
90D312F313622203D2031272D30220000000000002C0FC000000000000284000
  0
ACAD_PROXY_OBJECT
  5
5D
102
{ACAD_REACTORS
330
47
102
}
330
47
100
AcDbProxyObject
 90
      499
 91
      503
 93
      249
310
90D332F333222203D2031272D30220000000000002E0FC000000000000284000
  0
ACAD_PROXY_OBJECT
  5
5E
102
{ACAD_REACTORS
330
47
102
}
330
47
100
AcDbProxyObject
 90
      499
 91
      503
 93
      241
310
90C312F3822203D2031272D3022000000000000300FC000000000000284000
  0
ACAD_PROXY_OBJECT
  5
5F
102
{ACAD_REACTORS
330
47
102
}
330
47
100
AcDbProxyObject
 90
      499
 91
      503
 93
      249
310
90D332F313622203D2031272D3022000000000000320FC000000000000284000
  0
ACAD_PROXY_OBJECT
  5
60
102
{ACAD_REACTORS
330
47
102
}
330
47
100
AcDbProxyObject
 90
      499
 91
      503
 93
      241
310
90C312F3422203D2031272D3022000000000000340FC000000000000284000
  0
ACAD_PROXY_OBJECT
  5
61
102
{ACAD_REACTORS
330
47
102
}
330
47
100
AcDbProxyObject
 90
      499
 91
      503
 93
      241
310
90C332F3822203D2031272D3022000000000000360FC000000000000284000
  0
ACAD_PROXY_OBJECT
  5
62
102
{ACAD_REACTORS
330
47
102
}
330
47
100
AcDbProxyObject
 90
      499
 91
      503
 93
      241
310
90C312F3222203D2031272D3022000000000000380FC000000000000284000
  0
ACAD_PROXY_OBJECT
  5
63
102
{ACAD_REACTORS
330
47
102
}
330
47
100
AcDbProxyObject
 90
      499
 91
      503
 93
      241
310
90C332F3422203D2031272D30220000000000003A0FC000000000000284000
  0
ACAD_PROXY_OBJECT
  5
64
102
{ACAD_REACTORS
330
47
102
}
330
47
100
AcDbProxyObject
 90
      499
 91
      503
 93
      161
310
90A3122203D2031272D30224000000000000284000
  0
ACAD_PROXY_OBJECT
  5
65
102
{ACAD_REACTORS
330
47
102
}
330
47
100
AcDbProxyObject
 90
      499
 91
      503
 93
      257
310
90E312D312F3222203D2031272D30220000000000003E0FC000000000000284000
  0
ACAD_PROXY_OBJECT
  5
66
102
{ACAD_REACTORS
330
47
102
}
330
47
100
AcDbProxyObject
 90
      499
 91
      503
 93
      225
310
90A3322203D2031272D302200000000000002100000000000000284000
  0
ACAD_PROXY_OBJECT
  5
67
102
{ACAD_REACTORS
330
47
102
}
330
47
100
AcDbProxyObject
 90
      499
 91
      503
 93
      225
310
90A3622203D2031272D302200000000000006100000000000000284000
  0
ACAD_PROXY_OBJECT
  5
68
102
{ACAD_REACTORS
330
47
102
}
330
47
100
AcDbProxyObject
 90
      499
 91
      503
 93
      249
310
90D31272D3022203D2031272D30220000000000000A100000000000000284000
  0
ACAD_PROXY_OBJECT
  5
2F
102
{ACAD_REACTORS
330
2A
102
}
330
2A
100
AcDbProxyObject
 90
      499
 91
      501
 93
      436
310
42CC9915DA5C99599C985B595049028333333333333E33F0000000000000F90107901411070040501600405405064090741402480A0340
1001
ACAD
1000
AcDbSavedByObjectVersion
1070
     0
  0
ACAD_PROXY_OBJECT
  5
32
102
{ACAD_REACTORS
330
2A
102
}
330
2A
100
AcDbProxyObject
 90
      499
 91
      501
 93
      388
310
4150985CDA58D07406404333333333333E33F0000000000000F90107A41107004050150841D405064090741402480A0350
1001
ACAD
1000
AcDbSavedByObjectVersion
1070
     0
  0
ACAD_PROXY_OBJECT
  5
36
102
{ACAD_REACTORS
330
2A
102
}
330
2A
100
AcDbProxyObject
 90
      499
 91
      501
 93
      428
310
42109C9A59DA1D195B90C409028333333333333E33F0000000000000F9010790141107004050150841D405064090741402480A029950
1001
ACAD
1000
AcDbSavedByObjectVersion
1070
     0
  0
ACAD_PROXY_OBJECT
  5
3A
102
{ACAD_REACTORS
330
2A
102
}
330
2A
100
AcDbProxyObject
 90
      499
 91
      501
 93
      452
310
42D0DBDB1BDC90DA185B99D95104090240C333333333333E33F0000000000000F90108901411070040501508421405064090741402480A0350
1001
ACAD
1000
AcDbSavedByObjectVersion
1070
     0
  0
ACAD_PROXY_OBJECT
  5
34
102
{ACAD_REACTORS
330
2A
102
}
330
2A
100
AcDbProxyObject
 90
      499
 91
      501
 93
      500
310
4290DBDB98D95C1D1D585B10940D028333333333333E33F0000000000000F90107902409070040501000000000018199010841D405064090740C02480A0340
1001
ACAD
1000
AcDbSavedByObjectVersion
1070
     0
  0
ACAD_PROXY_OBJECT
  5
35
102
{ACAD_REACTORS
330
2A
102
}
330
2A
100
AcDbProxyObject
 90
      499
 91
      501
 93
      412
310
40D11A5B50B409028333333333333E33F0000000000000F9010790141107004050150841D405064090741402480A02677FFFFFD0
1001
ACAD
1000
AcDbSavedByObjectVersion
1070
     0
  0
ACAD_PROXY_OBJECT
  5
3D
102
{ACAD_REACTORS
330
2A
102
}
330
2A
100
AcDbProxyObject
 90
      499
 91
      501
 93
      452
310
43115919D950DBDB1BDC93D999916409028333333333333E33F0000000000000F9010790141107004050150841D405064090741402480A0350
1001
ACAD
1000
AcDbSavedByObjectVersion
1070
     0
  0
ACAD_PROXY_OBJECT
  5
39
102
{ACAD_REACTORS
330
2A
102
}
330
2A
100
AcDbProxyObject
 90
      499
 91
      501
 93
      444
310
42D19858D95C185D1D195C9B90F409028333333333333E33F0000000000000F9010790141107004050150841D405064090741402480A0350
1001
ACAD
1000
AcDbSavedByObjectVersion
1070
     0
  0
ACAD_PROXY_OBJECT
  5
2B
102
{ACAD_REACTORS
330
2A
102
}
330
2A
100
AcDbProxyObject
 90
      499
 91
      501
 93
      380
310
41119B185D240901404333333333333E33F0000000000000F9010740A907004050150841D405064090741402480A1B50
1001
ACAD
1000
AcDbSavedByObjectVersion
1070
     0
  0
ACAD_PROXY_OBJECT
  5
2C
102
{ACAD_REACTORS
330
2A
102
}
330
2A
100
AcDbProxyObject
 90
      499
 91
      501
 93
      468
310
43519B185D15DA5D1A115919D95CD0140901404333333333333E33F0000000000000F90107409019070040501600405405064090741402480A1B50
1001
ACAD
1000
AcDbSavedByObjectVersion
1070
     0
  0
ACAD_PROXY_OBJECT
  5
2D
102
{ACAD_REACTORS
330
2A
102
}
330
2A
100
AcDbProxyObject
 90
      499
 91
      501
 93
      404
310
41D1DBDD5C985D5910240902404333333333333E33F0000000000000F9010740A9070040501641D405064090741402480A1B50
1001
ACAD
1000
AcDbSavedByObjectVersion
1070
     0
  0
ACAD_PROXY_OBJECT
  5
2E
102
{ACAD_REACTORS
330
2A
102
}
330
2A
100
AcDbProxyObject
 90
      499
 91
      501
 93
      492
310
4411DBDD5C985D5915DA5D1A115919D95CD0340902404333333333333E33F0000000000000F90107409019070040501600405405064090741402480A1B50
1001
ACAD
1000
AcDbSavedByObjectVersion
1070
     0
  0
ACAD_PROXY_OBJECT
  5
31
102
{ACAD_REACTORS
330
2A
102
}
330
2A
100
AcDbProxyObject
 90
      499
 91
      501
 93
      476
310
41921A5919195B90640502408333333333333E33F0000000000000F901079024090700405020000000000001110200405405064090740C02480A0340
1001
ACAD
1000
AcDbSavedByObjectVersion
1070
     0
  0
ACAD_PROXY_OBJECT
  5
3B
102
{ACAD_REACTORS
330
2A
102
}
330
2A
100
AcDbProxyObject
 90
      499
 91
      501
 93
      428
310
42529A5D1D195C93D999914409028333333333333E33F0000000000000F9010790141107004050150A41D405064090741402480A0350
1001
ACAD
1000
AcDbSavedByObjectVersion
1070
     0
  0
ACAD_PROXY_OBJECT
  5
38
102
{ACAD_REACTORS
330
2A
102
}
330
2A
100
AcDbProxyObject
 90
      499
 91
      501
 93
      444
310
42D31A5B995C185D1D195C9B90E409028333333333333E33F0000000000000F9010790141107004050750841D405064090741402483A0350
1001
ACAD
1000
AcDbSavedByObjectVersion
1070
     0
  0
ACAD_PROXY_OBJECT
  5
3C
102
{ACAD_REACTORS
330
2A
102
}
330
2A
100
AcDbProxyObject
 90
      499
 91
      501
 93
      444
310
42D3DD995C9A185B99D3D999915409028333333333333E33F0000000000000F9010790141107004050150941D405064090741402480A0350
1001
ACAD
1000
AcDbSavedByObjectVersion
1070
     0
  0
ACAD_PROXY_OBJECT
  5
33
102
{ACAD_REACTORS
330
2A
102
}
330
2A
100
AcDbProxyObject
 90
      499
 91
      501
 93
      428
310
425499585B1A5CDD1A58D08409038333333333333E33F0000000000000F9010740A907004050150800405405064090740C02480A1B40
1001
ACAD
1000
AcDbSavedByObjectVersion
1070
     0
  0
ACAD_PROXY_OBJECT
  5
42
102
{ACAD_REACTORS
330
2A
102
}
330
2A
100
AcDbProxyObject
 90
      499
 91
      501
 93
      420
310
4194DA1859195911B40902404333333333333E33F0000000000000F9010740A41107004050150800405405064090840C02480A0B40
1001
ACAD
1000
AcDbSavedByObjectVersion
1070
     0
  0
ACAD_PROXY_OBJECT
  5
41
102
{ACAD_REACTORS
330
2A
102
}
330
2A
100
AcDbProxyObject
 90
      499
 91
      501
 93
      516
310
4454DA18591959081DDA5D1A08195919D95CD1A40902404333333333333E33F0000000000000F901074090142907004050250800405405064090740C02480A0B40
1001
ACAD
1000
AcDbSavedByObjectVersion
1070
     0
  0
ACAD_PROXY_OBJECT
  5
3E
102
{ACAD_REACTORS
330
2A
102
}
330
2A
100
AcDbProxyObject
 90
      499
 91
      501
 93
      532
310
4394DA1859195CC81BD98811DC985E5174090240C333333333333E33F0000000000000F901079024090741D01000000000000111010841D405064090740C02480A0340
1001
ACAD
1000
AcDbSavedByObjectVersion
1070
     0
  0
ACAD_PROXY_OBJECT
  5
3F
102
{ACAD_REACTORS
330
2A
102
}
330
2A
100
AcDbProxyObject
 90
      499
 91
      501
 93
      476
310
41D4DAD95D18DA1E51840502408333333333333E33F0000000000000F901079024090741D01000000000000111010B41D405064090741802480A0340
1001
ACAD
1000
AcDbSavedByObjectVersion
1070
     0
  0
ACAD_PROXY_OBJECT
  5
37
102
{ACAD_REACTORS
330
2A
102
}
330
2A
100
AcDbProxyObject
 90
      499
 91
      501
 93
      412
310
41D51A1A58DAD95B90D409028333333333333E33F0000000000000F9010790141107004050150C41D405064090741402480A0350
1001
ACAD
1000
AcDbSavedByObjectVersion
1070
     0
  0
ACAD_PROXY_OBJECT
  5
30
102
{ACAD_REACTORS
330
2A
102
}
330
2A
100
AcDbProxyObject
 90
      499
 91
      501
 93
      420
310
4255DA5C99599C985B595059028333333333333E33F0000000000000F90107901411070040501600405405064090740C02480A0340
1001
ACAD
1000
AcDbSavedByObjectVersion
1070
     0
  0
ACAD_PROXY_OBJECT
  5
40
102
{ACAD_REACTORS
330
2A
102
}
330
2A
100
AcDbProxyObject
 90
      499
 91
      501
 93
      404
310
41560B54985E51940902404000000000000E03F0000000000000F9010740501907004050150841D405064090740C02480A1B40
1001
ACAD
1000
AcDbSavedByObjectVersion
1070
     0
  0
XRECORD
  5
327
102
{ACAD_REACTORS
330
31D
102
}
330
31D
100
AcDbXrecord
340
0
  0
XRECORD
  5
326
102
{ACAD_REACTORS
330
31D
102
}
330
31D
100
AcDbXrecord
 90
        0
  0
XRECORD
  5
33D
102
{ACAD_REACTORS
330
31D
102
}
330
31D
100
AcDbXrecord
1000
DSTYLE
1002
{
1070
   179
 70
     2
1070
   171
 70
     2
1070
   143
 40
25.4
1070
   274
 70
     2
1070
    41
 40
3.0
1070
   141
 40
0.09
1070
    43
 40
0.38
1070
   278
 70
    46
1070
    44
 40
1.5
1070
    42
 40
0.0625
1070
   147
 40
1.5
1070
   272
 70
     4
1070
    73
 70
     1
1070
   172
 70
     0
1070
    74
 70
     1
1070
   283
 70
     1
1070
   340
340
6E
1070
   140
 40
3.0
1070
   284
 70
     0
1070
    78
 70
     0
1002
}
  0
XRECORD
  5
328
102
{ACAD_REACTORS
330
31D
102
}
330
31D
100
AcDbXrecord
  1
{7C40C3A7-333F-4C1F-BF37-09003ED3EA2E}
  0
XRECORD
  5
320
102
{ACAD_REACTORS
330
31D
102
}
330
31D
100
AcDbXrecord
  1

  0
XRECORD
  5
325
102
{ACAD_REACTORS
330
31D
102
}
330
31D
100
AcDbXrecord
 90
        4
  0
XRECORD
  5
322
102
{ACAD_REACTORS
330
31D
102
}
330
31D
100
AcDbXrecord
340
1A
  0
XRECORD
  5
324
102
{ACAD_REACTORS
330
31D
102
}
330
31D
100
AcDbXrecord
 90
    10269
  0
XRECORD
  5
323
102
{ACAD_REACTORS
330
31D
102
}
330
31D
100
AcDbXrecord
340
19
  0
XRECORD
  5
32A
102
{ACAD_REACTORS
330
31D
102
}
330
31D
100
AcDbXrecord
 40
0.0
  0
XRECORD
  5
32D
102
{ACAD_REACTORS
330
31D
102
}
330
31D
100
AcDbXrecord
340
0
  0
XRECORD
  5
333
102
{ACAD_REACTORS
330
31D
102
}
330
31D
100
AcDbXrecord
 10
0.0
 20
0.0
 30
0.0
  0
XRECORD
  5
32F
102
{ACAD_REACTORS
330
31D
102
}
330
31D
100
AcDbXrecord
 10
0.0
 20
0.0
 30
0.0
  0
XRECORD
  5
332
102
{ACAD_REACTORS
330
31D
102
}
330
31D
100
AcDbXrecord
 10
0.0
 20
0.0
 30
0.0
  0
XRECORD
  5
330
102
{ACAD_REACTORS
330
31D
102
}
330
31D
100
AcDbXrecord
 10
0.0
 20
0.0
 30
0.0
  0
XRECORD
  5
331
102
{ACAD_REACTORS
330
31D
102
}
330
31D
100
AcDbXrecord
 10
0.0
 20
0.0
 30
0.0
  0
XRECORD
  5
32E
102
{ACAD_REACTORS
330
31D
102
}
330
31D
100
AcDbXrecord
 10
0.0
 20
0.0
 30
0.0
  0
XRECORD
  5
32B
102
{ACAD_REACTORS
330
31D
102
}
330
31D
100
AcDbXrecord
340
0
  0
XRECORD
  5
32C
102
{ACAD_REACTORS
330
31D
102
}
330
31D
100
AcDbXrecord
 70
     0
  0
XRECORD
  5
321
102
{ACAD_REACTORS
330
31D
102
}
330
31D
100
AcDbXrecord
  1

  0
XRECORD
  5
31E
102
{ACAD_REACTORS
330
31D
102
}
330
31D
100
AcDbXrecord
 90
        1
  0
XRECORD
  5
31F
102
{ACAD_REACTORS
330
31D
102
}
330
31D
100
AcDbXrecord
 90
       70
  0
XRECORD
  5
336
102
{ACAD_REACTORS
330
31D
102
}
330
31D
100
AcDbXrecord
340
0
  0
XRECORD
  5
33C
102
{ACAD_REACTORS
330
31D
102
}
330
31D
100
AcDbXrecord
 10
0.0
 20
0.0
 30
0.0
  0
XRECORD
  5
338
102
{ACAD_REACTORS
330
31D
102
}
330
31D
100
AcDbXrecord
 10
0.0
 20
0.0
 30
0.0
  0
XRECORD
  5
33B
102
{ACAD_REACTORS
330
31D
102
}
330
31D
100
AcDbXrecord
 10
0.0
 20
0.0
 30
0.0
  0
XRECORD
  5
339
102
{ACAD_REACTORS
330
31D
102
}
330
31D
100
AcDbXrecord
 10
0.0
 20
0.0
 30
0.0
  0
XRECORD
  5
33A
102
{ACAD_REACTORS
330
31D
102
}
330
31D
100
AcDbXrecord
 10
0.0
 20
0.0
 30
0.0
  0
XRECORD
  5
337
102
{ACAD_REACTORS
330
31D
102
}
330
31D
100
AcDbXrecord
 10
0.0
 20
0.0
 30
0.0
  0
XRECORD
  5
334
102
{ACAD_REACTORS
330
31D
102
}
330
31D
100
AcDbXrecord
340
0
  0
XRECORD
  5
335
102
{ACAD_REACTORS
330
31D
102
}
330
31D
100
AcDbXrecord
 70
     0
  0
XRECORD
  5
329
102
{ACAD_REACTORS
330
31D
102
}
330
31D
100
AcDbXrecord
  1
{FAEB1C32-E019-11D5-929B-00C0DF256EC4}
  0
DICTIONARYVAR
  5
347
102
{ACAD_REACTORS
330
33E
102
}
330
33E
100
DictionaryVariables
280
     0
  1
1:1
  0
DICTIONARYVAR
  5
340
102
{ACAD_REACTORS
330
33E
102
}
330
33E
100
DictionaryVariables
280
     0
  1
Standard
  0
DICTIONARYVAR
  5
33F
102
{ACAD_REACTORS
330
33E
102
}
330
33E
100
DictionaryVariables
280
     0
  1
Standard
  0
DICTIONARYVAR
  5
343
102
{ACAD_REACTORS
330
33E
102
}
330
33E
100
DictionaryVariables
280
     0
  1
2
  0
DICTIONARYVAR
  5
344
102
{ACAD_REACTORS
330
33E
102
}
330
33E
100
DictionaryVariables
280
     0
  1
1
  0
DICTIONARYVAR
  5
348
102
{ACAD_REACTORS
330
33E
102
}
330
33E
100
DictionaryVariables
280
     0
  1
1
  0
DICTIONARY
  5
34B
330
45
100
AcDbDictionary
280
     1
  3
ACAD_XREC_ROUNDTRIP
360
34C
  0
DICTIONARY
  5
349
330
44
100
AcDbDictionary
280
     1
  3
ACAD_XREC_ROUNDTRIP
360
34A
  0
DICTIONARY
  5
34D
330
46
100
AcDbDictionary
280
     1
  3
ACAD_XREC_ROUNDTRIP
360
34E
  0
XRECORD
  5
34C
102
{ACAD_REACTORS
330
34B
102
}
330
34B
100
AcDbXrecord
102
MATERIAL
148
0.0
149
0.0
149
0.0
 93
        0
 94
      127
282
     0
 72
     1
 77
     1
171
     1
175
     1
179
     1
273
     0
  0
XRECORD
  5
34A
102
{ACAD_REACTORS
330
349
102
}
330
349
100
AcDbXrecord
102
MATERIAL
148
0.0
149
0.0
149
0.0
 93
        0
 94
      127
282
     0
 72
     1
 77
     1
171
     1
175
     1
179
     1
273
     0
  0
XRECORD
  5
34E
102
{ACAD_REACTORS
330
34D
102
}
330
34D
100
AcDbXrecord
102
MATERIAL
148
0.0
149
0.0
149
0.0
 93
        0
 94
      127
282
     0
 72
     1
 77
     1
171
     1
175
     1
179
     1
273
     0
  0
ENDSEC
  0
EOF
