  0
SECTION
  2
HEADER
  9
$ACADVER
  1
AC1004
  9
$INSBASE
 10
0.0
 20
0.0
  9
$EXTMIN
 10
0.0
 20
-28.54545454545454
  9
$EXTMAX
 10
1295.0
 20
982.9999999999999
  9
$LIMMIN
 10
0.0
 20
0.0
  9
$LIMMAX
 10
12.0
 20
9.0
  9
$ORTHOMODE
 70
     0
  9
$REGENMODE
 70
     1
  9
$FILLMODE
 70
     1
  9
$QTEXTMODE
 70
     0
  9
$DRAGMODE
 70
     2
  9
$LTSCALE
 40
1.0
  9
$OSMODE
 70
    37
  9
$ATTMODE
 70
     1
  9
$TEXTSIZE
 40
0.2
  9
$TRACEWID
 40
0.05
  9
$TEXTSTYLE
  7
STANDARD
  9
$CLAYER
  8
0
  9
$CELTYPE
  6
BYLAYER
  9
$CECOLOR
 62
   256
  9
$DIMSCALE
 40
1.0
  9
$DIMASZ
 40
3.0
  9
$DIMEXO
 40
0.0625
  9
$DIMDLI
 40
0.38
  9
$DIMRND
 40
0.0
  9
$DIMDLE
 40
0.0
  9
$DIMEXE
 40
1.5
  9
$DIMTP
 40
0.0
  9
$DIMTM
 40
0.0
  9
$DIMTXT
 40
3.0
  9
$DIMCEN
 40
0.09
  9
$DIMTSZ
 40
0.0
  9
$DIMTOL
 70
     0
  9
$DIMLIM
 70
     0
  9
$DIMTIH
 70
     1
  9
$DIMTOH
 70
     1
  9
$DIMSE1
 70
     0
  9
$DIMSE2
 70
     0
  9
$DIMTAD
 70
     1
  9
$DIMZIN
 70
     0
  9
$DIMBLK
  1

  9
$DIMASO
 70
     1
  9
$DIMSHO
 70
     1
  9
$DIMPOST
  1

  9
$DIMAPOST
  1

  9
$DIMALT
 70
     0
  9
$DIMALTD
 70
     2
  9
$DIMALTF
 40
25.4
  9
$DIMLFAC
 40
1.0
  9
$DIMTOFL
 70
     0
  9
$DIMTVP
 40
0.0
  9
$DIMTIX
 70
     0
  9
$DIMSOXD
 70
     0
  9
$DIMSAH
 70
     0
  9
$DIMBLK1
  1

  9
$DIMBLK2
  1

  9
$LUNITS
 70
     2
  9
$LUPREC
 70
     4
  9
$SKETCHINC
 40
0.1
  9
$FILLETRAD
 40
0.5
  9
$AUNITS
 70
     0
  9
$AUPREC
 70
     0
  9
$MENU
  1
.
  9
$ELEVATION
 40
0.0
  9
$THICKNESS
 40
0.0
  9
$LIMCHECK
 70
     0
  9
$CHAMFERA
 40
0.0
  9
$CHAMFERB
 40
0.0
  9
$SKPOLY
 70
     0
  9
$TDCREATE
 40
2460256.553480868
  9
$TDUPDATE
 40
2460256.553481458
  9
$TDINDWG
 40
0.0000000116
  9
$TDUSRTIMER
 40
0.0000000116
  9
$USRTIMER
 70
     1
  9
$ANGBASE
 50
0.0
  9
$ANGDIR
 70
     0
  9
$PDMODE
 70
     0
  9
$PDSIZE
 40
0.0
  9
$PLINEWID
 40
0.0
  9
$COORDS
 70
     1
  9
$SPLFRAME
 70
     0
  9
$SPLINETYPE
 70
     6
  9
$SPLINESEGS
 70
     8
  9
$ATTDIA
 70
     0
  9
$ATTREQ
 70
     1
  9
$SURFTAB1
 70
     6
  9
$SURFTAB2
 70
     6
  9
$SURFTYPE
 70
     6
  9
$SURFU
 70
     6
  9
$SURFV
 70
     6
  9
$UCSNAME
  2

  9
$UCSORG
 10
0.0
 20
0.0
 30
0.0
  9
$UCSXDIR
 10
1.0
 20
0.0
 30
0.0
  9
$UCSYDIR
 10
0.0
 20
1.0
 30
0.0
  9
$USERI1
 70
     0
  9
$USERI2
 70
     0
  9
$USERI3
 70
     0
  9
$USERI4
 70
     0
  9
$USERI5
 70
     0
  9
$USERR1
 40
0.0
  9
$USERR2
 40
0.0
  9
$USERR3
 40
0.0
  9
$USERR4
 40
0.0
  9
$USERR5
 40
0.0
  9
$WORLDVIEW
 70
     1
  0
ENDSEC
  0
SECTION
  2
TABLES
  0
TABLE
  2
LTYPE
 70
     3
  0
LTYPE
  2
CONTINUOUS
 70
     0
  3
Solid line
 72
    65
 73
     0
 40
0.0
  0
LTYPE
  2
DASHED
 70
     0
  3

 72
    65
 73
     0
 40
0.0
  0
LTYPE
  2
CENTER
 70
     0
  3

 72
    65
 73
     0
 40
0.0
  0
ENDTAB
  0
TABLE
  2
LAYER
 70
     1
  0
LAYER
  2
0
 70
     0
 62
     7
  6
CONTINUOUS
  0
ENDTAB
  0
TABLE
  2
STYLE
 70
     2
  0
STYLE
  2
STANDARD
 70
     0
 40
0.0
 41
1.0
 50
0.0
 71
     0
 42
0.2
  3
txt
  4

  0
STYLE
  2
ＭＳ_ゴシック
 70
     0
 40
0.0
 41
1.0
 50
0.0
 71
     0
 42
0.2
  3
ＭＳ ゴシック.shx
  4

  0
ENDTAB
  0
TABLE
  2
VIEW
 70
     0
  0
ENDTAB
  0
ENDSEC
  0
SECTION
  2
BLOCKS
  0
BLOCK
  8
0
  2
D_FRAME_DRAWING_17
 70
     0
 10
0.0
 20
0.0
  0
LINE
  8
0
  6
CONTINUOUS
 62
     7
 10
0.0
 20
0.0
 11
210.0
 21
0.0
  0
LINE
  8
0
  6
CONTINUOUS
 62
     7
 10
210.0
 20
0.0
 11
210.0
 21
297.0
  0
LINE
  8
0
  6
CONTINUOUS
 62
     7
 10
210.0
 20
297.0
 11
0.0
 21
297.0
  0
LINE
  8
0
  6
CONTINUOUS
 62
     7
 10
0.0
 20
297.0
 11
0.0
 21
0.0
  0
ENDBLK
  8
0
  0
BLOCK
  8
0
  2
D_FRAME_VIEW_1288
 70
     0
 10
0.0
 20
0.0
  0
LINE
  8
0
  6
CONTINUOUS
 62
     7
 10
413.6999999999998
 20
57.03515295179469
 11
408.86215327778
 21
67.40994872795977
  0
ARC
  8
0
  6
CONTINUOUS
 62
     7
 10
414.2999999999999
 20
69.94565829840396
 40
6.000000000000005
 50
180.0
 51
204.9999999999999
  0
LINE
  8
0
  6
CONTINUOUS
 62
     7
 10
408.2999999999999
 20
69.94565829840396
 11
408.2999999999999
 21
73.1002369397235
  0
LINE
  8
0
  6
CONTINUOUS
 62
     7
 10
351.6999999999999
 20
73.1002369397235
 11
408.2999999999999
 21
73.1002369397235
  0
LINE
  8
0
  6
CONTINUOUS
 62
     7
 10
351.6999999999999
 20
69.94565829840396
 11
351.6999999999999
 21
73.1002369397235
  0
ARC
  8
0
  6
CONTINUOUS
 62
     7
 10
345.6999999999999
 20
69.94565829840396
 40
6.000000000000005
 50
334.9999999999999
 51
0.0
  0
LINE
  8
0
  6
CONTINUOUS
 62
     7
 10
346.3
 20
57.03515295179469
 11
351.1378467222198
 21
67.40994872795977
  0
LINE
  8
0
  6
CONTINUOUS
 62
     7
 10
346.3
 20
25.7002369397235
 11
346.3
 21
57.03515295179469
  0
LINE
  8
0
  6
CONTINUOUS
 62
     7
 10
413.6999999999998
 20
25.7002369397235
 11
346.3
 21
25.7002369397235
  0
LINE
  8
0
  6
CONTINUOUS
 62
     7
 10
413.6999999999998
 20
25.7002369397235
 11
413.6999999999998
 21
57.03515295179469
  0
ARC
  8
0
  6
CONTINUOUS
 62
     7
 10
346.3
 20
25.7002369397235
 40
3.000000000000003
 50
180.0
 51
270.0000000000002
  0
LINE
  8
0
  6
CONTINUOUS
 62
     7
 10
343.3
 20
25.7002369397235
 11
343.3
 21
57.0351529517947
  0
ARC
  8
0
  6
CONTINUOUS
 62
     7
 10
346.3
 20
57.03515295179469
 40
3.00000000000001
 50
154.9999999999999
 51
179.9999999999997
  0
ARC
  8
0
  6
CONTINUOUS
 62
     7
 10
345.6999999999999
 20
69.94565829840396
 40
3.000000000000003
 50
334.9999999999999
 51
0.0
  0
ARC
  8
0
  6
CONTINUOUS
 62
     7
 10
349.6999999999999
 20
75.1002369397235
 40
1.000000000000001
 50
90.0
 51
180.0
  0
LINE
  8
0
  6
CONTINUOUS
 62
     7
 10
349.6999999999999
 20
76.1002369397235
 11
410.2999999999999
 21
76.1002369397235
  0
ARC
  8
0
  6
CONTINUOUS
 62
     7
 10
410.2999999999999
 20
75.1002369397235
 40
1.000000000000001
 50
0.0
 51
90.0
  0
LINE
  8
0
  6
CONTINUOUS
 62
     7
 10
411.2999999999999
 20
69.94565829840396
 11
411.2999999999999
 21
75.1002369397235
  0
ARC
  8
0
  6
CONTINUOUS
 62
     7
 10
414.2999999999999
 20
69.94565829840396
 40
3.000000000000003
 50
180.0
 51
205.0
  0
LINE
  8
0
  6
CONTINUOUS
 62
     7
 10
416.4189233611098
 20
58.30300773701679
 11
411.5810766388899
 21
68.67780351318187
  0
ARC
  8
0
  6
CONTINUOUS
 62
     7
 10
413.6999999999998
 20
57.03515295179469
 40
3.00000000000001
 50
0.0000000000002842
 51
25.00000000000006
  0
LINE
  8
0
  6
CONTINUOUS
 62
     7
 10
416.6999999999998
 20
25.7002369397235
 11
416.6999999999998
 21
57.0351529517947
  0
ARC
  8
0
  6
CONTINUOUS
 62
     7
 10
413.6999999999998
 20
25.7002369397235
 40
3.000000000000003
 50
269.9999999999998
 51
0.0000000000000568
  0
LINE
  8
0
  6
CONTINUOUS
 62
     7
 10
413.6999999999998
 20
22.70023693972351
 11
346.3
 21
22.70023693972351
  0
LINE
  8
0
  6
CONTINUOUS
 62
     7
 10
348.6999999999999
 20
69.94565829840396
 11
348.6999999999999
 21
75.1002369397235
  0
LINE
  8
0
  6
CONTINUOUS
 62
     7
 10
343.58107663889
 20
58.30300773701679
 11
348.4189233611099
 21
68.67780351318187
  0
LINE
  8
0
  6
CONTINUOUS
 62
     7
 10
417.6999999999999
 20
45.7002369397235
 11
417.6999999999999
 21
27.7002369397235
  0
LINE
  8
0
  6
CONTINUOUS
 62
     7
 10
417.6999999999999
 20
27.7002369397235
 11
416.6999999999999
 21
27.7002369397235
  0
LINE
  8
0
  6
CONTINUOUS
 62
     7
 10
417.6999999999999
 20
45.7002369397235
 11
416.6999999999999
 21
45.7002369397235
  0
LINE
  8
0
  6
CONTINUOUS
 62
     7
 10
342.2999999999999
 20
45.7002369397235
 11
342.2999999999999
 21
27.7002369397235
  0
LINE
  8
0
  6
CONTINUOUS
 62
     7
 10
342.2999999999999
 20
27.7002369397235
 11
343.2999999999999
 21
27.7002369397235
  0
LINE
  8
0
  6
CONTINUOUS
 62
     7
 10
342.2999999999999
 20
45.7002369397235
 11
343.2999999999999
 21
45.7002369397235
  0
LINE
  8
0
  6
CONTINUOUS
 62
     7
 10
352.1999999999999
 20
68.50464299122483
 11
352.1999999999999
 21
72.6002369397235
  0
LINE
  8
0
  6
CONTINUOUS
 62
     7
 10
346.7999999999999
 20
56.92430562047322
 11
352.1999999999999
 21
68.50464299122483
  0
LINE
  8
0
  6
CONTINUOUS
 62
     7
 10
346.8
 20
26.20023693972351
 11
346.7999999999999
 21
56.92430562047322
  0
LINE
  8
0
  6
CONTINUOUS
 62
     7
 10
413.1999999999999
 20
26.20023693972351
 11
346.8
 21
26.20023693972351
  0
LINE
  8
0
  6
CONTINUOUS
 62
     7
 10
413.1999999999999
 20
26.20023693972351
 11
413.1999999999999
 21
56.92430562047322
  0
LINE
  8
0
  6
CONTINUOUS
 62
     7
 10
352.1999999999999
 20
72.6002369397235
 11
407.7999999999999
 21
72.6002369397235
  0
LINE
  8
0
  6
CONTINUOUS
 62
     7
 10
407.7999999999999
 20
68.50464299122483
 11
407.7999999999999
 21
72.6002369397235
  0
LINE
  8
0
  6
CONTINUOUS
 62
     7
 10
413.1999999999999
 20
56.92430562047322
 11
407.7999999999999
 21
68.50464299122483
  0
LINE
  8
0
  6
CONTINUOUS
 62
     7
 10
353.1999999999999
 20
68.28294832858192
 11
353.1999999999999
 21
71.6002369397235
  0
LINE
  8
0
  6
CONTINUOUS
 62
     7
 10
347.7999999999999
 20
56.7026109578303
 11
353.1999999999999
 21
68.28294832858192
  0
LINE
  8
0
  6
CONTINUOUS
 62
     7
 10
347.8
 20
27.20023693972351
 11
347.7999999999999
 21
56.7026109578303
  0
LINE
  8
0
  6
CONTINUOUS
 62
     7
 10
412.1999999999999
 20
27.20023693972351
 11
347.8
 21
27.20023693972351
  0
LINE
  8
0
  6
CONTINUOUS
 62
     7
 10
412.1999999999999
 20
27.20023693972351
 11
412.1999999999999
 21
56.7026109578303
  0
LINE
  8
0
  6
CONTINUOUS
 62
     7
 10
412.1999999999999
 20
56.7026109578303
 11
406.7999999999999
 21
68.28294832858192
  0
LINE
  8
0
  6
CONTINUOUS
 62
     7
 10
406.7999999999999
 20
68.28294832858192
 11
406.7999999999999
 21
71.6002369397235
  0
LINE
  8
0
  6
CONTINUOUS
 62
     7
 10
353.1999999999999
 20
71.6002369397235
 11
406.7999999999999
 21
71.6002369397235
  0
LINE
  8
0
  6
CONTINUOUS
 62
     7
 10
346.4999999999999
 20
79.4002369397235
 11
413.4999999999999
 21
79.4002369397235
  0
ARC
  8
0
  6
CONTINUOUS
 62
     7
 10
346.4999999999999
 20
72.9002369397235
 40
6.500000000000005
 50
90.0
 51
180.0
  0
LINE
  8
0
  6
CONTINUOUS
 62
     7
 10
339.9999999999999
 20
25.90023693972351
 11
339.9999999999999
 21
72.9002369397235
  0
LINE
  8
0
  6
CONTINUOUS
 62
     7
 10
378.7999999999999
 20
19.40023693972351
 11
346.4999999999999
 21
19.40023693972351
  0
LINE
  8
0
  6
CONTINUOUS
 62
     7
 10
379.7999999999999
 20
20.40023693972351
 11
378.7999999999999
 21
19.40023693972351
  0
ARC
  8
0
  6
CONTINUOUS
 62
     7
 10
413.4999999999999
 20
72.9002369397235
 40
6.500000000000005
 50
0.0
 51
90.0
  0
ARC
  8
0
  6
CONTINUOUS
 62
     7
 10
346.4999999999999
 20
25.90023693972351
 40
6.499999999999999
 50
180.0
 51
270.0
  0
LINE
  8
0
  6
CONTINUOUS
 62
     7
 10
379.9999999999999
 20
20.6002369397235
 11
379.7999999999999
 21
20.40023693972351
  0
LINE
  8
0
  6
CONTINUOUS
 62
     7
 10
379.9999999999999
 20
20.6002369397235
 11
380.1999999999999
 21
20.40023693972351
  0
ARC
  8
0
  6
CONTINUOUS
 62
     7
 10
413.4999999999999
 20
25.90023693972351
 40
6.499999999999999
 50
270.0
 51
0.0
  0
LINE
  8
0
  6
CONTINUOUS
 62
     7
 10
419.9999999999999
 20
25.90023693972351
 11
419.9999999999999
 21
72.9002369397235
  0
LINE
  8
0
  6
CONTINUOUS
 62
     7
 10
381.1999999999999
 20
19.40023693972351
 11
413.4999999999999
 21
19.40023693972351
  0
LINE
  8
0
  6
CONTINUOUS
 62
     7
 10
380.1999999999999
 20
20.40023693972351
 11
381.1999999999999
 21
19.40023693972351
  0
ARC
  8
0
  6
CONTINUOUS
 62
     7
 10
414.9999999999999
 20
25.90023693972361
 40
6.499999999999992
 50
270.0
 51
0.0000000000002274
  0
ARC
  8
0
  6
CONTINUOUS
 62
     7
 10
344.9999999999999
 20
25.90023693972361
 40
6.499999999999992
 50
179.9999999999998
 51
270.0
  0
LINE
  8
0
  6
CONTINUOUS
 62
     7
 10
338.4999999999999
 20
25.90023693972364
 11
338.4999999999999
 21
74.40023693972357
  0
ARC
  8
0
  6
CONTINUOUS
 62
     7
 10
344.9999999999999
 20
74.40023693972358
 40
6.500000000000005
 50
89.99999999999994
 51
180.0
  0
LINE
  8
0
  6
CONTINUOUS
 62
     7
 10
344.9999999999999
 20
80.90023693972356
 11
414.9999999999999
 21
80.90023693972356
  0
LINE
  8
0
  6
CONTINUOUS
 62
     7
 10
421.4999999999999
 20
25.90023693972364
 11
421.4999999999999
 21
74.40023693972357
  0
ARC
  8
0
  6
CONTINUOUS
 62
     7
 10
414.9999999999999
 20
74.40023693972358
 40
6.49999999999995
 50
359.9999999999999
 51
90.00000000000006
  0
LINE
  8
0
  6
CONTINUOUS
 62
     7
 10
346.4999999999999
 20
19.40023693972351
 11
344.9999999999999
 21
19.40023693972362
  0
LINE
  8
0
  6
CONTINUOUS
 62
     7
 10
413.4999999999999
 20
19.40023693972351
 11
414.9999999999999
 21
19.40023693972362
  0
ARC
  8
0
  6
CONTINUOUS
 62
     7
 10
402.6919720653285
 20
38.34773887663933
 40
10.95040227217689
 50
271.5151095744258
 51
330.2834267718292
  0
LINE
  8
0
  6
CONTINUOUS
 62
     7
 10
402.9815069305351
 20
27.40116500696091
 11
403.0996958716383
 21
27.20074939735879
  0
ARC
  8
0
  6
CONTINUOUS
 62
     7
 10
357.3240066481175
 20
38.3744454007167
 40
10.97753256186136
 50
209.8125513036914
 51
268.4052063572558
  0
LINE
  8
0
  6
CONTINUOUS
 62
     7
 10
357.016852412933
 20
27.4011843880645
 11
356.9048556630926
 21
27.20067205464089
  0
LINE
  8
0
  6
CONTINUOUS
 62
     7
 10
379.9999999999999
 20
27.40023693972351
 11
402.9815069305351
 21
27.40023693972351
  0
LINE
  8
0
  6
CONTINUOUS
 62
     7
 10
380.0000000000015
 20
27.20063545247605
 11
379.9999999999999
 21
27.40023693972352
  0
LINE
  8
0
  6
CONTINUOUS
 62
     7
 10
379.9999999999999
 20
27.40023693972351
 11
357.0184930694647
 21
27.40023693972351
  0
ENDBLK
  8
0
  0
BLOCK
  8
0
  2
D_FRAME_VIEW_2613
 70
     0
 10
0.0
 20
0.0
  0
LINE
  8
0
  6
CONTINUOUS
 62
     7
 10
415.0000000000001
 20
925.9000000000001
 11
345.0000000000001
 21
925.9000000000001
  0
LINE
  8
0
  6
CONTINUOUS
 62
     7
 10
415.0000000000001
 20
925.9000000000001
 11
420.5000000000001
 21
925.9000000000001
  0
ARC
  8
0
  6
CONTINUOUS
 62
     7
 10
420.5000000000001
 20
924.9000000000001
 40
1.000000000000001
 50
0.0
 51
90.0
  0
LINE
  8
0
  6
CONTINUOUS
 62
     7
 10
339.5000000000001
 20
923.1
 11
345.0000000000001
 21
923.1
  0
ARC
  8
0
  6
CONTINUOUS
 62
     7
 10
339.5000000000001
 20
924.1
 40
1.000000000000001
 50
180.0
 51
270.0
  0
LINE
  8
0
  6
CONTINUOUS
 62
     7
 10
345.0000000000001
 20
923.1
 11
415.0000000000001
 21
923.1
  0
LINE
  8
0
  6
CONTINUOUS
 62
     7
 10
420.5000000000001
 20
923.1
 11
415.0000000000001
 21
923.1
  0
ARC
  8
0
  6
CONTINUOUS
 62
     7
 10
420.5000000000001
 20
924.1
 40
1.000000000000001
 50
270.0
 51
0.0
  0
LINE
  8
0
  6
CONTINUOUS
 62
     7
 10
338.5000000000001
 20
924.1
 11
338.5000000000001
 21
924.9000000000001
  0
LINE
  8
0
  6
CONTINUOUS
 62
     7
 10
421.5000000000001
 20
924.1
 11
421.5000000000001
 21
924.9000000000001
  0
LINE
  8
0
  6
CONTINUOUS
 62
     7
 10
345.0000000000001
 20
925.9000000000001
 11
339.5000000000001
 21
925.9000000000001
  0
ARC
  8
0
  6
CONTINUOUS
 62
     7
 10
339.5000000000001
 20
924.9000000000001
 40
1.000000000000001
 50
90.0
 51
180.0
  0
ARC
  8
0
  6
CONTINUOUS
 62
     7
 10
340.0
 20
892.0000000000001
 40
1.499999999999954
 50
107.3373092138975
 51
252.6626907861027
  0
LINE
  8
0
  6
CONTINUOUS
 62
     9
 10
339.5530052181052
 20
893.4318504338648
 11
357.0000000000001
 21
893.4318504338648
  0
LINE
  8
0
  6
CONTINUOUS
 62
     9
 10
339.5530052181052
 20
890.5681495661353
 11
357.0000000000001
 21
890.5681495661353
  0
LINE
  8
0
  6
CONTINUOUS
 62
     9
 10
420.4469947818949
 20
886.4318504338648
 11
403.0000000000001
 21
886.4318504338648
  0
ARC
  8
0
  6
CONTINUOUS
 62
     7
 10
420.0000000000001
 20
885.0
 40
1.50000000000006
 50
0.0
 51
72.66269078610253
  0
ARC
  8
0
  6
CONTINUOUS
 62
     7
 10
340.0
 20
913.0
 40
1.50000000000006
 50
107.3373092138975
 51
252.6626907861027
  0
LINE
  8
0
  6
CONTINUOUS
 62
     9
 10
339.5530052181052
 20
914.4318504338648
 11
357.0000000000001
 21
914.4318504338648
  0
LINE
  8
0
  6
CONTINUOUS
 62
     9
 10
339.5530052181052
 20
911.5681495661353
 11
357.0000000000001
 21
911.5681495661353
  0
LINE
  8
0
  6
CONTINUOUS
 62
     9
 10
420.4469947818949
 20
900.4318504338648
 11
403.0000000000001
 21
900.4318504338648
  0
ARC
  8
0
  6
CONTINUOUS
 62
     7
 10
420.0000000000001
 20
899.0
 40
1.50000000000006
 50
287.3373092138973
 51
72.66269078610253
  0
LINE
  8
0
  6
CONTINUOUS
 62
     9
 10
420.4469947818949
 20
897.5681495661353
 11
403.0000000000001
 21
897.5681495661353
  0
ARC
  8
0
  6
CONTINUOUS
 62
     7
 10
340.0
 20
885.0000000000001
 40
1.499999999999954
 50
107.3373092138975
 51
180.0
  0
LINE
  8
0
  6
CONTINUOUS
 62
     9
 10
339.5530052181052
 20
886.4318504338648
 11
357.0000000000001
 21
886.4318504338648
  0
LINE
  8
0
  6
CONTINUOUS
 62
     9
 10
420.4469947818949
 20
893.4318504338648
 11
403.0000000000001
 21
893.4318504338648
  0
ARC
  8
0
  6
CONTINUOUS
 62
     7
 10
420.0000000000001
 20
892.0
 40
1.50000000000006
 50
287.3373092138973
 51
72.66269078610253
  0
LINE
  8
0
  6
CONTINUOUS
 62
     9
 10
420.4469947818949
 20
890.5681495661353
 11
403.0000000000001
 21
890.5681495661353
  0
LINE
  8
0
  6
CONTINUOUS
 62
     9
 10
420.4469947818949
 20
907.4318504338647
 11
403.0000000000001
 21
907.4318504338648
  0
ARC
  8
0
  6
CONTINUOUS
 62
     7
 10
420.0000000000001
 20
906.0
 40
1.50000000000006
 50
287.3373092138973
 51
72.66269078610253
  0
LINE
  8
0
  6
CONTINUOUS
 62
     9
 10
420.4469947818949
 20
904.5681495661353
 11
403.0000000000001
 21
904.5681495661353
  0
ARC
  8
0
  6
CONTINUOUS
 62
     7
 10
340.0
 20
899.0
 40
1.50000000000006
 50
107.3373092138975
 51
252.6626907861027
  0
LINE
  8
0
  6
CONTINUOUS
 62
     9
 10
339.5530052181052
 20
900.4318504338648
 11
357.0000000000001
 21
900.4318504338648
  0
LINE
  8
0
  6
CONTINUOUS
 62
     9
 10
339.5530052181052
 20
897.5681495661353
 11
357.0000000000001
 21
897.5681495661353
  0
LINE
  8
0
  6
CONTINUOUS
 62
     9
 10
420.4469947818949
 20
914.4318504338648
 11
403.0000000000001
 21
914.4318504338648
  0
ARC
  8
0
  6
CONTINUOUS
 62
     7
 10
420.0000000000001
 20
913.0
 40
1.50000000000006
 50
287.3373092138973
 51
72.66269078610253
  0
LINE
  8
0
  6
CONTINUOUS
 62
     9
 10
420.4469947818949
 20
911.5681495661353
 11
403.0000000000001
 21
911.5681495661353
  0
LINE
  8
0
  6
CONTINUOUS
 62
     9
 10
357.0000000000001
 20
900.4318504338648
 11
403.0000000000001
 21
900.4318504338648
  0
LINE
  8
0
  6
CONTINUOUS
 62
     9
 10
357.0000000000001
 20
897.5681495661353
 11
403.0000000000001
 21
897.5681495661353
  0
ARC
  8
0
  6
CONTINUOUS
 62
     7
 10
340.0
 20
906.0
 40
1.50000000000006
 50
107.3373092138975
 51
252.6626907861027
  0
LINE
  8
0
  6
CONTINUOUS
 62
     9
 10
339.5530052181052
 20
907.4318504338648
 11
357.0000000000001
 21
907.4318504338648
  0
LINE
  8
0
  6
CONTINUOUS
 62
     9
 10
339.5530052181052
 20
904.5681495661353
 11
357.0000000000001
 21
904.5681495661353
  0
LINE
  8
0
  6
CONTINUOUS
 62
     9
 10
357.0000000000001
 20
907.4318504338648
 11
403.0000000000001
 21
907.4318504338648
  0
LINE
  8
0
  6
CONTINUOUS
 62
     9
 10
357.0000000000001
 20
904.5681495661353
 11
403.0000000000001
 21
904.5681495661353
  0
LINE
  8
0
  6
CONTINUOUS
 62
     9
 10
357.0000000000001
 20
886.4318504338648
 11
403.0000000000001
 21
886.4318504338648
  0
LINE
  8
0
  6
CONTINUOUS
 62
     9
 10
357.0000000000001
 20
893.4318504338648
 11
403.0000000000001
 21
893.4318504338648
  0
LINE
  8
0
  6
CONTINUOUS
 62
     9
 10
357.0000000000001
 20
890.5681495661353
 11
403.0000000000001
 21
890.5681495661353
  0
LINE
  8
0
  6
CONTINUOUS
 62
     9
 10
357.0000000000001
 20
914.4318504338648
 11
403.0000000000001
 21
914.4318504338648
  0
LINE
  8
0
  6
CONTINUOUS
 62
     9
 10
357.0000000000001
 20
911.5681495661353
 11
403.0000000000001
 21
911.5681495661353
  0
LINE
  8
0
  6
CONTINUOUS
 62
     7
 10
344.6489982606317
 20
902.0227165220451
 11
339.5530052181052
 21
900.4318504338648
  0
LINE
  8
0
  6
CONTINUOUS
 62
     7
 10
415.3510017393685
 20
902.0227165220451
 11
420.4469947818949
 21
900.4318504338648
  0
LINE
  8
0
  6
CONTINUOUS
 62
     7
 10
344.6489982606317
 20
888.0227165220451
 11
339.5530052181052
 21
886.4318504338648
  0
LINE
  8
0
  6
CONTINUOUS
 62
     7
 10
339.5530052181052
 20
911.5681495661353
 11
344.6489982606317
 21
909.9772834779549
  0
LINE
  8
0
  6
CONTINUOUS
 62
     7
 10
420.4469947818949
 20
897.5681495661353
 11
415.3510017393685
 21
895.977283477955
  0
LINE
  8
0
  6
CONTINUOUS
 62
     7
 10
415.3510017393685
 20
916.0227165220451
 11
420.4469947818949
 21
914.4318504338648
  0
LINE
  8
0
  6
CONTINUOUS
 62
     7
 10
415.3510017393685
 20
888.0227165220451
 11
420.4469947818949
 21
886.4318504338648
  0
LINE
  8
0
  6
CONTINUOUS
 62
     7
 10
420.4469947818949
 20
911.5681495661353
 11
415.3510017393685
 21
909.9772834779549
  0
LINE
  8
0
  6
CONTINUOUS
 62
     7
 10
344.6489982606317
 20
909.0227165220451
 11
339.5530052181052
 21
907.4318504338648
  0
LINE
  8
0
  6
CONTINUOUS
 62
     7
 10
415.3510017393685
 20
909.0227165220451
 11
420.4469947818949
 21
907.4318504338647
  0
LINE
  8
0
  6
CONTINUOUS
 62
     7
 10
344.6489982606317
 20
895.0227165220451
 11
339.5530052181052
 21
893.4318504338648
  0
LINE
  8
0
  6
CONTINUOUS
 62
     7
 10
339.5530052181052
 20
890.5681495661353
 11
344.6489982606317
 21
888.977283477955
  0
LINE
  8
0
  6
CONTINUOUS
 62
     7
 10
415.3510017393685
 20
895.0227165220451
 11
420.4469947818949
 21
893.4318504338648
  0
LINE
  8
0
  6
CONTINUOUS
 62
     7
 10
420.4469947818949
 20
904.5681495661353
 11
415.3510017393685
 21
902.977283477955
  0
LINE
  8
0
  6
CONTINUOUS
 62
     7
 10
339.5530052181052
 20
897.5681495661353
 11
344.6489982606317
 21
895.977283477955
  0
LINE
  8
0
  6
CONTINUOUS
 62
     7
 10
344.6489982606317
 20
916.0227165220451
 11
339.5530052181052
 21
914.4318504338648
  0
LINE
  8
0
  6
CONTINUOUS
 62
     7
 10
339.5530052181052
 20
904.5681495661353
 11
344.6489982606317
 21
902.977283477955
  0
LINE
  8
0
  6
CONTINUOUS
 62
     7
 10
420.4469947818949
 20
890.5681495661353
 11
415.3510017393685
 21
888.977283477955
  0
LINE
  8
0
  6
CONTINUOUS
 62
     9
 10
407.2652400620565
 20
918.478221277222
 11
407.2653677944997
 21
918.4783234153033
  0
LINE
  8
0
  6
CONTINUOUS
 62
     7
 10
420.0000000000001
 20
934.0
 11
420.0000000000001
 21
925.9000000000001
  0
LINE
  8
0
  6
CONTINUOUS
 62
     7
 10
340.0000000000001
 20
923.1
 11
340.0000000000001
 21
920.5023421717797
  0
LINE
  8
0
  6
CONTINUOUS
 62
     7
 10
420.0000000000001
 20
923.1
 11
420.0000000000001
 21
920.5023421717796
  0
LINE
  8
0
  6
CONTINUOUS
 62
     7
 10
340.0000000000001
 20
934.0
 11
340.0000000000001
 21
925.9000000000001
  0
LINE
  8
0
  6
CONTINUOUS
 62
     7
 10
413.5000000000001
 20
935.0
 11
419.0000000000001
 21
935.0
  0
ARC
  8
0
  6
CONTINUOUS
 62
     7
 10
419.0000000000001
 20
934.0
 40
1.000000000000001
 50
0.0
 51
90.0
  0
LINE
  8
0
  6
CONTINUOUS
 62
     7
 10
413.5000000000001
 20
935.0
 11
346.5000000000001
 21
935.0
  0
LINE
  8
0
  6
CONTINUOUS
 62
     7
 10
346.5000000000001
 20
935.0
 11
341.0000000000001
 21
935.0
  0
ARC
  8
0
  6
CONTINUOUS
 62
     7
 10
341.0000000000001
 20
934.0
 40
1.000000000000001
 50
90.0
 51
180.0
  0
LINE
  8
0
  6
CONTINUOUS
 62
     7
 10
415.0000000000001
 20
916.5000000000001
 11
414.1649828778109
 21
916.5000000000001
  0
LINE
  8
0
  6
CONTINUOUS
 62
     7
 10
414.1649828778109
 20
916.5000000000001
 11
414.0119323605305
 21
916.5000000000001
  0
LINE
  8
0
  6
CONTINUOUS
 62
     7
 10
414.0119323605305
 20
916.5000000000001
 11
411.4852813742418
 21
916.5000000000001
  0
LINE
  8
0
  6
CONTINUOUS
 62
     7
 10
411.4852813742418
 20
916.5000000000001
 11
407.7683692902286
 21
916.5000000000001
  0
LINE
  8
0
  6
CONTINUOUS
 62
     7
 10
407.7683692902286
 20
916.5000000000001
 11
407.3980856468247
 21
916.5000000000001
  0
LINE
  8
0
  6
CONTINUOUS
 62
     7
 10
407.3980856468247
 20
916.5000000000001
 11
403.0000000000001
 21
916.5000000000001
  0
POLYLINE
  8
0
  6
CONTINUOUS
 62
     7
 66
     1
  0
VERTEX
  8
0
  6
CONTINUOUS
 62
     7
 10
415.0000000000001
 20
916.5000000000001
  0
VERTEX
  8
0
  6
CONTINUOUS
 62
     7
 10
414.9986821204712
 20
916.5393773198222
  0
VERTEX
  8
0
  6
CONTINUOUS
 62
     7
 10
415.0003479442493
 20
916.5785169096306
  0
VERTEX
  8
0
  6
CONTINUOUS
 62
     7
 10
415.0049841540533
 20
916.6171598926184
  0
VERTEX
  8
0
  6
CONTINUOUS
 62
     7
 10
415.0125762906634
 20
916.655047769141
  0
VERTEX
  8
0
  6
CONTINUOUS
 62
     7
 10
415.0230839061317
 20
916.6919303888542
  0
VERTEX
  8
0
  6
CONTINUOUS
 62
     7
 10
415.0364274657437
 20
916.7275696583258
  0
VERTEX
  8
0
  6
CONTINUOUS
 62
     7
 10
415.0525218390546
 20
916.7617291429665
  0
VERTEX
  8
0
  6
CONTINUOUS
 62
     7
 10
415.0712735802834
 20
916.7941784148177
  0
VERTEX
  8
0
  6
CONTINUOUS
 62
     7
 10
415.09256047278
 20
916.8247074410104
  0
VERTEX
  8
0
  6
CONTINUOUS
 62
     7
 10
415.1162370639786
 20
916.8531216891554
  0
VERTEX
  8
0
  6
CONTINUOUS
 62
     7
 10
415.1421523809566
 20
916.8792311681307
  0
VERTEX
  8
0
  6
CONTINUOUS
 62
     7
 10
415.1701389936519
 20
916.9028665874105
  0
VERTEX
  8
0
  6
CONTINUOUS
 62
     7
 10
415.2000146023805
 20
916.9238770907211
  0
VERTEX
  8
0
  6
CONTINUOUS
 62
     7
 10
415.2315613978302
 20
916.9421762319274
  0
VERTEX
  8
0
  6
CONTINUOUS
 62
     7
 10
415.2641520747051
 20
916.9586702453616
  0
VERTEX
  8
0
  6
CONTINUOUS
 62
     7
 10
415.2974854417429
 20
916.9737170511013
  0
VERTEX
  8
0
  6
CONTINUOUS
 62
     7
 10
415.3310813372337
 20
916.9881933040384
  0
VERTEX
  8
0
  6
CONTINUOUS
 62
     7
 10
415.3646772327246
 20
917.0026695569757
  0
VERTEX
  8
0
  6
CONTINUOUS
 62
     7
 10
415.3982731282154
 20
917.0171458099129
  0
VERTEX
  8
0
  6
CONTINUOUS
 62
     7
 10
415.4318690237062
 20
917.03162206285
  0
VERTEX
  8
0
  6
CONTINUOUS
 62
     7
 10
415.465464919197
 20
917.046098315787
  0
VERTEX
  8
0
  6
CONTINUOUS
 62
     7
 10
415.4990608146878
 20
917.0605745687243
  0
VERTEX
  8
0
  6
CONTINUOUS
 62
     7
 10
415.5326567101785
 20
917.0750508216614
  0
VERTEX
  8
0
  6
CONTINUOUS
 62
     7
 10
415.5662526056694
 20
917.0895270745988
  0
VERTEX
  8
0
  6
CONTINUOUS
 62
     7
 10
415.5998485011601
 20
917.1040033275357
  0
VERTEX
  8
0
  6
CONTINUOUS
 62
     7
 10
415.6334443966509
 20
917.1184795804729
  0
VERTEX
  8
0
  6
CONTINUOUS
 62
     7
 10
415.6670402921417
 20
917.1329558334099
  0
VERTEX
  8
0
  6
CONTINUOUS
 62
     7
 10
415.7006361876325
 20
917.1474320863473
  0
VERTEX
  8
0
  6
CONTINUOUS
 62
     7
 10
415.7342320831233
 20
917.1619083392842
  0
VERTEX
  8
0
  6
CONTINUOUS
 62
     7
 10
415.7678279786141
 20
917.1763845922214
  0
VERTEX
  8
0
  6
CONTINUOUS
 62
     7
 10
415.8014238741049
 20
917.1908608451587
  0
VERTEX
  8
0
  6
CONTINUOUS
 62
     7
 10
415.8350197695957
 20
917.2053370980958
  0
VERTEX
  8
0
  6
CONTINUOUS
 62
     7
 10
415.8686156650865
 20
917.2198133510329
  0
VERTEX
  8
0
  6
CONTINUOUS
 62
     7
 10
415.9022115605773
 20
917.2342896039701
  0
VERTEX
  8
0
  6
CONTINUOUS
 62
     7
 10
415.9358074560681
 20
917.2487658569072
  0
VERTEX
  8
0
  6
CONTINUOUS
 62
     7
 10
415.9694033515589
 20
917.2632421098444
  0
VERTEX
  8
0
  6
CONTINUOUS
 62
     7
 10
416.0029992470496
 20
917.2777183627816
  0
VERTEX
  8
0
  6
CONTINUOUS
 62
     7
 10
416.0365951425404
 20
917.2921946157187
  0
VERTEX
  8
0
  6
CONTINUOUS
 62
     7
 10
416.0701910380313
 20
917.3066708686559
  0
VERTEX
  8
0
  6
CONTINUOUS
 62
     7
 10
416.103786933522
 20
917.3211471215931
  0
VERTEX
  8
0
  6
CONTINUOUS
 62
     7
 10
416.1373828290129
 20
917.3356233745303
  0
VERTEX
  8
0
  6
CONTINUOUS
 62
     7
 10
416.1709787245037
 20
917.3500996274674
  0
VERTEX
  8
0
  6
CONTINUOUS
 62
     7
 10
416.2045746199944
 20
917.3645758804046
  0
VERTEX
  8
0
  6
CONTINUOUS
 62
     7
 10
416.2381705154853
 20
917.3790521333417
  0
VERTEX
  8
0
  6
CONTINUOUS
 62
     7
 10
416.271766410976
 20
917.393528386279
  0
VERTEX
  8
0
  6
CONTINUOUS
 62
     7
 10
416.3053623064669
 20
917.4080046392161
  0
VERTEX
  8
0
  6
CONTINUOUS
 62
     7
 10
416.3389582019577
 20
917.4224808921531
  0
VERTEX
  8
0
  6
CONTINUOUS
 62
     7
 10
416.3725540974484
 20
917.4369571450903
  0
VERTEX
  8
0
  6
CONTINUOUS
 62
     7
 10
416.4061499929392
 20
917.4514333980275
  0
VERTEX
  8
0
  6
CONTINUOUS
 62
     7
 10
416.43974588843
 20
917.4659096509645
  0
VERTEX
  8
0
  6
CONTINUOUS
 62
     7
 10
416.4733417839208
 20
917.4803859039018
  0
VERTEX
  8
0
  6
CONTINUOUS
 62
     7
 10
416.5069376794116
 20
917.494862156839
  0
VERTEX
  8
0
  6
CONTINUOUS
 62
     7
 10
416.5405335749024
 20
917.5093384097761
  0
VERTEX
  8
0
  6
CONTINUOUS
 62
     7
 10
416.5741294703932
 20
917.5238146627133
  0
VERTEX
  8
0
  6
CONTINUOUS
 62
     7
 10
416.6077253658841
 20
917.5382909156505
  0
VERTEX
  8
0
  6
CONTINUOUS
 62
     7
 10
416.6413212613747
 20
917.5527671685876
  0
VERTEX
  8
0
  6
CONTINUOUS
 62
     7
 10
416.6749171568656
 20
917.5672434215247
  0
VERTEX
  8
0
  6
CONTINUOUS
 62
     7
 10
416.7085130523564
 20
917.5817196744616
  0
VERTEX
  8
0
  6
CONTINUOUS
 62
     7
 10
416.7421089478472
 20
917.596195927399
  0
VERTEX
  8
0
  6
CONTINUOUS
 62
     7
 10
416.775704843338
 20
917.6106721803361
  0
VERTEX
  8
0
  6
CONTINUOUS
 62
     7
 10
416.8093007388288
 20
917.6251484332732
  0
VERTEX
  8
0
  6
CONTINUOUS
 62
     7
 10
416.8428966343196
 20
917.6396246862105
  0
VERTEX
  8
0
  6
CONTINUOUS
 62
     7
 10
416.8764925298104
 20
917.6541009391476
  0
VERTEX
  8
0
  6
CONTINUOUS
 62
     7
 10
416.9100884253012
 20
917.6685771920847
  0
VERTEX
  8
0
  6
CONTINUOUS
 62
     7
 10
416.9436843207919
 20
917.6830534450219
  0
VERTEX
  8
0
  6
CONTINUOUS
 62
     7
 10
416.9772802162827
 20
917.697529697959
  0
VERTEX
  8
0
  6
CONTINUOUS
 62
     7
 10
417.0108761117735
 20
917.7120059508962
  0
VERTEX
  8
0
  6
CONTINUOUS
 62
     7
 10
417.0444720072643
 20
917.7264822038334
  0
VERTEX
  8
0
  6
CONTINUOUS
 62
     7
 10
417.0780679027551
 20
917.7409584567705
  0
VERTEX
  8
0
  6
CONTINUOUS
 62
     7
 10
417.111663798246
 20
917.7554347097077
  0
VERTEX
  8
0
  6
CONTINUOUS
 62
     7
 10
417.1452596937368
 20
917.7699109626449
  0
VERTEX
  8
0
  6
CONTINUOUS
 62
     7
 10
417.1788555892275
 20
917.784387215582
  0
VERTEX
  8
0
  6
CONTINUOUS
 62
     7
 10
417.2124514847184
 20
917.7988634685194
  0
VERTEX
  8
0
  6
CONTINUOUS
 62
     7
 10
417.246047380209
 20
917.8133397214563
  0
VERTEX
  8
0
  6
CONTINUOUS
 62
     7
 10
417.2796432757
 20
917.8278159743936
  0
VERTEX
  8
0
  6
CONTINUOUS
 62
     7
 10
417.3132391711906
 20
917.8422922273305
  0
VERTEX
  8
0
  6
CONTINUOUS
 62
     7
 10
417.3468350666815
 20
917.8567684802678
  0
VERTEX
  8
0
  6
CONTINUOUS
 62
     7
 10
417.3804309621723
 20
917.871244733205
  0
VERTEX
  8
0
  6
CONTINUOUS
 62
     7
 10
417.4140268576631
 20
917.8857209861421
  0
VERTEX
  8
0
  6
CONTINUOUS
 62
     7
 10
417.4476227531538
 20
917.9001972390791
  0
VERTEX
  8
0
  6
CONTINUOUS
 62
     7
 10
417.4812186486447
 20
917.9146734920164
  0
VERTEX
  8
0
  6
CONTINUOUS
 62
     7
 10
417.5148145441355
 20
917.9291497449536
  0
VERTEX
  8
0
  6
CONTINUOUS
 62
     7
 10
417.5484104396263
 20
917.9436259978906
  0
VERTEX
  8
0
  6
CONTINUOUS
 62
     7
 10
417.5820063351171
 20
917.958102250828
  0
VERTEX
  8
0
  6
CONTINUOUS
 62
     7
 10
417.6156022306078
 20
917.9725785037649
  0
VERTEX
  8
0
  6
CONTINUOUS
 62
     7
 10
417.6491981260987
 20
917.9870547567023
  0
VERTEX
  8
0
  6
CONTINUOUS
 62
     7
 10
417.6827940215895
 20
918.0015310096394
  0
VERTEX
  8
0
  6
CONTINUOUS
 62
     7
 10
417.7163899170803
 20
918.0160072625765
  0
VERTEX
  8
0
  6
CONTINUOUS
 62
     7
 10
417.7499858125711
 20
918.0304835155137
  0
VERTEX
  8
0
  6
CONTINUOUS
 62
     7
 10
417.7835817080619
 20
918.0449597684509
  0
VERTEX
  8
0
  6
CONTINUOUS
 62
     7
 10
417.8171776035526
 20
918.0594360213881
  0
VERTEX
  8
0
  6
CONTINUOUS
 62
     7
 10
417.8507734990434
 20
918.0739122743249
  0
VERTEX
  8
0
  6
CONTINUOUS
 62
     7
 10
417.8843693945344
 20
918.0883885272624
  0
VERTEX
  8
0
  6
CONTINUOUS
 62
     7
 10
417.9179652900251
 20
918.1028647801995
  0
VERTEX
  8
0
  6
CONTINUOUS
 62
     7
 10
417.9515611855159
 20
918.1173410331367
  0
VERTEX
  8
0
  6
CONTINUOUS
 62
     7
 10
417.9851570810066
 20
918.1318172860738
  0
VERTEX
  8
0
  6
CONTINUOUS
 62
     7
 10
418.0187529764974
 20
918.1462935390109
  0
VERTEX
  8
0
  6
CONTINUOUS
 62
     7
 10
418.0523488719882
 20
918.160769791948
  0
VERTEX
  8
0
  6
CONTINUOUS
 62
     7
 10
418.085944767479
 20
918.1752460448852
  0
VERTEX
  8
0
  6
CONTINUOUS
 62
     7
 10
418.1195406629698
 20
918.1897222978223
  0
VERTEX
  8
0
  6
CONTINUOUS
 62
     7
 10
418.1531365584606
 20
918.2041985507594
  0
VERTEX
  8
0
  6
CONTINUOUS
 62
     7
 10
418.1867324539514
 20
918.2186748036968
  0
VERTEX
  8
0
  6
CONTINUOUS
 62
     7
 10
418.2203283494422
 20
918.2331510566338
  0
VERTEX
  8
0
  6
CONTINUOUS
 62
     7
 10
418.253924244933
 20
918.247627309571
  0
VERTEX
  8
0
  6
CONTINUOUS
 62
     7
 10
418.2875201404239
 20
918.2621035625082
  0
VERTEX
  8
0
  6
CONTINUOUS
 62
     7
 10
418.3211160359145
 20
918.2765798154453
  0
VERTEX
  8
0
  6
CONTINUOUS
 62
     7
 10
418.3547119314054
 20
918.2910560683824
  0
VERTEX
  8
0
  6
CONTINUOUS
 62
     7
 10
418.3883078268961
 20
918.3055323213196
  0
VERTEX
  8
0
  6
CONTINUOUS
 62
     7
 10
418.421903722387
 20
918.3200085742567
  0
VERTEX
  8
0
  6
CONTINUOUS
 62
     7
 10
418.4554996178777
 20
918.3344848271938
  0
VERTEX
  8
0
  6
CONTINUOUS
 62
     7
 10
418.4890955133686
 20
918.3489610801312
  0
VERTEX
  8
0
  6
CONTINUOUS
 62
     7
 10
418.5226914088594
 20
918.3634373330683
  0
VERTEX
  8
0
  6
CONTINUOUS
 62
     7
 10
418.5562873043501
 20
918.3779135860053
  0
VERTEX
  8
0
  6
CONTINUOUS
 62
     7
 10
418.589883199841
 20
918.3923898389426
  0
VERTEX
  8
0
  6
CONTINUOUS
 62
     7
 10
418.6234790953318
 20
918.4068660918798
  0
VERTEX
  8
0
  6
CONTINUOUS
 62
     7
 10
418.6570749908225
 20
918.4213423448168
  0
VERTEX
  8
0
  6
CONTINUOUS
 62
     7
 10
418.6906708863133
 20
918.435818597754
  0
VERTEX
  8
0
  6
CONTINUOUS
 62
     7
 10
418.724266781804
 20
918.4502948506911
  0
VERTEX
  8
0
  6
CONTINUOUS
 62
     7
 10
418.7578626772948
 20
918.4647711036281
  0
VERTEX
  8
0
  6
CONTINUOUS
 62
     7
 10
418.7914585727857
 20
918.4792473565655
  0
SEQEND
  8
0
  6
CONTINUOUS
 62
     7
  0
LINE
  8
0
  6
CONTINUOUS
 62
     7
 10
352.6019143531755
 20
916.5000000000001
 11
357.0000000000001
 21
916.5000000000001
  0
LINE
  8
0
  6
CONTINUOUS
 62
     7
 10
352.2316307097715
 20
916.5000000000001
 11
352.6019143531755
 21
916.5000000000001
  0
LINE
  8
0
  6
CONTINUOUS
 62
     7
 10
348.5147186257584
 20
916.5000000000001
 11
352.2316307097715
 21
916.5000000000001
  0
LINE
  8
0
  6
CONTINUOUS
 62
     7
 10
345.9880676394696
 20
916.5000000000001
 11
348.5147186257584
 21
916.5000000000001
  0
LINE
  8
0
  6
CONTINUOUS
 62
     7
 10
345.8350171221893
 20
916.5000000000001
 11
345.9880676394696
 21
916.5000000000001
  0
LINE
  8
0
  6
CONTINUOUS
 62
     7
 10
345.0
 20
916.5000000000001
 11
345.8350171221893
 21
916.5000000000001
  0
POLYLINE
  8
0
  6
CONTINUOUS
 62
     7
 66
     1
  0
VERTEX
  8
0
  6
CONTINUOUS
 62
     7
 10
345.0000000000001
 20
916.5000000000001
  0
VERTEX
  8
0
  6
CONTINUOUS
 62
     7
 10
345.0013178795289
 20
916.5393773198222
  0
VERTEX
  8
0
  6
CONTINUOUS
 62
     7
 10
344.9996520557507
 20
916.5785169096306
  0
VERTEX
  8
0
  6
CONTINUOUS
 62
     7
 10
344.9950158459469
 20
916.6171598926184
  0
VERTEX
  8
0
  6
CONTINUOUS
 62
     7
 10
344.9874237093367
 20
916.655047769141
  0
VERTEX
  8
0
  6
CONTINUOUS
 62
     7
 10
344.9769160938683
 20
916.6919303888542
  0
VERTEX
  8
0
  6
CONTINUOUS
 62
     7
 10
344.9635725342564
 20
916.7275696583258
  0
VERTEX
  8
0
  6
CONTINUOUS
 62
     7
 10
344.9474781609456
 20
916.7617291429665
  0
VERTEX
  8
0
  6
CONTINUOUS
 62
     7
 10
344.9287264197168
 20
916.7941784148177
  0
VERTEX
  8
0
  6
CONTINUOUS
 62
     7
 10
344.90743952722
 20
916.8247074410104
  0
VERTEX
  8
0
  6
CONTINUOUS
 62
     7
 10
344.8837629360216
 20
916.8531216891554
  0
VERTEX
  8
0
  6
CONTINUOUS
 62
     7
 10
344.8578476190436
 20
916.8792311681307
  0
VERTEX
  8
0
  6
CONTINUOUS
 62
     7
 10
344.8298610063483
 20
916.9028665874105
  0
VERTEX
  8
0
  6
CONTINUOUS
 62
     7
 10
344.7999853976198
 20
916.9238770907211
  0
VERTEX
  8
0
  6
CONTINUOUS
 62
     7
 10
344.76843860217
 20
916.9421762319274
  0
VERTEX
  8
0
  6
CONTINUOUS
 62
     7
 10
344.7358479252949
 20
916.9586702453616
  0
VERTEX
  8
0
  6
CONTINUOUS
 62
     7
 10
344.7025145582571
 20
916.9737170511013
  0
VERTEX
  8
0
  6
CONTINUOUS
 62
     7
 10
344.6689186627664
 20
916.9881933040384
  0
VERTEX
  8
0
  6
CONTINUOUS
 62
     7
 10
344.6353227672756
 20
917.0026695569757
  0
VERTEX
  8
0
  6
CONTINUOUS
 62
     7
 10
344.6017268717848
 20
917.0171458099129
  0
VERTEX
  8
0
  6
CONTINUOUS
 62
     7
 10
344.5681309762941
 20
917.03162206285
  0
VERTEX
  8
0
  6
CONTINUOUS
 62
     7
 10
344.5345350808032
 20
917.046098315787
  0
VERTEX
  8
0
  6
CONTINUOUS
 62
     7
 10
344.5009391853125
 20
917.0605745687243
  0
VERTEX
  8
0
  6
CONTINUOUS
 62
     7
 10
344.4673432898216
 20
917.0750508216614
  0
VERTEX
  8
0
  6
CONTINUOUS
 62
     7
 10
344.4337473943309
 20
917.0895270745988
  0
VERTEX
  8
0
  6
CONTINUOUS
 62
     7
 10
344.40015149884
 20
917.1040033275357
  0
VERTEX
  8
0
  6
CONTINUOUS
 62
     7
 10
344.3665556033493
 20
917.1184795804729
  0
VERTEX
  8
0
  6
CONTINUOUS
 62
     7
 10
344.3329597078584
 20
917.1329558334099
  0
VERTEX
  8
0
  6
CONTINUOUS
 62
     7
 10
344.2993638123676
 20
917.1474320863473
  0
VERTEX
  8
0
  6
CONTINUOUS
 62
     7
 10
344.2657679168769
 20
917.1619083392842
  0
VERTEX
  8
0
  6
CONTINUOUS
 62
     7
 10
344.232172021386
 20
917.1763845922214
  0
VERTEX
  8
0
  6
CONTINUOUS
 62
     7
 10
344.1985761258952
 20
917.1908608451587
  0
VERTEX
  8
0
  6
CONTINUOUS
 62
     7
 10
344.1649802304044
 20
917.2053370980958
  0
VERTEX
  8
0
  6
CONTINUOUS
 62
     7
 10
344.1313843349137
 20
917.2198133510329
  0
VERTEX
  8
0
  6
CONTINUOUS
 62
     7
 10
344.0977884394229
 20
917.2342896039701
  0
VERTEX
  8
0
  6
CONTINUOUS
 62
     7
 10
344.0641925439321
 20
917.2487658569072
  0
VERTEX
  8
0
  6
CONTINUOUS
 62
     7
 10
344.0305966484412
 20
917.2632421098444
  0
VERTEX
  8
0
  6
CONTINUOUS
 62
     7
 10
343.9970007529505
 20
917.2777183627816
  0
VERTEX
  8
0
  6
CONTINUOUS
 62
     7
 10
343.9634048574596
 20
917.2921946157187
  0
VERTEX
  8
0
  6
CONTINUOUS
 62
     7
 10
343.9298089619689
 20
917.3066708686559
  0
VERTEX
  8
0
  6
CONTINUOUS
 62
     7
 10
343.8962130664781
 20
917.3211471215931
  0
VERTEX
  8
0
  6
CONTINUOUS
 62
     7
 10
343.8626171709873
 20
917.3356233745303
  0
VERTEX
  8
0
  6
CONTINUOUS
 62
     7
 10
343.8290212754965
 20
917.3500996274674
  0
VERTEX
  8
0
  6
CONTINUOUS
 62
     7
 10
343.7954253800057
 20
917.3645758804046
  0
VERTEX
  8
0
  6
CONTINUOUS
 62
     7
 10
343.7618294845149
 20
917.3790521333417
  0
VERTEX
  8
0
  6
CONTINUOUS
 62
     7
 10
343.7282335890241
 20
917.393528386279
  0
VERTEX
  8
0
  6
CONTINUOUS
 62
     7
 10
343.6946376935333
 20
917.4080046392161
  0
VERTEX
  8
0
  6
CONTINUOUS
 62
     7
 10
343.6610417980426
 20
917.4224808921531
  0
VERTEX
  8
0
  6
CONTINUOUS
 62
     7
 10
343.6274459025518
 20
917.4369571450903
  0
VERTEX
  8
0
  6
CONTINUOUS
 62
     7
 10
343.593850007061
 20
917.4514333980275
  0
VERTEX
  8
0
  6
CONTINUOUS
 62
     7
 10
343.5602541115701
 20
917.4659096509645
  0
VERTEX
  8
0
  6
CONTINUOUS
 62
     7
 10
343.5266582160793
 20
917.4803859039018
  0
VERTEX
  8
0
  6
CONTINUOUS
 62
     7
 10
343.4930623205885
 20
917.494862156839
  0
VERTEX
  8
0
  6
CONTINUOUS
 62
     7
 10
343.4594664250977
 20
917.5093384097761
  0
VERTEX
  8
0
  6
CONTINUOUS
 62
     7
 10
343.4258705296069
 20
917.5238146627133
  0
VERTEX
  8
0
  6
CONTINUOUS
 62
     7
 10
343.3922746341162
 20
917.5382909156505
  0
VERTEX
  8
0
  6
CONTINUOUS
 62
     7
 10
343.3586787386254
 20
917.5527671685876
  0
VERTEX
  8
0
  6
CONTINUOUS
 62
     7
 10
343.3250828431346
 20
917.5672434215247
  0
VERTEX
  8
0
  6
CONTINUOUS
 62
     7
 10
343.2914869476438
 20
917.5817196744616
  0
VERTEX
  8
0
  6
CONTINUOUS
 62
     7
 10
343.257891052153
 20
917.596195927399
  0
VERTEX
  8
0
  6
CONTINUOUS
 62
     7
 10
343.2242951566622
 20
917.6106721803361
  0
VERTEX
  8
0
  6
CONTINUOUS
 62
     7
 10
343.1906992611714
 20
917.6251484332732
  0
VERTEX
  8
0
  6
CONTINUOUS
 62
     7
 10
343.1571033656806
 20
917.6396246862105
  0
VERTEX
  8
0
  6
CONTINUOUS
 62
     7
 10
343.1235074701898
 20
917.6541009391476
  0
VERTEX
  8
0
  6
CONTINUOUS
 62
     7
 10
343.089911574699
 20
917.6685771920847
  0
VERTEX
  8
0
  6
CONTINUOUS
 62
     7
 10
343.0563156792082
 20
917.6830534450219
  0
VERTEX
  8
0
  6
CONTINUOUS
 62
     7
 10
343.0227197837174
 20
917.697529697959
  0
VERTEX
  8
0
  6
CONTINUOUS
 62
     7
 10
342.9891238882266
 20
917.7120059508962
  0
VERTEX
  8
0
  6
CONTINUOUS
 62
     7
 10
342.9555279927358
 20
917.7264822038334
  0
VERTEX
  8
0
  6
CONTINUOUS
 62
     7
 10
342.921932097245
 20
917.7409584567705
  0
VERTEX
  8
0
  6
CONTINUOUS
 62
     7
 10
342.8883362017542
 20
917.7554347097077
  0
VERTEX
  8
0
  6
CONTINUOUS
 62
     7
 10
342.8547403062634
 20
917.7699109626449
  0
VERTEX
  8
0
  6
CONTINUOUS
 62
     7
 10
342.8211444107726
 20
917.784387215582
  0
VERTEX
  8
0
  6
CONTINUOUS
 62
     7
 10
342.7875485152819
 20
917.7988634685194
  0
VERTEX
  8
0
  6
CONTINUOUS
 62
     7
 10
342.753952619791
 20
917.8133397214563
  0
VERTEX
  8
0
  6
CONTINUOUS
 62
     7
 10
342.7203567243003
 20
917.8278159743936
  0
VERTEX
  8
0
  6
CONTINUOUS
 62
     7
 10
342.6867608288094
 20
917.8422922273305
  0
VERTEX
  8
0
  6
CONTINUOUS
 62
     7
 10
342.6531649333186
 20
917.8567684802678
  0
VERTEX
  8
0
  6
CONTINUOUS
 62
     7
 10
342.6195690378279
 20
917.871244733205
  0
VERTEX
  8
0
  6
CONTINUOUS
 62
     7
 10
342.585973142337
 20
917.8857209861421
  0
VERTEX
  8
0
  6
CONTINUOUS
 62
     7
 10
342.5523772468462
 20
917.9001972390791
  0
VERTEX
  8
0
  6
CONTINUOUS
 62
     7
 10
342.5187813513555
 20
917.9146734920164
  0
VERTEX
  8
0
  6
CONTINUOUS
 62
     7
 10
342.4851854558647
 20
917.9291497449536
  0
VERTEX
  8
0
  6
CONTINUOUS
 62
     7
 10
342.4515895603739
 20
917.9436259978906
  0
VERTEX
  8
0
  6
CONTINUOUS
 62
     7
 10
342.4179936648832
 20
917.958102250828
  0
VERTEX
  8
0
  6
CONTINUOUS
 62
     7
 10
342.3843977693923
 20
917.9725785037649
  0
VERTEX
  8
0
  6
CONTINUOUS
 62
     7
 10
342.3508018739015
 20
917.9870547567023
  0
VERTEX
  8
0
  6
CONTINUOUS
 62
     7
 10
342.3172059784107
 20
918.0015310096394
  0
VERTEX
  8
0
  6
CONTINUOUS
 62
     7
 10
342.2836100829199
 20
918.0160072625765
  0
VERTEX
  8
0
  6
CONTINUOUS
 62
     7
 10
342.2500141874291
 20
918.0304835155137
  0
VERTEX
  8
0
  6
CONTINUOUS
 62
     7
 10
342.2164182919383
 20
918.0449597684509
  0
VERTEX
  8
0
  6
CONTINUOUS
 62
     7
 10
342.1828223964476
 20
918.0594360213881
  0
VERTEX
  8
0
  6
CONTINUOUS
 62
     7
 10
342.1492265009566
 20
918.0739122743249
  0
VERTEX
  8
0
  6
CONTINUOUS
 62
     7
 10
342.115630605466
 20
918.0883885272624
  0
VERTEX
  8
0
  6
CONTINUOUS
 62
     7
 10
342.0820347099751
 20
918.1028647801995
  0
VERTEX
  8
0
  6
CONTINUOUS
 62
     7
 10
342.0484388144844
 20
918.1173410331367
  0
VERTEX
  8
0
  6
CONTINUOUS
 62
     7
 10
342.0148429189936
 20
918.1318172860738
  0
VERTEX
  8
0
  6
CONTINUOUS
 62
     7
 10
341.9812470235028
 20
918.1462935390109
  0
VERTEX
  8
0
  6
CONTINUOUS
 62
     7
 10
341.947651128012
 20
918.160769791948
  0
VERTEX
  8
0
  6
CONTINUOUS
 62
     7
 10
341.9140552325212
 20
918.1752460448852
  0
VERTEX
  8
0
  6
CONTINUOUS
 62
     7
 10
341.8804593370304
 20
918.1897222978223
  0
VERTEX
  8
0
  6
CONTINUOUS
 62
     7
 10
341.8468634415395
 20
918.2041985507594
  0
VERTEX
  8
0
  6
CONTINUOUS
 62
     7
 10
341.8132675460488
 20
918.2186748036968
  0
VERTEX
  8
0
  6
CONTINUOUS
 62
     7
 10
341.779671650558
 20
918.2331510566338
  0
VERTEX
  8
0
  6
CONTINUOUS
 62
     7
 10
341.7460757550672
 20
918.247627309571
  0
VERTEX
  8
0
  6
CONTINUOUS
 62
     7
 10
341.7124798595764
 20
918.2621035625082
  0
VERTEX
  8
0
  6
CONTINUOUS
 62
     7
 10
341.6788839640856
 20
918.2765798154453
  0
VERTEX
  8
0
  6
CONTINUOUS
 62
     7
 10
341.6452880685948
 20
918.2910560683824
  0
VERTEX
  8
0
  6
CONTINUOUS
 62
     7
 10
341.611692173104
 20
918.3055323213196
  0
VERTEX
  8
0
  6
CONTINUOUS
 62
     7
 10
341.5780962776132
 20
918.3200085742567
  0
VERTEX
  8
0
  6
CONTINUOUS
 62
     7
 10
341.5445003821224
 20
918.3344848271938
  0
VERTEX
  8
0
  6
CONTINUOUS
 62
     7
 10
341.5109044866317
 20
918.3489610801312
  0
VERTEX
  8
0
  6
CONTINUOUS
 62
     7
 10
341.4773085911409
 20
918.3634373330683
  0
VERTEX
  8
0
  6
CONTINUOUS
 62
     7
 10
341.44371269565
 20
918.3779135860053
  0
VERTEX
  8
0
  6
CONTINUOUS
 62
     7
 10
341.4101168001592
 20
918.3923898389426
  0
VERTEX
  8
0
  6
CONTINUOUS
 62
     7
 10
341.3765209046685
 20
918.4068660918798
  0
VERTEX
  8
0
  6
CONTINUOUS
 62
     7
 10
341.3429250091776
 20
918.4213423448168
  0
VERTEX
  8
0
  6
CONTINUOUS
 62
     7
 10
341.3093291136869
 20
918.435818597754
  0
VERTEX
  8
0
  6
CONTINUOUS
 62
     7
 10
341.275733218196
 20
918.4502948506911
  0
VERTEX
  8
0
  6
CONTINUOUS
 62
     7
 10
341.2421373227052
 20
918.4647711036281
  0
VERTEX
  8
0
  6
CONTINUOUS
 62
     7
 10
341.2085414272145
 20
918.4792473565655
  0
SEQEND
  8
0
  6
CONTINUOUS
 62
     7
  0
LINE
  8
0
  6
CONTINUOUS
 62
     7
 10
357.0000000000001
 20
916.5000000000001
 11
380.0000000000001
 21
916.5000000000001
  0
LINE
  8
0
  6
CONTINUOUS
 62
     7
 10
403.0000000000001
 20
916.5000000000001
 11
380.0000000000001
 21
916.5000000000001
  0
LINE
  8
0
  6
CONTINUOUS
 62
     7
 10
348.7000000000001
 20
980.0000000000001
 11
348.7
 21
935.5000000000001
  0
LINE
  8
0
  6
CONTINUOUS
 62
     7
 10
349.7000000000001
 20
980.0000000000001
 11
348.7000000000001
 21
980.0000000000001
  0
LINE
  8
0
  6
CONTINUOUS
 62
     7
 10
349.7000000000001
 20
935.5000000000001
 11
348.7000000000001
 21
935.5000000000001
  0
LINE
  8
0
  6
CONTINUOUS
 62
     7
 10
349.7000000000001
 20
980.0000000000001
 11
410.3000000000001
 21
980.0000000000001
  0
LINE
  8
0
  6
CONTINUOUS
 62
     7
 10
410.3000000000001
 20
935.5000000000001
 11
349.7000000000001
 21
935.5000000000001
  0
LINE
  8
0
  6
CONTINUOUS
 62
     7
 10
410.3000000000001
 20
980.0000000000001
 11
411.3000000000001
 21
980.0000000000001
  0
LINE
  8
0
  6
CONTINUOUS
 62
     7
 10
411.3000000000001
 20
980.0000000000001
 11
411.3000000000001
 21
935.5000000000001
  0
LINE
  8
0
  6
CONTINUOUS
 62
     7
 10
410.3000000000001
 20
935.5000000000001
 11
411.3000000000001
 21
935.5000000000001
  0
LINE
  8
0
  6
CONTINUOUS
 62
     7
 10
349.2
 20
935.0
 11
349.2
 21
935.5000000000001
  0
LINE
  8
0
  6
CONTINUOUS
 62
     7
 10
410.8000000000001
 20
935.0
 11
410.8000000000001
 21
935.5000000000001
  0
ARC
  8
0
  6
CONTINUOUS
 62
     7
 10
415.5000000000001
 20
916.5000000000001
 40
0.5000000000000004
 50
180.0
 51
252.6626907861031
  0
ARC
  8
0
  6
CONTINUOUS
 62
     7
 10
344.5
 20
916.5000000000001
 40
0.5000000000000004
 50
287.3373092138969
 51
0.0
  0
ARC
  8
0
  6
CONTINUOUS
 62
     7
 10
344.5
 20
888.5
 40
0.5000000000000254
 50
287.3373092138968
 51
72.66269078610263
  0
ARC
  8
0
  6
CONTINUOUS
 62
     7
 10
344.5
 20
902.5000000000001
 40
0.5000000000000254
 50
287.3373092138968
 51
72.66269078610263
  0
ARC
  8
0
  6
CONTINUOUS
 62
     7
 10
344.5
 20
895.5
 40
0.5000000000000254
 50
287.3373092138964
 51
72.66269078610263
  0
ARC
  8
0
  6
CONTINUOUS
 62
     7
 10
344.5
 20
909.5000000000001
 40
0.5000000000000254
 50
287.3373092138964
 51
72.66269078610263
  0
ARC
  8
0
  6
CONTINUOUS
 62
     7
 10
415.5000000000001
 20
888.5
 40
0.5000000000000089
 50
107.3373092138974
 51
252.6626907861031
  0
ARC
  8
0
  6
CONTINUOUS
 62
     7
 10
415.5000000000001
 20
895.5
 40
0.5000000000000089
 50
107.3373092138974
 51
252.6626907861036
  0
ARC
  8
0
  6
CONTINUOUS
 62
     7
 10
415.5000000000001
 20
902.5000000000001
 40
0.5000000000000089
 50
107.3373092138974
 51
252.6626907861031
  0
ARC
  8
0
  6
CONTINUOUS
 62
     7
 10
415.5000000000001
 20
909.5000000000001
 40
0.5000000000000089
 50
107.3373092138974
 51
252.6626907861036
  0
LINE
  8
0
  6
CONTINUOUS
 62
     7
 10
340.0000000000001
 20
920.5023421717797
 11
340.0000000000001
 21
920.3159817736472
  0
ARC
  8
0
  6
CONTINUOUS
 62
     7
 10
342.0036494559295
 20
920.3183830023584
 40
2.003650894778198
 50
180.0686648078677
 51
246.6186545700596
  0
LINE
  8
0
  6
CONTINUOUS
 62
     7
 10
420.0000000000001
 20
920.5023421717796
 11
420.0000000000001
 21
920.3159817736472
  0
ARC
  8
0
  6
CONTINUOUS
 62
     7
 10
417.9963505440704
 20
920.3183830023586
 40
2.003650894778512
 50
293.3813454299452
 51
359.931335192126
  0
LINE
  8
0
  6
CONTINUOUS
 62
     7
 10
348.41892336111
 20
980.0000000000001
 11
348.7000000000001
 21
980.0000000000001
  0
LINE
  8
0
  6
CONTINUOUS
 62
     7
 10
348.41892336111
 20
935.5000000000001
 11
348.7
 21
935.5000000000001
  0
LINE
  8
0
  6
CONTINUOUS
 62
     7
 10
411.5810766388901
 20
980.0000000000001
 11
411.3000000000001
 21
980.0000000000001
  0
LINE
  8
0
  6
CONTINUOUS
 62
     7
 10
411.5810766388901
 20
935.5000000000001
 11
411.3000000000001
 21
935.5000000000001
  0
LINE
  8
0
  6
CONTINUOUS
 62
     7
 10
416.2
 20
935.0
 11
416.2
 21
935.5000000000001
  0
LINE
  8
0
  6
CONTINUOUS
 62
     7
 10
343.8000000000001
 20
935.0
 11
343.8000000000001
 21
935.5000000000001
  0
LINE
  8
0
  6
CONTINUOUS
 62
     7
 10
416.41892336111
 20
980.0000000000001
 11
411.5810766388901
 21
980.0000000000001
  0
LINE
  8
0
  6
CONTINUOUS
 62
     7
 10
411.5810766388901
 20
935.5000000000001
 11
416.41892336111
 21
935.5000000000001
  0
LINE
  8
0
  6
CONTINUOUS
 62
     7
 10
343.5810766388901
 20
980.0000000000001
 11
348.41892336111
 21
980.0000000000001
  0
LINE
  8
0
  6
CONTINUOUS
 62
     7
 10
348.41892336111
 20
935.5000000000001
 11
343.5810766388901
 21
935.5000000000001
  0
LINE
  8
0
  6
CONTINUOUS
 62
     7
 10
343.3000000000001
 20
980.0000000000001
 11
343.3000000000001
 21
935.5000000000001
  0
LINE
  8
0
  6
CONTINUOUS
 62
     7
 10
343.5810766388901
 20
980.0000000000001
 11
343.3000000000001
 21
980.0000000000001
  0
LINE
  8
0
  6
CONTINUOUS
 62
     7
 10
343.5810766388901
 20
935.5000000000001
 11
343.3000000000001
 21
935.5000000000001
  0
LINE
  8
0
  6
CONTINUOUS
 62
     7
 10
416.7
 20
980.0000000000001
 11
416.7
 21
935.5000000000001
  0
LINE
  8
0
  6
CONTINUOUS
 62
     7
 10
416.41892336111
 20
980.0000000000001
 11
416.7
 21
980.0000000000001
  0
LINE
  8
0
  6
CONTINUOUS
 62
     7
 10
416.41892336111
 20
935.5000000000001
 11
416.7
 21
935.5000000000001
  0
LINE
  8
0
  6
CONTINUOUS
 62
     7
 10
342.3000000000001
 20
938.5000000000001
 11
343.3000000000001
 21
938.5000000000001
  0
LINE
  8
0
  6
CONTINUOUS
 62
     7
 10
343.3000000000001
 20
978.5000000000015
 11
342.3000000000001
 21
938.5000000000001
  0
LINE
  8
0
  6
CONTINUOUS
 62
     7
 10
416.7
 20
978.5000000000015
 11
417.7
 21
938.5000000000001
  0
LINE
  8
0
  6
CONTINUOUS
 62
     7
 10
417.7
 20
938.5000000000001
 11
416.7
 21
938.5000000000001
  0
LINE
  8
0
  6
CONTINUOUS
 62
     7
 10
338.4999999999999
 20
285.9
 11
338.4999999999999
 21
285.1
  0
LINE
  8
0
  6
CONTINUOUS
 62
     7
 10
421.5
 20
285.9
 11
421.5
 21
285.1
  0
LINE
  8
0
  6
CONTINUOUS
 62
     7
 10
414.9999999999999
 20
284.1
 11
344.9999999999999
 21
284.1
  0
LINE
  8
0
  6
CONTINUOUS
 62
     7
 10
344.9999999999999
 20
284.1
 11
339.4999999999999
 21
284.1
  0
ARC
  8
0
  6
CONTINUOUS
 62
     7
 10
339.4999999999999
 20
285.1
 40
1.000000000000001
 50
180.0
 51
270.0
  0
LINE
  8
0
  6
CONTINUOUS
 62
     7
 10
339.4999999999999
 20
286.9
 11
344.9999999999999
 21
286.9
  0
ARC
  8
0
  6
CONTINUOUS
 62
     7
 10
339.4999999999999
 20
285.9
 40
1.000000000000001
 50
89.99999999999999
 51
180.0
  0
LINE
  8
0
  6
CONTINUOUS
 62
     7
 10
420.4999999999999
 20
286.9
 11
414.9999999999999
 21
286.9
  0
ARC
  8
0
  6
CONTINUOUS
 62
     7
 10
420.5
 20
285.9
 40
1.000000000000001
 50
0.0
 51
90.0
  0
LINE
  8
0
  6
CONTINUOUS
 62
     7
 10
344.9999999999999
 20
286.9
 11
414.9999999999999
 21
286.9
  0
LINE
  8
0
  6
CONTINUOUS
 62
     7
 10
414.9999999999999
 20
284.1
 11
420.4999999999999
 21
284.1
  0
ARC
  8
0
  6
CONTINUOUS
 62
     7
 10
420.5
 20
285.1
 40
1.000000000000001
 50
270.0
 51
0.0
  0
ARC
  8
0
  6
CONTINUOUS
 62
     7
 10
420.0
 20
318.0000000000001
 40
1.50000000000006
 50
287.3373092138967
 51
72.66269078610208
  0
LINE
  8
0
  6
CONTINUOUS
 62
     9
 10
420.4469947818948
 20
316.5681495661352
 11
402.9999999999999
 21
316.5681495661352
  0
LINE
  8
0
  6
CONTINUOUS
 62
     9
 10
420.4469947818948
 20
319.4318504338648
 11
402.9999999999999
 21
319.4318504338648
  0
LINE
  8
0
  6
CONTINUOUS
 62
     9
 10
356.9999999999999
 20
305.4318504338648
 11
402.9999999999999
 21
305.4318504338648
  0
LINE
  8
0
  6
CONTINUOUS
 62
     9
 10
356.9999999999999
 20
302.5681495661352
 11
402.9999999999999
 21
302.5681495661352
  0
ARC
  8
0
  6
CONTINUOUS
 62
     7
 10
420.0
 20
297.0000000000001
 40
1.50000000000006
 50
287.3373092138967
 51
72.66269078610208
  0
LINE
  8
0
  6
CONTINUOUS
 62
     9
 10
420.4469947818948
 20
295.5681495661352
 11
402.9999999999999
 21
295.5681495661352
  0
LINE
  8
0
  6
CONTINUOUS
 62
     9
 10
420.4469947818948
 20
298.4318504338648
 11
402.9999999999999
 21
298.4318504338648
  0
LINE
  8
0
  6
CONTINUOUS
 62
     9
 10
356.9999999999999
 20
298.4318504338648
 11
402.9999999999999
 21
298.4318504338648
  0
LINE
  8
0
  6
CONTINUOUS
 62
     9
 10
356.9999999999999
 20
295.5681495661352
 11
402.9999999999999
 21
295.5681495661352
  0
ARC
  8
0
  6
CONTINUOUS
 62
     7
 10
420.0
 20
304.0000000000001
 40
1.50000000000006
 50
287.3373092138967
 51
72.66269078610208
  0
LINE
  8
0
  6
CONTINUOUS
 62
     9
 10
420.4469947818948
 20
302.5681495661352
 11
402.9999999999999
 21
302.5681495661352
  0
LINE
  8
0
  6
CONTINUOUS
 62
     9
 10
420.4469947818948
 20
305.4318504338648
 11
402.9999999999999
 21
305.4318504338648
  0
LINE
  8
0
  6
CONTINUOUS
 62
     9
 10
339.5530052181051
 20
309.5681495661352
 11
356.9999999999999
 21
309.5681495661352
  0
ARC
  8
0
  6
CONTINUOUS
 62
     7
 10
339.9999999999999
 20
311.0000000000001
 40
1.500000000000043
 50
107.3373092138979
 51
252.6626907861034
  0
LINE
  8
0
  6
CONTINUOUS
 62
     9
 10
339.5530052181051
 20
312.4318504338648
 11
356.9999999999999
 21
312.4318504338648
  0
LINE
  8
0
  6
CONTINUOUS
 62
     9
 10
339.5530052181051
 20
316.5681495661352
 11
356.9999999999999
 21
316.5681495661352
  0
ARC
  8
0
  6
CONTINUOUS
 62
     7
 10
339.9999999999999
 20
318.0000000000001
 40
1.500000000000043
 50
107.3373092138979
 51
252.6626907861034
  0
LINE
  8
0
  6
CONTINUOUS
 62
     9
 10
339.5530052181051
 20
319.4318504338648
 11
356.9999999999999
 21
319.4318504338648
  0
LINE
  8
0
  6
CONTINUOUS
 62
     9
 10
339.5530052181051
 20
295.5681495661352
 11
356.9999999999999
 21
295.5681495661352
  0
ARC
  8
0
  6
CONTINUOUS
 62
     7
 10
339.9999999999999
 20
297.0000000000001
 40
1.500000000000043
 50
107.3373092138979
 51
252.6626907861034
  0
LINE
  8
0
  6
CONTINUOUS
 62
     9
 10
339.5530052181051
 20
298.4318504338648
 11
356.9999999999999
 21
298.4318504338648
  0
ARC
  8
0
  6
CONTINUOUS
 62
     7
 10
420.0
 20
311.0000000000001
 40
1.50000000000006
 50
287.3373092138967
 51
72.66269078610208
  0
LINE
  8
0
  6
CONTINUOUS
 62
     9
 10
420.4469947818948
 20
309.5681495661352
 11
402.9999999999999
 21
309.5681495661352
  0
LINE
  8
0
  6
CONTINUOUS
 62
     9
 10
420.4469947818948
 20
312.4318504338648
 11
402.9999999999999
 21
312.4318504338648
  0
LINE
  8
0
  6
CONTINUOUS
 62
     9
 10
339.5530052181051
 20
323.5681495661352
 11
356.9999999999999
 21
323.5681495661352
  0
ARC
  8
0
  6
CONTINUOUS
 62
     7
 10
339.9999999999999
 20
325.0
 40
1.49999999999999
 50
180.0
 51
252.6626907861028
  0
LINE
  8
0
  6
CONTINUOUS
 62
     9
 10
356.9999999999999
 20
312.4318504338648
 11
402.9999999999999
 21
312.4318504338648
  0
LINE
  8
0
  6
CONTINUOUS
 62
     9
 10
356.9999999999999
 20
309.5681495661352
 11
402.9999999999999
 21
309.5681495661352
  0
LINE
  8
0
  6
CONTINUOUS
 62
     9
 10
339.5530052181051
 20
302.5681495661352
 11
356.9999999999999
 21
302.5681495661352
  0
ARC
  8
0
  6
CONTINUOUS
 62
     7
 10
339.9999999999999
 20
304.0000000000001
 40
1.500000000000043
 50
107.3373092138979
 51
252.6626907861034
  0
LINE
  8
0
  6
CONTINUOUS
 62
     9
 10
339.5530052181051
 20
305.4318504338648
 11
356.9999999999999
 21
305.4318504338648
  0
LINE
  8
0
  6
CONTINUOUS
 62
     9
 10
356.9999999999999
 20
323.5681495661352
 11
403.0
 21
323.5681495661352
  0
LINE
  8
0
  6
CONTINUOUS
 62
     9
 10
356.9999999999999
 20
319.4318504338648
 11
402.9999999999999
 21
319.4318504338648
  0
LINE
  8
0
  6
CONTINUOUS
 62
     9
 10
356.9999999999999
 20
316.5681495661352
 11
402.9999999999999
 21
316.5681495661352
  0
ARC
  8
0
  6
CONTINUOUS
 62
     7
 10
420.0
 20
325.0
 40
1.500000000000007
 50
287.3373092138972
 51
359.9999999999999
  0
LINE
  8
0
  6
CONTINUOUS
 62
     9
 10
420.4469947818948
 20
323.5681495661352
 11
403.0
 21
323.5681495661352
  0
LINE
  8
0
  6
CONTINUOUS
 62
     7
 10
415.3510017393684
 20
314.9772834779549
 11
420.4469947818948
 21
316.5681495661352
  0
LINE
  8
0
  6
CONTINUOUS
 62
     7
 10
415.3510017393684
 20
307.9772834779549
 11
420.4469947818948
 21
309.5681495661352
  0
LINE
  8
0
  6
CONTINUOUS
 62
     7
 10
415.3510017393684
 20
300.9772834779549
 11
420.4469947818948
 21
302.5681495661352
  0
LINE
  8
0
  6
CONTINUOUS
 62
     7
 10
344.6489982606316
 20
300.9772834779549
 11
339.5530052181051
 21
302.5681495661352
  0
LINE
  8
0
  6
CONTINUOUS
 62
     7
 10
344.6489982606316
 20
314.9772834779549
 11
339.5530052181051
 21
316.5681495661352
  0
LINE
  8
0
  6
CONTINUOUS
 62
     7
 10
339.5530052181051
 20
298.4318504338648
 11
344.6489982606316
 21
300.022716522045
  0
LINE
  8
0
  6
CONTINUOUS
 62
     7
 10
344.6489982606316
 20
293.9772834779549
 11
339.5530052181051
 21
295.5681495661352
  0
LINE
  8
0
  6
CONTINUOUS
 62
     7
 10
344.6489982606316
 20
307.9772834779549
 11
339.5530052181051
 21
309.5681495661352
  0
LINE
  8
0
  6
CONTINUOUS
 62
     7
 10
420.4469947818948
 20
312.4318504338648
 11
415.3510017393684
 21
314.0227165220451
  0
LINE
  8
0
  6
CONTINUOUS
 62
     7
 10
339.5530052181051
 20
305.4318504338648
 11
344.6489982606316
 21
307.022716522045
  0
LINE
  8
0
  6
CONTINUOUS
 62
     7
 10
415.3510017393684
 20
321.9772834779549
 11
420.4469947818948
 21
323.5681495661352
  0
LINE
  8
0
  6
CONTINUOUS
 62
     7
 10
339.5530052181051
 20
319.4318504338648
 11
344.6489982606316
 21
321.0227165220451
  0
LINE
  8
0
  6
CONTINUOUS
 62
     7
 10
420.4469947818948
 20
319.4318504338648
 11
415.3510017393684
 21
321.0227165220451
  0
LINE
  8
0
  6
CONTINUOUS
 62
     7
 10
415.3510017393684
 20
293.9772834779549
 11
420.4469947818948
 21
295.5681495661352
  0
LINE
  8
0
  6
CONTINUOUS
 62
     7
 10
339.5530052181051
 20
312.4318504338648
 11
344.6489982606316
 21
314.0227165220451
  0
LINE
  8
0
  6
CONTINUOUS
 62
     7
 10
344.6489982606316
 20
321.9772834779549
 11
339.5530052181051
 21
323.5681495661352
  0
LINE
  8
0
  6
CONTINUOUS
 62
     7
 10
420.4469947818948
 20
298.4318504338648
 11
415.3510017393684
 21
300.022716522045
  0
LINE
  8
0
  6
CONTINUOUS
 62
     7
 10
420.4469947818948
 20
305.4318504338648
 11
415.3510017393684
 21
307.022716522045
  0
LINE
  8
0
  6
CONTINUOUS
 62
     7
 10
420.0
 20
286.9
 11
420.0
 21
289.4976578282204
  0
LINE
  8
0
  6
CONTINUOUS
 62
     7
 10
339.9999999999999
 20
276.0
 11
339.9999999999999
 21
284.1
  0
LINE
  8
0
  6
CONTINUOUS
 62
     7
 10
420.0
 20
276.0
 11
420.0
 21
284.1
  0
LINE
  8
0
  6
CONTINUOUS
 62
     7
 10
339.9999999999999
 20
286.9
 11
339.9999999999999
 21
289.4976578282204
  0
LINE
  8
0
  6
CONTINUOUS
 62
     7
 10
413.4999999999999
 20
275.0
 11
419.0
 21
275.0
  0
ARC
  8
0
  6
CONTINUOUS
 62
     7
 10
419.0
 20
276.0
 40
1.000000000000001
 50
270.0
 51
0.0
  0
LINE
  8
0
  6
CONTINUOUS
 62
     7
 10
413.4999999999999
 20
275.0
 11
346.4999999999999
 21
275.0
  0
LINE
  8
0
  6
CONTINUOUS
 62
     7
 10
346.4999999999999
 20
275.0
 11
340.9999999999999
 21
275.0
  0
ARC
  8
0
  6
CONTINUOUS
 62
     7
 10
340.9999999999999
 20
276.0
 40
1.000000000000001
 50
180.0
 51
270.0
  0
LINE
  8
0
  6
CONTINUOUS
 62
     7
 10
407.3980856446299
 20
293.5
 11
402.9999999999999
 21
293.5
  0
LINE
  8
0
  6
CONTINUOUS
 62
     7
 10
407.7683692902369
 20
293.5
 11
407.3980856446299
 21
293.5
  0
LINE
  8
0
  6
CONTINUOUS
 62
     7
 10
411.485281374222
 20
293.5
 11
407.7683692902369
 21
293.5
  0
LINE
  8
0
  6
CONTINUOUS
 62
     7
 10
414.0119323605248
 20
293.5
 11
411.485281374222
 21
293.5
  0
LINE
  8
0
  6
CONTINUOUS
 62
     7
 10
414.16498287779
 20
293.5
 11
414.0119323605248
 21
293.5
  0
LINE
  8
0
  6
CONTINUOUS
 62
     7
 10
414.9999999999999
 20
293.5
 11
414.16498287779
 21
293.5
  0
POLYLINE
  8
0
  6
CONTINUOUS
 62
     7
 66
     1
  0
VERTEX
  8
0
  6
CONTINUOUS
 62
     7
 10
414.9999999999999
 20
293.5
  0
VERTEX
  8
0
  6
CONTINUOUS
 62
     7
 10
414.998682120471
 20
293.4606226801779
  0
VERTEX
  8
0
  6
CONTINUOUS
 62
     7
 10
415.0003479442492
 20
293.4214830903693
  0
VERTEX
  8
0
  6
CONTINUOUS
 62
     7
 10
415.0049841540531
 20
293.3828401073816
  0
VERTEX
  8
0
  6
CONTINUOUS
 62
     7
 10
415.0125762906633
 20
293.3449522308592
  0
VERTEX
  8
0
  6
CONTINUOUS
 62
     7
 10
415.0230839061316
 20
293.3080696111458
  0
VERTEX
  8
0
  6
CONTINUOUS
 62
     7
 10
415.0364274657436
 20
293.2724303416741
  0
VERTEX
  8
0
  6
CONTINUOUS
 62
     7
 10
415.0525218390545
 20
293.2382708570336
  0
VERTEX
  8
0
  6
CONTINUOUS
 62
     7
 10
415.0712735802833
 20
293.2058215851824
  0
VERTEX
  8
0
  6
CONTINUOUS
 62
     7
 10
415.0925604727799
 20
293.1752925589894
  0
VERTEX
  8
0
  6
CONTINUOUS
 62
     7
 10
415.1162370639784
 20
293.1468783108447
  0
VERTEX
  8
0
  6
CONTINUOUS
 62
     7
 10
415.1421523809565
 20
293.1207688318695
  0
VERTEX
  8
0
  6
CONTINUOUS
 62
     7
 10
415.1701389936518
 20
293.0971334125896
  0
VERTEX
  8
0
  6
CONTINUOUS
 62
     7
 10
415.2000146023804
 20
293.0761229092792
  0
VERTEX
  8
0
  6
CONTINUOUS
 62
     7
 10
415.23156139783
 20
293.0578237680726
  0
VERTEX
  8
0
  6
CONTINUOUS
 62
     7
 10
415.264152074705
 20
293.0413297546381
  0
VERTEX
  8
0
  6
CONTINUOUS
 62
     7
 10
415.2974854417428
 20
293.0262829488986
  0
VERTEX
  8
0
  6
CONTINUOUS
 62
     7
 10
415.3310813372336
 20
293.0118066959615
  0
VERTEX
  8
0
  6
CONTINUOUS
 62
     7
 10
415.3646772327245
 20
292.9973304430243
  0
VERTEX
  8
0
  6
CONTINUOUS
 62
     7
 10
415.3982731282154
 20
292.9828541900872
  0
VERTEX
  8
0
  6
CONTINUOUS
 62
     7
 10
415.431869023706
 20
292.9683779371501
  0
VERTEX
  8
0
  6
CONTINUOUS
 62
     7
 10
415.4654649191969
 20
292.9539016842129
  0
VERTEX
  8
0
  6
CONTINUOUS
 62
     7
 10
415.4990608146877
 20
292.9394254312758
  0
VERTEX
  8
0
  6
CONTINUOUS
 62
     7
 10
415.5326567101785
 20
292.9249491783386
  0
VERTEX
  8
0
  6
CONTINUOUS
 62
     7
 10
415.5662526056692
 20
292.9104729254015
  0
VERTEX
  8
0
  6
CONTINUOUS
 62
     7
 10
415.59984850116
 20
292.8959966724642
  0
VERTEX
  8
0
  6
CONTINUOUS
 62
     7
 10
415.6334443966509
 20
292.8815204195271
  0
VERTEX
  8
0
  6
CONTINUOUS
 62
     7
 10
415.6670402921416
 20
292.8670441665899
  0
VERTEX
  8
0
  6
CONTINUOUS
 62
     7
 10
415.7006361876324
 20
292.8525679136528
  0
VERTEX
  8
0
  6
CONTINUOUS
 62
     7
 10
415.7342320831232
 20
292.8380916607156
  0
VERTEX
  8
0
  6
CONTINUOUS
 62
     7
 10
415.767827978614
 20
292.8236154077785
  0
VERTEX
  8
0
  6
CONTINUOUS
 62
     7
 10
415.8014238741048
 20
292.8091391548413
  0
VERTEX
  8
0
  6
CONTINUOUS
 62
     7
 10
415.8350197695956
 20
292.7946629019041
  0
VERTEX
  8
0
  6
CONTINUOUS
 62
     7
 10
415.8686156650863
 20
292.780186648967
  0
VERTEX
  8
0
  6
CONTINUOUS
 62
     7
 10
415.9022115605773
 20
292.7657103960299
  0
VERTEX
  8
0
  6
CONTINUOUS
 62
     7
 10
415.935807456068
 20
292.7512341430927
  0
VERTEX
  8
0
  6
CONTINUOUS
 62
     7
 10
415.9694033515588
 20
292.7367578901556
  0
VERTEX
  8
0
  6
CONTINUOUS
 62
     7
 10
416.0029992470495
 20
292.7222816372184
  0
VERTEX
  8
0
  6
CONTINUOUS
 62
     7
 10
416.0365951425403
 20
292.7078053842812
  0
VERTEX
  8
0
  6
CONTINUOUS
 62
     7
 10
416.0701910380312
 20
292.6933291313441
  0
VERTEX
  8
0
  6
CONTINUOUS
 62
     7
 10
416.1037869335219
 20
292.6788528784069
  0
VERTEX
  8
0
  6
CONTINUOUS
 62
     7
 10
416.1373828290128
 20
292.6643766254698
  0
VERTEX
  8
0
  6
CONTINUOUS
 62
     7
 10
416.1709787245036
 20
292.6499003725327
  0
VERTEX
  8
0
  6
CONTINUOUS
 62
     7
 10
416.2045746199943
 20
292.6354241195954
  0
VERTEX
  8
0
  6
CONTINUOUS
 62
     7
 10
416.2381705154852
 20
292.6209478666584
  0
VERTEX
  8
0
  6
CONTINUOUS
 62
     7
 10
416.2717664109759
 20
292.6064716137212
  0
VERTEX
  8
0
  6
CONTINUOUS
 62
     7
 10
416.3053623064667
 20
292.591995360784
  0
VERTEX
  8
0
  6
CONTINUOUS
 62
     7
 10
416.3389582019576
 20
292.5775191078469
  0
VERTEX
  8
0
  6
CONTINUOUS
 62
     7
 10
416.3725540974484
 20
292.5630428549097
  0
VERTEX
  8
0
  6
CONTINUOUS
 62
     7
 10
416.4061499929391
 20
292.5485666019726
  0
VERTEX
  8
0
  6
CONTINUOUS
 62
     7
 10
416.4397458884299
 20
292.5340903490355
  0
VERTEX
  8
0
  6
CONTINUOUS
 62
     7
 10
416.4733417839207
 20
292.5196140960983
  0
VERTEX
  8
0
  6
CONTINUOUS
 62
     7
 10
416.5069376794115
 20
292.5051378431612
  0
VERTEX
  8
0
  6
CONTINUOUS
 62
     7
 10
416.5405335749023
 20
292.490661590224
  0
VERTEX
  8
0
  6
CONTINUOUS
 62
     7
 10
416.5741294703931
 20
292.4761853372868
  0
VERTEX
  8
0
  6
CONTINUOUS
 62
     7
 10
416.6077253658838
 20
292.4617090843496
  0
VERTEX
  8
0
  6
CONTINUOUS
 62
     7
 10
416.6413212613746
 20
292.4472328314125
  0
VERTEX
  8
0
  6
CONTINUOUS
 62
     7
 10
416.6749171568655
 20
292.4327565784753
  0
VERTEX
  8
0
  6
CONTINUOUS
 62
     7
 10
416.7085130523562
 20
292.4182803255381
  0
VERTEX
  8
0
  6
CONTINUOUS
 62
     7
 10
416.7421089478471
 20
292.403804072601
  0
VERTEX
  8
0
  6
CONTINUOUS
 62
     7
 10
416.7757048433378
 20
292.3893278196639
  0
VERTEX
  8
0
  6
CONTINUOUS
 62
     7
 10
416.8093007388287
 20
292.3748515667268
  0
VERTEX
  8
0
  6
CONTINUOUS
 62
     7
 10
416.8428966343194
 20
292.3603753137896
  0
VERTEX
  8
0
  6
CONTINUOUS
 62
     7
 10
416.8764925298103
 20
292.3458990608524
  0
VERTEX
  8
0
  6
CONTINUOUS
 62
     7
 10
416.910088425301
 20
292.3314228079153
  0
VERTEX
  8
0
  6
CONTINUOUS
 62
     7
 10
416.9436843207918
 20
292.3169465549781
  0
VERTEX
  8
0
  6
CONTINUOUS
 62
     7
 10
416.9772802162826
 20
292.3024703020409
  0
VERTEX
  8
0
  6
CONTINUOUS
 62
     7
 10
417.0108761117734
 20
292.2879940491038
  0
VERTEX
  8
0
  6
CONTINUOUS
 62
     7
 10
417.0444720072642
 20
292.2735177961666
  0
VERTEX
  8
0
  6
CONTINUOUS
 62
     7
 10
417.078067902755
 20
292.2590415432295
  0
VERTEX
  8
0
  6
CONTINUOUS
 62
     7
 10
417.1116637982458
 20
292.2445652902924
  0
VERTEX
  8
0
  6
CONTINUOUS
 62
     7
 10
417.1452596937366
 20
292.2300890373552
  0
VERTEX
  8
0
  6
CONTINUOUS
 62
     7
 10
417.1788555892274
 20
292.215612784418
  0
VERTEX
  8
0
  6
CONTINUOUS
 62
     7
 10
417.2124514847183
 20
292.2011365314809
  0
VERTEX
  8
0
  6
CONTINUOUS
 62
     7
 10
417.2460473802089
 20
292.1866602785437
  0
VERTEX
  8
0
  6
CONTINUOUS
 62
     7
 10
417.2796432756999
 20
292.1721840256067
  0
VERTEX
  8
0
  6
CONTINUOUS
 62
     7
 10
417.3132391711905
 20
292.1577077726694
  0
VERTEX
  8
0
  6
CONTINUOUS
 62
     7
 10
417.3468350666814
 20
292.1432315197322
  0
VERTEX
  8
0
  6
CONTINUOUS
 62
     7
 10
417.3804309621722
 20
292.1287552667951
  0
VERTEX
  8
0
  6
CONTINUOUS
 62
     7
 10
417.414026857663
 20
292.114279013858
  0
VERTEX
  8
0
  6
CONTINUOUS
 62
     7
 10
417.4476227531537
 20
292.0998027609208
  0
VERTEX
  8
0
  6
CONTINUOUS
 62
     7
 10
417.4812186486446
 20
292.0853265079837
  0
VERTEX
  8
0
  6
CONTINUOUS
 62
     7
 10
417.5148145441353
 20
292.0708502550465
  0
VERTEX
  8
0
  6
CONTINUOUS
 62
     7
 10
417.5484104396261
 20
292.0563740021094
  0
VERTEX
  8
0
  6
CONTINUOUS
 62
     7
 10
417.5820063351169
 20
292.0418977491722
  0
VERTEX
  8
0
  6
CONTINUOUS
 62
     7
 10
417.6156022306076
 20
292.027421496235
  0
VERTEX
  8
0
  6
CONTINUOUS
 62
     7
 10
417.6491981260986
 20
292.0129452432979
  0
VERTEX
  8
0
  6
CONTINUOUS
 62
     7
 10
417.6827940215893
 20
291.9984689903608
  0
VERTEX
  8
0
  6
CONTINUOUS
 62
     7
 10
417.7163899170801
 20
291.9839927374236
  0
VERTEX
  8
0
  6
CONTINUOUS
 62
     7
 10
417.7499858125709
 20
291.9695164844865
  0
VERTEX
  8
0
  6
CONTINUOUS
 62
     7
 10
417.7835817080618
 20
291.9550402315493
  0
VERTEX
  8
0
  6
CONTINUOUS
 62
     7
 10
417.8171776035526
 20
291.9405639786122
  0
VERTEX
  8
0
  6
CONTINUOUS
 62
     7
 10
417.8507734990432
 20
291.9260877256749
  0
VERTEX
  8
0
  6
CONTINUOUS
 62
     7
 10
417.8843693945342
 20
291.9116114727379
  0
VERTEX
  8
0
  6
CONTINUOUS
 62
     7
 10
417.9179652900249
 20
291.8971352198007
  0
VERTEX
  8
0
  6
CONTINUOUS
 62
     7
 10
417.9515611855157
 20
291.8826589668635
  0
VERTEX
  8
0
  6
CONTINUOUS
 62
     7
 10
417.9851570810065
 20
291.8681827139264
  0
VERTEX
  8
0
  6
CONTINUOUS
 62
     7
 10
418.0187529764972
 20
291.8537064609892
  0
VERTEX
  8
0
  6
CONTINUOUS
 62
     7
 10
418.0523488719881
 20
291.8392302080521
  0
VERTEX
  8
0
  6
CONTINUOUS
 62
     7
 10
418.0859447674788
 20
291.8247539551149
  0
VERTEX
  8
0
  6
CONTINUOUS
 62
     7
 10
418.1195406629697
 20
291.8102777021777
  0
VERTEX
  8
0
  6
CONTINUOUS
 62
     7
 10
418.1531365584604
 20
291.7958014492406
  0
VERTEX
  8
0
  6
CONTINUOUS
 62
     7
 10
418.1867324539513
 20
291.7813251963035
  0
VERTEX
  8
0
  6
CONTINUOUS
 62
     7
 10
418.2203283494421
 20
291.7668489433663
  0
VERTEX
  8
0
  6
CONTINUOUS
 62
     7
 10
418.2539242449329
 20
291.7523726904292
  0
VERTEX
  8
0
  6
CONTINUOUS
 62
     7
 10
418.2875201404237
 20
291.7378964374921
  0
VERTEX
  8
0
  6
CONTINUOUS
 62
     7
 10
418.3211160359144
 20
291.7234201845548
  0
VERTEX
  8
0
  6
CONTINUOUS
 62
     7
 10
418.3547119314052
 20
291.7089439316177
  0
VERTEX
  8
0
  6
CONTINUOUS
 62
     7
 10
418.388307826896
 20
291.6944676786805
  0
VERTEX
  8
0
  6
CONTINUOUS
 62
     7
 10
418.4219037223868
 20
291.6799914257434
  0
VERTEX
  8
0
  6
CONTINUOUS
 62
     7
 10
418.4554996178776
 20
291.6655151728062
  0
VERTEX
  8
0
  6
CONTINUOUS
 62
     7
 10
418.4890955133685
 20
291.6510389198691
  0
VERTEX
  8
0
  6
CONTINUOUS
 62
     7
 10
418.5226914088593
 20
291.6365626669319
  0
VERTEX
  8
0
  6
CONTINUOUS
 62
     7
 10
418.55628730435
 20
291.6220864139947
  0
VERTEX
  8
0
  6
CONTINUOUS
 62
     7
 10
418.5898831998409
 20
291.6076101610576
  0
VERTEX
  8
0
  6
CONTINUOUS
 62
     7
 10
418.6234790953316
 20
291.5931339081204
  0
VERTEX
  8
0
  6
CONTINUOUS
 62
     7
 10
418.6570749908224
 20
291.5786576551833
  0
VERTEX
  8
0
  6
CONTINUOUS
 62
     7
 10
418.6906708863132
 20
291.5641814022461
  0
VERTEX
  8
0
  6
CONTINUOUS
 62
     7
 10
418.7242667818039
 20
291.5497051493089
  0
VERTEX
  8
0
  6
CONTINUOUS
 62
     7
 10
418.7578626772947
 20
291.5352288963718
  0
VERTEX
  8
0
  6
CONTINUOUS
 62
     7
 10
418.7914585727856
 20
291.5207526434347
  0
SEQEND
  8
0
  6
CONTINUOUS
 62
     7
  0
LINE
  8
0
  6
CONTINUOUS
 62
     7
 10
344.8191845244651
 20
293.0891671667542
 11
341.2085414272143
 21
291.5207526434347
  0
LINE
  8
0
  6
CONTINUOUS
 62
     7
 10
344.9999999999999
 20
293.5
 11
345.8350171222099
 21
293.5
  0
LINE
  8
0
  6
CONTINUOUS
 62
     7
 10
345.8350171222099
 20
293.5
 11
345.9880676394751
 21
293.5
  0
LINE
  8
0
  6
CONTINUOUS
 62
     7
 10
345.9880676394751
 20
293.5
 11
348.5147186257779
 21
293.5
  0
LINE
  8
0
  6
CONTINUOUS
 62
     7
 10
348.5147186257779
 20
293.5
 11
352.231630709763
 21
293.5
  0
LINE
  8
0
  6
CONTINUOUS
 62
     7
 10
352.231630709763
 20
293.5
 11
352.60191435537
 21
293.5
  0
LINE
  8
0
  6
CONTINUOUS
 62
     7
 10
352.60191435537
 20
293.5
 11
357.0
 21
293.5
  0
POLYLINE
  8
0
  6
CONTINUOUS
 62
     7
 66
     1
  0
VERTEX
  8
0
  6
CONTINUOUS
 62
     7
 10
344.8313913402324
 20
293.098319858211
  0
VERTEX
  8
0
  6
CONTINUOUS
 62
     7
 10
344.8308892353016
 20
293.0979293180965
  0
VERTEX
  8
0
  6
CONTINUOUS
 62
     7
 10
344.8303865563748
 20
293.097539571064
  0
VERTEX
  8
0
  6
CONTINUOUS
 62
     7
 10
344.8298833045019
 20
293.0971506177955
  0
VERTEX
  8
0
  6
CONTINUOUS
 62
     7
 10
344.8293794807331
 20
293.0967624589733
  0
VERTEX
  8
0
  6
CONTINUOUS
 62
     7
 10
344.8288750861187
 20
293.0963750952794
  0
VERTEX
  8
0
  6
CONTINUOUS
 62
     7
 10
344.8283701217087
 20
293.0959885273961
  0
VERTEX
  8
0
  6
CONTINUOUS
 62
     7
 10
344.8278645885534
 20
293.0956027560055
  0
VERTEX
  8
0
  6
CONTINUOUS
 62
     7
 10
344.8273584877028
 20
293.0952177817897
  0
VERTEX
  8
0
  6
CONTINUOUS
 62
     7
 10
344.8268518202071
 20
293.0948336054309
  0
VERTEX
  8
0
  6
CONTINUOUS
 62
     7
 10
344.8263445871165
 20
293.0944502276113
  0
VERTEX
  8
0
  6
CONTINUOUS
 62
     7
 10
344.8258367894812
 20
293.094067649013
  0
VERTEX
  8
0
  6
CONTINUOUS
 62
     7
 10
344.8253284283511
 20
293.0936858703182
  0
VERTEX
  8
0
  6
CONTINUOUS
 62
     7
 10
344.8248195047767
 20
293.0933048922089
  0
VERTEX
  8
0
  6
CONTINUOUS
 62
     7
 10
344.8243100198078
 20
293.0929247153674
  0
VERTEX
  8
0
  6
CONTINUOUS
 62
     7
 10
344.8237999744949
 20
293.0925453404759
  0
VERTEX
  8
0
  6
CONTINUOUS
 62
     7
 10
344.8232893698878
 20
293.0921667682165
  0
VERTEX
  8
0
  6
CONTINUOUS
 62
     7
 10
344.8227782070369
 20
293.0917889992713
  0
VERTEX
  8
0
  6
CONTINUOUS
 62
     7
 10
344.8222664869922
 20
293.0914120343223
  0
VERTEX
  8
0
  6
CONTINUOUS
 62
     7
 10
344.8217542108042
 20
293.0910358740522
  0
VERTEX
  8
0
  6
CONTINUOUS
 62
     7
 10
344.8212413795226
 20
293.0906605191425
  0
VERTEX
  8
0
  6
CONTINUOUS
 62
     7
 10
344.8207279941977
 20
293.0902859702758
  0
VERTEX
  8
0
  6
CONTINUOUS
 62
     7
 10
344.8202140558798
 20
293.089912228134
  0
VERTEX
  8
0
  6
CONTINUOUS
 62
     7
 10
344.8196995656189
 20
293.0895392933995
  0
VERTEX
  8
0
  6
CONTINUOUS
 62
     7
 10
344.8191845244652
 20
293.0891671667542
  0
SEQEND
  8
0
  6
CONTINUOUS
 62
     7
  0
LINE
  8
0
  6
CONTINUOUS
 62
     7
 10
357.0
 20
293.5
 11
379.9999999999999
 21
293.5
  0
LINE
  8
0
  6
CONTINUOUS
 62
     7
 10
402.9999999999999
 20
293.5
 11
379.9999999999999
 21
293.5
  0
LINE
  8
0
  6
CONTINUOUS
 62
     7
 10
349.6999999999999
 20
230.0
 11
348.6999999999999
 21
230.0
  0
LINE
  8
0
  6
CONTINUOUS
 62
     7
 10
348.6999999999999
 20
230.0
 11
348.6999999999999
 21
262.5000000000001
  0
LINE
  8
0
  6
CONTINUOUS
 62
     7
 10
348.6999999999999
 20
262.5000000000001
 11
349.6999999999999
 21
262.5000000000001
  0
LINE
  8
0
  6
CONTINUOUS
 62
     7
 10
411.3
 20
263.0
 11
411.3
 21
271.5000000000001
  0
LINE
  8
0
  6
CONTINUOUS
 62
     7
 10
411.3
 20
271.5000000000001
 11
410.3
 21
271.5000000000001
  0
LINE
  8
0
  6
CONTINUOUS
 62
     7
 10
411.3
 20
263.0
 11
410.3
 21
263.0
  0
LINE
  8
0
  6
CONTINUOUS
 62
     7
 10
348.6999999999999
 20
263.0
 11
348.6999999999999
 21
271.5000000000001
  0
LINE
  8
0
  6
CONTINUOUS
 62
     7
 10
348.6999999999999
 20
271.5000000000001
 11
349.6999999999999
 21
271.5000000000001
  0
LINE
  8
0
  6
CONTINUOUS
 62
     7
 10
348.6999999999999
 20
263.0
 11
349.6999999999999
 21
263.0
  0
LINE
  8
0
  6
CONTINUOUS
 62
     7
 10
411.3
 20
230.0
 11
411.3
 21
262.5000000000001
  0
LINE
  8
0
  6
CONTINUOUS
 62
     7
 10
411.3
 20
262.5000000000001
 11
410.3
 21
262.5000000000001
  0
LINE
  8
0
  6
CONTINUOUS
 62
     7
 10
410.3
 20
230.0
 11
411.3
 21
230.0
  0
LINE
  8
0
  6
CONTINUOUS
 62
     7
 10
410.3
 20
262.5000000000001
 11
349.6999999999999
 21
262.5000000000001
  0
LINE
  8
0
  6
CONTINUOUS
 62
     7
 10
349.6999999999999
 20
230.0
 11
410.3
 21
230.0
  0
LINE
  8
0
  6
CONTINUOUS
 62
     7
 10
410.3
 20
271.5000000000001
 11
349.6999999999999
 21
271.5000000000001
  0
LINE
  8
0
  6
CONTINUOUS
 62
     7
 10
410.3
 20
263.0
 11
349.6999999999999
 21
263.0
  0
LINE
  8
0
  6
CONTINUOUS
 62
     7
 10
349.1999999999999
 20
263.0
 11
349.1999999999999
 21
262.5000000000001
  0
LINE
  8
0
  6
CONTINUOUS
 62
     7
 10
410.8
 20
263.0
 11
410.8
 21
262.5000000000001
  0
ARC
  8
0
  6
CONTINUOUS
 62
     7
 10
344.4999999999999
 20
293.5
 40
0.5000000000000004
 50
0.0
 51
72.66269078610361
  0
ARC
  8
0
  6
CONTINUOUS
 62
     7
 10
415.5
 20
293.5
 40
0.5000000000000004
 50
107.3373092138964
 51
180.0
  0
ARC
  8
0
  6
CONTINUOUS
 62
     7
 10
415.5
 20
321.5
 40
0.5000000000000089
 50
107.3373092138964
 51
252.6626907861036
  0
ARC
  8
0
  6
CONTINUOUS
 62
     7
 10
415.5
 20
300.5
 40
0.5000000000000089
 50
107.3373092138964
 51
252.6626907861036
  0
ARC
  8
0
  6
CONTINUOUS
 62
     7
 10
415.5
 20
314.5
 40
0.5000000000000089
 50
107.3373092138964
 51
252.6626907861036
  0
ARC
  8
0
  6
CONTINUOUS
 62
     7
 10
415.5
 20
307.5
 40
0.5000000000000089
 50
107.3373092138964
 51
252.6626907861036
  0
ARC
  8
0
  6
CONTINUOUS
 62
     7
 10
344.4999999999999
 20
321.5
 40
0.5000000000000254
 50
287.3373092138964
 51
72.66269078610355
  0
ARC
  8
0
  6
CONTINUOUS
 62
     7
 10
344.4999999999999
 20
307.5
 40
0.5000000000000254
 50
287.3373092138964
 51
72.66269078610355
  0
ARC
  8
0
  6
CONTINUOUS
 62
     7
 10
344.4999999999999
 20
300.5
 40
0.5000000000000254
 50
287.3373092138964
 51
72.66269078610355
  0
ARC
  8
0
  6
CONTINUOUS
 62
     7
 10
344.4999999999999
 20
314.5
 40
0.5000000000000254
 50
287.3373092138964
 51
72.66269078610355
  0
LINE
  8
0
  6
CONTINUOUS
 62
     7
 10
409.8
 20
271.5000000000001
 11
409.8
 21
275.0
  0
LINE
  8
0
  6
CONTINUOUS
 62
     7
 10
350.1999999999999
 20
271.5000000000001
 11
350.1999999999999
 21
275.0
  0
LINE
  8
0
  6
CONTINUOUS
 62
     7
 10
339.9999999999999
 20
289.4976578282204
 11
339.9999999999999
 21
289.6840182263528
  0
ARC
  8
0
  6
CONTINUOUS
 62
     7
 10
342.0036494559297
 20
289.6816169976415
 40
2.003650894778534
 50
113.3813454299466
 51
179.931335192126
  0
LINE
  8
0
  6
CONTINUOUS
 62
     7
 10
420.0
 20
289.4976578282204
 11
420.0
 21
289.6840182263528
  0
ARC
  8
0
  6
CONTINUOUS
 62
     7
 10
417.99635054407
 20
289.6816169976413
 40
2.003650894778775
 50
0.0686648078788039
 51
66.61865457004944
  0
LINE
  8
0
  6
CONTINUOUS
 62
     7
 10
348.4189233611099
 20
262.5000000000001
 11
348.6999999999999
 21
262.5000000000001
  0
LINE
  8
0
  6
CONTINUOUS
 62
     7
 10
348.4189233611099
 20
230.0
 11
348.6999999999999
 21
230.0
  0
LINE
  8
0
  6
CONTINUOUS
 62
     7
 10
411.58107663889
 20
262.5000000000001
 11
411.3
 21
262.5000000000001
  0
LINE
  8
0
  6
CONTINUOUS
 62
     7
 10
411.58107663889
 20
230.0
 11
411.3
 21
230.0
  0
LINE
  8
0
  6
CONTINUOUS
 62
     7
 10
348.4189233611099
 20
271.5000000000001
 11
348.6999999999999
 21
271.5000000000001
  0
LINE
  8
0
  6
CONTINUOUS
 62
     7
 10
348.6999999999999
 20
263.0
 11
348.4189233611099
 21
263.0
  0
LINE
  8
0
  6
CONTINUOUS
 62
     7
 10
411.58107663889
 20
271.5000000000001
 11
411.3
 21
271.5000000000001
  0
LINE
  8
0
  6
CONTINUOUS
 62
     7
 10
411.3
 20
263.0
 11
411.58107663889
 21
263.0
  0
LINE
  8
0
  6
CONTINUOUS
 62
     7
 10
416.1999999999999
 20
263.0
 11
416.1999999999999
 21
262.5000000000001
  0
LINE
  8
0
  6
CONTINUOUS
 62
     7
 10
343.8
 20
263.0
 11
343.8
 21
262.5000000000001
  0
LINE
  8
0
  6
CONTINUOUS
 62
     7
 10
344.8
 20
271.5000000000001
 11
344.8
 21
275.0
  0
LINE
  8
0
  6
CONTINUOUS
 62
     7
 10
415.1999999999999
 20
271.5000000000001
 11
415.1999999999999
 21
275.0
  0
LINE
  8
0
  6
CONTINUOUS
 62
     7
 10
348.4189233611099
 20
262.5000000000001
 11
343.58107663889
 21
262.5000000000001
  0
LINE
  8
0
  6
CONTINUOUS
 62
     7
 10
343.58107663889
 20
230.0
 11
348.4189233611099
 21
230.0
  0
LINE
  8
0
  6
CONTINUOUS
 62
     7
 10
411.58107663889
 20
262.5000000000001
 11
416.4189233611099
 21
262.5000000000001
  0
LINE
  8
0
  6
CONTINUOUS
 62
     7
 10
416.4189233611099
 20
230.0
 11
411.58107663889
 21
230.0
  0
LINE
  8
0
  6
CONTINUOUS
 62
     7
 10
411.58107663889
 20
271.5000000000001
 11
416.4189233611099
 21
271.5000000000001
  0
LINE
  8
0
  6
CONTINUOUS
 62
     7
 10
411.58107663889
 20
263.0
 11
416.4189233611099
 21
263.0
  0
LINE
  8
0
  6
CONTINUOUS
 62
     7
 10
348.4189233611099
 20
271.5000000000001
 11
343.58107663889
 21
271.5000000000001
  0
LINE
  8
0
  6
CONTINUOUS
 62
     7
 10
348.4189233611099
 20
263.0
 11
343.58107663889
 21
263.0
  0
LINE
  8
0
  6
CONTINUOUS
 62
     7
 10
343.3
 20
263.0
 11
343.3
 21
271.5000000000001
  0
LINE
  8
0
  6
CONTINUOUS
 62
     7
 10
343.3
 20
271.5000000000001
 11
343.58107663889
 21
271.5000000000001
  0
LINE
  8
0
  6
CONTINUOUS
 62
     7
 10
343.3
 20
263.0
 11
343.58107663889
 21
263.0
  0
LINE
  8
0
  6
CONTINUOUS
 62
     7
 10
416.6999999999999
 20
263.0
 11
416.6999999999999
 21
271.5000000000001
  0
LINE
  8
0
  6
CONTINUOUS
 62
     7
 10
416.6999999999999
 20
271.5000000000001
 11
416.4189233611099
 21
271.5000000000001
  0
LINE
  8
0
  6
CONTINUOUS
 62
     7
 10
416.6999999999999
 20
263.0
 11
416.4189233611099
 21
263.0
  0
LINE
  8
0
  6
CONTINUOUS
 62
     7
 10
416.6999999999999
 20
230.0
 11
416.6999999999999
 21
262.5000000000001
  0
LINE
  8
0
  6
CONTINUOUS
 62
     7
 10
416.6999999999999
 20
262.5000000000001
 11
416.4189233611099
 21
262.5000000000001
  0
LINE
  8
0
  6
CONTINUOUS
 62
     7
 10
416.4189233611099
 20
230.0
 11
416.6999999999999
 21
230.0
  0
LINE
  8
0
  6
CONTINUOUS
 62
     7
 10
343.3
 20
230.0
 11
343.3
 21
262.5000000000001
  0
LINE
  8
0
  6
CONTINUOUS
 62
     7
 10
343.3
 20
262.5000000000001
 11
343.58107663889
 21
262.5000000000001
  0
LINE
  8
0
  6
CONTINUOUS
 62
     7
 10
343.58107663889
 20
230.0
 11
343.3
 21
230.0
  0
LINE
  8
0
  6
CONTINUOUS
 62
     7
 10
342.3
 20
261.5000000000001
 11
343.3
 21
231.5
  0
LINE
  8
0
  6
CONTINUOUS
 62
     7
 10
343.3
 20
261.5000000000001
 11
342.3
 21
261.5000000000001
  0
LINE
  8
0
  6
CONTINUOUS
 62
     7
 10
416.6999999999999
 20
261.5000000000001
 11
417.6999999999999
 21
261.5000000000001
  0
LINE
  8
0
  6
CONTINUOUS
 62
     7
 10
417.6999999999999
 20
261.5000000000001
 11
416.6999999999999
 21
231.5
  0
POLYLINE
  8
0
  6
CONTINUOUS
 62
     7
 66
     1
  0
VERTEX
  8
0
  6
CONTINUOUS
 62
     7
 10
344.9999999999999
 20
293.5
  0
VERTEX
  8
0
  6
CONTINUOUS
 62
     7
 10
345.0012261114659
 20
293.4729263671358
  0
VERTEX
  8
0
  6
CONTINUOUS
 62
     7
 10
345.0010396753813
 20
293.4459258129902
  0
VERTEX
  8
0
  6
CONTINUOUS
 62
     7
 10
344.9994451731948
 20
293.4190824432462
  0
VERTEX
  8
0
  6
CONTINUOUS
 62
     7
 10
344.9964471056571
 20
293.3924803948767
  0
VERTEX
  8
0
  6
CONTINUOUS
 62
     7
 10
344.9920499943896
 20
293.3662038332854
  0
VERTEX
  8
0
  6
CONTINUOUS
 62
     7
 10
344.9862604726961
 20
293.3403362606396
  0
VERTEX
  8
0
  6
CONTINUOUS
 62
     7
 10
344.9802032692935
 20
293.3185501865556
  0
VERTEX
  8
0
  6
CONTINUOUS
 62
     7
 10
344.9731534064057
 20
293.29717188476
  0
VERTEX
  8
0
  6
CONTINUOUS
 62
     7
 10
344.965128484261
 20
293.2762498219602
  0
VERTEX
  8
0
  6
CONTINUOUS
 62
     7
 10
344.9561461360282
 20
293.2558324704192
  0
VERTEX
  8
0
  6
CONTINUOUS
 62
     7
 10
344.9462240449257
 20
293.2359682348614
  0
VERTEX
  8
0
  6
CONTINUOUS
 62
     7
 10
344.9353825085252
 20
293.2167035589891
  0
VERTEX
  8
0
  6
CONTINUOUS
 62
     7
 10
344.923646083406
 20
293.1980817785533
  0
VERTEX
  8
0
  6
CONTINUOUS
 62
     7
 10
344.9110426037078
 20
293.1801440138171
  0
VERTEX
  8
0
  6
CONTINUOUS
 62
     7
 10
344.8976026200847
 20
293.1629295584142
  0
VERTEX
  8
0
  6
CONTINUOUS
 62
     7
 10
344.88335674323
 20
293.1464776208938
  0
VERTEX
  8
0
  6
CONTINUOUS
 62
     7
 10
344.8683356497981
 20
293.1308272507551
  0
VERTEX
  8
0
  6
CONTINUOUS
 62
     7
 10
344.8525726961847
 20
293.1160140482481
  0
VERTEX
  8
0
  6
CONTINUOUS
 62
     7
 10
344.8361039661374
 20
293.1020701074519
  0
VERTEX
  8
0
  6
CONTINUOUS
 62
     7
 10
344.8244580374231
 20
293.093054246534
  0
SEQEND
  8
0
  6
CONTINUOUS
 62
     7
  0
ENDBLK
  8
0
  0
BLOCK
  8
0
  2
D_FRAME_VIEW_1959
 70
     0
 10
0.0
 20
0.0
  0
LINE
  8
0
  6
CONTINUOUS
 62
     9
 10
1229.431850433865
 20
37.90023693972356
 11
1229.431850433865
 21
62.40023693972356
  0
LINE
  8
0
  6
CONTINUOUS
 62
     9
 10
1226.568149566135
 20
37.90023693972357
 11
1226.568149566135
 21
62.40023693972356
  0
ARC
  8
0
  6
CONTINUOUS
 62
     7
 10
1228.0
 20
79.40023693972356
 40
1.500000000000056
 50
17.33730921389744
 51
162.6626907861027
  0
LINE
  8
0
  6
CONTINUOUS
 62
     9
 10
1229.431850433865
 20
62.40023693972356
 11
1229.431850433865
 21
79.84723172161841
  0
LINE
  8
0
  6
CONTINUOUS
 62
     9
 10
1226.568149566135
 20
62.40023693972356
 11
1226.568149566135
 21
79.84723172161841
  0
LINE
  8
0
  6
CONTINUOUS
 62
     9
 10
1222.431850433865
 20
37.90023693972356
 11
1222.431850433865
 21
62.40023693972356
  0
LINE
  8
0
  6
CONTINUOUS
 62
     9
 10
1219.568149566135
 20
37.90023693972357
 11
1219.568149566135
 21
62.40023693972356
  0
ARC
  8
0
  6
CONTINUOUS
 62
     7
 10
1221.0
 20
79.40023693972356
 40
1.499999999999844
 50
17.33730921389744
 51
162.6626907861027
  0
LINE
  8
0
  6
CONTINUOUS
 62
     9
 10
1222.431850433865
 20
62.40023693972356
 11
1222.431850433865
 21
79.84723172161841
  0
LINE
  8
0
  6
CONTINUOUS
 62
     9
 10
1219.568149566135
 20
62.40023693972356
 11
1219.568149566135
 21
79.84723172161841
  0
ARC
  8
0
  6
CONTINUOUS
 62
     7
 10
1200.0
 20
79.40023693972356
 40
1.500000000000056
 50
17.33730921389744
 51
90.0
  0
LINE
  8
0
  6
CONTINUOUS
 62
     9
 10
1201.431850433865
 20
62.40023693972356
 11
1201.431850433865
 21
79.84723172161841
  0
LINE
  8
0
  6
CONTINUOUS
 62
     9
 10
1229.431850433865
 20
20.45324215782872
 11
1229.431850433865
 21
37.90023693972356
  0
ARC
  8
0
  6
CONTINUOUS
 62
     7
 10
1228.0
 20
20.90023693972356
 40
1.500000000000056
 50
197.3373092138972
 51
342.6626907861026
  0
LINE
  8
0
  6
CONTINUOUS
 62
     9
 10
1226.568149566135
 20
20.45324215782872
 11
1226.568149566135
 21
37.90023693972356
  0
LINE
  8
0
  6
CONTINUOUS
 62
     9
 10
1208.431850433865
 20
37.90023693972356
 11
1208.431850433865
 21
62.40023693972356
  0
LINE
  8
0
  6
CONTINUOUS
 62
     9
 10
1205.568149566135
 20
37.90023693972356
 11
1205.568149566135
 21
62.40023693972356
  0
LINE
  8
0
  6
CONTINUOUS
 62
     9
 10
1201.431850433865
 20
37.90023693972356
 11
1201.431850433865
 21
62.40023693972356
  0
ARC
  8
0
  6
CONTINUOUS
 62
     7
 10
1207.0
 20
79.40023693972356
 40
1.499999999999844
 50
17.33730921389744
 51
162.6626907861027
  0
LINE
  8
0
  6
CONTINUOUS
 62
     9
 10
1208.431850433865
 20
62.40023693972356
 11
1208.431850433865
 21
79.84723172161841
  0
LINE
  8
0
  6
CONTINUOUS
 62
     9
 10
1205.568149566135
 20
62.40023693972356
 11
1205.568149566135
 21
79.84723172161841
  0
LINE
  8
0
  6
CONTINUOUS
 62
     9
 10
1222.431850433865
 20
20.45324215782872
 11
1222.431850433865
 21
37.90023693972356
  0
ARC
  8
0
  6
CONTINUOUS
 62
     7
 10
1221.0
 20
20.90023693972356
 40
1.499999999999844
 50
197.3373092138972
 51
342.6626907861026
  0
LINE
  8
0
  6
CONTINUOUS
 62
     9
 10
1219.568149566135
 20
20.45324215782872
 11
1219.568149566135
 21
37.90023693972356
  0
LINE
  8
0
  6
CONTINUOUS
 62
     9
 10
1215.431850433865
 20
37.90023693972356
 11
1215.431850433865
 21
62.40023693972356
  0
LINE
  8
0
  6
CONTINUOUS
 62
     9
 10
1212.568149566135
 20
37.90023693972357
 11
1212.568149566135
 21
62.40023693972356
  0
ARC
  8
0
  6
CONTINUOUS
 62
     7
 10
1214.0
 20
79.40023693972356
 40
1.500000000000056
 50
17.33730921389744
 51
162.6626907861027
  0
LINE
  8
0
  6
CONTINUOUS
 62
     9
 10
1215.431850433865
 20
62.40023693972356
 11
1215.431850433865
 21
79.84723172161841
  0
LINE
  8
0
  6
CONTINUOUS
 62
     9
 10
1212.568149566135
 20
62.40023693972356
 11
1212.568149566135
 21
79.84723172161841
  0
LINE
  8
0
  6
CONTINUOUS
 62
     9
 10
1201.431850433865
 20
20.45324215782871
 11
1201.431850433865
 21
37.90023693972356
  0
ARC
  8
0
  6
CONTINUOUS
 62
     7
 10
1200.0
 20
20.90023693972356
 40
1.500000000000055
 50
270.0
 51
342.6626907861026
  0
LINE
  8
0
  6
CONTINUOUS
 62
     9
 10
1208.431850433865
 20
20.45324215782871
 11
1208.431850433865
 21
37.90023693972356
  0
ARC
  8
0
  6
CONTINUOUS
 62
     7
 10
1207.0
 20
20.90023693972356
 40
1.499999999999843
 50
197.3373092138972
 51
342.6626907861026
  0
LINE
  8
0
  6
CONTINUOUS
 62
     9
 10
1205.568149566135
 20
20.45324215782871
 11
1205.568149566135
 21
37.90023693972356
  0
LINE
  8
0
  6
CONTINUOUS
 62
     9
 10
1215.431850433865
 20
20.45324215782871
 11
1215.431850433865
 21
37.90023693972356
  0
ARC
  8
0
  6
CONTINUOUS
 62
     7
 10
1214.0
 20
20.90023693972356
 40
1.500000000000055
 50
197.3373092138972
 51
342.6626907861026
  0
LINE
  8
0
  6
CONTINUOUS
 62
     9
 10
1212.568149566135
 20
20.45324215782871
 11
1212.568149566135
 21
37.90023693972356
  0
ARC
  8
0
  6
CONTINUOUS
 62
     7
 10
1239.9
 20
79.90023693972361
 40
1.000000000000001
 50
0.0
 51
90.0
  0
LINE
  8
0
  6
CONTINUOUS
 62
     7
 10
1240.9
 20
79.90023693972361
 11
1240.9
 21
74.40023693972363
  0
LINE
  8
0
  6
CONTINUOUS
 62
     7
 10
1240.9
 20
74.40023693972363
 11
1240.9
 21
25.90023693972369
  0
LINE
  8
0
  6
CONTINUOUS
 62
     7
 10
1238.1
 20
74.40023693972363
 11
1238.1
 21
79.90023693972361
  0
ARC
  8
0
  6
CONTINUOUS
 62
     7
 10
1239.1
 20
79.90023693972361
 40
1.000000000000112
 50
90.0
 51
180.0
  0
LINE
  8
0
  6
CONTINUOUS
 62
     7
 10
1238.1
 20
25.90023693972369
 11
1238.1
 21
74.40023693972363
  0
LINE
  8
0
  6
CONTINUOUS
 62
     7
 10
1239.1
 20
80.90023693972361
 11
1239.9
 21
80.90023693972361
  0
ARC
  8
0
  6
CONTINUOUS
 62
     7
 10
1239.9
 20
20.40023693972356
 40
1.000000000000001
 50
270.0
 51
304.4565664993106
  0
LINE
  8
0
  6
CONTINUOUS
 62
     7
 10
1240.9
 20
25.90023693972369
 11
1240.9
 21
21.46317710239896
  0
ARC
  8
0
  6
CONTINUOUS
 62
     7
 10
1236.399844048211
 20
21.22058054398896
 40
4.506690213513262
 50
342.5715435953927
 51
3.085741403625662
  0
POLYLINE
  8
0
  6
CONTINUOUS
 62
     7
 66
     1
  0
VERTEX
  8
0
  6
CONTINUOUS
 62
     7
 10
1240.699639729623
 20
19.87076063797118
  0
VERTEX
  8
0
  6
CONTINUOUS
 62
     7
 10
1240.620978155317
 20
19.73166944186383
  0
VERTEX
  8
0
  6
CONTINUOUS
 62
     7
 10
1240.518847853222
 20
19.61686902552158
  0
VERTEX
  8
0
  6
CONTINUOUS
 62
     7
 10
1240.465781339127
 20
19.5756816193868
  0
SEQEND
  8
0
  6
CONTINUOUS
 62
     7
  0
POLYLINE
  8
0
  6
CONTINUOUS
 62
     7
 66
     1
  0
VERTEX
  8
0
  6
CONTINUOUS
 62
     7
 10
1238.534218660873
 20
19.5756816193868
  0
VERTEX
  8
0
  6
CONTINUOUS
 62
     7
 10
1238.428118499801
 20
19.66947909290117
  0
VERTEX
  8
0
  6
CONTINUOUS
 62
     7
 10
1238.339802802151
 20
19.79367896167552
  0
VERTEX
  8
0
  6
CONTINUOUS
 62
     7
 10
1238.269889439143
 20
19.94368847998096
  0
VERTEX
  8
0
  6
CONTINUOUS
 62
     7
 10
1238.214790487022
 20
20.11955623115928
  0
SEQEND
  8
0
  6
CONTINUOUS
 62
     7
  0
ARC
  8
0
  6
CONTINUOUS
 62
     7
 10
1244.057628576357
 20
21.29544536361963
 40
5.959989277676729
 50
178.3873142498618
 51
191.3789503391843
  0
LINE
  8
0
  6
CONTINUOUS
 62
     7
 10
1238.1
 20
21.46317710239896
 11
1238.1
 21
25.90023693972369
  0
ARC
  8
0
  6
CONTINUOUS
 62
     7
 10
1239.1
 20
20.40023693972356
 40
1.000000000000056
 50
235.5434335006895
 51
270.0
  0
LINE
  8
0
  6
CONTINUOUS
 62
     7
 10
1239.1
 20
19.40023693972368
 11
1239.9
 21
19.40023693972368
  0
LINE
  8
0
  6
CONTINUOUS
 62
     7
 10
1226.568149566135
 20
79.8472317216184
 11
1224.977283477955
 21
74.75123867909194
  0
LINE
  8
0
  6
CONTINUOUS
 62
     7
 10
1224.022716522045
 20
74.75123867909194
 11
1222.431850433865
 21
79.8472317216184
  0
LINE
  8
0
  6
CONTINUOUS
 62
     7
 10
1231.022716522045
 20
74.75123867909194
 11
1229.431850433865
 21
79.8472317216184
  0
LINE
  8
0
  6
CONTINUOUS
 62
     7
 10
1226.568149566135
 20
20.45324215782872
 11
1224.977283477955
 21
25.54923520035517
  0
LINE
  8
0
  6
CONTINUOUS
 62
     7
 10
1210.022716522045
 20
74.75123867909194
 11
1208.431850433865
 21
79.8472317216184
  0
LINE
  8
0
  6
CONTINUOUS
 62
     7
 10
1203.022716522045
 20
74.75123867909194
 11
1201.431850433865
 21
79.8472317216184
  0
LINE
  8
0
  6
CONTINUOUS
 62
     7
 10
1205.568149566135
 20
79.8472317216184
 11
1203.977283477955
 21
74.75123867909194
  0
LINE
  8
0
  6
CONTINUOUS
 62
     7
 10
1219.568149566135
 20
79.8472317216184
 11
1217.977283477955
 21
74.75123867909194
  0
LINE
  8
0
  6
CONTINUOUS
 62
     7
 10
1212.568149566135
 20
79.8472317216184
 11
1210.977283477955
 21
74.75123867909194
  0
LINE
  8
0
  6
CONTINUOUS
 62
     7
 10
1217.022716522045
 20
74.75123867909194
 11
1215.431850433865
 21
79.8472317216184
  0
LINE
  8
0
  6
CONTINUOUS
 62
     7
 10
1212.568149566135
 20
20.45324215782871
 11
1210.977283477955
 21
25.54923520035517
  0
LINE
  8
0
  6
CONTINUOUS
 62
     7
 10
1219.568149566135
 20
20.45324215782872
 11
1217.977283477955
 21
25.54923520035517
  0
LINE
  8
0
  6
CONTINUOUS
 62
     7
 10
1224.022716522045
 20
25.54923520035517
 11
1222.431850433865
 21
20.45324215782872
  0
LINE
  8
0
  6
CONTINUOUS
 62
     7
 10
1231.022716522045
 20
25.54923520035517
 11
1229.431850433865
 21
20.45324215782872
  0
LINE
  8
0
  6
CONTINUOUS
 62
     7
 10
1205.568149566135
 20
20.45324215782871
 11
1203.977283477955
 21
25.54923520035517
  0
LINE
  8
0
  6
CONTINUOUS
 62
     7
 10
1217.022716522045
 20
25.54923520035517
 11
1215.431850433865
 21
20.45324215782871
  0
LINE
  8
0
  6
CONTINUOUS
 62
     7
 10
1203.022716522045
 20
25.54923520035517
 11
1201.431850433865
 21
20.45324215782871
  0
LINE
  8
0
  6
CONTINUOUS
 62
     7
 10
1210.022716522045
 20
25.54923520035517
 11
1208.431850433865
 21
20.45324215782871
  0
ARC
  8
0
  6
CONTINUOUS
 62
     7
 10
1249.0
 20
78.40023693972356
 40
1.000000000000001
 50
0.0
 51
90.0
  0
LINE
  8
0
  6
CONTINUOUS
 62
     7
 10
1250.0
 20
78.40023693972356
 11
1250.0
 21
72.90023693972356
  0
LINE
  8
0
  6
CONTINUOUS
 62
     7
 10
1235.461180374998
 20
79.40023693972356
 11
1238.1
 21
79.40023693972356
  0
LINE
  8
0
  6
CONTINUOUS
 62
     7
 10
1250.0
 20
25.90023693972356
 11
1250.0
 21
20.40023693972356
  0
ARC
  8
0
  6
CONTINUOUS
 62
     7
 10
1249.0
 20
20.40023693972356
 40
1.000000000000001
 50
270.0
 51
0.0000000000000568
  0
LINE
  8
0
  6
CONTINUOUS
 62
     7
 10
1240.9
 20
79.40023693972356
 11
1249.0
 21
79.40023693972356
  0
LINE
  8
0
  6
CONTINUOUS
 62
     7
 10
1249.0
 20
19.40023693972356
 11
1239.9
 21
19.40023693972356
  0
LINE
  8
0
  6
CONTINUOUS
 62
     7
 10
1250.0
 20
72.90023693972356
 11
1250.0
 21
25.90023693972356
  0
LINE
  8
0
  6
CONTINUOUS
 62
     7
 10
1239.1
 20
19.40023693972356
 11
1235.540288057477
 21
19.40023693972356
  0
LINE
  8
0
  6
CONTINUOUS
 62
     7
 10
1232.072116099764
 20
25.23539793740059
 11
1233.546514039315
 21
20.77281108200377
  0
LINE
  8
0
  6
CONTINUOUS
 62
     7
 10
1231.5
 20
25.90023693972356
 11
1231.5
 21
26.73525406189543
  0
LINE
  8
0
  6
CONTINUOUS
 62
     7
 10
1231.5
 20
26.73525406189544
 11
1231.5
 21
26.88830457725755
  0
LINE
  8
0
  6
CONTINUOUS
 62
     7
 10
1231.5
 20
26.88830457725755
 11
1231.5
 21
29.41495556548335
  0
LINE
  8
0
  6
CONTINUOUS
 62
     7
 10
1231.5
 20
29.41495556548335
 11
1231.5
 21
33.13186764958244
  0
LINE
  8
0
  6
CONTINUOUS
 62
     7
 10
1231.5
 20
33.13186764958245
 11
1231.5
 21
33.50215129510338
  0
LINE
  8
0
  6
CONTINUOUS
 62
     7
 10
1231.5
 20
33.50215129510338
 11
1231.5
 21
37.90023693972356
  0
LINE
  8
0
  6
CONTINUOUS
 62
     7
 10
1232.035836001355
 20
25.34520756608211
 11
1232.072116099764
 21
25.23539793740059
  0
LINE
  8
0
  6
CONTINUOUS
 62
     7
 10
1231.5
 20
62.40023693972356
 11
1231.5
 21
66.79832258443223
  0
LINE
  8
0
  6
CONTINUOUS
 62
     7
 10
1231.5
 20
66.79832258443223
 11
1231.5
 21
67.16860622985858
  0
LINE
  8
0
  6
CONTINUOUS
 62
     7
 10
1231.5
 20
67.16860622985858
 11
1231.5
 21
70.88551831395904
  0
LINE
  8
0
  6
CONTINUOUS
 62
     7
 10
1231.5
 20
70.88551831395904
 11
1231.5
 21
73.41216930021349
  0
LINE
  8
0
  6
CONTINUOUS
 62
     7
 10
1231.5
 20
73.41216930021349
 11
1231.5
 21
73.56521981670083
  0
LINE
  8
0
  6
CONTINUOUS
 62
     7
 10
1231.5
 20
73.56521981670083
 11
1231.5
 21
74.40023693972356
  0
LINE
  8
0
  6
CONTINUOUS
 62
     7
 10
1231.5
 20
37.90023693972355
 11
1231.5
 21
62.40023693972355
  0
LINE
  8
0
  6
CONTINUOUS
 62
     7
 10
1253.5
 20
45.70023693972356
 11
1253.5
 21
27.70023693972356
  0
LINE
  8
0
  6
CONTINUOUS
 62
     7
 10
1293.500000000001
 20
45.70023693972357
 11
1253.5
 21
45.70023693972356
  0
LINE
  8
0
  6
CONTINUOUS
 62
     7
 10
1293.500000000001
 20
45.70023693972357
 11
1293.5
 21
27.70023693972357
  0
LINE
  8
0
  6
CONTINUOUS
 62
     7
 10
1293.5
 20
27.70023693972357
 11
1253.5
 21
27.70023693972356
  0
LINE
  8
0
  6
CONTINUOUS
 62
     9
 10
1295.0
 20
57.03515295179476
 11
1250.5
 21
57.03515295179474
  0
LINE
  8
0
  6
CONTINUOUS
 62
     7
 10
1295.0
 20
25.70023693972356
 11
1295.0
 21
57.03515295179476
  0
LINE
  8
0
  6
CONTINUOUS
 62
     7
 10
1250.5
 20
57.03515295179474
 11
1250.5
 21
25.70023693972356
  0
LINE
  8
0
  6
CONTINUOUS
 62
     9
 10
1250.5
 20
58.30300773701686
 11
1295.0
 21
58.30300773701685
  0
LINE
  8
0
  6
CONTINUOUS
 62
     7
 10
1295.0
 20
58.30300773701685
 11
1295.0
 21
57.03515295179476
  0
LINE
  8
0
  6
CONTINUOUS
 62
     7
 10
1250.5
 20
58.30300773701685
 11
1250.5
 21
57.03515295179474
  0
LINE
  8
0
  6
CONTINUOUS
 62
     7
 10
1295.0
 20
22.70023693972356
 11
1250.5
 21
22.70023693972356
  0
LINE
  8
0
  6
CONTINUOUS
 62
     7
 10
1295.0
 20
25.70023693972356
 11
1295.0
 21
22.70023693972356
  0
LINE
  8
0
  6
CONTINUOUS
 62
     7
 10
1250.5
 20
25.70023693972356
 11
1250.5
 21
22.70023693972356
  0
LINE
  8
0
  6
CONTINUOUS
 62
     9
 10
1295.0
 20
68.67780351318193
 11
1250.5
 21
68.6778035131819
  0
LINE
  8
0
  6
CONTINUOUS
 62
     7
 10
1295.0
 20
58.30300773701685
 11
1295.0
 21
68.67780351318193
  0
LINE
  8
0
  6
CONTINUOUS
 62
     7
 10
1250.5
 20
68.6778035131819
 11
1250.5
 21
58.30300773701686
  0
LINE
  8
0
  6
CONTINUOUS
 62
     9
 10
1250.5
 20
26.20023693972356
 11
1250.0
 21
26.20023693972356
  0
LINE
  8
0
  6
CONTINUOUS
 62
     7
 10
1250.0
 20
57.58938960840209
 11
1250.5
 21
57.58938960840209
  0
LINE
  8
0
  6
CONTINUOUS
 62
     7
 10
1250.0
 20
69.16972697915372
 11
1250.5
 21
69.16972697915372
  0
LINE
  8
0
  6
CONTINUOUS
 62
     7
 10
1250.0
 20
23.20023693972356
 11
1250.5
 21
23.20023693972356
  0
ARC
  8
0
  6
CONTINUOUS
 62
     7
 10
1231.5
 20
74.90023693972356
 40
0.5000000000000004
 50
197.3373092138969
 51
270.0
  0
ARC
  8
0
  6
CONTINUOUS
 62
     7
 10
1231.5
 20
25.40023693972356
 40
0.5000000000000004
 50
90.00000000000001
 51
162.6626907861032
  0
ARC
  8
0
  6
CONTINUOUS
 62
     7
 10
1224.5
 20
74.90023693972356
 40
0.5000000000000171
 50
197.3373092138964
 51
342.6626907861026
  0
ARC
  8
0
  6
CONTINUOUS
 62
     7
 10
1224.5
 20
25.40023693972356
 40
0.5000000000000171
 50
17.33730921389736
 51
162.6626907861036
  0
ARC
  8
0
  6
CONTINUOUS
 62
     7
 10
1203.5
 20
74.90023693972356
 40
0.5000000000000171
 50
197.3373092138969
 51
342.6626907861026
  0
ARC
  8
0
  6
CONTINUOUS
 62
     7
 10
1210.5
 20
74.90023693972356
 40
0.5000000000000171
 50
197.3373092138964
 51
342.6626907861026
  0
ARC
  8
0
  6
CONTINUOUS
 62
     7
 10
1217.5
 20
74.90023693972356
 40
0.5000000000000171
 50
197.3373092138969
 51
342.6626907861026
  0
ARC
  8
0
  6
CONTINUOUS
 62
     7
 10
1217.5
 20
25.40023693972356
 40
0.5000000000000182
 50
17.33730921389736
 51
162.6626907861031
  0
ARC
  8
0
  6
CONTINUOUS
 62
     7
 10
1203.5
 20
25.40023693972356
 40
0.5000000000000182
 50
17.33730921389736
 51
162.6626907861031
  0
ARC
  8
0
  6
CONTINUOUS
 62
     7
 10
1210.5
 20
25.40023693972356
 40
0.5000000000000182
 50
17.33730921389736
 51
162.6626907861036
  0
LINE
  8
0
  6
CONTINUOUS
 62
     7
 10
1235.314069468848
 20
79.40023693972356
 11
1235.461180374998
 21
79.40023693972356
  0
LINE
  8
0
  6
CONTINUOUS
 62
     7
 10
1234.621053804587
 20
19.57809359587614
 11
1235.445549792713
 21
19.40023693972663
  0
LINE
  8
0
  6
CONTINUOUS
 62
     7
 10
1235.540288057477
 20
19.40023693972356
 11
1235.445549792713
 21
19.40023693972356
  0
LINE
  8
0
  6
CONTINUOUS
 62
     9
 10
1250.5
 20
69.94565829840401
 11
1295.0
 21
69.94565829840401
  0
LINE
  8
0
  6
CONTINUOUS
 62
     7
 10
1295.0
 20
68.67780351318193
 11
1295.0
 21
69.94565829840401
  0
LINE
  8
0
  6
CONTINUOUS
 62
     7
 10
1250.5
 20
68.6778035131819
 11
1250.5
 21
69.94565829840401
  0
LINE
  8
0
  6
CONTINUOUS
 62
     7
 10
1295.0
 20
69.94565829840401
 11
1295.0
 21
75.10023693972356
  0
LINE
  8
0
  6
CONTINUOUS
 62
     7
 10
1250.5
 20
75.10023693972356
 11
1250.5
 21
69.94565829840401
  0
LINE
  8
0
  6
CONTINUOUS
 62
     7
 10
1250.5
 20
76.10023693972356
 11
1295.0
 21
76.10023693972356
  0
LINE
  8
0
  6
CONTINUOUS
 62
     7
 10
1295.0
 20
76.10023693972356
 11
1295.0
 21
75.10023693972356
  0
LINE
  8
0
  6
CONTINUOUS
 62
     7
 10
1250.5
 20
76.10023693972356
 11
1250.5
 21
75.10023693972356
  0
LINE
  8
0
  6
CONTINUOUS
 62
     7
 10
1250.0
 20
75.60023693972356
 11
1250.5
 21
75.60023693972356
  0
LINE
  8
0
  6
CONTINUOUS
 62
     7
 10
1233.614511794343
 20
20.60023693972355
 11
1233.547686725365
 21
20.77529721359117
  0
ARC
  8
0
  6
CONTINUOUS
 62
     7
 10
1235.311737696391
 20
77.40023693225014
 40
2.000000007473507
 50
89.99999994841136
 51
156.5192413462375
  0
POLYLINE
  8
0
  6
CONTINUOUS
 62
     7
 66
     1
  0
VERTEX
  8
0
  6
CONTINUOUS
 62
     7
 10
1231.5
 20
74.40023693972356
  0
VERTEX
  8
0
  6
CONTINUOUS
 62
     7
 10
1231.536568938919
 20
74.40158132559795
  0
VERTEX
  8
0
  6
CONTINUOUS
 62
     7
 10
1231.572942338246
 20
74.40559550699713
  0
VERTEX
  8
0
  6
CONTINUOUS
 62
     7
 10
1231.608925761283
 20
74.41225101958501
  0
VERTEX
  8
0
  6
CONTINUOUS
 62
     7
 10
1231.644324771448
 20
74.4215193986321
  0
VERTEX
  8
0
  6
CONTINUOUS
 62
     7
 10
1231.678947874693
 20
74.43336209810896
  0
VERTEX
  8
0
  6
CONTINUOUS
 62
     7
 10
1231.71261417192
 20
74.44770427300787
  0
VERTEX
  8
0
  6
CONTINUOUS
 62
     7
 10
1231.745145147789
 20
74.46446291143047
  0
VERTEX
  8
0
  6
CONTINUOUS
 62
     7
 10
1231.77636228876
 20
74.48355499872874
  0
VERTEX
  8
0
  6
CONTINUOUS
 62
     7
 10
1231.806093458365
 20
74.50488779716588
  0
VERTEX
  8
0
  6
CONTINUOUS
 62
     7
 10
1231.834187204447
 20
74.52833703173846
  0
VERTEX
  8
0
  6
CONTINUOUS
 62
     7
 10
1231.860496261153
 20
74.55377204460764
  0
VERTEX
  8
0
  6
CONTINUOUS
 62
     7
 10
1231.884873371137
 20
74.58106217085712
  0
VERTEX
  8
0
  6
CONTINUOUS
 62
     7
 10
1231.90718107585
 20
74.6100685953507
  0
VERTEX
  8
0
  6
CONTINUOUS
 62
     7
 10
1231.927310582219
 20
74.64062866023092
  0
VERTEX
  8
0
  6
CONTINUOUS
 62
     7
 10
1231.945158311362
 20
74.67257537070003
  0
VERTEX
  8
0
  6
CONTINUOUS
 62
     7
 10
1231.960645134681
 20
74.70573119644945
  0
VERTEX
  8
0
  6
CONTINUOUS
 62
     7
 10
1231.975228833622
 20
74.73930223383942
  0
VERTEX
  8
0
  6
CONTINUOUS
 62
     7
 10
1231.989812532563
 20
74.77287327122939
  0
VERTEX
  8
0
  6
CONTINUOUS
 62
     7
 10
1232.004396231503
 20
74.80644430861935
  0
VERTEX
  8
0
  6
CONTINUOUS
 62
     7
 10
1232.018979930444
 20
74.84001534600931
  0
VERTEX
  8
0
  6
CONTINUOUS
 62
     7
 10
1232.033563629385
 20
74.87358638339929
  0
VERTEX
  8
0
  6
CONTINUOUS
 62
     7
 10
1232.048147328325
 20
74.90715742078926
  0
VERTEX
  8
0
  6
CONTINUOUS
 62
     7
 10
1232.062731027266
 20
74.94072845817924
  0
VERTEX
  8
0
  6
CONTINUOUS
 62
     7
 10
1232.077314726207
 20
74.9742994955692
  0
VERTEX
  8
0
  6
CONTINUOUS
 62
     7
 10
1232.091898425147
 20
75.00787053295916
  0
VERTEX
  8
0
  6
CONTINUOUS
 62
     7
 10
1232.106482124088
 20
75.04144157034914
  0
VERTEX
  8
0
  6
CONTINUOUS
 62
     7
 10
1232.121065823028
 20
75.07501260773911
  0
VERTEX
  8
0
  6
CONTINUOUS
 62
     7
 10
1232.135649521969
 20
75.10858364512907
  0
VERTEX
  8
0
  6
CONTINUOUS
 62
     7
 10
1232.15023322091
 20
75.14215468251903
  0
VERTEX
  8
0
  6
CONTINUOUS
 62
     7
 10
1232.16481691985
 20
75.17572571990901
  0
VERTEX
  8
0
  6
CONTINUOUS
 62
     7
 10
1232.179400618791
 20
75.20929675729897
  0
VERTEX
  8
0
  6
CONTINUOUS
 62
     7
 10
1232.193984317732
 20
75.24286779468895
  0
VERTEX
  8
0
  6
CONTINUOUS
 62
     7
 10
1232.208568016672
 20
75.27643883207891
  0
VERTEX
  8
0
  6
CONTINUOUS
 62
     7
 10
1232.223151715613
 20
75.31000986946889
  0
VERTEX
  8
0
  6
CONTINUOUS
 62
     7
 10
1232.237735414554
 20
75.34358090685886
  0
VERTEX
  8
0
  6
CONTINUOUS
 62
     7
 10
1232.252319113494
 20
75.37715194424882
  0
VERTEX
  8
0
  6
CONTINUOUS
 62
     7
 10
1232.266902812435
 20
75.4107229816388
  0
VERTEX
  8
0
  6
CONTINUOUS
 62
     7
 10
1232.281486511376
 20
75.44429401902876
  0
VERTEX
  8
0
  6
CONTINUOUS
 62
     7
 10
1232.296070210316
 20
75.47786505641874
  0
VERTEX
  8
0
  6
CONTINUOUS
 62
     7
 10
1232.310653909257
 20
75.5114360938087
  0
VERTEX
  8
0
  6
CONTINUOUS
 62
     7
 10
1232.325237608198
 20
75.54500713119867
  0
VERTEX
  8
0
  6
CONTINUOUS
 62
     7
 10
1232.339821307138
 20
75.57857816858862
  0
VERTEX
  8
0
  6
CONTINUOUS
 62
     7
 10
1232.354405006079
 20
75.6121492059786
  0
VERTEX
  8
0
  6
CONTINUOUS
 62
     7
 10
1232.368988705019
 20
75.64572024336857
  0
VERTEX
  8
0
  6
CONTINUOUS
 62
     7
 10
1232.38357240396
 20
75.67929128075855
  0
VERTEX
  8
0
  6
CONTINUOUS
 62
     7
 10
1232.398156102901
 20
75.71286231814851
  0
VERTEX
  8
0
  6
CONTINUOUS
 62
     7
 10
1232.412739801841
 20
75.74643335553847
  0
VERTEX
  8
0
  6
CONTINUOUS
 62
     7
 10
1232.427323500782
 20
75.78000439292845
  0
VERTEX
  8
0
  6
CONTINUOUS
 62
     7
 10
1232.441907199722
 20
75.81357543031841
  0
VERTEX
  8
0
  6
CONTINUOUS
 62
     7
 10
1232.456490898663
 20
75.8471464677084
  0
VERTEX
  8
0
  6
CONTINUOUS
 62
     7
 10
1232.471074597604
 20
75.88071750509836
  0
VERTEX
  8
0
  6
CONTINUOUS
 62
     7
 10
1232.485658296544
 20
75.91428854248832
  0
VERTEX
  8
0
  6
CONTINUOUS
 62
     7
 10
1232.500241995485
 20
75.9478595798783
  0
VERTEX
  8
0
  6
CONTINUOUS
 62
     7
 10
1232.514825694426
 20
75.98143061726827
  0
VERTEX
  8
0
  6
CONTINUOUS
 62
     7
 10
1232.529409393366
 20
76.01500165465823
  0
VERTEX
  8
0
  6
CONTINUOUS
 62
     7
 10
1232.543993092307
 20
76.0485726920482
  0
VERTEX
  8
0
  6
CONTINUOUS
 62
     7
 10
1232.558576791248
 20
76.08214372943817
  0
VERTEX
  8
0
  6
CONTINUOUS
 62
     7
 10
1232.573160490188
 20
76.11571476682813
  0
VERTEX
  8
0
  6
CONTINUOUS
 62
     7
 10
1232.587744189129
 20
76.14928580421811
  0
VERTEX
  8
0
  6
CONTINUOUS
 62
     7
 10
1232.60232788807
 20
76.18285684160807
  0
VERTEX
  8
0
  6
CONTINUOUS
 62
     7
 10
1232.61691158701
 20
76.21642787899805
  0
VERTEX
  8
0
  6
CONTINUOUS
 62
     7
 10
1232.631495285951
 20
76.24999891638801
  0
VERTEX
  8
0
  6
CONTINUOUS
 62
     7
 10
1232.646078984892
 20
76.28356995377797
  0
VERTEX
  8
0
  6
CONTINUOUS
 62
     7
 10
1232.660662683832
 20
76.31714099116796
  0
VERTEX
  8
0
  6
CONTINUOUS
 62
     7
 10
1232.675246382773
 20
76.35071202855792
  0
VERTEX
  8
0
  6
CONTINUOUS
 62
     7
 10
1232.689830081713
 20
76.38428306594788
  0
VERTEX
  8
0
  6
CONTINUOUS
 62
     7
 10
1232.704413780654
 20
76.41785410333787
  0
VERTEX
  8
0
  6
CONTINUOUS
 62
     7
 10
1232.718997479595
 20
76.45142514072782
  0
VERTEX
  8
0
  6
CONTINUOUS
 62
     7
 10
1232.733581178536
 20
76.4849961781178
  0
VERTEX
  8
0
  6
CONTINUOUS
 62
     7
 10
1232.748164877476
 20
76.51856721550777
  0
VERTEX
  8
0
  6
CONTINUOUS
 62
     7
 10
1232.762748576416
 20
76.5521382528977
  0
VERTEX
  8
0
  6
CONTINUOUS
 62
     7
 10
1232.777332275357
 20
76.5857092902877
  0
VERTEX
  8
0
  6
CONTINUOUS
 62
     7
 10
1232.791915974298
 20
76.61928032767767
  0
VERTEX
  8
0
  6
CONTINUOUS
 62
     7
 10
1232.806499673238
 20
76.65285136506762
  0
VERTEX
  8
0
  6
CONTINUOUS
 62
     7
 10
1232.821083372179
 20
76.68642240245761
  0
VERTEX
  8
0
  6
CONTINUOUS
 62
     7
 10
1232.83566707112
 20
76.71999343984757
  0
VERTEX
  8
0
  6
CONTINUOUS
 62
     7
 10
1232.85025077006
 20
76.75356447723755
  0
VERTEX
  8
0
  6
CONTINUOUS
 62
     7
 10
1232.864834469001
 20
76.78713551462752
  0
VERTEX
  8
0
  6
CONTINUOUS
 62
     7
 10
1232.879418167942
 20
76.82070655201747
  0
VERTEX
  8
0
  6
CONTINUOUS
 62
     7
 10
1232.894001866882
 20
76.85427758940745
  0
VERTEX
  8
0
  6
CONTINUOUS
 62
     7
 10
1232.908585565823
 20
76.8878486267974
  0
VERTEX
  8
0
  6
CONTINUOUS
 62
     7
 10
1232.923169264763
 20
76.92141966418737
  0
VERTEX
  8
0
  6
CONTINUOUS
 62
     7
 10
1232.937752963704
 20
76.95499070157736
  0
VERTEX
  8
0
  6
CONTINUOUS
 62
     7
 10
1232.952336662645
 20
76.98856173896732
  0
VERTEX
  8
0
  6
CONTINUOUS
 62
     7
 10
1232.966920361586
 20
77.02213277635728
  0
VERTEX
  8
0
  6
CONTINUOUS
 62
     7
 10
1232.981504060527
 20
77.05570381374727
  0
VERTEX
  8
0
  6
CONTINUOUS
 62
     7
 10
1232.996087759467
 20
77.08927485113722
  0
VERTEX
  8
0
  6
CONTINUOUS
 62
     7
 10
1233.010671458408
 20
77.1228458885272
  0
VERTEX
  8
0
  6
CONTINUOUS
 62
     7
 10
1233.025255157348
 20
77.15641692591717
  0
VERTEX
  8
0
  6
CONTINUOUS
 62
     7
 10
1233.039838856288
 20
77.18998796330712
  0
VERTEX
  8
0
  6
CONTINUOUS
 62
     7
 10
1233.05442255523
 20
77.22355900069711
  0
VERTEX
  8
0
  6
CONTINUOUS
 62
     7
 10
1233.06900625417
 20
77.25713003808707
  0
VERTEX
  8
0
  6
CONTINUOUS
 62
     7
 10
1233.083589953111
 20
77.29070107547705
  0
VERTEX
  8
0
  6
CONTINUOUS
 62
     7
 10
1233.098173652052
 20
77.32427211286702
  0
VERTEX
  8
0
  6
CONTINUOUS
 62
     7
 10
1233.112757350992
 20
77.35784315025697
  0
VERTEX
  8
0
  6
CONTINUOUS
 62
     7
 10
1233.127341049933
 20
77.39141418764694
  0
VERTEX
  8
0
  6
CONTINUOUS
 62
     7
 10
1233.141924748873
 20
77.42498522503692
  0
VERTEX
  8
0
  6
CONTINUOUS
 62
     7
 10
1233.156508447814
 20
77.45855626242687
  0
VERTEX
  8
0
  6
CONTINUOUS
 62
     7
 10
1233.171092146754
 20
77.49212729981683
  0
VERTEX
  8
0
  6
CONTINUOUS
 62
     7
 10
1233.185675845695
 20
77.52569833720682
  0
VERTEX
  8
0
  6
CONTINUOUS
 62
     7
 10
1233.200259544636
 20
77.5592693745968
  0
VERTEX
  8
0
  6
CONTINUOUS
 62
     7
 10
1233.214843243577
 20
77.59284041198677
  0
VERTEX
  8
0
  6
CONTINUOUS
 62
     7
 10
1233.229426942517
 20
77.62641144937672
  0
VERTEX
  8
0
  6
CONTINUOUS
 62
     7
 10
1233.244010641458
 20
77.6599824867667
  0
VERTEX
  8
0
  6
CONTINUOUS
 62
     7
 10
1233.258594340398
 20
77.69355352415667
  0
VERTEX
  8
0
  6
CONTINUOUS
 62
     7
 10
1233.273178039339
 20
77.72712456154662
  0
VERTEX
  8
0
  6
CONTINUOUS
 62
     7
 10
1233.28776173828
 20
77.76069559893659
  0
VERTEX
  8
0
  6
CONTINUOUS
 62
     7
 10
1233.30234543722
 20
77.79426663632657
  0
VERTEX
  8
0
  6
CONTINUOUS
 62
     7
 10
1233.316929136161
 20
77.82783767371653
  0
VERTEX
  8
0
  6
CONTINUOUS
 62
     7
 10
1233.331512835102
 20
77.86140871110652
  0
VERTEX
  8
0
  6
CONTINUOUS
 62
     7
 10
1233.346096534042
 20
77.89497974849647
  0
VERTEX
  8
0
  6
CONTINUOUS
 62
     7
 10
1233.360680232983
 20
77.92855078588644
  0
VERTEX
  8
0
  6
CONTINUOUS
 62
     7
 10
1233.375263931924
 20
77.96212182327642
  0
VERTEX
  8
0
  6
CONTINUOUS
 62
     7
 10
1233.389847630864
 20
77.9956928606664
  0
VERTEX
  8
0
  6
CONTINUOUS
 62
     7
 10
1233.404431329805
 20
78.02926389805634
  0
VERTEX
  8
0
  6
CONTINUOUS
 62
     7
 10
1233.419015028745
 20
78.06283493544632
  0
VERTEX
  8
0
  6
CONTINUOUS
 62
     7
 10
1233.433598727686
 20
78.09640597283628
  0
VERTEX
  8
0
  6
CONTINUOUS
 62
     7
 10
1233.448182426627
 20
78.12997701022627
  0
VERTEX
  8
0
  6
CONTINUOUS
 62
     7
 10
1233.462766125567
 20
78.1635480476162
  0
VERTEX
  8
0
  6
CONTINUOUS
 62
     7
 10
1233.477349824508
 20
78.19711908500621
  0
SEQEND
  8
0
  6
CONTINUOUS
 62
     7
  0
LINE
  8
0
  6
CONTINUOUS
 62
     9
 10
1233.547686725365
 20
20.77529721359117
 11
1233.546548100265
 21
20.77270799866432
  0
LINE
  8
0
  6
CONTINUOUS
 62
     9
 10
1233.546548100265
 20
20.77270799866432
 11
1233.546514039315
 21
20.77281108200377
  0
LINE
  8
0
  6
CONTINUOUS
 62
     9
 10
613.4318504338647
 20
37.90023693972354
 11
613.4318504338647
 21
62.40023693972352
  0
LINE
  8
0
  6
CONTINUOUS
 62
     9
 10
610.5681495661352
 20
37.90023693972353
 11
610.5681495661352
 21
62.40023693972352
  0
LINE
  8
0
  6
CONTINUOUS
 62
     9
 10
617.5681495661352
 20
62.40023693972352
 11
617.5681495661352
 21
79.84723172161837
  0
ARC
  8
0
  6
CONTINUOUS
 62
     7
 10
619.0
 20
79.40023693972351
 40
1.500000000000048
 50
17.33730921389792
 51
162.6626907861033
  0
LINE
  8
0
  6
CONTINUOUS
 62
     9
 10
620.4318504338647
 20
62.40023693972352
 11
620.4318504338647
 21
79.84723172161837
  0
LINE
  8
0
  6
CONTINUOUS
 62
     9
 10
610.5681495661352
 20
62.40023693972352
 11
610.5681495661352
 21
79.84723172161837
  0
ARC
  8
0
  6
CONTINUOUS
 62
     7
 10
612.0
 20
79.40023693972351
 40
1.500000000000048
 50
17.33730921389792
 51
162.6626907861033
  0
LINE
  8
0
  6
CONTINUOUS
 62
     9
 10
613.4318504338647
 20
62.40023693972352
 11
613.4318504338647
 21
79.84723172161837
  0
LINE
  8
0
  6
CONTINUOUS
 62
     9
 10
624.5681495661352
 20
62.40023693972352
 11
624.5681495661352
 21
79.84723172161837
  0
ARC
  8
0
  6
CONTINUOUS
 62
     7
 10
626.0
 20
79.40023693972351
 40
1.500000000000048
 50
17.33730921389792
 51
162.6626907861033
  0
LINE
  8
0
  6
CONTINUOUS
 62
     9
 10
627.4318504338647
 20
62.40023693972353
 11
627.4318504338647
 21
79.84723172161837
  0
LINE
  8
0
  6
CONTINUOUS
 62
     9
 10
620.4318504338647
 20
37.90023693972354
 11
620.4318504338647
 21
62.40023693972352
  0
LINE
  8
0
  6
CONTINUOUS
 62
     9
 10
617.5681495661352
 20
37.90023693972353
 11
617.5681495661352
 21
62.40023693972352
  0
LINE
  8
0
  6
CONTINUOUS
 62
     9
 10
627.4318504338647
 20
37.90023693972354
 11
627.4318504338647
 21
62.40023693972353
  0
LINE
  8
0
  6
CONTINUOUS
 62
     9
 10
624.5681495661352
 20
37.90023693972353
 11
624.5681495661352
 21
62.40023693972352
  0
LINE
  8
0
  6
CONTINUOUS
 62
     9
 10
638.5681495661352
 20
37.90023693972353
 11
638.5681495661352
 21
62.40023693972353
  0
LINE
  8
0
  6
CONTINUOUS
 62
     9
 10
631.5681495661352
 20
62.40023693972353
 11
631.5681495661352
 21
79.84723172161837
  0
ARC
  8
0
  6
CONTINUOUS
 62
     7
 10
633.0
 20
79.40023693972353
 40
1.500000000000048
 50
17.33730921389792
 51
162.6626907861033
  0
LINE
  8
0
  6
CONTINUOUS
 62
     9
 10
634.4318504338647
 20
62.40023693972353
 11
634.4318504338647
 21
79.84723172161837
  0
LINE
  8
0
  6
CONTINUOUS
 62
     9
 10
634.4318504338647
 20
37.90023693972354
 11
634.4318504338647
 21
62.40023693972353
  0
LINE
  8
0
  6
CONTINUOUS
 62
     9
 10
631.5681495661352
 20
37.90023693972353
 11
631.5681495661352
 21
62.40023693972353
  0
LINE
  8
0
  6
CONTINUOUS
 62
     9
 10
638.5681495661352
 20
62.40023693972353
 11
638.5681495661352
 21
79.84723172161837
  0
ARC
  8
0
  6
CONTINUOUS
 62
     7
 10
639.9999999999999
 20
79.40023693972353
 40
1.499999999999946
 50
90.0
 51
162.6626907861028
  0
ARC
  8
0
  6
CONTINUOUS
 62
     7
 10
612.0
 20
20.90023693972352
 40
1.50000000000005
 50
197.3373092138966
 51
342.662690786102
  0
LINE
  8
0
  6
CONTINUOUS
 62
     9
 10
610.5681495661352
 20
20.45324215782868
 11
610.5681495661352
 21
37.90023693972353
  0
LINE
  8
0
  6
CONTINUOUS
 62
     9
 10
613.4318504338647
 20
20.45324215782868
 11
613.4318504338647
 21
37.90023693972353
  0
ARC
  8
0
  6
CONTINUOUS
 62
     7
 10
619.0
 20
20.90023693972352
 40
1.50000000000005
 50
197.3373092138966
 51
342.662690786102
  0
LINE
  8
0
  6
CONTINUOUS
 62
     9
 10
617.5681495661352
 20
20.45324215782868
 11
617.5681495661352
 21
37.90023693972353
  0
LINE
  8
0
  6
CONTINUOUS
 62
     9
 10
620.4318504338647
 20
20.45324215782868
 11
620.4318504338647
 21
37.90023693972353
  0
ARC
  8
0
  6
CONTINUOUS
 62
     7
 10
626.0
 20
20.90023693972352
 40
1.500000000000048
 50
197.3373092138966
 51
342.662690786102
  0
LINE
  8
0
  6
CONTINUOUS
 62
     9
 10
624.5681495661352
 20
20.45324215782868
 11
624.5681495661352
 21
37.90023693972353
  0
LINE
  8
0
  6
CONTINUOUS
 62
     9
 10
627.4318504338647
 20
20.45324215782868
 11
627.4318504338647
 21
37.90023693972353
  0
ARC
  8
0
  6
CONTINUOUS
 62
     7
 10
633.0
 20
20.90023693972352
 40
1.500000000000048
 50
197.3373092138966
 51
342.662690786102
  0
LINE
  8
0
  6
CONTINUOUS
 62
     9
 10
631.5681495661352
 20
20.45324215782868
 11
631.5681495661352
 21
37.90023693972353
  0
LINE
  8
0
  6
CONTINUOUS
 62
     9
 10
634.4318504338647
 20
20.45324215782868
 11
634.4318504338647
 21
37.90023693972353
  0
ARC
  8
0
  6
CONTINUOUS
 62
     7
 10
639.9999999999999
 20
20.90023693972352
 40
1.499999999999948
 50
197.3373092138973
 51
270.0
  0
LINE
  8
0
  6
CONTINUOUS
 62
     9
 10
638.5681495661352
 20
20.45324215782868
 11
638.5681495661352
 21
37.90023693972353
  0
LINE
  8
0
  6
CONTINUOUS
 62
     7
 10
600.9
 20
80.90023693972358
 11
600.0999999999999
 21
80.90023693972358
  0
ARC
  8
0
  6
CONTINUOUS
 62
     7
 10
600.9
 20
79.90023693972358
 40
1.000000000000001
 50
0.0000000000000035
 51
90.0
  0
LINE
  8
0
  6
CONTINUOUS
 62
     7
 10
601.9
 20
74.40023693972358
 11
601.9
 21
79.90023693972357
  0
LINE
  8
0
  6
CONTINUOUS
 62
     7
 10
601.9
 20
25.90023693972365
 11
601.9
 21
74.40023693972358
  0
LINE
  8
0
  6
CONTINUOUS
 62
     7
 10
599.0999999999999
 20
74.40023693972358
 11
599.0999999999999
 21
25.90023693972364
  0
LINE
  8
0
  6
CONTINUOUS
 62
     7
 10
599.0999999999999
 20
79.90023693972357
 11
599.0999999999999
 21
74.40023693972358
  0
ARC
  8
0
  6
CONTINUOUS
 62
     7
 10
600.0999999999999
 20
79.90023693972358
 40
1.000000000000001
 50
90.00000000000001
 51
180.0
  0
LINE
  8
0
  6
CONTINUOUS
 62
     7
 10
599.0999999999999
 20
25.90023693972365
 11
599.0999999999999
 21
21.46317710239893
  0
ARC
  8
0
  6
CONTINUOUS
 62
     7
 10
600.0999999999999
 20
20.40023693972352
 40
1.000000000000001
 50
235.5434335006901
 51
270.0
  0
ARC
  8
0
  6
CONTINUOUS
 62
     7
 10
603.6001559517961
 20
21.22058054399038
 40
4.506690213520057
 50
176.9142585963976
 51
197.4284564045999
  0
POLYLINE
  8
0
  6
CONTINUOUS
 62
     7
 66
     1
  0
VERTEX
  8
0
  6
CONTINUOUS
 62
     7
 10
599.3003602703768
 20
19.87076063797113
  0
VERTEX
  8
0
  6
CONTINUOUS
 62
     7
 10
599.3790218446834
 20
19.73166944186378
  0
VERTEX
  8
0
  6
CONTINUOUS
 62
     7
 10
599.4811521467782
 20
19.61686902552153
  0
VERTEX
  8
0
  6
CONTINUOUS
 62
     7
 10
599.534218660873
 20
19.57568161938676
  0
SEQEND
  8
0
  6
CONTINUOUS
 62
     7
  0
LINE
  8
0
  6
CONTINUOUS
 62
     7
 10
601.9
 20
21.46317710239892
 11
601.9
 21
25.90023693972365
  0
POLYLINE
  8
0
  6
CONTINUOUS
 62
     7
 66
     1
  0
VERTEX
  8
0
  6
CONTINUOUS
 62
     7
 10
601.4657813391269
 20
19.57568161938676
  0
VERTEX
  8
0
  6
CONTINUOUS
 62
     7
 10
601.571881500199
 20
19.66947909290113
  0
VERTEX
  8
0
  6
CONTINUOUS
 62
     7
 10
601.6601971978489
 20
19.79367896167548
  0
VERTEX
  8
0
  6
CONTINUOUS
 62
     7
 10
601.7301105608573
 20
19.94368847998092
  0
VERTEX
  8
0
  6
CONTINUOUS
 62
     7
 10
601.7852095129778
 20
20.11955623115924
  0
SEQEND
  8
0
  6
CONTINUOUS
 62
     7
  0
ARC
  8
0
  6
CONTINUOUS
 62
     7
 10
595.9423714236427
 20
21.2954453636196
 40
5.95998927767684
 50
348.6210496608158
 51
1.612685750138155
  0
ARC
  8
0
  6
CONTINUOUS
 62
     7
 10
600.9
 20
20.40023693972352
 40
1.000000000000002
 50
270.0
 51
304.4565664993098
  0
LINE
  8
0
  6
CONTINUOUS
 62
     7
 10
600.9
 20
19.40023693972363
 11
600.0999999999999
 21
19.40023693972363
  0
LINE
  8
0
  6
CONTINUOUS
 62
     7
 10
613.4318504338647
 20
79.84723172161837
 11
615.022716522045
 21
74.7512386790919
  0
LINE
  8
0
  6
CONTINUOUS
 62
     7
 10
627.4318504338647
 20
79.84723172161837
 11
629.022716522045
 21
74.75123867909191
  0
LINE
  8
0
  6
CONTINUOUS
 62
     7
 10
629.9772834779549
 20
74.75123867909191
 11
631.5681495661352
 21
79.84723172161837
  0
LINE
  8
0
  6
CONTINUOUS
 62
     7
 10
622.9772834779549
 20
74.7512386790919
 11
624.5681495661352
 21
79.84723172161837
  0
LINE
  8
0
  6
CONTINUOUS
 62
     7
 10
615.9772834779549
 20
74.7512386790919
 11
617.5681495661352
 21
79.84723172161837
  0
LINE
  8
0
  6
CONTINUOUS
 62
     7
 10
634.4318504338647
 20
79.84723172161837
 11
636.022716522045
 21
74.75123867909191
  0
LINE
  8
0
  6
CONTINUOUS
 62
     7
 10
620.4318504338647
 20
79.84723172161837
 11
622.022716522045
 21
74.7512386790919
  0
LINE
  8
0
  6
CONTINUOUS
 62
     7
 10
608.9772834779549
 20
74.7512386790919
 11
610.5681495661352
 21
79.84723172161837
  0
LINE
  8
0
  6
CONTINUOUS
 62
     7
 10
636.9772834779549
 20
74.75123867909191
 11
638.5681495661352
 21
79.84723172161837
  0
LINE
  8
0
  6
CONTINUOUS
 62
     7
 10
620.4318504338647
 20
20.45324215782868
 11
622.022716522045
 21
25.54923520035513
  0
LINE
  8
0
  6
CONTINUOUS
 62
     7
 10
634.4318504338647
 20
20.45324215782868
 11
636.022716522045
 21
25.54923520035513
  0
LINE
  8
0
  6
CONTINUOUS
 62
     7
 10
613.4318504338647
 20
20.45324215782868
 11
615.022716522045
 21
25.54923520035513
  0
LINE
  8
0
  6
CONTINUOUS
 62
     7
 10
627.4318504338647
 20
20.45324215782868
 11
629.022716522045
 21
25.54923520035513
  0
LINE
  8
0
  6
CONTINUOUS
 62
     7
 10
622.9772834779549
 20
25.54923520035513
 11
624.5681495661352
 21
20.45324215782868
  0
LINE
  8
0
  6
CONTINUOUS
 62
     7
 10
615.9772834779549
 20
25.54923520035513
 11
617.5681495661352
 21
20.45324215782868
  0
LINE
  8
0
  6
CONTINUOUS
 62
     7
 10
629.9772834779549
 20
25.54923520035513
 11
631.5681495661352
 21
20.45324215782868
  0
LINE
  8
0
  6
CONTINUOUS
 62
     7
 10
608.9772834779549
 20
25.54923520035513
 11
610.5681495661352
 21
20.45324215782868
  0
LINE
  8
0
  6
CONTINUOUS
 62
     7
 10
636.9772834779549
 20
25.54923520035513
 11
638.5681495661352
 21
20.45324215782868
  0
LINE
  8
0
  6
CONTINUOUS
 62
     7
 10
604.5388196250019
 20
79.40023693972351
 11
601.9
 21
79.40023693972351
  0
LINE
  8
0
  6
CONTINUOUS
 62
     7
 10
591.0
 20
19.40023693972352
 11
600.0999999999999
 21
19.40023693972352
  0
LINE
  8
0
  6
CONTINUOUS
 62
     7
 10
599.0999999999999
 20
79.40023693972351
 11
591.0
 21
79.40023693972351
  0
LINE
  8
0
  6
CONTINUOUS
 62
     7
 10
600.9
 20
19.40023693972352
 11
604.4597119425227
 21
19.40023693972352
  0
LINE
  8
0
  6
CONTINUOUS
 62
     7
 10
590.0
 20
72.90023693972353
 11
590.0
 21
25.90023693972352
  0
LINE
  8
0
  6
CONTINUOUS
 62
     7
 10
590.0
 20
25.90023693972352
 11
590.0
 21
20.40023693972352
  0
ARC
  8
0
  6
CONTINUOUS
 62
     7
 10
591.0
 20
20.40023693972352
 40
0.9999999999999974
 50
180.0
 51
270.0
  0
LINE
  8
0
  6
CONTINUOUS
 62
     7
 10
590.0
 20
78.40023693972351
 11
590.0
 21
72.90023693972353
  0
ARC
  8
0
  6
CONTINUOUS
 62
     7
 10
591.0
 20
78.40023693972351
 40
1.000000000000001
 50
90.00000000000001
 51
180.0
  0
LINE
  8
0
  6
CONTINUOUS
 62
     7
 10
608.4999999999999
 20
33.502151287887
 11
608.4999999999999
 21
37.90023693972352
  0
LINE
  8
0
  6
CONTINUOUS
 62
     7
 10
608.4999999999999
 20
33.13186764957212
 11
608.4999999999999
 21
33.502151287887
  0
LINE
  8
0
  6
CONTINUOUS
 62
     7
 10
608.4999999999999
 20
29.41495556548891
 11
608.4999999999999
 21
33.13186764957212
  0
LINE
  8
0
  6
CONTINUOUS
 62
     7
 10
608.4999999999999
 20
26.8883045792239
 11
608.4999999999999
 21
29.41495556548891
  0
LINE
  8
0
  6
CONTINUOUS
 62
     7
 10
608.4999999999999
 20
26.7352540618962
 11
608.4999999999999
 21
26.8883045792239
  0
LINE
  8
0
  6
CONTINUOUS
 62
     7
 10
608.4999999999999
 20
25.90023693972352
 11
608.4999999999999
 21
26.7352540618962
  0
POLYLINE
  8
0
  6
CONTINUOUS
 62
     7
 66
     1
  0
VERTEX
  8
0
  6
CONTINUOUS
 62
     7
 10
608.4999999999999
 20
25.90023693972353
  0
VERTEX
  8
0
  6
CONTINUOUS
 62
     7
 10
608.4545898113687
 20
25.89651187529079
  0
VERTEX
  8
0
  6
CONTINUOUS
 62
     7
 10
608.4095670248922
 20
25.88858475100746
  0
VERTEX
  8
0
  6
CONTINUOUS
 62
     7
 10
608.3653062830293
 20
25.87652451537269
  0
VERTEX
  8
0
  6
CONTINUOUS
 62
     7
 10
608.3221805887715
 20
25.86040529800399
  0
VERTEX
  8
0
  6
CONTINUOUS
 62
     7
 10
608.2805437530277
 20
25.84036231249751
  0
VERTEX
  8
0
  6
CONTINUOUS
 62
     7
 10
608.2407356843622
 20
25.81657579210643
  0
VERTEX
  8
0
  6
CONTINUOUS
 62
     7
 10
608.2030952522709
 20
25.78922857431326
  0
VERTEX
  8
0
  6
CONTINUOUS
 62
     7
 10
608.1679376596286
 20
25.75853620321958
  0
VERTEX
  8
0
  6
CONTINUOUS
 62
     7
 10
608.1355411460745
 20
25.7247657439542
  0
VERTEX
  8
0
  6
CONTINUOUS
 62
     7
 10
608.1061768219796
 20
25.68819480758757
  0
VERTEX
  8
0
  6
CONTINUOUS
 62
     7
 10
608.0800996666879
 20
25.64911294016306
  0
VERTEX
  8
0
  6
CONTINUOUS
 62
     7
 10
608.0575086446623
 20
25.60785005385864
  0
VERTEX
  8
0
  6
CONTINUOUS
 62
     7
 10
608.0385851916398
 20
25.56474890525679
  0
VERTEX
  8
0
  6
CONTINUOUS
 62
     7
 10
608.0226243220208
 20
25.52042505482618
  0
VERTEX
  8
0
  6
CONTINUOUS
 62
     7
 10
608.0073478640475
 20
25.47580583684408
  0
VERTEX
  8
0
  6
CONTINUOUS
 62
     7
 10
607.9925174908681
 20
25.43102559275288
  0
VERTEX
  8
0
  6
CONTINUOUS
 62
     7
 10
607.9777191107703
 20
25.38623506861106
  0
VERTEX
  8
0
  6
CONTINUOUS
 62
     7
 10
607.9629207306724
 20
25.34144454446925
  0
VERTEX
  8
0
  6
CONTINUOUS
 62
     7
 10
607.9481223505745
 20
25.29665402032742
  0
VERTEX
  8
0
  6
CONTINUOUS
 62
     7
 10
607.9333239704765
 20
25.25186349618561
  0
VERTEX
  8
0
  6
CONTINUOUS
 62
     7
 10
607.9185255903786
 20
25.20707297204379
  0
VERTEX
  8
0
  6
CONTINUOUS
 62
     7
 10
607.9037272102806
 20
25.16228244790197
  0
VERTEX
  8
0
  6
CONTINUOUS
 62
     7
 10
607.8889288301829
 20
25.11749192376016
  0
VERTEX
  8
0
  6
CONTINUOUS
 62
     7
 10
607.8741304500849
 20
25.07270139961834
  0
VERTEX
  8
0
  6
CONTINUOUS
 62
     7
 10
607.859332069987
 20
25.02791087547652
  0
VERTEX
  8
0
  6
CONTINUOUS
 62
     7
 10
607.844533689889
 20
24.98312035133469
  0
VERTEX
  8
0
  6
CONTINUOUS
 62
     7
 10
607.8297353097912
 20
24.93832982719288
  0
VERTEX
  8
0
  6
CONTINUOUS
 62
     7
 10
607.8149369296932
 20
24.89353930305106
  0
VERTEX
  8
0
  6
CONTINUOUS
 62
     7
 10
607.8001385495953
 20
24.84874877890924
  0
VERTEX
  8
0
  6
CONTINUOUS
 62
     7
 10
607.7853401694973
 20
24.80395825476742
  0
VERTEX
  8
0
  6
CONTINUOUS
 62
     7
 10
607.7705417893994
 20
24.75916773062561
  0
VERTEX
  8
0
  6
CONTINUOUS
 62
     7
 10
607.7557434093015
 20
24.71437720648379
  0
VERTEX
  8
0
  6
CONTINUOUS
 62
     7
 10
607.7409450292038
 20
24.66958668234197
  0
VERTEX
  8
0
  6
CONTINUOUS
 62
     7
 10
607.7261466491057
 20
24.62479615820015
  0
VERTEX
  8
0
  6
CONTINUOUS
 62
     7
 10
607.7113482690078
 20
24.58000563405832
  0
VERTEX
  8
0
  6
CONTINUOUS
 62
     7
 10
607.6965498889098
 20
24.53521510991651
  0
VERTEX
  8
0
  6
CONTINUOUS
 62
     7
 10
607.6817515088119
 20
24.49042458577469
  0
VERTEX
  8
0
  6
CONTINUOUS
 62
     7
 10
607.6669531287141
 20
24.44563406163287
  0
VERTEX
  8
0
  6
CONTINUOUS
 62
     7
 10
607.6521547486161
 20
24.40084353749105
  0
VERTEX
  8
0
  6
CONTINUOUS
 62
     7
 10
607.6373563685181
 20
24.35605301334924
  0
VERTEX
  8
0
  6
CONTINUOUS
 62
     7
 10
607.6225579884202
 20
24.31126248920741
  0
VERTEX
  8
0
  6
CONTINUOUS
 62
     7
 10
607.6077596083223
 20
24.2664719650656
  0
VERTEX
  8
0
  6
CONTINUOUS
 62
     7
 10
607.5929612282245
 20
24.22168144092378
  0
VERTEX
  8
0
  6
CONTINUOUS
 62
     7
 10
607.5781628481266
 20
24.17689091678196
  0
VERTEX
  8
0
  6
CONTINUOUS
 62
     7
 10
607.5633644680287
 20
24.13210039264014
  0
VERTEX
  8
0
  6
CONTINUOUS
 62
     7
 10
607.5485660879307
 20
24.08730986849832
  0
VERTEX
  8
0
  6
CONTINUOUS
 62
     7
 10
607.5337677078327
 20
24.0425193443565
  0
VERTEX
  8
0
  6
CONTINUOUS
 62
     7
 10
607.5189693277349
 20
23.99772882021469
  0
VERTEX
  8
0
  6
CONTINUOUS
 62
     7
 10
607.504170947637
 20
23.95293829607286
  0
VERTEX
  8
0
  6
CONTINUOUS
 62
     7
 10
607.489372567539
 20
23.90814777193105
  0
VERTEX
  8
0
  6
CONTINUOUS
 62
     7
 10
607.4745741874411
 20
23.86335724778923
  0
VERTEX
  8
0
  6
CONTINUOUS
 62
     7
 10
607.4597758073431
 20
23.81856672364741
  0
VERTEX
  8
0
  6
CONTINUOUS
 62
     7
 10
607.4449774272452
 20
23.77377619950559
  0
VERTEX
  8
0
  6
CONTINUOUS
 62
     7
 10
607.4301790471474
 20
23.72898567536377
  0
VERTEX
  8
0
  6
CONTINUOUS
 62
     7
 10
607.4153806670495
 20
23.68419515122195
  0
VERTEX
  8
0
  6
CONTINUOUS
 62
     7
 10
607.4005822869515
 20
23.63940462708013
  0
VERTEX
  8
0
  6
CONTINUOUS
 62
     7
 10
607.3857839068536
 20
23.59461410293831
  0
VERTEX
  8
0
  6
CONTINUOUS
 62
     7
 10
607.3709855267556
 20
23.54982357879649
  0
VERTEX
  8
0
  6
CONTINUOUS
 62
     7
 10
607.3561871466578
 20
23.50503305465468
  0
VERTEX
  8
0
  6
CONTINUOUS
 62
     7
 10
607.3413887665598
 20
23.46024253051286
  0
VERTEX
  8
0
  6
CONTINUOUS
 62
     7
 10
607.326590386462
 20
23.41545200637104
  0
VERTEX
  8
0
  6
CONTINUOUS
 62
     7
 10
607.311792006364
 20
23.37066148222922
  0
VERTEX
  8
0
  6
CONTINUOUS
 62
     7
 10
607.2969936262662
 20
23.3258709580874
  0
VERTEX
  8
0
  6
CONTINUOUS
 62
     7
 10
607.2821952461683
 20
23.28108043394558
  0
VERTEX
  8
0
  6
CONTINUOUS
 62
     7
 10
607.2673968660704
 20
23.23628990980377
  0
VERTEX
  8
0
  6
CONTINUOUS
 62
     7
 10
607.2525984859724
 20
23.19149938566195
  0
VERTEX
  8
0
  6
CONTINUOUS
 62
     7
 10
607.2378001058745
 20
23.14670886152013
  0
VERTEX
  8
0
  6
CONTINUOUS
 62
     7
 10
607.2230017257766
 20
23.10191833737831
  0
VERTEX
  8
0
  6
CONTINUOUS
 62
     7
 10
607.2082033456785
 20
23.05712781323648
  0
VERTEX
  8
0
  6
CONTINUOUS
 62
     7
 10
607.1934049655807
 20
23.01233728909467
  0
VERTEX
  8
0
  6
CONTINUOUS
 62
     7
 10
607.1786065854828
 20
22.96754676495285
  0
VERTEX
  8
0
  6
CONTINUOUS
 62
     7
 10
607.163808205385
 20
22.92275624081104
  0
VERTEX
  8
0
  6
CONTINUOUS
 62
     7
 10
607.149009825287
 20
22.87796571666922
  0
VERTEX
  8
0
  6
CONTINUOUS
 62
     7
 10
607.134211445189
 20
22.83317519252739
  0
VERTEX
  8
0
  6
CONTINUOUS
 62
     7
 10
607.1194130650911
 20
22.78838466838558
  0
VERTEX
  8
0
  6
CONTINUOUS
 62
     7
 10
607.1046146849932
 20
22.74359414424376
  0
VERTEX
  8
0
  6
CONTINUOUS
 62
     7
 10
607.0898163048954
 20
22.69880362010194
  0
VERTEX
  8
0
  6
CONTINUOUS
 62
     7
 10
607.0750179247974
 20
22.65401309596012
  0
VERTEX
  8
0
  6
CONTINUOUS
 62
     7
 10
607.0602195446993
 20
22.6092225718183
  0
VERTEX
  8
0
  6
CONTINUOUS
 62
     7
 10
607.0454211646014
 20
22.56443204767648
  0
VERTEX
  8
0
  6
CONTINUOUS
 62
     7
 10
607.0306227845036
 20
22.51964152353467
  0
VERTEX
  8
0
  6
CONTINUOUS
 62
     7
 10
607.0158244044057
 20
22.47485099939285
  0
VERTEX
  8
0
  6
CONTINUOUS
 62
     7
 10
607.0010260243077
 20
22.43006047525103
  0
VERTEX
  8
0
  6
CONTINUOUS
 62
     7
 10
606.9862276442097
 20
22.3852699511092
  0
VERTEX
  8
0
  6
CONTINUOUS
 62
     7
 10
606.9714292641119
 20
22.34047942696739
  0
VERTEX
  8
0
  6
CONTINUOUS
 62
     7
 10
606.956630884014
 20
22.29568890282557
  0
VERTEX
  8
0
  6
CONTINUOUS
 62
     7
 10
606.9418325039163
 20
22.25089837868376
  0
VERTEX
  8
0
  6
CONTINUOUS
 62
     7
 10
606.9270341238182
 20
22.20610785454194
  0
VERTEX
  8
0
  6
CONTINUOUS
 62
     7
 10
606.9122357437203
 20
22.16131733040012
  0
VERTEX
  8
0
  6
CONTINUOUS
 62
     7
 10
606.8974373636223
 20
22.1165268062583
  0
VERTEX
  8
0
  6
CONTINUOUS
 62
     7
 10
606.8826389835245
 20
22.07173628211648
  0
VERTEX
  8
0
  6
CONTINUOUS
 62
     7
 10
606.8678406034267
 20
22.02694575797467
  0
VERTEX
  8
0
  6
CONTINUOUS
 62
     7
 10
606.8530422233287
 20
21.98215523383284
  0
VERTEX
  8
0
  6
CONTINUOUS
 62
     7
 10
606.8382438432307
 20
21.93736470969102
  0
VERTEX
  8
0
  6
CONTINUOUS
 62
     7
 10
606.8234454631328
 20
21.8925741855492
  0
VERTEX
  8
0
  6
CONTINUOUS
 62
     7
 10
606.8086470830349
 20
21.84778366140738
  0
VERTEX
  8
0
  6
CONTINUOUS
 62
     7
 10
606.7938487029369
 20
21.80299313726556
  0
VERTEX
  8
0
  6
CONTINUOUS
 62
     7
 10
606.7790503228391
 20
21.75820261312375
  0
VERTEX
  8
0
  6
CONTINUOUS
 62
     7
 10
606.7642519427411
 20
21.71341208898193
  0
VERTEX
  8
0
  6
CONTINUOUS
 62
     7
 10
606.7494535626431
 20
21.66862156484011
  0
VERTEX
  8
0
  6
CONTINUOUS
 62
     7
 10
606.7346551825453
 20
21.62383104069829
  0
VERTEX
  8
0
  6
CONTINUOUS
 62
     7
 10
606.7198568024473
 20
21.57904051655647
  0
VERTEX
  8
0
  6
CONTINUOUS
 62
     7
 10
606.7050584223496
 20
21.53424999241466
  0
VERTEX
  8
0
  6
CONTINUOUS
 62
     7
 10
606.6902600422516
 20
21.48945946827283
  0
VERTEX
  8
0
  6
CONTINUOUS
 62
     7
 10
606.6754616621536
 20
21.44466894413101
  0
VERTEX
  8
0
  6
CONTINUOUS
 62
     7
 10
606.6606632820558
 20
21.3998784199892
  0
VERTEX
  8
0
  6
CONTINUOUS
 62
     7
 10
606.6458649019578
 20
21.35508789584738
  0
VERTEX
  8
0
  6
CONTINUOUS
 62
     7
 10
606.63106652186
 20
21.31029737170556
  0
VERTEX
  8
0
  6
CONTINUOUS
 62
     7
 10
606.616268141762
 20
21.26550684756374
  0
VERTEX
  8
0
  6
CONTINUOUS
 62
     7
 10
606.601469761664
 20
21.22071632342192
  0
VERTEX
  8
0
  6
CONTINUOUS
 62
     7
 10
606.5866713815662
 20
21.1759257992801
  0
VERTEX
  8
0
  6
CONTINUOUS
 62
     7
 10
606.5718730014682
 20
21.13113527513828
  0
VERTEX
  8
0
  6
CONTINUOUS
 62
     7
 10
606.5570746213705
 20
21.08634475099647
  0
VERTEX
  8
0
  6
CONTINUOUS
 62
     7
 10
606.5422762412725
 20
21.04155422685465
  0
VERTEX
  8
0
  6
CONTINUOUS
 62
     7
 10
606.5274778611745
 20
20.99676370271283
  0
VERTEX
  8
0
  6
CONTINUOUS
 62
     7
 10
606.5126794810766
 20
20.95197317857101
  0
VERTEX
  8
0
  6
CONTINUOUS
 62
     7
 10
606.4978811009787
 20
20.90718265442919
  0
VERTEX
  8
0
  6
CONTINUOUS
 62
     7
 10
606.4830827208806
 20
20.86239213028737
  0
VERTEX
  8
0
  6
CONTINUOUS
 62
     7
 10
606.4682843407828
 20
20.81760160614556
  0
VERTEX
  8
0
  6
CONTINUOUS
 62
     7
 10
606.4534859606849
 20
20.77281108200373
  0
SEQEND
  8
0
  6
CONTINUOUS
 62
     7
  0
POLYLINE
  8
0
  6
CONTINUOUS
 62
     7
 66
     1
  0
VERTEX
  8
0
  6
CONTINUOUS
 62
     7
 10
608.0643105183815
 20
74.63615670505304
  0
VERTEX
  8
0
  6
CONTINUOUS
 62
     7
 10
608.0641380050639
 20
74.63646163424666
  0
VERTEX
  8
0
  6
CONTINUOUS
 62
     7
 10
608.0639656569756
 20
74.63676666360398
  0
VERTEX
  8
0
  6
CONTINUOUS
 62
     7
 10
608.0637934741884
 20
74.63707179300921
  0
VERTEX
  8
0
  6
CONTINUOUS
 62
     7
 10
608.0636214567738
 20
74.63737702234647
  0
VERTEX
  8
0
  6
CONTINUOUS
 62
     7
 10
608.0634496048042
 20
74.63768235149995
  0
VERTEX
  8
0
  6
CONTINUOUS
 62
     7
 10
608.0632779183511
 20
74.63798778035375
  0
VERTEX
  8
0
  6
CONTINUOUS
 62
     7
 10
608.0631063974864
 20
74.63829330879207
  0
VERTEX
  8
0
  6
CONTINUOUS
 62
     7
 10
608.0629350422819
 20
74.63859893669905
  0
VERTEX
  8
0
  6
CONTINUOUS
 62
     7
 10
608.0627638528096
 20
74.63890466395884
  0
VERTEX
  8
0
  6
CONTINUOUS
 62
     7
 10
608.0625928291412
 20
74.63921049045561
  0
VERTEX
  8
0
  6
CONTINUOUS
 62
     7
 10
608.0624219713486
 20
74.63951641607349
  0
VERTEX
  8
0
  6
CONTINUOUS
 62
     7
 10
608.0622512795038
 20
74.63982244069665
  0
VERTEX
  8
0
  6
CONTINUOUS
 62
     7
 10
608.0620807536785
 20
74.64012856420923
  0
VERTEX
  8
0
  6
CONTINUOUS
 62
     7
 10
608.0619103939446
 20
74.6404347864954
  0
VERTEX
  8
0
  6
CONTINUOUS
 62
     7
 10
608.0617402003738
 20
74.64074110743931
  0
VERTEX
  8
0
  6
CONTINUOUS
 62
     7
 10
608.0615701730384
 20
74.64104752692512
  0
VERTEX
  8
0
  6
CONTINUOUS
 62
     7
 10
608.0614003120098
 20
74.641354044837
  0
VERTEX
  8
0
  6
CONTINUOUS
 62
     7
 10
608.06123061736
 20
74.64166066105908
  0
VERTEX
  8
0
  6
CONTINUOUS
 62
     7
 10
608.061061089161
 20
74.6419673754755
  0
VERTEX
  8
0
  6
CONTINUOUS
 62
     7
 10
608.0608917274844
 20
74.64227418797046
  0
VERTEX
  8
0
  6
CONTINUOUS
 62
     7
 10
608.060722532402
 20
74.64258109842804
  0
VERTEX
  8
0
  6
CONTINUOUS
 62
     7
 10
608.0605535039861
 20
74.64288810673247
  0
VERTEX
  8
0
  6
CONTINUOUS
 62
     7
 10
608.0603846423082
 20
74.64319521276789
  0
VERTEX
  8
0
  6
CONTINUOUS
 62
     7
 10
608.0602159474402
 20
74.64350241641841
  0
SEQEND
  8
0
  6
CONTINUOUS
 62
     7
  0
LINE
  8
0
  6
CONTINUOUS
 62
     7
 10
608.4999999999999
 20
73.5652198175653
 11
608.4999999999999
 21
74.40023693972351
  0
LINE
  8
0
  6
CONTINUOUS
 62
     7
 10
608.4999999999999
 20
73.41216930020983
 11
608.4999999999999
 21
73.5652198175653
  0
LINE
  8
0
  6
CONTINUOUS
 62
     7
 10
608.4999999999999
 20
70.88551831397865
 11
608.4999999999999
 21
73.41216930020983
  0
LINE
  8
0
  6
CONTINUOUS
 62
     7
 10
608.4999999999999
 20
67.16860622987141
 11
608.4999999999999
 21
70.88551831397865
  0
LINE
  8
0
  6
CONTINUOUS
 62
     7
 10
608.4999999999999
 20
66.7983225844849
 11
608.4999999999999
 21
67.16860622987141
  0
LINE
  8
0
  6
CONTINUOUS
 62
     7
 10
608.4999999999999
 20
62.40023693972352
 11
608.4999999999999
 21
66.7983225844849
  0
LINE
  8
0
  6
CONTINUOUS
 62
     7
 10
608.4999999999998
 20
37.90023693972351
 11
608.4999999999998
 21
62.40023693972351
  0
LINE
  8
0
  6
CONTINUOUS
 62
     7
 10
546.5
 20
45.70023693972352
 11
546.5
 21
27.70023693972352
  0
LINE
  8
0
  6
CONTINUOUS
 62
     7
 10
576.5
 20
45.70023693972352
 11
546.5
 21
45.70023693972352
  0
LINE
  8
0
  6
CONTINUOUS
 62
     7
 10
576.5
 20
45.70023693972352
 11
576.5
 21
27.70023693972352
  0
LINE
  8
0
  6
CONTINUOUS
 62
     7
 10
576.5
 20
27.70023693972352
 11
546.5
 21
27.70023693972352
  0
LINE
  8
0
  6
CONTINUOUS
 62
     7
 10
544.9999999999999
 20
25.70023693972352
 11
544.9999999999999
 21
57.03515295179471
  0
LINE
  8
0
  6
CONTINUOUS
 62
     9
 10
544.9999999999999
 20
57.03515295179471
 11
577.5
 21
57.0351529517947
  0
LINE
  8
0
  6
CONTINUOUS
 62
     7
 10
577.5
 20
57.0351529517947
 11
577.5
 21
25.70023693972351
  0
LINE
  8
0
  6
CONTINUOUS
 62
     7
 10
578.0
 20
57.0351529517947
 11
578.0
 21
25.70023693972351
  0
LINE
  8
0
  6
CONTINUOUS
 62
     9
 10
578.0
 20
57.0351529517947
 11
586.5
 21
57.0351529517947
  0
LINE
  8
0
  6
CONTINUOUS
 62
     7
 10
586.5
 20
57.0351529517947
 11
586.5
 21
25.70023693972352
  0
LINE
  8
0
  6
CONTINUOUS
 62
     7
 10
544.9999999999999
 20
58.30300773701681
 11
544.9999999999999
 21
57.03515295179471
  0
LINE
  8
0
  6
CONTINUOUS
 62
     9
 10
577.5
 20
58.30300773701681
 11
544.9999999999999
 21
58.30300773701681
  0
LINE
  8
0
  6
CONTINUOUS
 62
     7
 10
577.5
 20
57.0351529517947
 11
577.5
 21
58.30300773701681
  0
LINE
  8
0
  6
CONTINUOUS
 62
     9
 10
586.5
 20
58.3030077370168
 11
578.0
 21
58.30300773701681
  0
LINE
  8
0
  6
CONTINUOUS
 62
     7
 10
586.5
 20
57.0351529517947
 11
586.5
 21
58.3030077370168
  0
LINE
  8
0
  6
CONTINUOUS
 62
     7
 10
578.0
 20
57.0351529517947
 11
578.0
 21
58.30300773701681
  0
LINE
  8
0
  6
CONTINUOUS
 62
     7
 10
586.5
 20
22.70023693972352
 11
586.5
 21
25.70023693972352
  0
LINE
  8
0
  6
CONTINUOUS
 62
     7
 10
578.0
 20
22.70023693972352
 11
586.5
 21
22.70023693972352
  0
LINE
  8
0
  6
CONTINUOUS
 62
     7
 10
578.0
 20
22.70023693972352
 11
578.0
 21
25.70023693972352
  0
LINE
  8
0
  6
CONTINUOUS
 62
     7
 10
544.9999999999999
 20
22.70023693972352
 11
577.5
 21
22.70023693972352
  0
LINE
  8
0
  6
CONTINUOUS
 62
     7
 10
544.9999999999999
 20
25.70023693972352
 11
544.9999999999999
 21
22.70023693972352
  0
LINE
  8
0
  6
CONTINUOUS
 62
     7
 10
577.5
 20
22.70023693972352
 11
577.5
 21
25.70023693972352
  0
LINE
  8
0
  6
CONTINUOUS
 62
     9
 10
544.9999999999999
 20
68.67780351318187
 11
577.5
 21
68.67780351318187
  0
LINE
  8
0
  6
CONTINUOUS
 62
     7
 10
544.9999999999999
 20
58.30300773701681
 11
544.9999999999999
 21
68.67780351318187
  0
LINE
  8
0
  6
CONTINUOUS
 62
     7
 10
577.5
 20
68.67780351318187
 11
577.5
 21
58.30300773701681
  0
LINE
  8
0
  6
CONTINUOUS
 62
     9
 10
578.0
 20
68.67780351318187
 11
586.5
 21
68.67780351318184
  0
LINE
  8
0
  6
CONTINUOUS
 62
     7
 10
586.5
 20
68.67780351318184
 11
586.5
 21
58.3030077370168
  0
LINE
  8
0
  6
CONTINUOUS
 62
     7
 10
578.0
 20
68.67780351318187
 11
578.0
 21
58.30300773701681
  0
LINE
  8
0
  6
CONTINUOUS
 62
     7
 10
578.0
 20
69.16972697915367
 11
577.5
 21
69.16972697915367
  0
LINE
  8
0
  6
CONTINUOUS
 62
     7
 10
578.0
 20
57.58938960840205
 11
577.5
 21
57.58938960840205
  0
LINE
  8
0
  6
CONTINUOUS
 62
     9
 10
577.5
 20
26.20023693972352
 11
578.0
 21
26.20023693972352
  0
LINE
  8
0
  6
CONTINUOUS
 62
     7
 10
578.0
 20
23.20023693972352
 11
577.5
 21
23.20023693972352
  0
ARC
  8
0
  6
CONTINUOUS
 62
     7
 10
608.4999999999999
 20
74.90023693972351
 40
0.5000000000000004
 50
270.0
 51
342.6626907861036
  0
ARC
  8
0
  6
CONTINUOUS
 62
     7
 10
608.4999999999999
 20
25.40023693972352
 40
0.5000000000000004
 50
17.33730921389639
 51
90.0
  0
ARC
  8
0
  6
CONTINUOUS
 62
     7
 10
622.4999999999999
 20
74.90023693972351
 40
0.500000000000013
 50
197.3373092138964
 51
342.6626907861036
  0
ARC
  8
0
  6
CONTINUOUS
 62
     7
 10
636.4999999999999
 20
74.90023693972353
 40
0.5000000000000171
 50
197.3373092138964
 51
342.6626907861036
  0
ARC
  8
0
  6
CONTINUOUS
 62
     7
 10
629.4999999999999
 20
74.90023693972353
 40
0.5000000000000171
 50
197.3373092138964
 51
342.6626907861036
  0
ARC
  8
0
  6
CONTINUOUS
 62
     7
 10
615.4999999999999
 20
74.90023693972351
 40
0.500000000000013
 50
197.3373092138964
 51
342.6626907861036
  0
ARC
  8
0
  6
CONTINUOUS
 62
     7
 10
629.4999999999999
 20
25.40023693972352
 40
0.5000000000000162
 50
17.33730921389644
 51
162.6626907861037
  0
ARC
  8
0
  6
CONTINUOUS
 62
     7
 10
636.4999999999999
 20
25.40023693972352
 40
0.5000000000000162
 50
17.33730921389644
 51
162.6626907861037
  0
ARC
  8
0
  6
CONTINUOUS
 62
     7
 10
615.4999999999999
 20
25.40023693972352
 40
0.5000000000000151
 50
17.33730921389644
 51
162.6626907861037
  0
ARC
  8
0
  6
CONTINUOUS
 62
     7
 10
622.4999999999999
 20
25.40023693972352
 40
0.5000000000000151
 50
17.33730921389644
 51
162.6626907861037
  0
LINE
  8
0
  6
CONTINUOUS
 62
     7
 10
586.5
 20
24.20023693972352
 11
590.0
 21
24.20023693972352
  0
LINE
  8
0
  6
CONTINUOUS
 62
     7
 10
586.5
 20
57.36769494575912
 11
590.0
 21
57.36769494575912
  0
LINE
  8
0
  6
CONTINUOUS
 62
     7
 10
586.5
 20
68.94803231651076
 11
590.0
 21
68.94803231651076
  0
LINE
  8
0
  6
CONTINUOUS
 62
     7
 10
604.6859305311522
 20
79.40023693972351
 11
604.5388196250019
 21
79.40023693972351
  0
LINE
  8
0
  6
CONTINUOUS
 62
     7
 10
605.378946195415
 20
19.57809359587694
 11
604.5544502072869
 21
19.40023693972513
  0
LINE
  8
0
  6
CONTINUOUS
 62
     7
 10
604.4597119425227
 20
19.40023693972352
 11
604.5544502072869
 21
19.40023693972352
  0
LINE
  8
0
  6
CONTINUOUS
 62
     9
 10
586.5
 20
69.94565829840393
 11
578.0
 21
69.94565829840396
  0
LINE
  8
0
  6
CONTINUOUS
 62
     7
 10
586.5
 20
68.67780351318184
 11
586.5
 21
69.94565829840393
  0
LINE
  8
0
  6
CONTINUOUS
 62
     7
 10
578.0
 20
69.94565829840396
 11
578.0
 21
68.67780351318187
  0
LINE
  8
0
  6
CONTINUOUS
 62
     9
 10
577.5
 20
69.94565829840396
 11
544.9999999999999
 21
69.94565829840397
  0
LINE
  8
0
  6
CONTINUOUS
 62
     7
 10
544.9999999999999
 20
68.67780351318187
 11
544.9999999999999
 21
69.94565829840397
  0
LINE
  8
0
  6
CONTINUOUS
 62
     7
 10
577.5
 20
68.67780351318189
 11
577.5
 21
69.94565829840396
  0
LINE
  8
0
  6
CONTINUOUS
 62
     7
 10
544.9999999999999
 20
69.94565829840397
 11
544.9999999999999
 21
75.10023693972353
  0
LINE
  8
0
  6
CONTINUOUS
 62
     7
 10
577.5
 20
75.10023693972353
 11
577.5
 21
69.94565829840396
  0
LINE
  8
0
  6
CONTINUOUS
 62
     7
 10
586.5
 20
76.10023693972352
 11
578.0
 21
76.10023693972352
  0
LINE
  8
0
  6
CONTINUOUS
 62
     7
 10
586.5
 20
75.10023693972353
 11
586.5
 21
76.10023693972353
  0
LINE
  8
0
  6
CONTINUOUS
 62
     7
 10
578.0
 20
75.10023693972353
 11
578.0
 21
76.10023693972353
  0
LINE
  8
0
  6
CONTINUOUS
 62
     7
 10
586.5
 20
75.10023693972353
 11
586.5
 21
69.94565829840393
  0
LINE
  8
0
  6
CONTINUOUS
 62
     7
 10
578.0
 20
75.10023693972353
 11
578.0
 21
69.94565829840396
  0
LINE
  8
0
  6
CONTINUOUS
 62
     7
 10
577.5
 20
76.10023693972352
 11
544.9999999999999
 21
76.10023693972353
  0
LINE
  8
0
  6
CONTINUOUS
 62
     7
 10
544.9999999999999
 20
76.10023693972353
 11
544.9999999999999
 21
75.10023693972353
  0
LINE
  8
0
  6
CONTINUOUS
 62
     7
 10
577.5
 20
75.10023693972353
 11
577.5
 21
76.10023693972353
  0
LINE
  8
0
  6
CONTINUOUS
 62
     7
 10
578.0
 20
75.60023693972352
 11
577.5
 21
75.60023693972352
  0
LINE
  8
0
  6
CONTINUOUS
 62
     7
 10
586.5
 20
74.60023693972352
 11
590.0
 21
74.60023693972352
  0
LINE
  8
0
  6
CONTINUOUS
 62
     7
 10
606.3854882056573
 20
20.60023693972352
 11
606.4523132746351
 21
20.77529721359113
  0
ARC
  8
0
  6
CONTINUOUS
 62
     7
 10
604.6882623035301
 20
77.40023693213054
 40
2.000000007592933
 50
23.48075865601053
 51
90.00000004934633
  0
POLYLINE
  8
0
  6
CONTINUOUS
 62
     7
 66
     1
  0
VERTEX
  8
0
  6
CONTINUOUS
 62
     7
 10
608.4999999999999
 20
74.40023693972353
  0
VERTEX
  8
0
  6
CONTINUOUS
 62
     7
 10
608.4634310610803
 20
74.40158132559792
  0
VERTEX
  8
0
  6
CONTINUOUS
 62
     7
 10
608.427057661754
 20
74.40559550699709
  0
VERTEX
  8
0
  6
CONTINUOUS
 62
     7
 10
608.3910742387172
 20
74.41225101958497
  0
VERTEX
  8
0
  6
CONTINUOUS
 62
     7
 10
608.355675228552
 20
74.42151939863207
  0
VERTEX
  8
0
  6
CONTINUOUS
 62
     7
 10
608.3210521253073
 20
74.43336209810893
  0
VERTEX
  8
0
  6
CONTINUOUS
 62
     7
 10
608.2873858280798
 20
74.44770427300783
  0
VERTEX
  8
0
  6
CONTINUOUS
 62
     7
 10
608.2548548522112
 20
74.46446291143042
  0
VERTEX
  8
0
  6
CONTINUOUS
 62
     7
 10
608.2236377112406
 20
74.4835549987287
  0
VERTEX
  8
0
  6
CONTINUOUS
 62
     7
 10
608.1939065416353
 20
74.50488779716585
  0
VERTEX
  8
0
  6
CONTINUOUS
 62
     7
 10
608.1658127955525
 20
74.52833703173842
  0
VERTEX
  8
0
  6
CONTINUOUS
 62
     7
 10
608.1395037388468
 20
74.5537720446076
  0
VERTEX
  8
0
  6
CONTINUOUS
 62
     7
 10
608.1151266288628
 20
74.58106217085708
  0
VERTEX
  8
0
  6
CONTINUOUS
 62
     7
 10
608.0928189241503
 20
74.61006859535064
  0
VERTEX
  8
0
  6
CONTINUOUS
 62
     7
 10
608.0726894177811
 20
74.64062866023085
  0
VERTEX
  8
0
  6
CONTINUOUS
 62
     7
 10
608.0548416886381
 20
74.67257537069997
  0
VERTEX
  8
0
  6
CONTINUOUS
 62
     7
 10
608.0393548653186
 20
74.7057311964494
  0
VERTEX
  8
0
  6
CONTINUOUS
 62
     7
 10
608.024771166378
 20
74.73930223383938
  0
VERTEX
  8
0
  6
CONTINUOUS
 62
     7
 10
608.0101874674373
 20
74.77287327122934
  0
VERTEX
  8
0
  6
CONTINUOUS
 62
     7
 10
607.9956037684966
 20
74.80644430861929
  0
VERTEX
  8
0
  6
CONTINUOUS
 62
     7
 10
607.9810200695559
 20
74.84001534600927
  0
VERTEX
  8
0
  6
CONTINUOUS
 62
     7
 10
607.9664363706153
 20
74.87358638339924
  0
VERTEX
  8
0
  6
CONTINUOUS
 62
     7
 10
607.9518526716747
 20
74.90715742078922
  0
VERTEX
  8
0
  6
CONTINUOUS
 62
     7
 10
607.937268972734
 20
74.9407284581792
  0
VERTEX
  8
0
  6
CONTINUOUS
 62
     7
 10
607.9226852737934
 20
74.97429949556916
  0
VERTEX
  8
0
  6
CONTINUOUS
 62
     7
 10
607.9081015748528
 20
75.00787053295912
  0
VERTEX
  8
0
  6
CONTINUOUS
 62
     7
 10
607.8935178759123
 20
75.0414415703491
  0
VERTEX
  8
0
  6
CONTINUOUS
 62
     7
 10
607.8789341769715
 20
75.07501260773907
  0
VERTEX
  8
0
  6
CONTINUOUS
 62
     7
 10
607.864350478031
 20
75.10858364512903
  0
VERTEX
  8
0
  6
CONTINUOUS
 62
     7
 10
607.8497667790903
 20
75.14215468251899
  0
VERTEX
  8
0
  6
CONTINUOUS
 62
     7
 10
607.8351830801496
 20
75.17572571990895
  0
VERTEX
  8
0
  6
CONTINUOUS
 62
     7
 10
607.820599381209
 20
75.20929675729894
  0
VERTEX
  8
0
  6
CONTINUOUS
 62
     7
 10
607.8060156822683
 20
75.2428677946889
  0
VERTEX
  8
0
  6
CONTINUOUS
 62
     7
 10
607.7914319833276
 20
75.27643883207888
  0
VERTEX
  8
0
  6
CONTINUOUS
 62
     7
 10
607.776848284387
 20
75.31000986946886
  0
VERTEX
  8
0
  6
CONTINUOUS
 62
     7
 10
607.7622645854464
 20
75.34358090685882
  0
VERTEX
  8
0
  6
CONTINUOUS
 62
     7
 10
607.7476808865057
 20
75.37715194424878
  0
VERTEX
  8
0
  6
CONTINUOUS
 62
     7
 10
607.733097187565
 20
75.41072298163874
  0
VERTEX
  8
0
  6
CONTINUOUS
 62
     7
 10
607.7185134886244
 20
75.44429401902872
  0
VERTEX
  8
0
  6
CONTINUOUS
 62
     7
 10
607.7039297896839
 20
75.4778650564187
  0
VERTEX
  8
0
  6
CONTINUOUS
 62
     7
 10
607.6893460907432
 20
75.51143609380867
  0
VERTEX
  8
0
  6
CONTINUOUS
 62
     7
 10
607.6747623918025
 20
75.54500713119862
  0
VERTEX
  8
0
  6
CONTINUOUS
 62
     7
 10
607.6601786928618
 20
75.57857816858859
  0
VERTEX
  8
0
  6
CONTINUOUS
 62
     7
 10
607.6455949939212
 20
75.61214920597857
  0
VERTEX
  8
0
  6
CONTINUOUS
 62
     7
 10
607.6310112949806
 20
75.64572024336853
  0
VERTEX
  8
0
  6
CONTINUOUS
 62
     7
 10
607.61642759604
 20
75.6792912807585
  0
VERTEX
  8
0
  6
CONTINUOUS
 62
     7
 10
607.6018438970993
 20
75.71286231814848
  0
VERTEX
  8
0
  6
CONTINUOUS
 62
     7
 10
607.5872601981587
 20
75.74643335553844
  0
VERTEX
  8
0
  6
CONTINUOUS
 62
     7
 10
607.572676499218
 20
75.7800043929284
  0
VERTEX
  8
0
  6
CONTINUOUS
 62
     7
 10
607.5580928002773
 20
75.81357543031837
  0
VERTEX
  8
0
  6
CONTINUOUS
 62
     7
 10
607.5435091013368
 20
75.84714646770834
  0
VERTEX
  8
0
  6
CONTINUOUS
 62
     7
 10
607.5289254023961
 20
75.88071750509832
  0
VERTEX
  8
0
  6
CONTINUOUS
 62
     7
 10
607.5143417034554
 20
75.91428854248828
  0
VERTEX
  8
0
  6
CONTINUOUS
 62
     7
 10
607.4997580045148
 20
75.94785957987825
  0
VERTEX
  8
0
  6
CONTINUOUS
 62
     7
 10
607.4851743055741
 20
75.98143061726822
  0
VERTEX
  8
0
  6
CONTINUOUS
 62
     7
 10
607.4705906066336
 20
76.01500165465819
  0
VERTEX
  8
0
  6
CONTINUOUS
 62
     7
 10
607.4560069076928
 20
76.04857269204815
  0
VERTEX
  8
0
  6
CONTINUOUS
 62
     7
 10
607.4414232087523
 20
76.08214372943813
  0
VERTEX
  8
0
  6
CONTINUOUS
 62
     7
 10
607.4268395098115
 20
76.1157147668281
  0
VERTEX
  8
0
  6
CONTINUOUS
 62
     7
 10
607.412255810871
 20
76.14928580421805
  0
VERTEX
  8
0
  6
CONTINUOUS
 62
     7
 10
607.3976721119303
 20
76.18285684160803
  0
VERTEX
  8
0
  6
CONTINUOUS
 62
     7
 10
607.3830884129898
 20
76.21642787899799
  0
VERTEX
  8
0
  6
CONTINUOUS
 62
     7
 10
607.368504714049
 20
76.24999891638797
  0
VERTEX
  8
0
  6
CONTINUOUS
 62
     7
 10
607.3539210151084
 20
76.28356995377794
  0
VERTEX
  8
0
  6
CONTINUOUS
 62
     7
 10
607.3393373161678
 20
76.31714099116792
  0
VERTEX
  8
0
  6
CONTINUOUS
 62
     7
 10
607.3247536172272
 20
76.35071202855788
  0
VERTEX
  8
0
  6
CONTINUOUS
 62
     7
 10
607.3101699182865
 20
76.38428306594784
  0
VERTEX
  8
0
  6
CONTINUOUS
 62
     7
 10
607.2955862193459
 20
76.41785410333782
  0
VERTEX
  8
0
  6
CONTINUOUS
 62
     7
 10
607.2810025204051
 20
76.45142514072779
  0
VERTEX
  8
0
  6
CONTINUOUS
 62
     7
 10
607.2664188214645
 20
76.48499617811775
  0
VERTEX
  8
0
  6
CONTINUOUS
 62
     7
 10
607.2518351225239
 20
76.51856721550773
  0
VERTEX
  8
0
  6
CONTINUOUS
 62
     7
 10
607.2372514235831
 20
76.55213825289768
  0
VERTEX
  8
0
  6
CONTINUOUS
 62
     7
 10
607.2226677246426
 20
76.58570929028767
  0
VERTEX
  8
0
  6
CONTINUOUS
 62
     7
 10
607.208084025702
 20
76.61928032767763
  0
VERTEX
  8
0
  6
CONTINUOUS
 62
     7
 10
607.1935003267612
 20
76.65285136506758
  0
VERTEX
  8
0
  6
CONTINUOUS
 62
     7
 10
607.1789166278207
 20
76.68642240245757
  0
VERTEX
  8
0
  6
CONTINUOUS
 62
     7
 10
607.16433292888
 20
76.71999343984753
  0
VERTEX
  8
0
  6
CONTINUOUS
 62
     7
 10
607.1497492299394
 20
76.7535644772375
  0
VERTEX
  8
0
  6
CONTINUOUS
 62
     7
 10
607.1351655309988
 20
76.7871355146275
  0
VERTEX
  8
0
  6
CONTINUOUS
 62
     7
 10
607.1205818320581
 20
76.82070655201743
  0
VERTEX
  8
0
  6
CONTINUOUS
 62
     7
 10
607.1059981331175
 20
76.8542775894074
  0
VERTEX
  8
0
  6
CONTINUOUS
 62
     7
 10
607.0914144341767
 20
76.88784862679736
  0
VERTEX
  8
0
  6
CONTINUOUS
 62
     7
 10
607.0768307352361
 20
76.92141966418734
  0
VERTEX
  8
0
  6
CONTINUOUS
 62
     7
 10
607.0622470362956
 20
76.95499070157733
  0
VERTEX
  8
0
  6
CONTINUOUS
 62
     7
 10
607.0476633373548
 20
76.98856173896728
  0
VERTEX
  8
0
  6
CONTINUOUS
 62
     7
 10
607.0330796384143
 20
77.02213277635725
  0
VERTEX
  8
0
  6
CONTINUOUS
 62
     7
 10
607.0184959394737
 20
77.05570381374723
  0
VERTEX
  8
0
  6
CONTINUOUS
 62
     7
 10
607.0039122405328
 20
77.08927485113716
  0
VERTEX
  8
0
  6
CONTINUOUS
 62
     7
 10
606.9893285415924
 20
77.12284588852717
  0
VERTEX
  8
0
  6
CONTINUOUS
 62
     7
 10
606.9747448426516
 20
77.15641692591711
  0
VERTEX
  8
0
  6
CONTINUOUS
 62
     7
 10
606.9601611437109
 20
77.18998796330708
  0
VERTEX
  8
0
  6
CONTINUOUS
 62
     7
 10
606.9455774447704
 20
77.22355900069707
  0
VERTEX
  8
0
  6
CONTINUOUS
 62
     7
 10
606.9309937458297
 20
77.25713003808704
  0
VERTEX
  8
0
  6
CONTINUOUS
 62
     7
 10
606.9164100468892
 20
77.290701075477
  0
VERTEX
  8
0
  6
CONTINUOUS
 62
     7
 10
606.9018263479486
 20
77.32427211286699
  0
VERTEX
  8
0
  6
CONTINUOUS
 62
     7
 10
606.8872426490078
 20
77.35784315025694
  0
VERTEX
  8
0
  6
CONTINUOUS
 62
     7
 10
606.8726589500673
 20
77.39141418764692
  0
VERTEX
  8
0
  6
CONTINUOUS
 62
     7
 10
606.8580752511266
 20
77.42498522503689
  0
VERTEX
  8
0
  6
CONTINUOUS
 62
     7
 10
606.8434915521857
 20
77.45855626242684
  0
VERTEX
  8
0
  6
CONTINUOUS
 62
     7
 10
606.8289078532451
 20
77.49212729981679
  0
VERTEX
  8
0
  6
CONTINUOUS
 62
     7
 10
606.8143241543046
 20
77.52569833720679
  0
VERTEX
  8
0
  6
CONTINUOUS
 62
     7
 10
606.799740455364
 20
77.55926937459677
  0
VERTEX
  8
0
  6
CONTINUOUS
 62
     7
 10
606.7851567564235
 20
77.59284041198674
  0
VERTEX
  8
0
  6
CONTINUOUS
 62
     7
 10
606.7705730574826
 20
77.62641144937669
  0
VERTEX
  8
0
  6
CONTINUOUS
 62
     7
 10
606.7559893585421
 20
77.65998248676667
  0
VERTEX
  8
0
  6
CONTINUOUS
 62
     7
 10
606.7414056596015
 20
77.69355352415663
  0
VERTEX
  8
0
  6
CONTINUOUS
 62
     7
 10
606.7268219606606
 20
77.72712456154659
  0
VERTEX
  8
0
  6
CONTINUOUS
 62
     7
 10
606.71223826172
 20
77.76069559893656
  0
VERTEX
  8
0
  6
CONTINUOUS
 62
     7
 10
606.6976545627795
 20
77.79426663632653
  0
VERTEX
  8
0
  6
CONTINUOUS
 62
     7
 10
606.6830708638388
 20
77.8278376737165
  0
VERTEX
  8
0
  6
CONTINUOUS
 62
     7
 10
606.6684871648982
 20
77.86140871110649
  0
VERTEX
  8
0
  6
CONTINUOUS
 62
     7
 10
606.6539034659575
 20
77.89497974849643
  0
VERTEX
  8
0
  6
CONTINUOUS
 62
     7
 10
606.6393197670168
 20
77.92855078588642
  0
VERTEX
  8
0
  6
CONTINUOUS
 62
     7
 10
606.6247360680763
 20
77.96212182327639
  0
VERTEX
  8
0
  6
CONTINUOUS
 62
     7
 10
606.6101523691357
 20
77.99569286066635
  0
VERTEX
  8
0
  6
CONTINUOUS
 62
     7
 10
606.5955686701949
 20
78.0292638980563
  0
VERTEX
  8
0
  6
CONTINUOUS
 62
     7
 10
606.5809849712543
 20
78.06283493544629
  0
VERTEX
  8
0
  6
CONTINUOUS
 62
     7
 10
606.5664012723137
 20
78.09640597283627
  0
VERTEX
  8
0
  6
CONTINUOUS
 62
     7
 10
606.5518175733732
 20
78.12997701022624
  0
VERTEX
  8
0
  6
CONTINUOUS
 62
     7
 10
606.5372338744323
 20
78.16354804761617
  0
VERTEX
  8
0
  6
CONTINUOUS
 62
     7
 10
606.5226501754918
 20
78.19711908500618
  0
SEQEND
  8
0
  6
CONTINUOUS
 62
     7
  0
LINE
  8
0
  6
CONTINUOUS
 62
     9
 10
606.4523132746351
 20
20.77529721359113
 11
606.4534518997353
 21
20.77270799866428
  0
POLYLINE
  8
0
  6
CONTINUOUS
 62
     7
 66
     1
  0
VERTEX
  8
0
  6
CONTINUOUS
 62
     7
 10
1231.5
 20
25.90023693972357
  0
VERTEX
  8
0
  6
CONTINUOUS
 62
     7
 10
1231.522936642483
 20
25.89888552376368
  0
VERTEX
  8
0
  6
CONTINUOUS
 62
     7
 10
1231.54582353611
 20
25.89645285988406
  0
VERTEX
  8
0
  6
CONTINUOUS
 62
     7
 10
1231.568612478339
 20
25.89294800982325
  0
VERTEX
  8
0
  6
CONTINUOUS
 62
     7
 10
1231.591255243985
 20
25.88838005243924
  0
VERTEX
  8
0
  6
CONTINUOUS
 62
     7
 10
1231.613703586648
 20
25.88275808181201
  0
VERTEX
  8
0
  6
CONTINUOUS
 62
     7
 10
1231.635909240232
 20
25.87609120585959
  0
VERTEX
  8
0
  6
CONTINUOUS
 62
     7
 10
1231.657823970042
 20
25.86838870156451
  0
VERTEX
  8
0
  6
CONTINUOUS
 62
     7
 10
1231.679401245406
 20
25.85966528859871
  0
VERTEX
  8
0
  6
CONTINUOUS
 62
     7
 10
1231.707569670975
 20
25.84648457633872
  0
VERTEX
  8
0
  6
CONTINUOUS
 62
     7
 10
1231.734955741117
 20
25.83158437382809
  0
VERTEX
  8
0
  6
CONTINUOUS
 62
     7
 10
1231.761455622611
 20
25.8150208560101
  0
VERTEX
  8
0
  6
CONTINUOUS
 62
     7
 10
1231.78696549707
 20
25.79685024540067
  0
VERTEX
  8
0
  6
CONTINUOUS
 62
     7
 10
1231.811386098299
 20
25.77713486983044
  0
VERTEX
  8
0
  6
CONTINUOUS
 62
     7
 10
1231.834630376824
 20
25.75595377765222
  0
VERTEX
  8
0
  6
CONTINUOUS
 62
     7
 10
1231.857309666479
 20
25.73263239414657
  0
VERTEX
  8
0
  6
CONTINUOUS
 62
     7
 10
1231.878554417342
 20
25.70793127856934
  0
VERTEX
  8
0
  6
CONTINUOUS
 62
     7
 10
1231.898273822591
 20
25.68194429530574
  0
VERTEX
  8
0
  6
CONTINUOUS
 62
     7
 10
1231.916386616214
 20
25.65477202034447
  0
VERTEX
  8
0
  6
CONTINUOUS
 62
     7
 10
1231.932828382405
 20
25.62652698417292
  0
VERTEX
  8
0
  6
CONTINUOUS
 62
     7
 10
1231.947537208716
 20
25.59732339954322
  0
VERTEX
  8
0
  6
CONTINUOUS
 62
     7
 10
1231.960453626052
 20
25.56727719043047
  0
VERTEX
  8
0
  6
CONTINUOUS
 62
     7
 10
1231.97172643691
 20
25.53657017254063
  0
VERTEX
  8
0
  6
CONTINUOUS
 62
     7
 10
1232.037122564247
 20
25.34136726502026
  0
VERTEX
  8
0
  6
CONTINUOUS
 62
     7
 10
1232.068100348111
 20
25.24757491915335
  0
SEQEND
  8
0
  6
CONTINUOUS
 62
     7
  0
POLYLINE
  8
0
  6
CONTINUOUS
 62
     7
 66
     1
  0
VERTEX
  8
0
  6
CONTINUOUS
 62
     7
 10
1233.556825683389
 20
20.82967002169359
  0
VERTEX
  8
0
  6
CONTINUOUS
 62
     7
 10
1233.637804190502
 20
20.59049519631967
  0
VERTEX
  8
0
  6
CONTINUOUS
 62
     7
 10
1233.747829778358
 20
20.36707538886269
  0
VERTEX
  8
0
  6
CONTINUOUS
 62
     7
 10
1233.884220203914
 20
20.16231640038063
  0
VERTEX
  8
0
  6
CONTINUOUS
 62
     7
 10
1234.044119657962
 20
19.97863523453459
  0
VERTEX
  8
0
  6
CONTINUOUS
 62
     7
 10
1234.224584514383
 20
19.81799208654027
  0
VERTEX
  8
0
  6
CONTINUOUS
 62
     7
 10
1234.422650730003
 20
19.68193919503452
  0
VERTEX
  8
0
  6
CONTINUOUS
 62
     7
 10
1234.635309087315
 20
19.57171022868365
  0
SEQEND
  8
0
  6
CONTINUOUS
 62
     7
  0
POLYLINE
  8
0
  6
CONTINUOUS
 62
     7
 66
     1
  0
VERTEX
  8
0
  6
CONTINUOUS
 62
     7
 10
605.3646909126807
 20
19.57171022868175
  0
VERTEX
  8
0
  6
CONTINUOUS
 62
     7
 10
605.5773492699935
 20
19.68193919503249
  0
VERTEX
  8
0
  6
CONTINUOUS
 62
     7
 10
605.7754154856138
 20
19.81799208653824
  0
VERTEX
  8
0
  6
CONTINUOUS
 62
     7
 10
605.9558803420355
 20
19.97863523453268
  0
VERTEX
  8
0
  6
CONTINUOUS
 62
     7
 10
606.1157797960843
 20
20.16231640037903
  0
VERTEX
  8
0
  6
CONTINUOUS
 62
     7
 10
606.2521702216419
 20
20.36707538886158
  0
VERTEX
  8
0
  6
CONTINUOUS
 62
     7
 10
606.3621958094977
 20
20.59049519631906
  0
VERTEX
  8
0
  6
CONTINUOUS
 62
     7
 10
606.4431743166115
 20
20.82967002169369
  0
SEQEND
  8
0
  6
CONTINUOUS
 62
     7
  0
ENDBLK
  8
0
  0
ENDSEC
  0
SECTION
  2
ENTITIES
  0
INSERT
  8
0
 62
     7
  2
D_FRAME_DRAWING_17
 10
0.0
 20
0.0
 30
0.0
  0
LINE
  8
0
  6
DASHED
 62
     7
 10
639.9999999999999
 20
80.90023693972348
 11
1200.0
 21
80.90023693972361
  0
INSERT
  8
0
  6
CENTER
 62
     7
  2
D_FRAME_VIEW_1288
 10
0.0
 20
0.0
 30
0.0
  0
LINE
  8
0
  6
DASHED
 62
     7
 10
639.9999999999999
 20
19.40023693972357
 11
1200.0
 21
19.4002369397235
  0
LINE
  8
0
  6
DASHED
 62
     7
 10
421.5000000000002
 20
885.0
 11
421.5
 21
324.9999999999999
  0
LINE
  8
0
  6
DASHED
 62
     7
 10
338.4999999999999
 20
325.0
 11
338.5000000000001
 21
885.0
  0
LINE
  8
0
  6
CENTER
 62
     1
 10
380.0
 20
16.40023693972351
 11
380.0
 21
83.9002369397236
  0
LINE
  8
0
  6
CENTER
 62
     1
 10
380.0
 20
226.9999999999999
 11
380.0
 21
982.9999999999999
  0
TEXT
  8
0
  6
CONTINUOUS
 62
     7
 10
478.8463923971489
 20
-29.45754657996748
 40
8.0
  1
MIDF-80
  0
INSERT
  8
0
  6
CENTER
 62
     7
  2
D_FRAME_VIEW_2613
 10
0.0
 20
0.0
 30
0.0
  0
INSERT
  8
0
  6
CENTER
 62
     7
  2
D_FRAME_VIEW_1959
 10
0.0
 20
0.0
 30
0.0
  0
ENDSEC
  0
EOF
