  0
SECTION
  2
HEADER
  9
$ACADVER
  1
AC1014
  9
$ACADMAINTVER
 70
     9
  9
$DWGCODEPAGE
  3
ANSI_932
  9
$INSBASE
 10
0.0
 20
0.0
 30
0.0
  9
$EXTMIN
 10
579.3952962174649
 20
43.34432912342127
 30
0.0
  9
$EXTMAX
 10
745.5000000000001
 20
156.0288438342609
 30
0.0
  9
$LIMMIN
 10
0.0
 20
0.0
  9
$LIMMAX
 10
12.0
 20
9.0
  9
$ORTHOMODE
 70
     0
  9
$REGENMODE
 70
     1
  9
$FILLMODE
 70
     1
  9
$QTEXTMODE
 70
     0
  9
$MIRRTEXT
 70
     1
  9
$DRAGMODE
 70
     2
  9
$LTSCALE
 40
1.0
  9
$OSMODE
 70
    37
  9
$ATTMODE
 70
     1
  9
$TEXTSIZE
 40
0.2
  9
$TRACEWID
 40
0.05
  9
$TEXTSTYLE
  7
STANDARD
  9
$CLAYER
  8
0
  9
$CELTYPE
  6
BYLAYER
  9
$CECOLOR
 62
   256
  9
$CELTSCALE
 40
1.0
  9
$DELOBJ
 70
     1
  9
$DISPSILH
 70
     0
  9
$DIMSCALE
 40
1.0
  9
$DIMASZ
 40
3.0
  9
$DIMEXO
 40
0.0625
  9
$DIMDLI
 40
0.38
  9
$DIMRND
 40
0.0
  9
$DIMDLE
 40
0.0
  9
$DIMEXE
 40
1.5
  9
$DIMTP
 40
0.0
  9
$DIMTM
 40
0.0
  9
$DIMTXT
 40
3.0
  9
$DIMCEN
 40
0.09
  9
$DIMTSZ
 40
0.0
  9
$DIMTOL
 70
     0
  9
$DIMLIM
 70
     0
  9
$DIMTIH
 70
     1
  9
$DIMTOH
 70
     1
  9
$DIMSE1
 70
     0
  9
$DIMSE2
 70
     0
  9
$DIMTAD
 70
     1
  9
$DIMZIN
 70
     0
  9
$DIMBLK
  1

  9
$DIMASO
 70
     1
  9
$DIMSHO
 70
     1
  9
$DIMPOST
  1

  9
$DIMAPOST
  1

  9
$DIMALT
 70
     0
  9
$DIMALTD
 70
     2
  9
$DIMALTF
 40
25.4
  9
$DIMLFAC
 40
1.0
  9
$DIMTOFL
 70
     0
  9
$DIMTVP
 40
0.0
  9
$DIMTIX
 70
     0
  9
$DIMSOXD
 70
     0
  9
$DIMSAH
 70
     0
  9
$DIMBLK1
  1

  9
$DIMBLK2
  1

  9
$DIMSTYLE
  2
STANDARD
  9
$DIMCLRD
 70
     0
  9
$DIMCLRE
 70
     0
  9
$DIMCLRT
 70
     0
  9
$DIMTFAC
 40
1.0
  9
$DIMGAP
 40
1.5
  9
$DIMJUST
 70
     0
  9
$DIMSD1
 70
     0
  9
$DIMSD2
 70
     0
  9
$DIMTOLJ
 70
     1
  9
$DIMTZIN
 70
     0
  9
$DIMALTZ
 70
     0
  9
$DIMALTTZ
 70
     0
  9
$DIMFIT
 70
     3
  9
$DIMUPT
 70
     0
  9
$DIMUNIT
 70
     2
  9
$DIMDEC
 70
     2
  9
$DIMTDEC
 70
     4
  9
$DIMALTU
 70
     2
  9
$DIMALTTD
 70
     2
  9
$DIMTXSTY
  7
ＭＳ_ゴシック
  9
$DIMAUNIT
 70
     0
  9
$LUNITS
 70
     2
  9
$LUPREC
 70
     4
  9
$SKETCHINC
 40
0.1
  9
$FILLETRAD
 40
0.5
  9
$AUNITS
 70
     0
  9
$AUPREC
 70
     0
  9
$MENU
  1
.
  9
$ELEVATION
 40
0.0
  9
$PELEVATION
 40
0.0
  9
$THICKNESS
 40
0.0
  9
$LIMCHECK
 70
     0
  9
$CHAMFERA
 40
0.0
  9
$CHAMFERB
 40
0.0
  9
$CHAMFERC
 40
0.0
  9
$CHAMFERD
 40
0.0
  9
$SKPOLY
 70
     0
  9
$TDCREATE
 40
2459149.767388796
  9
$TDUPDATE
 40
2459149.767389155
  9
$TDINDWG
 40
0.0000000116
  9
$TDUSRTIMER
 40
0.0000000116
  9
$USRTIMER
 70
     1
  9
$ANGBASE
 50
0.0
  9
$ANGDIR
 70
     0
  9
$PDMODE
 70
     0
  9
$PDSIZE
 40
0.0
  9
$PLINEWID
 40
0.0
  9
$COORDS
 70
     1
  9
$SPLFRAME
 70
     0
  9
$SPLINETYPE
 70
     6
  9
$SPLINESEGS
 70
     8
  9
$ATTDIA
 70
     0
  9
$ATTREQ
 70
     1
  9
$HANDLING
 70
     1
  9
$HANDSEED
  5
2A8
  9
$SURFTAB1
 70
     6
  9
$SURFTAB2
 70
     6
  9
$SURFTYPE
 70
     6
  9
$SURFU
 70
     6
  9
$SURFV
 70
     6
  9
$UCSNAME
  2

  9
$UCSORG
 10
0.0
 20
0.0
 30
0.0
  9
$UCSXDIR
 10
1.0
 20
0.0
 30
0.0
  9
$UCSYDIR
 10
0.0
 20
1.0
 30
0.0
  9
$PUCSNAME
  2

  9
$PUCSORG
 10
0.0
 20
0.0
 30
0.0
  9
$PUCSXDIR
 10
1.0
 20
0.0
 30
0.0
  9
$PUCSYDIR
 10
0.0
 20
1.0
 30
0.0
  9
$USERI1
 70
     0
  9
$USERI2
 70
     0
  9
$USERI3
 70
     0
  9
$USERI4
 70
     0
  9
$USERI5
 70
     0
  9
$USERR1
 40
0.0
  9
$USERR2
 40
0.0
  9
$USERR3
 40
0.0
  9
$USERR4
 40
0.0
  9
$USERR5
 40
0.0
  9
$WORLDVIEW
 70
     1
  9
$SHADEDGE
 70
     3
  9
$SHADEDIF
 70
    70
  9
$TILEMODE
 70
     1
  9
$MAXACTVP
 70
    64
  9
$PINSBASE
 10
0.0
 20
0.0
 30
0.0
  9
$PLIMCHECK
 70
     0
  9
$PEXTMIN
 10
1.000000000000000E+20
 20
1.000000000000000E+20
 30
1.000000000000000E+20
  9
$PEXTMAX
 10
-1.000000000000000E+20
 20
-1.000000000000000E+20
 30
-1.000000000000000E+20
  9
$PLIMMIN
 10
0.0
 20
0.0
  9
$PLIMMAX
 10
12.0
 20
9.0
  9
$UNITMODE
 70
     0
  9
$VISRETAIN
 70
     1
  9
$PLINEGEN
 70
     0
  9
$PSLTSCALE
 70
     1
  9
$TREEDEPTH
 70
  3020
  9
$PICKSTYLE
 70
     1
  9
$CMLSTYLE
  2
STANDARD
  9
$CMLJUST
 70
     0
  9
$CMLSCALE
 40
1.0
  9
$PROXYGRAPHICS
 70
     1
  9
$MEASUREMENT
 70
     1
  0
ENDSEC
  0
SECTION
  2
CLASSES
  0
CLASS
  1
ACDBDICTIONARYWDFLT
  2
AcDbDictionaryWithDefault
  3
ObjectDBX Classes
 90
        0
280
     0
281
     0
  0
CLASS
  1
VISUALSTYLE
  2
AcDbVisualStyle
  3
ObjectDBX Classes
 90
     4095
280
     0
281
     0
  0
CLASS
  1
MATERIAL
  2
AcDbMaterial
  3
ObjectDBX Classes
 90
     1153
280
     0
281
     0
  0
CLASS
  1
SCALE
  2
AcDbScale
  3
ObjectDBX Classes
 90
     1153
280
     0
281
     0
  0
CLASS
  1
TABLESTYLE
  2
AcDbTableStyle
  3
ObjectDBX Classes
 90
     4095
280
     0
281
     0
  0
CLASS
  1
MLEADERSTYLE
  2
AcDbMLeaderStyle
  3
ACDB_MLEADERSTYLE_CLASS
 90
     4095
280
     0
281
     0
  0
CLASS
  1
SUN
  2
AcDbSun
  3
SCENEOE
 90
     1153
280
     0
281
     0
  0
CLASS
  1
DICTIONARYVAR
  2
AcDbDictionaryVar
  3
ObjectDBX Classes
 90
        0
280
     0
281
     0
  0
CLASS
  1
XRECORD
  2
AcDbXrecord
  3
ObjectDBX Classes
 90
        0
280
     0
281
     0
  0
CLASS
  1
LWPOLYLINE
  2
AcDbPolyline
  3
ObjectDBX Classes
 90
        0
280
     0
281
     1
  0
CLASS
  1
HATCH
  2
AcDbHatch
  3
ObjectDBX Classes
 90
        0
280
     0
281
     1
  0
CLASS
  1
ACDBPLACEHOLDER
  2
AcDbPlaceHolder
  3
ObjectDBX Classes
 90
        0
280
     0
281
     0
  0
CLASS
  1
LAYOUT
  2
AcDbLayout
  3
ObjectDBX Classes
 90
        0
280
     0
281
     0
  0
ENDSEC
  0
SECTION
  2
TABLES
  0
TABLE
  2
VPORT
  5
8
102
{ACAD_XDICTIONARY
360
29D
102
}
330
0
100
AcDbSymbolTable
 70
     1
  0
VPORT
  5
29
330
8
100
AcDbSymbolTableRecord
100
AcDbViewportTableRecord
  2
*ACTIVE
 70
     0
 10
0.0
 20
0.0
 11
1.0
 21
1.0
 12
662.4476481087324
 22
99.68658647884108
 13
0.0
 23
0.0
 14
0.5
 24
0.5
 15
0.5
 25
0.5
 16
0.0
 26
0.0
 36
1.0
 17
0.0
 27
0.0
 37
0.0
 40
112.6845147108396
 41
1.6
 42
50.0
 43
0.0
 44
0.0
 50
0.0
 51
0.0
 71
     0
 72
   100
 73
     1
 74
     3
 75
     0
 76
     0
 77
     0
 78
     0
  0
ENDTAB
  0
TABLE
  2
LTYPE
  5
5
330
0
100
AcDbSymbolTable
 70
     2
  0
LTYPE
  5
14
330
5
100
AcDbSymbolTableRecord
100
AcDbLinetypeTableRecord
  2
BYBLOCK
 70
     0
  3

 72
    65
 73
     0
 40
0.0
  0
LTYPE
  5
15
330
5
100
AcDbSymbolTableRecord
100
AcDbLinetypeTableRecord
  2
BYLAYER
 70
     0
  3

 72
    65
 73
     0
 40
0.0
  0
LTYPE
  5
16
330
5
100
AcDbSymbolTableRecord
100
AcDbLinetypeTableRecord
  2
CONTINUOUS
 70
     0
  3
Solid line
 72
    65
 73
     0
 40
0.0
  0
LTYPE
  5
72
330
5
100
AcDbSymbolTableRecord
100
AcDbLinetypeTableRecord
  2
CENTER
 70
     0
  3

 72
    65
 73
     0
 40
0.0
  0
ENDTAB
  0
TABLE
  2
LAYER
  5
2
330
0
100
AcDbSymbolTable
 70
     2
  0
LAYER
  5
10
330
2
100
AcDbSymbolTableRecord
100
AcDbLayerTableRecord
  2
0
 70
     0
 62
     7
  6
CONTINUOUS
  0
LAYER
  5
6E
330
2
100
AcDbSymbolTableRecord
100
AcDbLayerTableRecord
  2
2
 70
     0
 62
     7
  6
CONTINUOUS
  0
ENDTAB
  0
TABLE
  2
STYLE
  5
3
330
0
100
AcDbSymbolTable
 70
     2
  0
STYLE
  5
11
330
3
100
AcDbSymbolTableRecord
100
AcDbTextStyleTableRecord
  2
STANDARD
 70
     0
 40
0.0
 41
1.0
 50
0.0
 71
     0
 42
0.2
  3
txt
  4

  0
STYLE
  5
6F
330
3
100
AcDbSymbolTableRecord
100
AcDbTextStyleTableRecord
  2
ＭＳ_ゴシック
 70
     0
 40
0.0
 41
1.0
 50
0.0
 71
     0
 42
0.2
  3
ＭＳ ゴシック.shx
  4

  0
ENDTAB
  0
TABLE
  2
VIEW
  5
6
330
0
100
AcDbSymbolTable
 70
     0
  0
ENDTAB
  0
TABLE
  2
UCS
  5
7
330
0
100
AcDbSymbolTable
 70
     0
  0
ENDTAB
  0
TABLE
  2
APPID
  5
9
330
0
100
AcDbSymbolTable
 70
     2
  0
APPID
  5
12
330
9
100
AcDbSymbolTableRecord
100
AcDbRegAppTableRecord
  2
ACAD
 70
     0
  0
APPID
  5
2A7
330
9
100
AcDbSymbolTableRecord
100
AcDbRegAppTableRecord
  2
ACAD_MLEADERVER
 70
     0
  0
ENDTAB
  0
TABLE
  2
DIMSTYLE
  5
A
330
0
100
AcDbSymbolTable
 70
     1
  0
DIMSTYLE
105
27
330
A
100
AcDbSymbolTableRecord
100
AcDbDimStyleTableRecord
  2
STANDARD
 70
     0
  3

  4

  5

  6

  7

 40
1.0
 41
0.18
 42
0.0625
 43
0.38
 44
0.18
 45
0.0
 46
0.0
 47
0.0
 48
0.0
140
0.18
141
0.09
142
0.0
143
25.4
144
1.0
145
0.0
146
1.0
147
0.09
 71
     0
 72
     0
 73
     1
 74
     1
 75
     0
 76
     0
 77
     0
 78
     0
170
     0
171
     2
172
     0
173
     0
174
     0
175
     0
176
     0
177
     0
178
     0
270
     2
271
     4
272
     4
273
     2
274
     2
340
11
275
     0
280
     0
281
     0
282
     0
283
     1
284
     0
285
     0
286
     0
287
     3
288
     0
  0
ENDTAB
  0
TABLE
  2
BLOCK_RECORD
  5
1
330
0
100
AcDbSymbolTable
 70
     0
  0
BLOCK_RECORD
  5
1F
330
1
100
AcDbSymbolTableRecord
100
AcDbBlockTableRecord
  2
*MODEL_SPACE
  0
BLOCK_RECORD
  5
1B
330
1
100
AcDbSymbolTableRecord
100
AcDbBlockTableRecord
  2
*PAPER_SPACE
  0
ENDTAB
  0
ENDSEC
  0
SECTION
  2
BLOCKS
  0
BLOCK
  5
20
330
1F
100
AcDbEntity
  8
0
100
AcDbBlockBegin
  2
*MODEL_SPACE
 70
     0
 10
0.0
 20
0.0
 30
0.0
  3
*MODEL_SPACE
  1

  0
ENDBLK
  5
21
330
1F
100
AcDbEntity
  8
0
100
AcDbBlockEnd
  0
BLOCK
  5
1C
330
1B
100
AcDbEntity
 67
     1
  8
0
100
AcDbBlockBegin
  2
*PAPER_SPACE
 70
     0
 10
0.0
 20
0.0
 30
0.0
  3
*PAPER_SPACE
  1

  0
ENDBLK
  5
1D
330
1B
100
AcDbEntity
 67
     1
  8
0
100
AcDbBlockEnd
  0
ENDSEC
  0
SECTION
  2
ENTITIES
  0
MTEXT
  5
70
330
1F
100
AcDbEntity
  8
2
 62
     1
100
AcDbMText
 10
653.2560335125671
 20
46.371601850694
 30
0.0
 40
3.0
 41
0.0
 71
     1
 72
     1
  1
{\fＭＳ ゴシック;MIDI-40_}
  0
LINE
  5
71
330
1F
100
AcDbEntity
  8
2
  6
CENTER
 62
     1
100
AcDbLine
 10
745.5000000000001
 20
76.5000000000001
 30
0.0
 11
678.0000000000001
 21
144.0
 31
0.0
  0
LINE
  5
73
330
1F
100
AcDbEntity
  8
2
  6
CENTER
 62
     1
100
AcDbLine
 10
602.0000000000001
 20
75.10846534874122
 30
0.0
 11
602.0000000000001
 21
156.0288438342609
 31
0.0
  0
LINE
  5
74
330
1F
100
AcDbEntity
  8
2
  6
CONTINUOUS
 62
     7
100
AcDbLine
 10
740.8992269643385
 20
96.69509579493105
 30
0.0
 11
740.8992269643385
 21
91.10077303566158
 31
0.0
  0
LINE
  5
75
330
1F
100
AcDbEntity
  8
2
  6
CONTINUOUS
 62
     7
100
AcDbLine
 10
740.8992269643385
 20
91.10077303566158
 30
0.0
 11
730.8992269643385
 21
81.10077303566156
 31
0.0
  0
LINE
  5
76
330
1F
100
AcDbEntity
  8
2
  6
CONTINUOUS
 62
     7
100
AcDbLine
 10
725.304904205069
 20
81.10077303566158
 30
0.0
 11
730.8992269643384
 21
81.10077303566158
 31
0.0
  0
LINE
  5
77
330
1F
100
AcDbEntity
  8
2
  6
CONTINUOUS
 62
     7
100
AcDbLine
 10
714.1799268743322
 20
93.97945269210192
 30
0.0
 11
728.0205473078981
 21
107.8200731256679
 31
0.0
  0
ARC
  5
78
330
1F
100
AcDbEntity
  8
2
  6
CONTINUOUS
 62
     7
100
AcDbCircle
 10
-725.8992269643385
 20
109.9413934692275
 30
0.0
 40
3.0
210
0.0
220
0.0
230
-1.0
100
AcDbArc
 50
200.529337994733
 51
225.0
  0
ARC
  5
79
330
1F
100
AcDbEntity
  8
2
  6
CONTINUOUS
 62
     7
100
AcDbCircle
 10
-712.0586065307725
 20
96.10077303566156
 30
0.0
 40
3.0
210
0.0
220
0.0
230
-1.0
100
AcDbArc
 50
225.0000000000001
 51
249.4706620052669
  0
LINE
  5
7A
330
1F
100
AcDbEntity
  8
2
  6
CONTINUOUS
 62
     7
100
AcDbLine
 10
712.0586065307725
 20
93.10077303566155
 30
0.0
 11
709.3992269643385
 21
93.10077303566155
 31
0.0
  0
LINE
  5
7B
330
1F
100
AcDbEntity
  8
2
  6
CONTINUOUS
 62
     7
100
AcDbLine
 10
709.3992269643385
 20
93.10077303566155
 30
0.0
 11
701.3992269643385
 21
93.10077303566155
 31
0.0
  0
LINE
  5
7C
330
1F
100
AcDbEntity
  8
2
  6
CONTINUOUS
 62
     7
100
AcDbLine
 10
701.3992269643385
 20
93.10077303566155
 30
0.0
 11
674.8992269643386
 21
93.10077303566153
 31
0.0
  0
LINE
  5
7D
330
1F
100
AcDbEntity
  8
2
  6
CONTINUOUS
 62
     7
100
AcDbLine
 10
686.8992269643385
 20
81.10077303566158
 30
0.0
 11
725.304904205069
 21
81.10077303566158
 31
0.0
  0
ARC
  5
7E
330
1F
100
AcDbEntity
  8
2
  6
CONTINUOUS
 62
     7
100
AcDbCircle
 10
-712.0586065307725
 20
96.10077303566156
 30
0.0
 40
3.000000000000002
210
0.0
220
0.0
230
-1.0
100
AcDbArc
 50
249.470662005267
 51
270.0
  0
LINE
  5
7F
330
1F
100
AcDbEntity
  8
2
  6
CONTINUOUS
 62
     7
100
AcDbLine
 10
740.8992269643385
 20
135.1007730356616
 30
0.0
 11
740.8992269643385
 21
96.69509579493104
 31
0.0
  0
ARC
  5
80
330
1F
100
AcDbEntity
  8
2
  6
CONTINUOUS
 62
     7
100
AcDbCircle
 10
-725.8992269643385
 20
109.9413934692275
 30
0.0
 40
3.000000000000002
210
0.0
220
0.0
230
-1.0
100
AcDbArc
 50
180.0
 51
200.529337994733
  0
LINE
  5
81
330
1F
100
AcDbEntity
  8
2
  6
CONTINUOUS
 62
     7
100
AcDbLine
 10
728.8992269643385
 20
109.9413934692275
 30
0.0
 11
728.8992269643385
 21
112.6007730356616
 31
0.0
  0
LINE
  5
82
330
1F
100
AcDbEntity
  8
2
  6
CONTINUOUS
 62
     7
100
AcDbLine
 10
728.8992269643385
 20
112.6007730356616
 30
0.0
 11
728.8992269643385
 21
120.6007730356616
 31
0.0
  0
LINE
  5
83
330
1F
100
AcDbEntity
  8
2
  6
CONTINUOUS
 62
     7
100
AcDbLine
 10
728.8992269643385
 20
120.6007730356616
 30
0.0
 11
728.8992269643385
 21
147.1007730356616
 31
0.0
  0
LINE
  5
84
330
1F
100
AcDbEntity
  8
2
  6
CONTINUOUS
 62
     7
100
AcDbLine
 10
674.8992269643385
 20
93.10077303566152
 30
0.0
 11
674.8992269643385
 21
81.10077303566156
 31
0.0
  0
LINE
  5
85
330
1F
100
AcDbEntity
  8
2
  6
CONTINUOUS
 62
     7
100
AcDbLine
 10
674.8992269643385
 20
81.10077303566158
 30
0.0
 11
686.8992269643385
 21
81.10077303566158
 31
0.0
  0
LINE
  5
86
330
1F
100
AcDbEntity
  8
2
  6
CONTINUOUS
 62
     7
100
AcDbLine
 10
674.8992269643385
 20
81.10077303566158
 30
0.0
 11
671.3917421979163
 21
81.10077303566158
 31
0.0
  0
LINE
  5
87
330
1F
100
AcDbEntity
  8
2
  6
CONTINUOUS
 62
     7
100
AcDbLine
 10
671.3917421979163
 20
93.10077303566152
 30
0.0
 11
674.8992269643385
 21
93.10077303566152
 31
0.0
  0
LINE
  5
88
330
1F
100
AcDbEntity
  8
2
  6
CONTINUOUS
 62
     7
100
AcDbLine
 10
740.8992269643385
 20
147.1007730356616
 30
0.0
 11
728.8992269643385
 21
147.1007730356616
 31
0.0
  0
LINE
  5
89
330
1F
100
AcDbEntity
  8
2
  6
CONTINUOUS
 62
     7
100
AcDbLine
 10
740.8992269643385
 20
147.1007730356616
 30
0.0
 11
740.8992269643385
 21
135.1007730356616
 31
0.0
  0
LINE
  5
8A
330
1F
100
AcDbEntity
  8
2
  6
CONTINUOUS
 62
     7
100
AcDbLine
 10
728.8992269643385
 20
147.1007730356616
 30
0.0
 11
728.8992269643385
 21
150.6082578020838
 31
0.0
  0
LINE
  5
8B
330
1F
100
AcDbEntity
  8
2
  6
CONTINUOUS
 62
     7
100
AcDbLine
 10
740.8992269643385
 20
150.6082578020837
 30
0.0
 11
740.8992269643385
 21
147.1007730356615
 31
0.0
  0
LINE
  5
8C
330
1F
100
AcDbEntity
  8
2
  6
CONTINUOUS
 62
     7
100
AcDbLine
 10
670.8992269643385
 20
81.10077303566158
 30
0.0
 11
670.8992269643385
 21
93.10077303566153
 31
0.0
  0
LINE
  5
8D
330
1F
100
AcDbEntity
  8
2
  6
CONTINUOUS
 62
     7
100
AcDbLine
 10
671.3917421979163
 20
81.10077303566158
 30
0.0
 11
670.8992269643385
 21
81.10077303566158
 31
0.0
  0
LINE
  5
8E
330
1F
100
AcDbEntity
  8
2
  6
CONTINUOUS
 62
     7
100
AcDbLine
 10
670.8992269643385
 20
93.10077303566152
 30
0.0
 11
671.3917421979163
 21
93.10077303566152
 31
0.0
  0
LINE
  5
8F
330
1F
100
AcDbEntity
  8
2
  6
CONTINUOUS
 62
     7
100
AcDbLine
 10
728.8992269643385
 20
151.1007730356615
 30
0.0
 11
740.8992269643385
 21
151.1007730356615
 31
0.0
  0
LINE
  5
90
330
1F
100
AcDbEntity
  8
2
  6
CONTINUOUS
 62
     7
100
AcDbLine
 10
728.8992269643385
 20
150.6082578020838
 30
0.0
 11
728.8992269643385
 21
151.1007730356616
 31
0.0
  0
LINE
  5
91
330
1F
100
AcDbEntity
  8
2
  6
CONTINUOUS
 62
     7
100
AcDbLine
 10
740.8992269643385
 20
151.1007730356615
 30
0.0
 11
740.8992269643385
 21
150.6082578020837
 31
0.0
  0
LINE
  5
92
330
1F
100
AcDbEntity
  8
2
  6
CONTINUOUS
 62
     7
100
AcDbLine
 10
709.3992269643384
 20
94.10961289766462
 30
0.0
 11
710.8979239784319
 21
94.10961289766462
 31
0.0
  0
LINE
  5
93
330
1F
100
AcDbEntity
  8
2
  6
CONTINUOUS
 62
     7
100
AcDbLine
 10
710.7563698214814
 20
95.1002160373027
 30
0.0
 11
710.897923978432
 21
94.10961289766459
 31
0.0
  0
LINE
  5
94
330
1F
100
AcDbEntity
  8
2
  6
CONTINUOUS
 62
     7
100
AcDbLine
 10
710.7563698214814
 20
95.1002160373027
 30
0.0
 11
700.0420841071957
 21
95.1002160373027
 31
0.0
  0
LINE
  5
95
330
1F
100
AcDbEntity
  8
2
  6
CONTINUOUS
 62
     7
100
AcDbLine
 10
699.9005299502451
 20
94.1096128976647
 30
0.0
 11
700.0420841071957
 21
95.10021603730273
 31
0.0
  0
LINE
  5
96
330
1F
100
AcDbEntity
  8
2
  6
CONTINUOUS
 62
     7
100
AcDbLine
 10
699.9005299502451
 20
94.1096128976647
 30
0.0
 11
701.3992269643385
 21
94.1096128976647
 31
0.0
  0
LINE
  5
97
330
1F
100
AcDbEntity
  8
2
  6
CONTINUOUS
 62
     7
100
AcDbLine
 10
701.3992269643385
 20
93.10077303566155
 30
0.0
 11
701.3992269643385
 21
94.10961289766469
 31
0.0
  0
LINE
  5
98
330
1F
100
AcDbEntity
  8
2
  6
CONTINUOUS
 62
     7
100
AcDbLine
 10
701.3992269643385
 20
93.10077303566155
 30
0.0
 11
674.8992269643386
 21
93.10077303566155
 31
0.0
  0
LINE
  5
99
330
1F
100
AcDbEntity
  8
2
  6
CONTINUOUS
 62
     7
100
AcDbLine
 10
674.8992269643386
 20
93.10077303566155
 30
0.0
 11
674.8992269643386
 21
112.2820996877784
 31
0.0
  0
ELLIPSE
  5
9A
330
1F
100
AcDbEntity
  8
2
  6
CONTINUOUS
 62
     7
100
AcDbEllipse
 10
677.7997898935166
 20
112.762458941154
 30
0.0
 11
2.89934353362327
 21
0.4948531575470219
 31
0.0
210
0.0
220
0.0
230
-1.0
 40
0.1699442413290087
 41
3.170590207964232
 42
3.186366498021452
  0
LINE
  5
9B
330
1F
100
AcDbEntity
  8
2
  6
CONTINUOUS
 62
     7
100
AcDbLine
 10
705.3010378988544
 20
101.0985450422263
 30
0.0
 11
702.6338177677287
 21
101.0985450422263
 31
0.0
  0
ELLIPSE
  5
9C
330
1F
100
AcDbEntity
  8
2
  6
CONTINUOUS
 62
     7
100
AcDbEllipse
 10
702.6338177677286
 20
99.09910204058505
 30
0.0
 11
-1.999999999999997
 21
0.0
 31
0.0
210
0.0
220
0.0
230
-1.0
 40
0.9997215008205853
 41
0.5608700542802367
 42
1.570796326794897
  0
LINE
  5
9D
330
1F
100
AcDbEntity
  8
2
  6
CONTINUOUS
 62
     7
100
AcDbLine
 10
700.9402325086027
 20
100.1626520696832
 30
0.0
 11
706.2372160837806
 21
100.1626520696832
 31
0.0
  0
LINE
  5
9E
330
1F
100
AcDbEntity
  8
2
  6
CONTINUOUS
 62
     7
100
AcDbLine
 10
706.2372160837806
 20
100.1626520696832
 30
0.0
 11
706.301064063734
 21
100.0988235414057
 31
0.0
  0
LINE
  5
9F
330
1F
100
AcDbEntity
  8
2
  6
CONTINUOUS
 62
     7
100
AcDbLine
 10
706.3010640637341
 20
100.0988235414057
 30
0.0
 11
700.9017669601598
 21
100.0988235414057
 31
0.0
  0
ELLIPSE
  5
A0
330
1F
100
AcDbEntity
  8
2
  6
CONTINUOUS
 62
     7
100
AcDbEllipse
 10
702.6338177677286
 20
99.09910204058505
 30
0.0
 11
-1.999999999999997
 21
0.0
 31
0.0
210
0.0
220
0.0
230
-1.0
 40
0.9997215008205853
 41
0.1418970546041635
 42
0.523598775598303
  0
LINE
  5
A1
330
1F
100
AcDbEntity
  8
2
  6
CONTINUOUS
 62
     7
100
AcDbLine
 10
700.6213305940637
 20
99.15381220768013
 30
0.0
 11
700.6539187804063
 21
99.38186598159636
 31
0.0
  0
LINE
  5
A2
330
1F
100
AcDbEntity
  8
2
  6
CONTINUOUS
 62
     7
100
AcDbLine
 10
700.6213305940637
 20
99.15381220768013
 30
0.0
 11
707.2463633886538
 21
99.15381220768008
 31
0.0
  0
LINE
  5
A3
330
1F
100
AcDbEntity
  8
2
  6
CONTINUOUS
 62
     7
100
AcDbLine
 10
707.2463633886538
 20
99.15381220768008
 30
0.0
 11
707.3010902286137
 21
99.09910204058507
 31
0.0
  0
LINE
  5
A4
330
1F
100
AcDbEntity
  8
2
  6
CONTINUOUS
 62
     7
100
AcDbLine
 10
707.3010902286136
 20
99.09910204058508
 30
0.0
 11
700.6135126786241
 21
99.09910204058508
 31
0.0
  0
LINE
  5
A5
330
1F
100
AcDbEntity
  8
2
  6
CONTINUOUS
 62
     7
100
AcDbLine
 10
700.4771704653
 20
98.14497234567706
 30
0.0
 11
700.6135126786243
 21
99.09910204058508
 31
0.0
  0
LINE
  5
A6
330
1F
100
AcDbEntity
  8
2
  6
CONTINUOUS
 62
     7
100
AcDbLine
 10
700.4771704653
 20
98.14497234567706
 30
0.0
 11
708.2555106935267
 21
98.144972345677
 31
0.0
  0
LINE
  5
A7
330
1F
100
AcDbEntity
  8
2
  6
CONTINUOUS
 62
     7
100
AcDbLine
 10
708.2555106935267
 20
98.14497234567698
 30
0.0
 11
708.3011163934933
 21
98.09938053976448
 31
0.0
  0
LINE
  5
A8
330
1F
100
AcDbEntity
  8
2
  6
CONTINUOUS
 62
     7
100
AcDbLine
 10
708.3011163934933
 20
98.0993805397645
 30
0.0
 11
700.470655535767
 21
98.0993805397645
 31
0.0
  0
LINE
  5
A9
330
1F
100
AcDbEntity
  8
2
  6
CONTINUOUS
 62
     7
100
AcDbLine
 10
700.3330103365363
 20
97.13613248367398
 30
0.0
 11
700.4706555357672
 21
98.09938053976451
 31
0.0
  0
LINE
  5
AA
330
1F
100
AcDbEntity
  8
2
  6
CONTINUOUS
 62
     7
100
AcDbLine
 10
700.3330103365363
 20
97.13613248367398
 30
0.0
 11
709.2646579983998
 21
97.1361324836739
 31
0.0
  0
LINE
  5
AB
330
1F
100
AcDbEntity
  8
2
  6
CONTINUOUS
 62
     7
100
AcDbLine
 10
709.2646579983998
 20
97.13613248367389
 30
0.0
 11
709.301142558373
 21
97.09965903894391
 31
0.0
  0
LINE
  5
AC
330
1F
100
AcDbEntity
  8
2
  6
CONTINUOUS
 62
     7
100
AcDbLine
 10
709.301142558373
 20
97.09965903894391
 30
0.0
 11
700.3277983929099
 21
97.09965903894391
 31
0.0
  0
LINE
  5
AD
330
1F
100
AcDbEntity
  8
2
  6
CONTINUOUS
 62
     7
100
AcDbLine
 10
700.1888502077726
 20
96.12729262167088
 30
0.0
 11
700.3277983929099
 21
97.09965903894391
 31
0.0
  0
LINE
  5
AE
330
1F
100
AcDbEntity
  8
2
  6
CONTINUOUS
 62
     7
100
AcDbLine
 10
700.1888502077726
 20
96.12729262167088
 30
0.0
 11
710.2738053032728
 21
96.1272926216708
 31
0.0
  0
LINE
  5
AF
330
1F
100
AcDbEntity
  8
2
  6
CONTINUOUS
 62
     7
100
AcDbLine
 10
710.2738053032728
 20
96.1272926216708
 30
0.0
 11
710.3011687232528
 21
96.09993753812331
 31
0.0
  0
LINE
  5
B0
330
1F
100
AcDbEntity
  8
2
  6
CONTINUOUS
 62
     7
100
AcDbLine
 10
710.3011687232528
 20
96.09993753812331
 30
0.0
 11
700.1849412500528
 21
96.09993753812331
 31
0.0
  0
LINE
  5
B1
330
1F
100
AcDbEntity
  8
2
  6
CONTINUOUS
 62
     7
100
AcDbLine
 10
700.0446900790088
 20
95.11845275966776
 30
0.0
 11
700.1849412500528
 21
96.09993753812331
 31
0.0
  0
LINE
  5
B2
330
1F
100
AcDbEntity
  8
2
  6
CONTINUOUS
 62
     7
100
AcDbLine
 10
700.0446900790088
 20
95.11845275966776
 30
0.0
 11
710.7537638496683
 21
95.11845275966768
 31
0.0
  0
LINE
  5
B3
330
1F
100
AcDbEntity
  8
2
  6
CONTINUOUS
 62
     7
100
AcDbLine
 10
710.665568415482
 20
95.7356488624787
 30
0.0
 11
710.7537638496682
 21
95.11845275966766
 31
0.0
  0
LINE
  5
B4
330
1F
100
AcDbEntity
  8
2
  6
CONTINUOUS
 62
     7
100
AcDbLine
 10
709.3992269643384
 20
93.10077303566155
 30
0.0
 11
709.3992269643384
 21
94.1096128976646
 31
0.0
  0
LINE
  5
B5
330
1F
100
AcDbEntity
  8
2
  6
CONTINUOUS
 62
     7
100
AcDbLine
 10
712.0586065307725
 20
93.10077303566155
 30
0.0
 11
709.3992269643385
 21
93.10077303566155
 31
0.0
  0
LINE
  5
B6
330
1F
100
AcDbEntity
  8
2
  6
CONTINUOUS
 62
     7
100
AcDbLine
 10
726.2643511375213
 20
111.3344315845181
 30
0.0
 11
726.8815472403323
 21
111.2462361503319
 31
0.0
  0
LINE
  5
B7
330
1F
100
AcDbEntity
  8
2
  6
CONTINUOUS
 62
     7
100
AcDbLine
 10
726.8815472403322
 20
121.9553099209912
 30
0.0
 11
726.8815472403323
 21
111.2462361503318
 31
0.0
  0
LINE
  5
B8
330
1F
100
AcDbEntity
  8
2
  6
CONTINUOUS
 62
     7
100
AcDbLine
 10
726.8815472403322
 20
121.9553099209912
 30
0.0
 11
725.9000624618767
 21
121.8150587499472
 31
0.0
  0
LINE
  5
B9
330
1F
100
AcDbEntity
  8
2
  6
CONTINUOUS
 62
     7
100
AcDbLine
 10
725.9000624618767
 20
111.6988312767473
 30
0.0
 11
725.9000624618767
 21
121.8150587499473
 31
0.0
  0
LINE
  5
BA
330
1F
100
AcDbEntity
  8
2
  6
CONTINUOUS
 62
     7
100
AcDbLine
 10
725.8727073783293
 20
111.7261946967273
 30
0.0
 11
725.9000624618767
 21
111.6988312767473
 31
0.0
  0
LINE
  5
BB
330
1F
100
AcDbEntity
  8
2
  6
CONTINUOUS
 62
     7
100
AcDbLine
 10
725.8727073783292
 20
121.8111497922275
 30
0.0
 11
725.8727073783293
 21
111.7261946967272
 31
0.0
  0
LINE
  5
BC
330
1F
100
AcDbEntity
  8
2
  6
CONTINUOUS
 62
     7
100
AcDbLine
 10
725.8727073783292
 20
121.8111497922275
 30
0.0
 11
724.9003409610561
 21
121.6722016070901
 31
0.0
  0
LINE
  5
BD
330
1F
100
AcDbEntity
  8
2
  6
CONTINUOUS
 62
     7
100
AcDbLine
 10
724.9003409610561
 20
112.698857441627
 30
0.0
 11
724.9003409610561
 21
121.6722016070901
 31
0.0
  0
LINE
  5
BE
330
1F
100
AcDbEntity
  8
2
  6
CONTINUOUS
 62
     7
100
AcDbLine
 10
724.8638675163261
 20
112.7353420016003
 30
0.0
 11
724.9003409610561
 21
112.698857441627
 31
0.0
  0
LINE
  5
BF
330
1F
100
AcDbEntity
  8
2
  6
CONTINUOUS
 62
     7
100
AcDbLine
 10
724.8638675163261
 20
121.6669896634638
 30
0.0
 11
724.8638675163262
 21
112.7353420016003
 31
0.0
  0
LINE
  5
C0
330
1F
100
AcDbEntity
  8
2
  6
CONTINUOUS
 62
     7
100
AcDbLine
 10
724.8638675163261
 20
121.6669896634638
 30
0.0
 11
723.9006194602356
 21
121.529344464233
 31
0.0
  0
LINE
  5
C1
330
1F
100
AcDbEntity
  8
2
  6
CONTINUOUS
 62
     7
100
AcDbLine
 10
723.9006194602355
 20
113.6988836065067
 30
0.0
 11
723.9006194602355
 21
121.529344464233
 31
0.0
  0
LINE
  5
C2
330
1F
100
AcDbEntity
  8
2
  6
CONTINUOUS
 62
     7
100
AcDbLine
 10
723.8550276543231
 20
113.7444893064733
 30
0.0
 11
723.9006194602355
 21
113.6988836065067
 31
0.0
  0
LINE
  5
C3
330
1F
100
AcDbEntity
  8
2
  6
CONTINUOUS
 62
     7
100
AcDbLine
 10
723.855027654323
 20
121.5228295347001
 30
0.0
 11
723.8550276543231
 21
113.7444893064733
 31
0.0
  0
LINE
  5
C4
330
1F
100
AcDbEntity
  8
2
  6
CONTINUOUS
 62
     7
100
AcDbLine
 10
723.855027654323
 20
121.5228295347001
 30
0.0
 11
722.9008979594149
 21
121.3864873213759
 31
0.0
  0
LINE
  5
C5
330
1F
100
AcDbEntity
  8
2
  6
CONTINUOUS
 62
     7
100
AcDbLine
 10
722.900897959415
 20
114.6989097713864
 30
0.0
 11
722.900897959415
 21
121.3864873213759
 31
0.0
  0
LINE
  5
C6
330
1F
100
AcDbEntity
  8
2
  6
CONTINUOUS
 62
     7
100
AcDbLine
 10
722.84618779232
 20
114.7536366113464
 30
0.0
 11
722.900897959415
 21
114.6989097713864
 31
0.0
  0
LINE
  5
C7
330
1F
100
AcDbEntity
  8
2
  6
CONTINUOUS
 62
     7
100
AcDbLine
 10
722.8461877923199
 20
121.3786694059364
 30
0.0
 11
722.8461877923199
 21
114.7536366113464
 31
0.0
  0
LINE
  5
C8
330
1F
100
AcDbEntity
  8
2
  6
CONTINUOUS
 62
     7
100
AcDbLine
 10
722.8461877923199
 20
121.3786694059364
 30
0.0
 11
722.6181340184037
 21
121.3460812195938
 31
0.0
  0
ELLIPSE
  5
C9
330
1F
100
AcDbEntity
  8
2
  6
CONTINUOUS
 62
     7
100
AcDbEllipse
 10
722.900897959415
 20
119.3661822322714
 30
0.0
 11
0.0
 21
1.999999999999997
 31
0.0
210
0.0
220
0.0
230
1.0
 40
0.9997215008205853
 41
0.1418970546041635
 42
0.523598775598303
  0
LINE
  5
CA
330
1F
100
AcDbEntity
  8
2
  6
CONTINUOUS
 62
     7
100
AcDbLine
 10
721.9011764585944
 20
115.6989359362661
 30
0.0
 11
721.9011764585944
 21
121.0982330398403
 31
0.0
  0
LINE
  5
CB
330
1F
100
AcDbEntity
  8
2
  6
CONTINUOUS
 62
     7
100
AcDbLine
 10
721.8373479303168
 20
115.7627839162194
 30
0.0
 11
721.9011764585944
 21
115.6989359362661
 31
0.0
  0
LINE
  5
CC
330
1F
100
AcDbEntity
  8
2
  6
CONTINUOUS
 62
     7
100
AcDbLine
 10
721.8373479303168
 20
121.0597674913973
 30
0.0
 11
721.8373479303168
 21
115.7627839162194
 31
0.0
  0
ELLIPSE
  5
CD
330
1F
100
AcDbEntity
  8
2
  6
CONTINUOUS
 62
     7
100
AcDbEllipse
 10
722.900897959415
 20
119.3661822322714
 30
0.0
 11
0.0
 21
1.999999999999997
 31
0.0
210
0.0
220
0.0
230
1.0
 40
0.9997215008205853
 41
0.5608700542802367
 42
1.570796326794897
  0
LINE
  5
CE
330
1F
100
AcDbEntity
  8
2
  6
CONTINUOUS
 62
     7
100
AcDbLine
 10
720.9014549577738
 20
116.6989621011458
 30
0.0
 11
720.9014549577738
 21
119.3661822322715
 31
0.0
  0
ELLIPSE
  5
CF
330
1F
100
AcDbEntity
  8
2
  6
CONTINUOUS
 62
     7
100
AcDbEllipse
 10
709.2375410588461
 20
144.2002101064834
 30
0.0
 11
-0.4948531575470219
 21
-2.89934353362327
 31
0.0
210
0.0
220
0.0
230
1.0
 40
0.1699442413290087
 41
3.170590207964232
 42
3.186366498021452
  0
LINE
  5
D0
330
1F
100
AcDbEntity
  8
2
  6
CONTINUOUS
 62
     7
100
AcDbLine
 10
728.8992269643385
 20
147.1007730356615
 30
0.0
 11
709.7179003122217
 21
147.1007730356615
 31
0.0
  0
LINE
  5
D1
330
1F
100
AcDbEntity
  8
2
  6
CONTINUOUS
 62
     7
100
AcDbLine
 10
728.8992269643385
 20
120.6007730356616
 30
0.0
 11
728.8992269643385
 21
147.1007730356615
 31
0.0
  0
LINE
  5
D2
330
1F
100
AcDbEntity
  8
2
  6
CONTINUOUS
 62
     7
100
AcDbLine
 10
728.8992269643385
 20
120.6007730356616
 30
0.0
 11
727.8903871023354
 21
120.6007730356616
 31
0.0
  0
LINE
  5
D3
330
1F
100
AcDbEntity
  8
2
  6
CONTINUOUS
 62
     7
100
AcDbLine
 10
727.8903871023354
 20
122.099470049755
 30
0.0
 11
727.8903871023354
 21
120.6007730356615
 31
0.0
  0
LINE
  5
D4
330
1F
100
AcDbEntity
  8
2
  6
CONTINUOUS
 62
     7
100
AcDbLine
 10
727.8903871023354
 20
122.099470049755
 30
0.0
 11
726.8997839626973
 21
121.9579158928044
 31
0.0
  0
LINE
  5
D5
330
1F
100
AcDbEntity
  8
2
  6
CONTINUOUS
 62
     7
100
AcDbLine
 10
726.8997839626974
 20
111.2436301785187
 30
0.0
 11
726.8997839626974
 21
121.9579158928044
 31
0.0
  0
LINE
  5
D6
330
1F
100
AcDbEntity
  8
2
  6
CONTINUOUS
 62
     7
100
AcDbLine
 10
726.8997839626974
 20
111.2436301785187
 30
0.0
 11
727.8903871023355
 21
111.1020760215681
 31
0.0
  0
LINE
  5
D7
330
1F
100
AcDbEntity
  8
2
  6
CONTINUOUS
 62
     7
100
AcDbLine
 10
727.8903871023355
 20
112.6007730356616
 30
0.0
 11
727.8903871023355
 21
111.1020760215682
 31
0.0
  0
LINE
  5
D8
330
1F
100
AcDbEntity
  8
2
  6
CONTINUOUS
 62
     7
100
AcDbLine
 10
728.8992269643385
 20
112.6007730356616
 30
0.0
 11
727.8903871023355
 21
112.6007730356616
 31
0.0
  0
LINE
  5
D9
330
1F
100
AcDbEntity
  8
2
  6
CONTINUOUS
 62
     7
100
AcDbLine
 10
728.8992269643385
 20
109.9413934692275
 30
0.0
 11
728.8992269643385
 21
112.6007730356616
 31
0.0
  0
LINE
  5
DA
330
1F
100
AcDbEntity
  8
2
  6
CONTINUOUS
 62
     7
100
AcDbLine
 10
671.3917421979163
 20
93.10077303566155
 30
0.0
 11
674.8992269643385
 21
93.10077303566155
 31
0.0
  0
LINE
  5
DB
330
1F
100
AcDbEntity
  8
2
  6
CONTINUOUS
 62
     7
100
AcDbLine
 10
710.6135126786241
 20
96.10000481525857
 30
0.0
 11
710.665568415482
 21
95.73564886247871
 31
0.0
  0
LINE
  5
DC
330
1F
100
AcDbEntity
  8
2
  6
CONTINUOUS
 62
     7
100
AcDbLine
 10
710.6135126786241
 20
96.10000481525857
 30
0.0
 11
710.3011687232527
 21
96.09993753812331
 31
0.0
  0
LINE
  5
DD
330
1F
100
AcDbEntity
  8
2
  6
CONTINUOUS
 62
     7
100
AcDbLine
 10
710.2738053032728
 20
96.1272926216708
 30
0.0
 11
710.6103407011014
 21
96.12220657364763
 31
0.0
  0
LINE
  5
DE
330
1F
100
AcDbEntity
  8
2
  6
CONTINUOUS
 62
     7
100
AcDbLine
 10
710.470655535767
 20
97.09991094547648
 30
0.0
 11
710.6103407011014
 21
96.12220657364763
 31
0.0
  0
LINE
  5
DF
330
1F
100
AcDbEntity
  8
2
  6
CONTINUOUS
 62
     7
100
AcDbLine
 10
710.470655535767
 20
97.09991094547648
 30
0.0
 11
709.301142558373
 21
97.09965903894391
 31
0.0
  0
LINE
  5
E0
330
1F
100
AcDbEntity
  8
2
  6
CONTINUOUS
 62
     7
100
AcDbLine
 10
709.2646579983998
 20
97.13613248367389
 30
0.0
 11
710.4680789684767
 21
97.11794522347668
 31
0.0
  0
LINE
  5
E1
330
1F
100
AcDbEntity
  8
2
  6
CONTINUOUS
 62
     7
100
AcDbLine
 10
710.3277983929099
 20
98.09981707569438
 30
0.0
 11
710.4680789684767
 21
97.11794522347667
 31
0.0
  0
LINE
  5
E2
330
1F
100
AcDbEntity
  8
2
  6
CONTINUOUS
 62
     7
100
AcDbLine
 10
710.3277983929099
 20
98.09981707569438
 30
0.0
 11
708.3011163934933
 21
98.09938053976448
 31
0.0
  0
LINE
  5
E3
330
1F
100
AcDbEntity
  8
2
  6
CONTINUOUS
 62
     7
100
AcDbLine
 10
708.2555106935267
 20
98.14497234567698
 30
0.0
 11
710.3258172358519
 21
98.11368387330572
 31
0.0
  0
LINE
  5
E4
330
1F
100
AcDbEntity
  8
2
  6
CONTINUOUS
 62
     7
100
AcDbLine
 10
710.1849412500528
 20
99.09972320591228
 30
0.0
 11
710.3258172358519
 21
98.11368387330572
 31
0.0
  0
LINE
  5
E5
330
1F
100
AcDbEntity
  8
2
  6
CONTINUOUS
 62
     7
100
AcDbLine
 10
710.1849412500528
 20
99.09972320591228
 30
0.0
 11
707.3010902286137
 21
99.09910204058508
 31
0.0
  0
LINE
  5
E6
330
1F
100
AcDbEntity
  8
2
  6
CONTINUOUS
 62
     7
100
AcDbLine
 10
707.2463633886538
 20
99.15381220768008
 30
0.0
 11
710.183555503227
 21
99.10942252313473
 31
0.0
  0
LINE
  5
E7
330
1F
100
AcDbEntity
  8
2
  6
CONTINUOUS
 62
     7
100
AcDbLine
 10
710.1445351482707
 20
99.3825393680031
 30
0.0
 11
710.183555503227
 21
99.10942252313473
 31
0.0
  0
ELLIPSE
  5
E8
330
1F
100
AcDbEntity
  8
2
  6
CONTINUOUS
 62
     7
100
AcDbEllipse
 10
708.1646361609484
 20
99.09928804353306
 30
0.0
 11
-1.600772057216967
 21
-1.19923904321689
 31
0.0
210
0.0
220
0.0
230
-1.0
 40
0.9997755715742304
 41
3.260851329529763
 42
3.642553050523901
  0
LINE
  5
E9
330
1F
100
AcDbEntity
  8
2
  6
CONTINUOUS
 62
     7
100
AcDbLine
 10
709.8966869685172
 20
100.0995980184024
 30
0.0
 11
706.3010640637341
 21
100.0988235414057
 31
0.0
  0
LINE
  5
EA
330
1F
100
AcDbEntity
  8
2
  6
CONTINUOUS
 62
     7
100
AcDbLine
 10
706.2372160837806
 20
100.1626520696832
 30
0.0
 11
709.8921492830729
 21
100.107415188532
 31
0.0
  0
ELLIPSE
  5
EB
330
1F
100
AcDbEntity
  8
2
  6
CONTINUOUS
 62
     7
100
AcDbEllipse
 10
708.1646361609484
 20
99.09928804353306
 30
0.0
 11
-1.600772057216967
 21
-1.19923904321689
 31
0.0
210
0.0
220
0.0
230
-1.0
 40
0.9997755715742304
 41
2.213653778333166
 42
3.256331321968939
  0
LINE
  5
EC
330
1F
100
AcDbEntity
  8
2
  6
CONTINUOUS
 62
     7
100
AcDbLine
 10
708.1646361609484
 20
101.0991618452227
 30
0.0
 11
705.3010378988544
 21
101.0985450422263
 31
0.0
  0
LINE
  5
ED
330
1F
100
AcDbEntity
  8
2
  6
CONTINUOUS
 62
     7
100
AcDbLine
 10
720.9008381547774
 20
113.8353638390517
 30
0.0
 11
720.9014549577738
 21
116.6989621011458
 31
0.0
  0
ELLIPSE
  5
EE
330
1F
100
AcDbEntity
  8
2
  6
CONTINUOUS
 62
     7
100
AcDbEllipse
 10
722.9007119564669
 20
113.8353638390517
 30
0.0
 11
1.19923904321689
 21
1.600772057216967
 31
0.0
210
0.0
220
0.0
230
1.0
 40
0.9997755715742304
 41
2.213653778333166
 42
3.256331321968939
  0
LINE
  5
EF
330
1F
100
AcDbEntity
  8
2
  6
CONTINUOUS
 62
     7
100
AcDbLine
 10
721.8373479303168
 20
115.7627839162194
 30
0.0
 11
721.8925848114679
 21
112.1078507169272
 31
0.0
  0
LINE
  5
F0
330
1F
100
AcDbEntity
  8
2
  6
CONTINUOUS
 62
     7
100
AcDbLine
 10
721.9004019815976
 20
112.1033130314828
 30
0.0
 11
721.9011764585944
 21
115.6989359362661
 31
0.0
  0
ELLIPSE
  5
F1
330
1F
100
AcDbEntity
  8
2
  6
CONTINUOUS
 62
     7
100
AcDbEllipse
 10
722.9007119564669
 20
113.8353638390517
 30
0.0
 11
1.19923904321689
 21
1.600772057216967
 31
0.0
210
0.0
220
0.0
230
1.0
 40
0.9997755715742304
 41
3.260851329529763
 42
3.642553050523901
  0
LINE
  5
F2
330
1F
100
AcDbEntity
  8
2
  6
CONTINUOUS
 62
     7
100
AcDbLine
 10
722.6174606319969
 20
111.8554648517294
 30
0.0
 11
722.8905774768652
 21
111.8164444967731
 31
0.0
  0
LINE
  5
F3
330
1F
100
AcDbEntity
  8
2
  6
CONTINUOUS
 62
     7
100
AcDbLine
 10
722.84618779232
 20
114.7536366113464
 30
0.0
 11
722.8905774768654
 21
111.8164444967731
 31
0.0
  0
LINE
  5
F4
330
1F
100
AcDbEntity
  8
2
  6
CONTINUOUS
 62
     7
100
AcDbLine
 10
722.9002767940877
 20
111.8150587499473
 30
0.0
 11
722.9008979594149
 21
114.6989097713864
 31
0.0
  0
LINE
  5
F5
330
1F
100
AcDbEntity
  8
2
  6
CONTINUOUS
 62
     7
100
AcDbLine
 10
722.9002767940877
 20
111.8150587499473
 30
0.0
 11
723.8863161266943
 21
111.6741827641483
 31
0.0
  0
LINE
  5
F6
330
1F
100
AcDbEntity
  8
2
  6
CONTINUOUS
 62
     7
100
AcDbLine
 10
723.8550276543231
 20
113.7444893064733
 30
0.0
 11
723.8863161266944
 21
111.6741827641483
 31
0.0
  0
LINE
  5
F7
330
1F
100
AcDbEntity
  8
2
  6
CONTINUOUS
 62
     7
100
AcDbLine
 10
723.9001829243057
 20
111.6722016070902
 30
0.0
 11
723.9006194602355
 21
113.6988836065067
 31
0.0
  0
LINE
  5
F8
330
1F
100
AcDbEntity
  8
2
  6
CONTINUOUS
 62
     7
100
AcDbLine
 10
723.9001829243057
 20
111.6722016070902
 30
0.0
 11
724.8820547765234
 21
111.5319210315234
 31
0.0
  0
LINE
  5
F9
330
1F
100
AcDbEntity
  8
2
  6
CONTINUOUS
 62
     7
100
AcDbLine
 10
724.8638675163261
 20
112.7353420016003
 30
0.0
 11
724.8820547765233
 21
111.5319210315234
 31
0.0
  0
LINE
  5
FA
330
1F
100
AcDbEntity
  8
2
  6
CONTINUOUS
 62
     7
100
AcDbLine
 10
724.9000890545236
 20
111.529344464233
 30
0.0
 11
724.9003409610561
 21
112.698857441627
 31
0.0
  0
LINE
  5
FB
330
1F
100
AcDbEntity
  8
2
  6
CONTINUOUS
 62
     7
100
AcDbLine
 10
724.9000890545236
 20
111.529344464233
 30
0.0
 11
725.8777934263525
 21
111.3896592988986
 31
0.0
  0
LINE
  5
FC
330
1F
100
AcDbEntity
  8
2
  6
CONTINUOUS
 62
     7
100
AcDbLine
 10
725.8727073783293
 20
111.7261946967273
 30
0.0
 11
725.8777934263525
 21
111.3896592988986
 31
0.0
  0
LINE
  5
FD
330
1F
100
AcDbEntity
  8
2
  6
CONTINUOUS
 62
     7
100
AcDbLine
 10
725.8999951847414
 20
111.3864873213759
 30
0.0
 11
725.9000624618767
 21
111.6988312767473
 31
0.0
  0
LINE
  5
FE
330
1F
100
AcDbEntity
  8
2
  6
CONTINUOUS
 62
     7
100
AcDbLine
 10
725.8999951847414
 20
111.3864873213759
 30
0.0
 11
726.2643511375213
 21
111.3344315845181
 31
0.0
  0
LINE
  5
FF
330
1F
100
AcDbEntity
  8
2
  6
CONTINUOUS
 62
     7
100
AcDbLine
 10
714.1799268743322
 20
93.97945269210192
 30
0.0
 11
728.0205473078981
 21
107.8200731256679
 31
0.0
  0
LINE
  5
100
330
1F
100
AcDbEntity
  8
2
  6
CONTINUOUS
 62
     7
100
AcDbLine
 10
728.8992269643385
 20
150.6082578020837
 30
0.0
 11
728.8992269643385
 21
147.1007730356615
 31
0.0
  0
LINE
  5
101
330
1F
100
AcDbEntity
  8
2
  6
CONTINUOUS
 62
     7
100
AcDbLine
 10
726.8997839626974
 20
111.2436301785187
 30
0.0
 11
726.9134934991755
 21
111.2436301785187
 31
0.0
  0
LINE
  5
102
330
1F
100
AcDbEntity
  8
2
  6
CONTINUOUS
 62
     7
100
AcDbLine
 10
726.9134934991755
 20
111.2436301785187
 30
0.0
 11
727.8903871023355
 21
111.1020760215682
 31
0.0
  0
LINE
  5
103
330
1F
100
AcDbEntity
  8
2
  6
CONTINUOUS
 62
     7
100
AcDbLine
 10
701.3992269643385
 20
94.73726987841654
 30
0.0
 11
709.3992269643385
 21
94.73726987841651
 31
0.0
  0
LINE
  5
104
330
1F
100
AcDbEntity
  8
2
  6
CONTINUOUS
 62
     7
100
AcDbLine
 10
699.9005299502451
 20
94.1096128976647
 30
0.0
 11
700.0420841071957
 21
95.08650650082451
 31
0.0
  0
LINE
  5
105
330
1F
100
AcDbEntity
  8
2
  6
CONTINUOUS
 62
     7
100
AcDbLine
 10
710.7563698214814
 20
95.08650650082451
 30
0.0
 11
700.0420841071957
 21
95.08650650082451
 31
0.0
  0
LINE
  5
106
330
1F
100
AcDbEntity
  8
2
  6
CONTINUOUS
 62
     7
100
AcDbLine
 10
710.7563698214814
 20
95.08650650082451
 30
0.0
 11
710.897923978432
 21
94.1096128976646
 31
0.0
  0
LINE
  5
107
330
1F
100
AcDbEntity
  8
2
  6
CONTINUOUS
 62
     7
100
AcDbLine
 10
701.3992269643385
 20
94.1096128976647
 30
0.0
 11
701.3992269643385
 21
94.73726987841654
 31
0.0
  0
LINE
  5
108
330
1F
100
AcDbEntity
  8
2
  6
CONTINUOUS
 62
     7
100
AcDbLine
 10
709.3992269643384
 20
94.10961289766462
 30
0.0
 11
709.3992269643384
 21
94.73726987841651
 31
0.0
  0
LINE
  5
109
330
1F
100
AcDbEntity
  8
2
  6
CONTINUOUS
 62
     7
100
AcDbLine
 10
710.7563698214814
 20
95.1002160373027
 30
0.0
 11
710.7563698214814
 21
95.0865065008245
 31
0.0
  0
LINE
  5
10A
330
1F
100
AcDbEntity
  8
2
  6
CONTINUOUS
 62
     7
100
AcDbLine
 10
726.9134934991755
 20
111.2436301785187
 30
0.0
 11
726.9134934991755
 21
121.9579158928044
 31
0.0
  0
LINE
  5
10B
330
1F
100
AcDbEntity
  8
2
  6
CONTINUOUS
 62
     7
100
AcDbLine
 10
727.8903871023354
 20
122.099470049755
 30
0.0
 11
726.9134934991755
 21
121.9579158928044
 31
0.0
  0
LINE
  5
10C
330
1F
100
AcDbEntity
  8
2
  6
CONTINUOUS
 62
     7
100
AcDbLine
 10
727.2627301215834
 20
120.6007730356616
 30
0.0
 11
727.2627301215834
 21
112.6007730356616
 31
0.0
  0
LINE
  5
10D
330
1F
100
AcDbEntity
  8
2
  6
CONTINUOUS
 62
     7
100
AcDbLine
 10
727.8903871023354
 20
120.6007730356616
 30
0.0
 11
727.2627301215834
 21
120.6007730356616
 31
0.0
  0
LINE
  5
10E
330
1F
100
AcDbEntity
  8
2
  6
CONTINUOUS
 62
     7
100
AcDbLine
 10
727.8903871023355
 20
112.6007730356616
 30
0.0
 11
727.2627301215836
 21
112.6007730356616
 31
0.0
  0
LINE
  5
10F
330
1F
100
AcDbEntity
  8
2
  6
CONTINUOUS
 62
     7
100
AcDbLine
 10
700.0420841071956
 20
95.08650650082451
 30
0.0
 11
700.0420841071956
 21
95.10021603730272
 31
0.0
  0
LINE
  5
110
330
1F
100
AcDbEntity
  8
2
  6
CONTINUOUS
 62
     7
100
AcDbLine
 10
726.9134934991755
 20
121.9579158928044
 30
0.0
 11
726.8997839626974
 21
121.9579158928044
 31
0.0
  0
LINE
  5
111
330
1F
100
AcDbEntity
  8
2
  6
CONTINUOUS
 62
     7
100
AcDbLine
 10
725.9136458040192
 20
111.3864873213759
 30
0.0
 11
726.8815472403323
 21
111.2462361503319
 31
0.0
  0
LINE
  5
112
330
1F
100
AcDbEntity
  8
2
  6
CONTINUOUS
 62
     7
100
AcDbLine
 10
725.9136458040192
 20
111.3864873213759
 30
0.0
 11
725.9136458040192
 21
121.8150587499473
 31
0.0
  0
LINE
  5
113
330
1F
100
AcDbEntity
  8
2
  6
CONTINUOUS
 62
     7
100
AcDbLine
 10
726.8815472403322
 20
121.9553099209912
 30
0.0
 11
725.9136458040192
 21
121.8150587499473
 31
0.0
  0
LINE
  5
114
330
1F
100
AcDbEntity
  8
2
  6
CONTINUOUS
 62
     7
100
AcDbLine
 10
710.6135126786241
 20
96.08635419598087
 30
0.0
 11
700.1849412500527
 21
96.08635419598089
 31
0.0
  0
LINE
  5
115
330
1F
100
AcDbEntity
  8
2
  6
CONTINUOUS
 62
     7
100
AcDbLine
 10
710.6135126786241
 20
96.08635419598087
 30
0.0
 11
710.7537638496682
 21
95.11845275966766
 31
0.0
  0
LINE
  5
116
330
1F
100
AcDbEntity
  8
2
  6
CONTINUOUS
 62
     7
100
AcDbLine
 10
700.0446900790088
 20
95.11845275966776
 30
0.0
 11
700.1849412500528
 21
96.08635419598089
 31
0.0
  0
LINE
  5
117
330
1F
100
AcDbEntity
  8
2
  6
CONTINUOUS
 62
     7
100
AcDbLine
 10
725.8999951847414
 20
111.3864873213759
 30
0.0
 11
725.9136458040192
 21
111.3864873213759
 31
0.0
  0
LINE
  5
118
330
1F
100
AcDbEntity
  8
2
  6
CONTINUOUS
 62
     7
100
AcDbLine
 10
710.6135126786241
 20
96.10000481525857
 30
0.0
 11
710.6135126786241
 21
96.08635419598087
 31
0.0
  0
LINE
  5
119
330
1F
100
AcDbEntity
  8
2
  6
CONTINUOUS
 62
     7
100
AcDbLine
 10
700.1849412500528
 20
96.08635419598087
 30
0.0
 11
700.1849412500528
 21
96.0999375381233
 31
0.0
  0
LINE
  5
11A
330
1F
100
AcDbEntity
  8
2
  6
CONTINUOUS
 62
     7
100
AcDbLine
 10
725.9136458040192
 20
121.8150587499473
 30
0.0
 11
725.9000624618767
 21
121.8150587499473
 31
0.0
  0
LINE
  5
11B
330
1F
100
AcDbEntity
  8
2
  6
CONTINUOUS
 62
     7
100
AcDbLine
 10
724.9000890545236
 20
111.529344464233
 30
0.0
 11
724.9137981088628
 21
111.529344464233
 31
0.0
  0
LINE
  5
11C
330
1F
100
AcDbEntity
  8
2
  6
CONTINUOUS
 62
     7
100
AcDbLine
 10
724.9137981088628
 20
111.529344464233
 30
0.0
 11
725.8777934263525
 21
111.3896592988986
 31
0.0
  0
LINE
  5
11D
330
1F
100
AcDbEntity
  8
2
  6
CONTINUOUS
 62
     7
100
AcDbLine
 10
710.470655535767
 20
97.0862018911373
 30
0.0
 11
700.3277983929099
 21
97.0862018911373
 31
0.0
  0
LINE
  5
11E
330
1F
100
AcDbEntity
  8
2
  6
CONTINUOUS
 62
     7
100
AcDbLine
 10
710.470655535767
 20
97.0862018911373
 30
0.0
 11
710.6103407011014
 21
96.12220657364765
 31
0.0
  0
LINE
  5
11F
330
1F
100
AcDbEntity
  8
2
  6
CONTINUOUS
 62
     7
100
AcDbLine
 10
700.1888502077726
 20
96.12729262167088
 30
0.0
 11
700.3277983929099
 21
97.0862018911373
 31
0.0
  0
LINE
  5
120
330
1F
100
AcDbEntity
  8
2
  6
CONTINUOUS
 62
     7
100
AcDbLine
 10
724.9137981088628
 20
111.529344464233
 30
0.0
 11
724.9137981088628
 21
121.6722016070902
 31
0.0
  0
LINE
  5
121
330
1F
100
AcDbEntity
  8
2
  6
CONTINUOUS
 62
     7
100
AcDbLine
 10
725.8727073783292
 20
121.8111497922275
 30
0.0
 11
724.9137981088628
 21
121.6722016070901
 31
0.0
  0
LINE
  5
122
330
1F
100
AcDbEntity
  8
2
  6
CONTINUOUS
 62
     7
100
AcDbLine
 10
710.470655535767
 20
97.09991094547648
 30
0.0
 11
710.470655535767
 21
97.0862018911373
 31
0.0
  0
LINE
  5
123
330
1F
100
AcDbEntity
  8
2
  6
CONTINUOUS
 62
     7
100
AcDbLine
 10
700.3277983929099
 20
97.0862018911373
 30
0.0
 11
700.3277983929099
 21
97.09965903894391
 31
0.0
  0
LINE
  5
124
330
1F
100
AcDbEntity
  8
2
  6
CONTINUOUS
 62
     7
100
AcDbLine
 10
724.9137981088628
 20
121.6722016070901
 30
0.0
 11
724.9003409610561
 21
121.6722016070901
 31
0.0
  0
LINE
  5
125
330
1F
100
AcDbEntity
  8
2
  6
CONTINUOUS
 62
     7
100
AcDbLine
 10
723.9139504137063
 20
111.6722016070902
 30
0.0
 11
724.8820547765233
 21
111.5319210315234
 31
0.0
  0
LINE
  5
126
330
1F
100
AcDbEntity
  8
2
  6
CONTINUOUS
 62
     7
100
AcDbLine
 10
723.9139504137063
 20
111.6722016070902
 30
0.0
 11
723.9139504137063
 21
121.529344464233
 31
0.0
  0
LINE
  5
127
330
1F
100
AcDbEntity
  8
2
  6
CONTINUOUS
 62
     7
100
AcDbLine
 10
724.8638675163261
 20
121.6669896634638
 30
0.0
 11
723.9139504137064
 21
121.529344464233
 31
0.0
  0
LINE
  5
128
330
1F
100
AcDbEntity
  8
2
  6
CONTINUOUS
 62
     7
100
AcDbLine
 10
723.9001829243057
 20
111.6722016070902
 30
0.0
 11
723.9139504137064
 21
111.6722016070902
 31
0.0
  0
LINE
  5
129
330
1F
100
AcDbEntity
  8
2
  6
CONTINUOUS
 62
     7
100
AcDbLine
 10
710.3277983929099
 20
98.08604958629368
 30
0.0
 11
710.4680789684767
 21
97.11794522347667
 31
0.0
  0
LINE
  5
12A
330
1F
100
AcDbEntity
  8
2
  6
CONTINUOUS
 62
     7
100
AcDbLine
 10
710.3277983929099
 20
98.09981707569438
 30
0.0
 11
710.3277983929099
 21
98.08604958629367
 31
0.0
  0
LINE
  5
12B
330
1F
100
AcDbEntity
  8
2
  6
CONTINUOUS
 62
     7
100
AcDbLine
 10
710.3277983929099
 20
98.08604958629368
 30
0.0
 11
700.470655535767
 21
98.08604958629368
 31
0.0
  0
LINE
  5
12C
330
1F
100
AcDbEntity
  8
2
  6
CONTINUOUS
 62
     7
100
AcDbLine
 10
700.3330103365363
 20
97.13613248367398
 30
0.0
 11
700.4706555357672
 21
98.0860495862937
 31
0.0
  0
LINE
  5
12D
330
1F
100
AcDbEntity
  8
2
  6
CONTINUOUS
 62
     7
100
AcDbLine
 10
700.470655535767
 20
98.08604958629368
 30
0.0
 11
700.470655535767
 21
98.0993805397645
 31
0.0
  0
LINE
  5
12E
330
1F
100
AcDbEntity
  8
2
  6
CONTINUOUS
 62
     7
100
AcDbLine
 10
723.9139504137063
 20
121.529344464233
 30
0.0
 11
723.9006194602355
 21
121.529344464233
 31
0.0
  0
LINE
  5
12F
330
1F
100
AcDbEntity
  8
2
  6
CONTINUOUS
 62
     7
100
AcDbLine
 10
722.9002767940877
 20
111.8150587499473
 30
0.0
 11
722.9141027185499
 21
111.8150587499473
 31
0.0
  0
LINE
  5
130
330
1F
100
AcDbEntity
  8
2
  6
CONTINUOUS
 62
     7
100
AcDbLine
 10
722.9141027185499
 20
111.8150587499473
 30
0.0
 11
723.8863161266943
 21
111.6741827641483
 31
0.0
  0
LINE
  5
131
330
1F
100
AcDbEntity
  8
2
  6
CONTINUOUS
 62
     7
100
AcDbLine
 10
710.1849412500528
 20
99.08589728145009
 30
0.0
 11
710.3258172358519
 21
98.11368387330572
 31
0.0
  0
LINE
  5
132
330
1F
100
AcDbEntity
  8
2
  6
CONTINUOUS
 62
     7
100
AcDbLine
 10
710.1849412500528
 20
99.09972320591228
 30
0.0
 11
710.1849412500528
 21
99.08589728145009
 31
0.0
  0
LINE
  5
133
330
1F
100
AcDbEntity
  8
2
  6
CONTINUOUS
 62
     7
100
AcDbLine
 10
722.9141027185499
 20
111.8150587499473
 30
0.0
 11
722.9141027185499
 21
121.3864873213759
 31
0.0
  0
LINE
  5
134
330
1F
100
AcDbEntity
  8
2
  6
CONTINUOUS
 62
     7
100
AcDbLine
 10
723.855027654323
 20
121.5228295347001
 30
0.0
 11
722.9141027185499
 21
121.3864873213759
 31
0.0
  0
LINE
  5
135
330
1F
100
AcDbEntity
  8
2
  6
CONTINUOUS
 62
     7
100
AcDbLine
 10
710.1849412500528
 20
99.08589728145009
 30
0.0
 11
700.6135126786243
 21
99.08589728145009
 31
0.0
  0
LINE
  5
136
330
1F
100
AcDbEntity
  8
2
  6
CONTINUOUS
 62
     7
100
AcDbLine
 10
700.4771704653
 20
98.14497234567706
 30
0.0
 11
700.6135126786243
 21
99.08589728145009
 31
0.0
  0
LINE
  5
137
330
1F
100
AcDbEntity
  8
2
  6
CONTINUOUS
 62
     7
100
AcDbLine
 10
722.9141027185499
 20
121.3864873213759
 30
0.0
 11
722.9008979594149
 21
121.3864873213759
 31
0.0
  0
LINE
  5
138
330
1F
100
AcDbEntity
  8
2
  6
CONTINUOUS
 62
     7
100
AcDbLine
 10
700.6135126786241
 20
99.08589728145009
 30
0.0
 11
700.6135126786241
 21
99.09910204058508
 31
0.0
  0
LINE
  5
139
330
1F
100
AcDbEntity
  8
2
  6
CONTINUOUS
 62
   253
100
AcDbLine
 10
722.6174606319969
 20
111.8554648517294
 30
0.0
 11
722.6212901880214
 21
111.8554648517294
 31
0.0
  0
LINE
  5
13A
330
1F
100
AcDbEntity
  8
2
  6
CONTINUOUS
 62
     7
100
AcDbLine
 10
722.6212901880214
 20
111.8554648517294
 30
0.0
 11
722.8905774768652
 21
111.8164444967731
 31
0.0
  0
ELLIPSE
  5
13B
330
1F
100
AcDbEntity
  8
2
  6
CONTINUOUS
 62
     7
100
AcDbEllipse
 10
702.6338177677286
 20
99.09985920659989
 30
0.0
 11
1.999999999999997
 21
0.0
 31
0.0
210
0.0
220
0.0
230
-1.0
 40
0.9858857700065641
 41
3.28348970819395
 42
3.665191429188082
  0
LINE
  5
13C
330
1F
100
AcDbEntity
  8
2
  6
CONTINUOUS
 62
     7
100
AcDbLine
 10
709.8966869685172
 20
100.0857449766065
 30
0.0
 11
700.9017669601598
 21
100.0857449766065
 31
0.0
  0
ELLIPSE
  5
13D
330
1F
100
AcDbEntity
  8
2
  6
CONTINUOUS
 62
     7
100
AcDbEllipse
 10
708.1646361609484
 20
99.09985920659989
 30
0.0
 11
2.000000000000003
 21
0.0
 31
0.0
210
0.0
220
0.0
230
-1.0
 40
0.9858857700065641
 41
5.75958653158128
 42
6.141288252575415
  0
LINE
  5
13E
330
1F
100
AcDbEntity
  8
2
  6
CONTINUOUS
 62
     7
100
AcDbLine
 10
710.1445351482707
 20
99.37870981197868
 30
0.0
 11
710.183555503227
 21
99.10942252313475
 31
0.0
  0
LINE
  5
13F
330
1F
100
AcDbEntity
  8
2
  6
CONTINUOUS
 62
     7
100
AcDbLine
 10
700.6213305940637
 20
99.15381220768013
 30
0.0
 11
700.6539187804063
 21
99.37870981197868
 31
0.0
  0
ELLIPSE
  5
140
330
1F
100
AcDbEntity
  8
2
  6
CONTINUOUS
 62
     7
100
AcDbEllipse
 10
722.9001407934002
 20
113.8353638390517
 30
0.0
 11
0.0
 21
-2.000000000000003
 31
0.0
210
0.0
220
0.0
230
1.0
 40
0.9858857700065641
 41
5.75958653158128
 42
6.141288252575415
  0
LINE
  5
141
330
1F
100
AcDbEntity
  8
2
  6
CONTINUOUS
 62
     7
100
AcDbLine
 10
721.9142550233936
 20
112.1033130314828
 30
0.0
 11
721.9142550233936
 21
121.0982330398403
 31
0.0
  0
ELLIPSE
  5
142
330
1F
100
AcDbEntity
  8
2
  6
CONTINUOUS
 62
     7
100
AcDbEllipse
 10
722.9001407934002
 20
119.3661822322714
 30
0.0
 11
0.0
 21
-1.999999999999997
 31
0.0
210
0.0
220
0.0
230
1.0
 40
0.9858857700065641
 41
3.28348970819395
 42
3.665191429188082
  0
LINE
  5
143
330
1F
100
AcDbEntity
  8
2
  6
CONTINUOUS
 62
     7
100
AcDbLine
 10
722.8461877923199
 20
121.3786694059364
 30
0.0
 11
722.6212901880214
 21
121.3460812195938
 31
0.0
  0
LINE
  5
144
330
1F
100
AcDbEntity
  8
2
  6
CONTINUOUS
 62
   253
100
AcDbLine
 10
710.1445351482707
 20
99.3825393680031
 30
0.0
 11
710.1445351482707
 21
99.37870981197865
 31
0.0
  0
LINE
  5
145
330
1F
100
AcDbEntity
  8
2
  6
CONTINUOUS
 62
     7
100
AcDbLine
 10
709.8966869685172
 20
100.0995980184024
 30
0.0
 11
709.8966869685172
 21
100.0857449766064
 31
0.0
  0
LINE
  5
146
330
1F
100
AcDbEntity
  8
2
  6
CONTINUOUS
 62
     7
100
AcDbLine
 10
721.9004019815976
 20
112.1033130314828
 30
0.0
 11
721.9142550233936
 21
112.1033130314828
 31
0.0
  0
LINE
  5
147
330
1F
100
AcDbEntity
  8
2
  6
CONTINUOUS
 62
     7
100
AcDbLine
 10
700.9017669601596
 20
100.0857449766065
 30
0.0
 11
700.9017669601596
 21
100.0988235414057
 31
0.0
  0
LINE
  5
148
330
1F
100
AcDbEntity
  8
2
  6
CONTINUOUS
 62
     7
100
AcDbLine
 10
721.9142550233936
 20
121.0982330398403
 30
0.0
 11
721.9011764585944
 21
121.0982330398403
 31
0.0
  0
ELLIPSE
  5
149
330
1F
100
AcDbEntity
  8
2
  6
CONTINUOUS
 62
     7
100
AcDbEllipse
 10
722.8861788682503
 20
113.8353638390517
 30
0.0
 11
0.0
 21
-2.000000000000003
 31
0.0
210
0.0
220
0.0
230
1.0
 40
0.9858857700065641
 41
4.712388980384683
 42
5.755066524020457
  0
LINE
  5
14A
330
1F
100
AcDbEntity
  8
2
  6
CONTINUOUS
 62
     7
100
AcDbLine
 10
720.9144073282372
 20
113.8353638390517
 30
0.0
 11
720.9144073282372
 21
119.3661822322714
 31
0.0
  0
ELLIPSE
  5
14B
330
1F
100
AcDbEntity
  8
2
  6
CONTINUOUS
 62
     7
100
AcDbEllipse
 10
722.8861788682503
 20
119.3661822322714
 30
0.0
 11
0.0
 21
-1.999999999999997
 31
0.0
210
0.0
220
0.0
230
1.0
 40
0.9858857700065641
 41
3.70246270787002
 42
4.71238898038468
  0
LINE
  5
14C
330
1F
100
AcDbEntity
  8
2
  6
CONTINUOUS
 62
   253
100
AcDbLine
 10
720.9008381547774
 20
113.8353638390517
 30
0.0
 11
720.9144073282372
 21
113.8353638390517
 31
0.0
  0
ELLIPSE
  5
14D
330
1F
100
AcDbEntity
  8
2
  6
CONTINUOUS
 62
     7
100
AcDbEllipse
 10
708.1646361609484
 20
99.11382113174972
 30
0.0
 11
2.000000000000003
 21
0.0
 31
0.0
210
0.0
220
0.0
230
-1.0
 40
0.9858857700065641
 41
4.712388980384683
 42
5.755066524020457
  0
LINE
  5
14E
330
1F
100
AcDbEntity
  8
2
  6
CONTINUOUS
 62
   253
100
AcDbLine
 10
708.1646361609484
 20
101.0991618452227
 30
0.0
 11
708.1646361609484
 21
101.0855926717629
 31
0.0
  0
LINE
  5
14F
330
1F
100
AcDbEntity
  8
2
  6
CONTINUOUS
 62
     7
100
AcDbLine
 10
708.1646361609484
 20
101.0855926717628
 30
0.0
 11
702.6338177677286
 21
101.0855926717628
 31
0.0
  0
ELLIPSE
  5
150
330
1F
100
AcDbEntity
  8
2
  6
CONTINUOUS
 62
     7
100
AcDbEllipse
 10
702.6338177677286
 20
99.11382113174972
 30
0.0
 11
1.999999999999997
 21
0.0
 31
0.0
210
0.0
220
0.0
230
-1.0
 40
0.9858857700065641
 41
3.70246270787002
 42
4.71238898038468
  0
LINE
  5
151
330
1F
100
AcDbEntity
  8
2
  6
CONTINUOUS
 62
   253
100
AcDbLine
 10
722.6181340184037
 20
121.3460812195938
 30
0.0
 11
722.6212901880214
 21
121.3460812195938
 31
0.0
  0
LINE
  5
152
330
1F
100
AcDbEntity
  8
2
  6
CONTINUOUS
 62
   253
100
AcDbLine
 10
700.6539187804062
 20
99.38186598159638
 30
0.0
 11
700.6539187804062
 21
99.3787098119787
 31
0.0
  0
LINE
  5
153
330
1F
100
AcDbEntity
  8
2
  6
CONTINUOUS
 62
   253
100
AcDbLine
 10
720.9014549577738
 20
119.3661822322715
 30
0.0
 11
720.9144073282372
 21
119.3661822322715
 31
0.0
  0
LINE
  5
154
330
1F
100
AcDbEntity
  8
2
  6
CONTINUOUS
 62
   253
100
AcDbLine
 10
702.6338177677286
 20
101.0985450422262
 30
0.0
 11
702.6338177677286
 21
101.0855926717628
 31
0.0
  0
ARC
  5
155
330
1F
100
AcDbEntity
  8
2
  6
CONTINUOUS
 62
   253
100
AcDbCircle
 10
706.2268178698899
 20
125.7658551581874
 30
0.0
 40
3.001790129834065
100
AcDbArc
 50
315.0443564049712
 51
359.9532459713004
  0
ARC
  5
156
330
1F
100
AcDbEntity
  8
2
  6
CONTINUOUS
 62
   253
100
AcDbCircle
 10
-696.2341448418126
 20
115.7731821301101
 30
0.0
 40
3.001790129834065
210
0.0
220
0.0
230
-1.0
100
AcDbArc
 50
225.0443564049712
 51
269.9532459713004
  0
LINE
  5
157
330
1F
100
AcDbEntity
  8
2
  6
CONTINUOUS
 62
   253
100
AcDbLine
 10
698.3550872153086
 20
113.6489532917981
 30
0.0
 11
708.3510467082019
 21
123.6449127846915
 31
0.0
  0
LINE
  5
158
330
1F
100
AcDbEntity
  8
2
  6
CONTINUOUS
 62
   253
100
AcDbLine
 10
709.2286071213624
 20
125.763405671158
 30
0.0
 11
709.2286071213624
 21
128.2730181362965
 31
0.0
  0
ELLIPSE
  5
159
330
1F
100
AcDbEntity
  8
2
  6
CONTINUOUS
 62
     7
100
AcDbEllipse
 10
709.7213684296224
 20
-111.2090984921198
 30
0.0
 11
0.4927935000223686
 21
-239.4821338678998
 31
0.0
210
0.0
220
0.0
230
-1.0
 40
0.0003531982459809
 41
3.141972818841905
 42
3.150979213285513
  0
ELLIPSE
  5
15A
330
1F
100
AcDbEntity
  8
2
  6
CONTINUOUS
 62
     7
100
AcDbEllipse
 10
933.2090984921199
 20
112.2786315703776
 30
0.0
 11
239.4821338678998
 21
-0.4927935000223686
 31
0.0
210
0.0
220
0.0
230
1.0
 40
0.0003531982459809
 41
3.141972818841905
 42
3.150979213285513
  0
LINE
  5
15B
330
1F
100
AcDbEntity
  8
2
  6
CONTINUOUS
 62
   253
100
AcDbLine
 10
696.2365943288421
 20
112.7713928786377
 30
0.0
 11
693.7269818637035
 21
112.7713928786377
 31
0.0
  0
LINE
  5
15C
330
1F
100
AcDbEntity
  8
2
  6
CONTINUOUS
 62
     7
100
AcDbLine
 10
674.9656933885183
 20
112.7668623991643
 30
0.0
 11
674.8995879193316
 21
112.290155616094
 31
0.0
  0
LINE
  5
15D
330
1F
100
AcDbEntity
  8
2
  6
CONTINUOUS
 62
     7
100
AcDbLine
 10
674.9676516789217
 20
112.7706094137648
 30
0.0
 11
674.9656933885183
 21
112.7668623991643
 31
0.0
  0
LINE
  5
15E
330
1F
100
AcDbEntity
  8
2
  6
CONTINUOUS
 62
   253
100
AcDbLine
 10
693.7375129994288
 20
112.7706094137648
 30
0.0
 11
674.9676516789217
 21
112.7706094137648
 31
0.0
  0
LINE
  5
15F
330
1F
100
AcDbEntity
  8
2
  6
CONTINUOUS
 62
   253
100
AcDbLine
 10
709.2293905862352
 20
128.2624870005712
 30
0.0
 11
709.2293905862352
 21
147.0323483210784
 31
0.0
  0
LINE
  5
160
330
1F
100
AcDbEntity
  8
2
  6
CONTINUOUS
 62
     7
100
AcDbLine
 10
709.2293905862352
 20
147.0323483210784
 30
0.0
 11
709.2331376008357
 21
147.0343066114818
 31
0.0
  0
LINE
  5
161
330
1F
100
AcDbEntity
  8
2
  6
CONTINUOUS
 62
     7
100
AcDbLine
 10
709.2331376008357
 20
147.0343066114818
 30
0.0
 11
709.709844383906
 21
147.1004120806686
 31
0.0
  0
LINE
  5
162
330
1F
100
AcDbEntity
  8
2
  6
CONTINUOUS
 62
   253
100
AcDbLine
 10
674.9656933885183
 20
112.7668623991643
 30
0.0
 11
671.3895677649343
 21
112.1410404150371
 31
0.0
  0
LINE
  5
163
330
1F
100
AcDbEntity
  8
2
  6
CONTINUOUS
 62
   253
100
AcDbLine
 10
709.2331376008357
 20
147.0343066114818
 30
0.0
 11
709.8589595849629
 21
150.6104322350659
 31
0.0
  0
LINE
  5
164
330
1F
100
AcDbEntity
  8
2
  6
CONTINUOUS
 62
     7
100
AcDbLine
 10
670.8992269643385
 20
111.140730761789
 30
0.0
 11
670.8992269643385
 21
93.10077303566155
 31
0.0
  0
LINE
  5
165
330
1F
100
AcDbEntity
  8
2
  6
CONTINUOUS
 62
     7
100
AcDbLine
 10
710.8592692382109
 20
151.1007730356615
 30
0.0
 11
728.8992269643384
 21
151.1007730356616
 31
0.0
  0
LINE
  5
166
330
1F
100
AcDbEntity
  8
2
  6
CONTINUOUS
 62
     7
100
AcDbLine
 10
702.8640696657448
 20
119.1359303342553
 30
0.0
 11
702.4740268855696
 21
118.5824463923199
 31
0.0
  0
ELLIPSE
  5
167
330
1F
100
AcDbEntity
  8
2
  6
CONTINUOUS
 62
     7
100
AcDbEllipse
 10
683.769485398196
 20
115.3826623449016
 30
0.0
 11
-12.37750609073341
 21
-2.399762451405648
 31
0.0
210
0.0
220
0.0
230
-1.0
 40
0.1055306216882056
 41
0.0204575212118661
 42
0.0235178592894303
  0
ELLIPSE
  5
168
330
1F
100
AcDbEntity
  8
2
  6
CONTINUOUS
 62
     7
100
AcDbEllipse
 10
650.1363571334527
 20
108.7007730356616
 30
0.0
 11
24.83076829466527
 21
4.93334712610515
 31
0.0
210
0.0
220
0.0
230
-1.0
 40
0.0327692942952431
 41
6.275738788719567
 42
6.289695779099944
  0
LINE
  5
169
330
1F
100
AcDbEntity
  8
2
  6
CONTINUOUS
 62
     7
100
AcDbLine
 10
674.9676516789217
 20
113.6287181617675
 30
0.0
 11
674.9676516789217
 21
112.7706094137648
 31
0.0
  0
LINE
  5
16A
330
1F
100
AcDbEntity
  8
2
  6
CONTINUOUS
 62
     7
100
AcDbLine
 10
671.3895677649342
 20
112.1410404150371
 30
0.0
 11
671.3893887996189
 21
112.1437219817527
 31
0.0
  0
LINE
  5
16B
330
1F
100
AcDbEntity
  8
2
  6
CONTINUOUS
 62
     7
100
AcDbLine
 10
709.8589595849629
 20
150.6104322350659
 30
0.0
 11
709.8562780182474
 21
150.610611200381
 31
0.0
  0
LINE
  5
16C
330
1F
100
AcDbEntity
  8
2
  6
CONTINUOUS
 62
     7
100
AcDbLine
 10
708.3712818382324
 20
147.0323483210784
 30
0.0
 11
709.2293905862352
 21
147.0323483210784
 31
0.0
  0
ELLIPSE
  5
16D
330
1F
100
AcDbEntity
  8
2
  6
CONTINUOUS
 62
     7
100
AcDbEllipse
 10
713.2992269643385
 20
171.8636428665473
 30
0.0
 11
-4.93334712610515
 21
-24.83076829466527
 31
0.0
210
0.0
220
0.0
230
1.0
 40
0.0327692942952431
 41
6.275738788719567
 42
6.289695779099944
  0
ELLIPSE
  5
16E
330
1F
100
AcDbEntity
  8
2
  6
CONTINUOUS
 62
     7
100
AcDbEllipse
 10
3087.629520753102
 20
108.7007730356614
 30
0.0
 11
2394.821338679197
 21
-4.927935000223603
 31
0.0
210
0.0
220
0.0
230
1.0
 40
0.0003531982459809
 41
3.141580681873159
 42
3.141972818841905
  0
LINE
  5
16F
330
1F
100
AcDbEntity
  8
2
  6
CONTINUOUS
 62
   253
100
AcDbLine
 10
709.8562780182474
 20
150.610611200381
 30
0.0
 11
710.3657310314665
 21
151.1007730356615
 31
0.0
  0
LINE
  5
170
330
1F
100
AcDbEntity
  8
2
  6
CONTINUOUS
 62
     7
100
AcDbLine
 10
710.3657310314665
 20
151.1007730356615
 30
0.0
 11
710.8592692382109
 21
151.1007730356615
 31
0.0
  0
LINE
  5
171
330
1F
100
AcDbEntity
  8
2
  6
CONTINUOUS
 62
   253
100
AcDbLine
 10
671.3893887996189
 20
112.1437219817527
 30
0.0
 11
670.8992269643385
 21
111.6342689685335
 31
0.0
  0
LINE
  5
172
330
1F
100
AcDbEntity
  8
2
  6
CONTINUOUS
 62
     7
100
AcDbLine
 10
670.8992269643385
 20
111.6342689685335
 30
0.0
 11
670.8992269643385
 21
111.140730761789
 31
0.0
  0
LINE
  5
173
330
1F
100
AcDbEntity
  8
2
  6
CONTINUOUS
 62
     7
100
AcDbLine
 10
709.5732672484211
 20
151.1007730356615
 30
0.0
 11
710.3657310314666
 21
151.1007730356615
 31
0.0
  0
LINE
  5
174
330
1F
100
AcDbEntity
  8
2
  6
CONTINUOUS
 62
     7
100
AcDbLine
 10
670.8992269643385
 20
112.426732751579
 30
0.0
 11
670.8992269643385
 21
111.6342689685335
 31
0.0
  0
LWPOLYLINE
  5
175
330
1F
100
AcDbEntity
  8
2
  6
CONTINUOUS
 62
     7
100
AcDbPolyline
 90
        3
 70
     0
 43
0.0
 10
703.4225675614515
 20
119.5079622500384
 10
703.3172872266148
 20
119.5071356214616
 42
0.0647926407952707
 10
702.8640696657448
 20
119.1359303342553
  0
LWPOLYLINE
  5
176
330
1F
100
AcDbEntity
  8
2
  6
CONTINUOUS
 62
     7
100
AcDbPolyline
 90
        5
 70
     0
 43
0.0
 10
702.4920377499616
 20
118.5774324385486
 10
702.5893472468467
 20
118.6153767882614
 42
0.0883749112091447
 10
703.3637259821677
 20
119.3767153485459
 10
703.4129855542348
 20
119.4675462977039
 10
703.4225675614515
 20
119.5079622500384
  0
ARC
  5
177
330
1F
100
AcDbEntity
  8
2
  6
CONTINUOUS
 62
     7
100
AcDbCircle
 10
706.2989137838059
 20
125.696862252179
 30
0.0
 40
2.000313184738926
100
AcDbArc
 50
315.0037157262284
 51
359.996284273771
  0
ARC
  5
178
330
1F
100
AcDbEntity
  8
2
  6
CONTINUOUS
 62
     7
100
AcDbCircle
 10
-696.303137747821
 20
115.7010862161941
 30
0.0
 40
2.000313184738926
210
0.0
220
0.0
230
-1.0
100
AcDbArc
 50
225.0037157262284
 51
269.9962842737709
  0
LINE
  5
179
330
1F
100
AcDbEntity
  8
2
  6
CONTINUOUS
 62
     7
100
AcDbLine
 10
697.7174810338182
 20
114.2865594732885
 30
0.0
 11
707.7134405267116
 21
124.2825189661818
 31
0.0
  0
LINE
  5
17A
330
1F
100
AcDbEntity
  8
2
  6
CONTINUOUS
 62
     7
100
AcDbLine
 10
696.3032674714451
 20
113.7007730356616
 30
0.0
 11
692.8134016750072
 21
113.7007730356616
 31
0.0
  0
LINE
  5
17B
330
1F
100
AcDbEntity
  8
2
  6
CONTINUOUS
 62
     7
100
AcDbLine
 10
708.2992269643386
 20
125.6967325285549
 30
0.0
 11
708.2992269643386
 21
129.1865983249928
 31
0.0
  0
LINE
  5
17C
330
1F
100
AcDbEntity
  8
2
  6
CONTINUOUS
 62
     7
100
AcDbLine
 10
708.2992269643386
 20
129.1865983249928
 30
0.0
 11
708.2992269643386
 21
147.0967749761282
 31
0.0
  0
LINE
  5
17D
330
1F
100
AcDbEntity
  8
2
  6
CONTINUOUS
 62
     7
100
AcDbLine
 10
708.2992269643386
 20
147.0967749761282
 30
0.0
 11
708.3599575387861
 21
147.034766819867
 31
0.0
  0
LINE
  5
17E
330
1F
100
AcDbEntity
  8
2
  6
CONTINUOUS
 62
     7
100
AcDbLine
 10
674.9032250238719
 20
113.7007730356616
 30
0.0
 11
674.965233180133
 21
113.640042461214
 31
0.0
  0
LINE
  5
17F
330
1F
100
AcDbEntity
  8
2
  6
CONTINUOUS
 62
     7
100
AcDbLine
 10
692.8134016750073
 20
113.7007730356616
 30
0.0
 11
674.9032250238719
 21
113.7007730356616
 31
0.0
  0
LINE
  5
180
330
1F
100
AcDbEntity
  8
2
  6
CONTINUOUS
 62
     7
100
AcDbLine
 10
671.3894467735182
 20
113.0142798400564
 30
0.0
 11
671.3917421979164
 21
113.0869632015377
 31
0.0
  0
LINE
  5
181
330
1F
100
AcDbEntity
  8
2
  6
CONTINUOUS
 62
     7
100
AcDbLine
 10
674.8992269643386
 20
113.7007730356616
 30
0.0
 11
671.3917421979164
 21
113.0869632015377
 31
0.0
  0
LINE
  5
182
330
1F
100
AcDbEntity
  8
2
  6
CONTINUOUS
 62
     7
100
AcDbLine
 10
674.9032250238719
 20
113.7007730356616
 30
0.0
 11
674.8992269643386
 21
113.7007730356616
 31
0.0
  0
LINE
  5
183
330
1F
100
AcDbEntity
  8
2
  6
CONTINUOUS
 62
     7
100
AcDbLine
 10
708.2992269643386
 20
147.0967749761282
 30
0.0
 11
708.2992269643386
 21
147.1007730356616
 31
0.0
  0
LINE
  5
184
330
1F
100
AcDbEntity
  8
2
  6
CONTINUOUS
 62
     7
100
AcDbLine
 10
708.2992269643386
 20
147.1007730356615
 30
0.0
 11
708.9130367984624
 21
150.6082578020837
 31
0.0
  0
LINE
  5
185
330
1F
100
AcDbEntity
  8
2
  6
CONTINUOUS
 62
     7
100
AcDbLine
 10
708.9130367984624
 20
150.6082578020837
 30
0.0
 11
709.4992269643385
 21
151.1007730356615
 31
0.0
  0
LINE
  5
186
330
1F
100
AcDbEntity
  8
2
  6
CONTINUOUS
 62
     7
100
AcDbLine
 10
709.4992269643384
 20
151.1007730356615
 30
0.0
 11
709.573267248421
 21
151.1007730356615
 31
0.0
  0
LINE
  5
187
330
1F
100
AcDbEntity
  8
2
  6
CONTINUOUS
 62
     7
100
AcDbLine
 10
671.3917421979163
 20
113.0869632015377
 30
0.0
 11
670.8992269643385
 21
112.5007730356616
 31
0.0
  0
LINE
  5
188
330
1F
100
AcDbEntity
  8
2
  6
CONTINUOUS
 62
     7
100
AcDbLine
 10
670.8992269643385
 20
112.5007730356616
 30
0.0
 11
670.8992269643385
 21
112.426732751579
 31
0.0
  0
LINE
  5
189
330
1F
100
AcDbEntity
  8
2
  6
CONTINUOUS
 62
     7
100
AcDbLine
 10
580.6000000000001
 20
81.10077303566155
 30
0.0
 11
581.748105497274
 21
81.10077303566155
 31
0.0
  0
LINE
  5
18A
330
1F
100
AcDbEntity
  8
2
  6
CONTINUOUS
 62
     7
100
AcDbLine
 10
580.6000000000001
 20
93.1007730356615
 30
0.0
 11
580.6003656708647
 21
93.10077303566152
 31
0.0
  0
LINE
  5
18B
330
1F
100
AcDbEntity
  8
2
  6
CONTINUOUS
 62
     7
100
AcDbLine
 10
580.6003656708647
 20
93.10077303566152
 30
0.0
 11
581.6000000000001
 21
93.1007730356615
 31
0.0
  0
LINE
  5
18C
330
1F
100
AcDbEntity
  8
2
  6
CONTINUOUS
 62
     7
100
AcDbLine
 10
581.6
 20
93.1007730356615
 30
0.0
 11
581.7481054972737
 21
81.10077303566155
 31
0.0
  0
LINE
  5
18D
330
1F
100
AcDbEntity
  8
2
  6
CONTINUOUS
 62
     7
100
AcDbLine
 10
580.6000000000001
 20
81.10077303566155
 30
0.0
 11
580.0138098341241
 21
81.10077303566155
 31
0.0
  0
LINE
  5
18E
330
1F
100
AcDbEntity
  8
2
  6
CONTINUOUS
 62
     7
100
AcDbLine
 10
580.013809834124
 20
93.1007730356615
 30
0.0
 11
580.6
 21
93.1007730356615
 31
0.0
  0
LINE
  5
18F
330
1F
100
AcDbEntity
  8
2
  6
CONTINUOUS
 62
     7
100
AcDbLine
 10
623.4000000000001
 20
93.1007730356615
 30
0.0
 11
623.9861901658762
 21
93.1007730356615
 31
0.0
  0
LINE
  5
190
330
1F
100
AcDbEntity
  8
2
  6
CONTINUOUS
 62
     7
100
AcDbLine
 10
623.9861901658762
 20
81.10077303566155
 30
0.0
 11
623.4000000000001
 21
81.10077303566155
 31
0.0
  0
LINE
  5
191
330
1F
100
AcDbEntity
  8
2
  6
CONTINUOUS
 62
     7
100
AcDbLine
 10
622.4000000000001
 20
93.1007730356615
 30
0.0
 11
623.3996343291354
 21
93.10077303566152
 31
0.0
  0
LINE
  5
192
330
1F
100
AcDbEntity
  8
2
  6
CONTINUOUS
 62
     7
100
AcDbLine
 10
623.3996343291354
 20
93.10077303566152
 30
0.0
 11
623.4000000000001
 21
93.1007730356615
 31
0.0
  0
LINE
  5
193
330
1F
100
AcDbEntity
  8
2
  6
CONTINUOUS
 62
     7
100
AcDbLine
 10
622.2518945027264
 20
81.10077303566155
 30
0.0
 11
623.4000000000001
 21
81.10077303566155
 31
0.0
  0
LINE
  5
194
330
1F
100
AcDbEntity
  8
2
  6
CONTINUOUS
 62
     7
100
AcDbLine
 10
622.4000000000001
 20
93.1007730356615
 30
0.0
 11
622.2518945027264
 21
81.10077303566155
 31
0.0
  0
LINE
  5
195
330
1F
100
AcDbEntity
  8
2
  6
CONTINUOUS
 62
     7
100
AcDbLine
 10
624.6000000000001
 20
93.1007730356615
 30
0.0
 11
624.6000000000001
 21
81.10077303566155
 31
0.0
  0
LINE
  5
196
330
1F
100
AcDbEntity
  8
2
  6
CONTINUOUS
 62
     7
100
AcDbLine
 10
624.6000000000001
 20
81.10077303566155
 30
0.0
 11
623.9861901658763
 21
81.10077303566155
 31
0.0
  0
LINE
  5
197
330
1F
100
AcDbEntity
  8
2
  6
CONTINUOUS
 62
     7
100
AcDbLine
 10
623.9861901658762
 20
93.1007730356615
 30
0.0
 11
624.6
 21
93.1007730356615
 31
0.0
  0
LINE
  5
198
330
1F
100
AcDbEntity
  8
2
  6
CONTINUOUS
 62
     7
100
AcDbLine
 10
579.4
 20
81.10077303566155
 30
0.0
 11
579.4
 21
93.1007730356615
 31
0.0
  0
LINE
  5
199
330
1F
100
AcDbEntity
  8
2
  6
CONTINUOUS
 62
     7
100
AcDbLine
 10
579.4
 20
93.1007730356615
 30
0.0
 11
580.0138098341239
 21
93.1007730356615
 31
0.0
  0
LINE
  5
19A
330
1F
100
AcDbEntity
  8
2
  6
CONTINUOUS
 62
     7
100
AcDbLine
 10
580.013809834124
 20
81.10077303566155
 30
0.0
 11
579.4000000000001
 21
81.10077303566155
 31
0.0
  0
LWPOLYLINE
  5
19B
330
1F
100
AcDbEntity
  8
2
  6
CONTINUOUS
 62
     7
100
AcDbPolyline
 90
        8
 70
     0
 43
0.0
 10
-602.1726497308105
 20
84.60077303566152
 10
-602.2976497308105
 20
84.57705424514982
 10
-602.392002693236
 20
84.52578720657178
 10
-602.4714680451303
 20
84.45641480946705
 10
-602.5414682798399
 20
84.37013467458043
 10
-602.60595412621
 20
84.26163754732963
 10
-602.6535757767157
 20
84.15406246565598
 42
0.0905436998775963
 10
-602.75
 20
83.60077303566152
210
0.0
220
0.0
230
-1.0
  0
LINE
  5
19C
330
1F
100
AcDbEntity
  8
2
  6
CONTINUOUS
 62
     7
100
AcDbLine
 10
602.1726497308105
 20
84.60077303566152
 30
0.0
 11
607.3089548231914
 21
84.60077303566152
 31
0.0
  0
LINE
  5
19D
330
1F
100
AcDbEntity
  8
2
  6
CONTINUOUS
 62
     7
100
AcDbLine
 10
596.6910451768089
 20
84.60077303566152
 30
0.0
 11
601.8273502691898
 21
84.60077303566152
 31
0.0
  0
LWPOLYLINE
  5
19E
330
1F
100
AcDbEntity
  8
2
  6
CONTINUOUS
 62
     7
100
AcDbPolyline
 90
        8
 70
     0
 43
0.0
 10
-601.25
 20
83.60077303566152
 42
0.1101062516332543
 10
-601.3845470179425
 20
84.2424660079911
 10
-601.4443343841479
 20
84.34903201440116
 10
-601.5164757915757
 20
84.44342686430123
 10
-601.598539999377
 20
84.51888663704283
 10
-601.6919407491002
 20
84.57287720280296
 10
-601.7930742894523
 20
84.5990060500665
 10
-601.8273502691897
 20
84.60077303566152
210
0.0
220
0.0
230
-1.0
  0
LINE
  5
19F
330
1F
100
AcDbEntity
  8
2
  6
CONTINUOUS
 62
     7
100
AcDbLine
 10
594.7309950761156
 20
83.6738493505712
 30
0.0
 11
594.6910376330901
 21
83.67478725478006
 31
0.0
  0
LINE
  5
1A0
330
1F
100
AcDbEntity
  8
2
  6
CONTINUOUS
 62
     7
100
AcDbLine
 10
595.6882948192605
 20
84.60077303566152
 30
0.0
 11
596.6910451768088
 21
84.60077303566152
 31
0.0
  0
LINE
  5
1A1
330
1F
100
AcDbEntity
  8
2
  6
CONTINUOUS
 62
     7
100
AcDbLine
 10
595.6882948192605
 20
84.60077303566152
 30
0.0
 11
595.3356039315433
 21
84.53651292351572
 31
0.0
  0
LINE
  5
1A2
330
1F
100
AcDbEntity
  8
2
  6
CONTINUOUS
 62
     7
100
AcDbLine
 10
608.6643961174251
 20
84.53651290505898
 30
0.0
 11
608.3117051807396
 21
84.60077303566152
 31
0.0
  0
LINE
  5
1A3
330
1F
100
AcDbEntity
  8
2
  6
CONTINUOUS
 62
     7
100
AcDbLine
 10
609.30896236691
 20
83.67478725478006
 30
0.0
 11
609.2690049238847
 21
83.67384935057117
 31
0.0
  0
LINE
  5
1A4
330
1F
100
AcDbEntity
  8
2
  6
CONTINUOUS
 62
     7
100
AcDbLine
 10
607.3089548231912
 20
84.60077303566152
 30
0.0
 11
608.3117051807396
 21
84.60077303566152
 31
0.0
  0
LINE
  5
1A5
330
1F
100
AcDbEntity
  8
2
  6
CONTINUOUS
 62
     7
100
AcDbLine
 10
602.0000000000001
 20
84.60077303566152
 30
0.0
 11
602.0000000000001
 21
83.10077303566152
 31
0.0
  0
LINE
  5
1A6
330
1F
100
AcDbEntity
  8
2
  6
CONTINUOUS
 62
     7
100
AcDbLine
 10
602.0000000000001
 20
84.60077303566152
 30
0.0
 11
602.1726497308103
 21
84.60077303566152
 31
0.0
  0
LINE
  5
1A7
330
1F
100
AcDbEntity
  8
2
  6
CONTINUOUS
 62
     7
100
AcDbLine
 10
602.75
 20
83.60077303566149
 30
0.0
 11
602.75
 21
83.10077303566149
 31
0.0
  0
LINE
  5
1A8
330
1F
100
AcDbEntity
  8
2
  6
CONTINUOUS
 62
     7
100
AcDbLine
 10
602.75
 20
83.10077303566149
 30
0.0
 11
602.0000000000001
 21
83.10077303566152
 31
0.0
  0
LINE
  5
1A9
330
1F
100
AcDbEntity
  8
2
  6
CONTINUOUS
 62
     7
100
AcDbLine
 10
601.25
 20
83.60077303566149
 30
0.0
 11
601.25
 21
83.10077303566149
 31
0.0
  0
LINE
  5
1AA
330
1F
100
AcDbEntity
  8
2
  6
CONTINUOUS
 62
     7
100
AcDbLine
 10
601.8273502691897
 20
84.60077303566152
 30
0.0
 11
602.0000000000001
 21
84.60077303566152
 31
0.0
  0
LINE
  5
1AB
330
1F
100
AcDbEntity
  8
2
  6
CONTINUOUS
 62
     7
100
AcDbLine
 10
602.0000000000001
 20
83.10077303566152
 30
0.0
 11
601.25
 21
83.10077303566149
 31
0.0
  0
LINE
  5
1AC
330
1F
100
AcDbEntity
  8
2
  6
CONTINUOUS
 62
     7
100
AcDbLine
 10
609.3515644306306
 20
83.10077303566152
 30
0.0
 11
607.3460637155337
 21
83.10077303566152
 31
0.0
  0
LINE
  5
1AD
330
1F
100
AcDbEntity
  8
2
  6
CONTINUOUS
 62
     7
100
AcDbLine
 10
609.30896236691
 20
83.67478725478006
 30
0.0
 11
609.3515644306306
 21
83.10077303566152
 31
0.0
  0
LINE
  5
1AE
330
1F
100
AcDbEntity
  8
2
  6
CONTINUOUS
 62
     7
100
AcDbLine
 10
596.6539362844665
 20
83.10077303566152
 30
0.0
 11
594.6484355693697
 21
83.10077303566152
 31
0.0
  0
LINE
  5
1AF
330
1F
100
AcDbEntity
  8
2
  6
CONTINUOUS
 62
     7
100
AcDbLine
 10
594.6484355693697
 20
83.10077303566152
 30
0.0
 11
594.6910376330901
 21
83.67478725478006
 31
0.0
  0
LINE
  5
1B0
330
1F
100
AcDbEntity
  8
2
  6
CONTINUOUS
 62
     7
100
AcDbLine
 10
602.75
 20
83.10077303566149
 30
0.0
 11
607.3460637155335
 21
83.10077303566152
 31
0.0
  0
LINE
  5
1B1
330
1F
100
AcDbEntity
  8
2
  6
CONTINUOUS
 62
     7
100
AcDbLine
 10
596.6539362844665
 20
83.10077303566152
 30
0.0
 11
601.25
 21
83.10077303566149
 31
0.0
  0
LINE
  5
1B2
330
1F
100
AcDbEntity
  8
2
  6
CONTINUOUS
 62
     7
100
AcDbLine
 10
600.5475238814764
 20
82.96044293583088
 30
0.0
 11
600.5371100326745
 21
83.10075767098796
 31
0.0
  0
LINE
  5
1B3
330
1F
100
AcDbEntity
  8
2
  6
CONTINUOUS
 62
     7
100
AcDbLine
 10
594.6484355693697
 20
83.10077303566155
 30
0.0
 11
594.6380205802357
 21
82.96044293583088
 31
0.0
  0
LINE
  5
1B4
330
1F
100
AcDbEntity
  8
2
  6
CONTINUOUS
 62
     7
100
AcDbLine
 10
603.4628899673256
 20
83.10075767098796
 30
0.0
 11
603.4524761185236
 21
82.96044293583088
 31
0.0
  0
LINE
  5
1B5
330
1F
100
AcDbEntity
  8
2
  6
CONTINUOUS
 62
     7
100
AcDbLine
 10
609.3619794197646
 20
82.96044293583088
 30
0.0
 11
609.3515644306306
 21
83.10077303566155
 31
0.0
  0
LINE
  5
1B6
330
1F
100
AcDbEntity
  8
2
  6
CONTINUOUS
 62
     7
100
AcDbLine
 10
600.5475238814764
 20
82.96044293583086
 30
0.0
 11
600.6605484877904
 21
81.43756527525517
 31
0.0
  0
LINE
  5
1B7
330
1F
100
AcDbEntity
  8
2
  6
CONTINUOUS
 62
     7
100
AcDbLine
 10
594.6380205802357
 20
82.96044293583086
 30
0.0
 11
594.5249959739217
 21
81.43756527525517
 31
0.0
  0
LINE
  5
1B8
330
1F
100
AcDbEntity
  8
2
  6
CONTINUOUS
 62
     7
100
AcDbLine
 10
603.4524761185237
 20
82.96044293583086
 30
0.0
 11
603.3394515122098
 21
81.43756527525517
 31
0.0
  0
LINE
  5
1B9
330
1F
100
AcDbEntity
  8
2
  6
CONTINUOUS
 62
     7
100
AcDbLine
 10
609.3619794197646
 20
82.96044293583086
 30
0.0
 11
609.4750040260783
 21
81.43756527525517
 31
0.0
  0
LINE
  5
1BA
330
1F
100
AcDbEntity
  8
2
  6
CONTINUOUS
 62
     7
100
AcDbLine
 10
592.5000000000001
 20
82.60077303566158
 30
0.0
 11
581.7295923101146
 21
82.60077303566158
 31
0.0
  0
LINE
  5
1BB
330
1F
100
AcDbEntity
  8
2
  6
CONTINUOUS
 62
     7
100
AcDbLine
 10
622.2704076898856
 20
82.60077303566158
 30
0.0
 11
611.5000000000001
 21
82.60077303566158
 31
0.0
  0
LINE
  5
1BC
330
1F
100
AcDbEntity
  8
2
  6
CONTINUOUS
 62
     7
100
AcDbLine
 10
610.5000000000001
 20
82.60077303566155
 30
0.0
 11
611.5000000000001
 21
82.60077303566158
 31
0.0
  0
LINE
  5
1BD
330
1F
100
AcDbEntity
  8
2
  6
CONTINUOUS
 62
     7
100
AcDbLine
 10
592.5000000000001
 20
82.60077303566158
 30
0.0
 11
593.5000000000001
 21
82.60077303566155
 31
0.0
  0
LINE
  5
1BE
330
1F
100
AcDbEntity
  8
2
  6
CONTINUOUS
 62
     7
100
AcDbLine
 10
593.5
 20
81.10077303566155
 30
0.0
 11
581.7481054972737
 21
81.10077303566155
 31
0.0
  0
LINE
  5
1BF
330
1F
100
AcDbEntity
  8
2
  6
CONTINUOUS
 62
     7
100
AcDbLine
 10
622.2518945027264
 20
81.10077303566155
 30
0.0
 11
610.5
 21
81.10077303566155
 31
0.0
  0
LINE
  5
1C0
330
1F
100
AcDbEntity
  8
2
  6
CONTINUOUS
 62
     7
100
AcDbLine
 10
600.685544461712
 20
81.10077303566155
 30
0.0
 11
594.5
 21
81.10077303566155
 31
0.0
  0
LINE
  5
1C1
330
1F
100
AcDbEntity
  8
2
  6
CONTINUOUS
 62
     7
100
AcDbLine
 10
600.6605484877904
 20
81.43756527525517
 30
0.0
 11
600.6855444617121
 21
81.10077303566155
 31
0.0
  0
LINE
  5
1C2
330
1F
100
AcDbEntity
  8
2
  6
CONTINUOUS
 62
     7
100
AcDbLine
 10
594.5000000000001
 20
81.10077303566155
 30
0.0
 11
594.5249959739218
 21
81.43756527525517
 31
0.0
  0
LINE
  5
1C3
330
1F
100
AcDbEntity
  8
2
  6
CONTINUOUS
 62
     7
100
AcDbLine
 10
609.5
 20
81.10077303566155
 30
0.0
 11
603.3144555382881
 21
81.10077303566155
 31
0.0
  0
LINE
  5
1C4
330
1F
100
AcDbEntity
  8
2
  6
CONTINUOUS
 62
     7
100
AcDbLine
 10
603.3144555382881
 20
81.10077303566155
 30
0.0
 11
603.3394515122097
 21
81.43756527525517
 31
0.0
  0
LINE
  5
1C5
330
1F
100
AcDbEntity
  8
2
  6
CONTINUOUS
 62
     7
100
AcDbLine
 10
609.4750040260784
 20
81.43756527525517
 30
0.0
 11
609.5000000000001
 21
81.10077303566155
 31
0.0
  0
LINE
  5
1C6
330
1F
100
AcDbEntity
  8
2
  6
CONTINUOUS
 62
     7
100
AcDbLine
 10
594.0000000000001
 20
82.60077303566155
 30
0.0
 11
593.5000000000001
 21
82.60077303566155
 31
0.0
  0
LINE
  5
1C7
330
1F
100
AcDbEntity
  8
2
  6
CONTINUOUS
 62
     7
100
AcDbLine
 10
609.5
 20
81.10077303566155
 30
0.0
 11
610.5
 21
81.10077303566155
 31
0.0
  0
LINE
  5
1C8
330
1F
100
AcDbEntity
  8
2
  6
CONTINUOUS
 62
     7
100
AcDbLine
 10
610.5000000000001
 20
82.60077303566155
 30
0.0
 11
610.0000000000001
 21
82.60077303566155
 31
0.0
  0
LINE
  5
1C9
330
1F
100
AcDbEntity
  8
2
  6
CONTINUOUS
 62
     7
100
AcDbLine
 10
593.5
 20
81.10077303566155
 30
0.0
 11
594.5
 21
81.10077303566155
 31
0.0
  0
LINE
  5
1CA
330
1F
100
AcDbEntity
  8
2
  6
CONTINUOUS
 62
     7
100
AcDbLine
 10
594.6113266770273
 20
82.60077303566155
 30
0.0
 11
594.0000000000001
 21
82.60077303566155
 31
0.0
  0
LINE
  5
1CB
330
1F
100
AcDbEntity
  8
2
  6
CONTINUOUS
 62
     7
100
AcDbLine
 10
610.0000000000001
 20
82.60077303566155
 30
0.0
 11
609.388673322973
 21
82.60077303566155
 31
0.0
  0
LINE
  5
1CC
330
1F
100
AcDbEntity
  8
2
  6
CONTINUOUS
 62
     7
100
AcDbLine
 10
600.9753179277043
 20
82.60077303566155
 30
0.0
 11
600.5742177846848
 21
82.60077303566155
 31
0.0
  0
LINE
  5
1CD
330
1F
100
AcDbEntity
  8
2
  6
CONTINUOUS
 62
     7
100
AcDbLine
 10
600.685544461712
 20
81.10077303566155
 30
0.0
 11
601.0866446047314
 21
81.10077303566155
 31
0.0
  0
LINE
  5
1CE
330
1F
100
AcDbEntity
  8
2
  6
CONTINUOUS
 62
     7
100
AcDbLine
 10
603.4257822153153
 20
82.60077303566155
 30
0.0
 11
603.024682072296
 21
82.60077303566155
 31
0.0
  0
LINE
  5
1CF
330
1F
100
AcDbEntity
  8
2
  6
CONTINUOUS
 62
     7
100
AcDbLine
 10
602.9133553952687
 20
81.10077303566155
 30
0.0
 11
603.3144555382881
 21
81.10077303566155
 31
0.0
  0
LINE
  5
1D0
330
1F
100
AcDbEntity
  8
2
  6
CONTINUOUS
 62
     7
100
AcDbLine
 10
602.75
 20
82.60077303566155
 30
0.0
 11
602.7500000000001
 21
81.10077303566155
 31
0.0
  0
LINE
  5
1D1
330
1F
100
AcDbEntity
  8
2
  6
CONTINUOUS
 62
     7
100
AcDbLine
 10
602.75
 20
82.60077303566155
 30
0.0
 11
603.0246820722958
 21
82.60077303566155
 31
0.0
  0
LINE
  5
1D2
330
1F
100
AcDbEntity
  8
2
  6
CONTINUOUS
 62
     7
100
AcDbLine
 10
602.9133553952687
 20
81.10077303566155
 30
0.0
 11
602.7500000000001
 21
81.10077303566155
 31
0.0
  0
LINE
  5
1D3
330
1F
100
AcDbEntity
  8
2
  6
CONTINUOUS
 62
     7
100
AcDbLine
 10
601.25
 20
82.60077303566155
 30
0.0
 11
601.25
 21
81.10077303566155
 31
0.0
  0
LINE
  5
1D4
330
1F
100
AcDbEntity
  8
2
  6
CONTINUOUS
 62
     7
100
AcDbLine
 10
600.9753179277043
 20
82.60077303566155
 30
0.0
 11
601.25
 21
82.60077303566155
 31
0.0
  0
LINE
  5
1D5
330
1F
100
AcDbEntity
  8
2
  6
CONTINUOUS
 62
     7
100
AcDbLine
 10
601.25
 20
81.10077303566155
 30
0.0
 11
601.0866446047314
 21
81.10077303566155
 31
0.0
  0
LINE
  5
1D6
330
1F
100
AcDbEntity
  8
2
  6
CONTINUOUS
 62
     7
100
AcDbLine
 10
602.0000000000001
 20
82.60077303566155
 30
0.0
 11
602.0000000000001
 21
81.10077303566155
 31
0.0
  0
LINE
  5
1D7
330
1F
100
AcDbEntity
  8
2
  6
CONTINUOUS
 62
     7
100
AcDbLine
 10
602.0000000000001
 20
82.60077303566155
 30
0.0
 11
601.25
 21
82.60077303566155
 31
0.0
  0
LINE
  5
1D8
330
1F
100
AcDbEntity
  8
2
  6
CONTINUOUS
 62
     7
100
AcDbLine
 10
602.0000000000001
 20
81.10077303566155
 30
0.0
 11
601.25
 21
81.10077303566155
 31
0.0
  0
LINE
  5
1D9
330
1F
100
AcDbEntity
  8
2
  6
CONTINUOUS
 62
     7
100
AcDbLine
 10
602.75
 20
82.60077303566155
 30
0.0
 11
602.0000000000001
 21
82.60077303566155
 31
0.0
  0
LINE
  5
1DA
330
1F
100
AcDbEntity
  8
2
  6
CONTINUOUS
 62
     7
100
AcDbLine
 10
602.7500000000001
 20
81.10077303566155
 30
0.0
 11
602.0000000000001
 21
81.10077303566155
 31
0.0
  0
LWPOLYLINE
  5
1DB
330
1F
100
AcDbEntity
  8
2
  6
CONTINUOUS
 62
     7
100
AcDbPolyline
 90
       33
 70
     0
 43
0.0
 10
-620.7911050684355
 20
92.22402986909394
 10
-620.7976922707348
 20
92.26876947295784
 10
-620.8062954317367
 20
92.31316552017834
 10
-620.8168969577755
 20
92.3571272198006
 10
-620.829475168483
 20
92.40056466912064
 10
-620.8440043411235
 20
92.44338903753874
 10
-620.8604547631996
 20
92.48551274821986
 10
-620.8787927932132
 20
92.52684965719051
 10
-620.8989809294642
 20
92.56731522950507
 10
-620.9209778867416
 20
92.60682671212167
 10
-620.9447386807535
 20
92.64530330313433
 10
-620.9702147201202
 20
92.68266631701452
 10
-620.9973539057456
 20
92.718839345525
 10
-621.0261007373603
 20
92.75374841397645
 10
-621.0563964270211
 20
92.78732213250746
 10
-621.0881790193345
 20
92.81949184207838
 10
-621.1213835181554
 20
92.85019175488077
 10
-621.1559420195075
 20
92.87935908887493
 10
-621.1917838504472
 20
92.90693419618064
 10
-621.2288357135918
 20
92.9328606850586
 10
-621.2670218370149
 20
92.95708553523265
 10
-621.3062641292006
 20
92.97955920631762
 10
-621.3464823387438
 20
93.00023573913052
 10
-621.3875942184656
 20
93.01907284967814
 10
-621.4295156936099
 20
93.0360320156289
 10
-621.47216103378
 20
93.05107855509176
 10
-621.5154430282578
 20
93.0641816975416
 10
-621.5592731643521
 20
93.07531464674568
 10
-621.6035618084097
 20
93.08445463556247
 10
-621.6482183891176
 20
93.09158297250109
 10
-621.6931515827238
 20
93.09668507994579
 10
-621.7382694997965
 20
93.09975052396751
 10
-621.78347987314
 20
93.10077303566152
210
0.0
220
0.0
230
-1.0
  0
ARC
  5
1DC
330
1F
100
AcDbEntity
  8
2
  6
CONTINUOUS
 62
     7
100
AcDbCircle
 10
-582.2165201268602
 20
92.10077303566152
 30
0.0
 40
1.000000000000001
210
0.0
220
0.0
230
-1.0
100
AcDbArc
 50
90.0
 51
172.9198987652593
  0
LINE
  5
1DD
330
1F
100
AcDbEntity
  8
2
  6
CONTINUOUS
 62
     7
100
AcDbLine
 10
581.6
 20
93.10077303566152
 30
0.0
 11
582.2165201268601
 21
93.10077303566152
 31
0.0
  0
LINE
  5
1DE
330
1F
100
AcDbEntity
  8
2
  6
CONTINUOUS
 62
     7
100
AcDbLine
 10
621.78347987314
 20
93.10077303566152
 30
0.0
 11
622.4000000000001
 21
93.1007730356615
 31
0.0
  0
LINE
  5
1DF
330
1F
100
AcDbEntity
  8
2
  6
CONTINUOUS
 62
     7
100
AcDbLine
 10
619.5958589185203
 20
82.60077303566155
 30
0.0
 11
620.7911050684356
 21
92.22402986909394
 31
0.0
  0
LINE
  5
1E0
330
1F
100
AcDbEntity
  8
2
  6
CONTINUOUS
 62
     7
100
AcDbLine
 10
583.2088949315646
 20
92.22402986909397
 30
0.0
 11
584.40414108148
 21
82.60077303566155
 31
0.0
  0
ELLIPSE
  5
1E1
330
1F
100
AcDbEntity
  8
2
  6
CONTINUOUS
 62
     7
100
AcDbEllipse
 10
620.4000000000002
 20
93.47514170642611
 30
0.0
 11
-3.591632111802968
 21
0.0
 31
0.0
210
0.0
220
0.0
230
1.0
 40
0.7071067811865467
 41
0.5766861535227559
 42
1.431130224288514
  0
ELLIPSE
  5
1E2
330
1F
100
AcDbEntity
  8
2
  6
CONTINUOUS
 62
     7
100
AcDbEllipse
 10
583.6
 20
93.47514170642611
 30
0.0
 11
-3.591632111802968
 21
0.0
 31
0.0
210
0.0
220
0.0
230
1.0
 40
0.7071067811865467
 41
1.710462429301278
 42
2.56490650006726
  0
LINE
  5
1E3
330
1F
100
AcDbEntity
  8
2
  6
CONTINUOUS
 62
     7
100
AcDbLine
 10
617.3892277487101
 20
92.09039052346992
 30
0.0
 11
617.308367888197
 21
92.2831578243474
 31
0.0
  0
LINE
  5
1E4
330
1F
100
AcDbEntity
  8
2
  6
CONTINUOUS
 62
     7
100
AcDbLine
 10
586.6916321118031
 20
92.2831578243474
 30
0.0
 11
586.61077225129
 21
92.09039052346992
 31
0.0
  0
LINE
  5
1E5
330
1F
100
AcDbEntity
  8
2
  6
CONTINUOUS
 62
     7
100
AcDbLine
 10
617.5166731825357
 20
111.5008359077922
 30
0.0
 11
617.3083678881972
 21
94.66712558850485
 31
0.0
  0
LINE
  5
1E6
330
1F
100
AcDbEntity
  8
2
  6
CONTINUOUS
 62
     7
100
AcDbLine
 10
617.308367888197
 20
94.66712558850485
 30
0.0
 11
617.308367888197
 21
92.28315782434451
 31
0.0
  0
LINE
  5
1E7
330
1F
100
AcDbEntity
  8
2
  6
CONTINUOUS
 62
     7
100
AcDbLine
 10
586.6916321118031
 20
94.66712558850485
 30
0.0
 11
586.6376714326076
 21
99.02799413574145
 31
0.0
  0
LINE
  5
1E8
330
1F
100
AcDbEntity
  8
2
  6
CONTINUOUS
 62
     7
100
AcDbLine
 10
586.6916321118031
 20
92.28315782434449
 30
0.0
 11
586.6916321118031
 21
94.66712558850485
 31
0.0
  0
LINE
  5
1E9
330
1F
100
AcDbEntity
  8
2
  6
CONTINUOUS
 62
     7
100
AcDbLine
 10
624.6000000000001
 20
109.9413934692275
 30
0.0
 11
624.6000000000001
 21
112.6007730356615
 31
0.0
  0
LINE
  5
1EA
330
1F
100
AcDbEntity
  8
2
  6
CONTINUOUS
 62
     7
100
AcDbLine
 10
624.6000000000001
 20
112.6007730356615
 30
0.0
 11
624.6000000000001
 21
120.6007730356616
 31
0.0
  0
LINE
  5
1EB
330
1F
100
AcDbEntity
  8
2
  6
CONTINUOUS
 62
     7
100
AcDbLine
 10
624.6000000000001
 20
120.6007730356616
 30
0.0
 11
624.6000000000001
 21
147.1007730356616
 31
0.0
  0
LINE
  5
1EC
330
1F
100
AcDbEntity
  8
2
  6
CONTINUOUS
 62
     7
100
AcDbLine
 10
623.4000000000001
 20
151.1007730356615
 30
0.0
 11
623.3996343291354
 21
151.1007730356616
 31
0.0
  0
LINE
  5
1ED
330
1F
100
AcDbEntity
  8
2
  6
CONTINUOUS
 62
     7
100
AcDbLine
 10
623.9861901658762
 20
150.6082578020838
 30
0.0
 11
623.4000000000001
 21
151.1007730356615
 31
0.0
  0
LINE
  5
1EE
330
1F
100
AcDbEntity
  8
2
  6
CONTINUOUS
 62
     7
100
AcDbLine
 10
624.6000000000001
 20
147.1007730356616
 30
0.0
 11
623.9861901658763
 21
150.6082578020838
 31
0.0
  0
LINE
  5
1EF
330
1F
100
AcDbEntity
  8
2
  6
CONTINUOUS
 62
     7
100
AcDbLine
 10
579.4
 20
109.9413934692275
 30
0.0
 11
579.4
 21
112.6007730356616
 31
0.0
  0
LINE
  5
1F0
330
1F
100
AcDbEntity
  8
2
  6
CONTINUOUS
 62
     7
100
AcDbLine
 10
579.4
 20
112.6007730356616
 30
0.0
 11
579.4
 21
120.6007730356616
 31
0.0
  0
LINE
  5
1F1
330
1F
100
AcDbEntity
  8
2
  6
CONTINUOUS
 62
     7
100
AcDbLine
 10
579.4
 20
120.6007730356616
 30
0.0
 11
579.4
 21
147.1007730356616
 31
0.0
  0
LINE
  5
1F2
330
1F
100
AcDbEntity
  8
2
  6
CONTINUOUS
 62
     7
100
AcDbLine
 10
580.013809834124
 20
150.6082578020838
 30
0.0
 11
579.4000000000001
 21
147.1007730356616
 31
0.0
  0
LINE
  5
1F3
330
1F
100
AcDbEntity
  8
2
  6
CONTINUOUS
 62
     7
100
AcDbLine
 10
580.6000000000001
 20
151.1007730356615
 30
0.0
 11
580.013809834124
 21
150.6082578020838
 31
0.0
  0
LINE
  5
1F4
330
1F
100
AcDbEntity
  8
2
  6
CONTINUOUS
 62
     7
100
AcDbLine
 10
580.6003656708647
 20
151.1007730356615
 30
0.0
 11
580.6000000000001
 21
151.1007730356615
 31
0.0
  0
LINE
  5
1F5
330
1F
100
AcDbEntity
  8
2
  6
CONTINUOUS
 62
   253
100
AcDbLine
 10
586.6376714326075
 20
99.02799413574145
 30
0.0
 11
586.483325170235
 21
111.5009690179961
 31
0.0
  0
ELLIPSE
  5
1F6
330
1F
100
AcDbEntity
  8
2
  6
CONTINUOUS
 62
     7
100
AcDbEllipse
 10
624.6523651947847
 20
96.10077303566153
 30
0.0
 11
-0.03703342470007819
 21
-2.999999965188952
 31
0.0
210
0.0
220
0.0
230
1.0
 40
0.0123407145103208
 41
5.497939483423234
 42
5.925033105557826
  0
LINE
  5
1F7
330
1F
100
AcDbEntity
  8
2
  6
CONTINUOUS
 62
     7
100
AcDbLine
 10
624.6000000000001
 20
93.10077303566152
 30
0.0
 11
624.6047037825352
 21
93.29129480167109
 31
0.0
  0
ELLIPSE
  5
1F8
330
1F
100
AcDbEntity
  8
2
  6
CONTINUOUS
 62
     7
100
AcDbEllipse
 10
579.3476348052154
 20
96.10077303566156
 30
0.0
 11
-0.03703342470007766
 21
2.999999965188952
 31
0.0
210
0.0
220
0.0
230
1.0
 40
0.0123407145103211
 41
3.499744855211487
 42
3.926838477346118
  0
LINE
  5
1F9
330
1F
100
AcDbEntity
  8
2
  6
CONTINUOUS
 62
     7
100
AcDbLine
 10
579.3952962174649
 20
93.29129480167109
 30
0.0
 11
579.4000000000001
 21
93.10077303566152
 31
0.0
  0
LINE
  5
1FA
330
1F
100
AcDbEntity
  8
2
  6
CONTINUOUS
 62
     7
100
AcDbLine
 10
624.6000000000001
 20
93.97945269210189
 30
0.0
 11
624.6000000000001
 21
107.8200731256679
 31
0.0
  0
LINE
  5
1FB
330
1F
100
AcDbEntity
  8
2
  6
CONTINUOUS
 62
     7
100
AcDbLine
 10
579.4
 20
93.97945269210189
 30
0.0
 11
579.4
 21
107.8200731256679
 31
0.0
  0
LINE
  5
1FC
330
1F
100
AcDbEntity
  8
2
  6
CONTINUOUS
 62
     7
100
AcDbLine
 10
617.4281803515164
 20
104.3495103771907
 30
0.0
 11
586.5718366498407
 21
104.3495103771907
 31
0.0
  0
ELLIPSE
  5
1FD
330
1F
100
AcDbEntity
  8
2
  6
CONTINUOUS
 62
     7
100
AcDbEllipse
 10
624.6523651947847
 20
109.9413934692275
 30
0.0
 11
0.03703342470007789
 21
2.999999965188952
 31
0.0
210
0.0
220
0.0
230
1.0
 40
0.0123407145103209
 41
1.929253207698872
 42
2.35634682983345
  0
LINE
  5
1FE
330
1F
100
AcDbEntity
  8
2
  6
CONTINUOUS
 62
     7
100
AcDbLine
 10
624.6000000000001
 20
109.9413934692275
 30
0.0
 11
624.6047037825352
 21
108.8893326094224
 31
0.0
  0
ELLIPSE
  5
1FF
330
1F
100
AcDbEntity
  8
2
  6
CONTINUOUS
 62
     7
100
AcDbEllipse
 10
579.3476348052154
 20
109.9413934692275
 30
0.0
 11
0.03703342470007789
 21
-2.999999965188952
 31
0.0
210
0.0
220
0.0
230
1.0
 40
0.012340714510321
 41
0.7852458237563392
 42
1.212339445890923
  0
LINE
  5
200
330
1F
100
AcDbEntity
  8
2
  6
CONTINUOUS
 62
     7
100
AcDbLine
 10
579.3952962174649
 20
108.8893326094224
 30
0.0
 11
579.4000000000001
 21
109.9413934692275
 31
0.0
  0
LINE
  5
201
330
1F
100
AcDbEntity
  8
2
  6
CONTINUOUS
 62
     7
100
AcDbLine
 10
621.7770333714316
 20
110.8751667327127
 30
0.0
 11
618.8210315957368
 21
111.4184168950357
 31
0.0
  0
ARC
  5
202
330
1F
100
AcDbEntity
  8
2
  6
CONTINUOUS
 62
     7
100
AcDbCircle
 10
617.9172734022142
 20
106.5007730356616
 30
0.0
 40
4.999999999999997
100
AcDbArc
 50
79.58645631440015
 51
90.00000000000001
  0
LINE
  5
203
330
1F
100
AcDbEntity
  8
2
  6
CONTINUOUS
 62
     7
100
AcDbLine
 10
617.9172734022142
 20
111.5007730356616
 30
0.0
 11
586.0827265977862
 21
111.5007730356616
 31
0.0
  0
ARC
  5
204
330
1F
100
AcDbEntity
  8
2
  6
CONTINUOUS
 62
     7
100
AcDbCircle
 10
586.0827265977862
 20
106.5007730356616
 30
0.0
 40
5.000000000000004
100
AcDbArc
 50
90.0
 51
100.4135436855999
  0
LINE
  5
205
330
1F
100
AcDbEntity
  8
2
  6
CONTINUOUS
 62
     7
100
AcDbLine
 10
585.1789684042634
 20
111.4184168950357
 30
0.0
 11
582.2229666285687
 21
110.8751667327127
 31
0.0
  0
ARC
  5
206
330
1F
100
AcDbEntity
  8
2
  6
CONTINUOUS
 62
     7
100
AcDbCircle
 10
-582.3133424479208
 20
110.3834023467753
 30
0.0
 40
0.4999999999999535
210
0.0
220
0.0
230
-1.0
100
AcDbArc
 50
0.70711575664671
 51
79.58645631439782
  0
LINE
  5
207
330
1F
100
AcDbEntity
  8
2
  6
CONTINUOUS
 62
     7
100
AcDbLine
 10
581.6
 20
93.10077303566155
 30
0.0
 11
581.8133805255817
 21
110.3895729392025
 31
0.0
  0
LINE
  5
208
330
1F
100
AcDbEntity
  8
2
  6
CONTINUOUS
 62
     7
100
AcDbLine
 10
581.6
 20
93.10077303566155
 30
0.0
 11
580.6003656708647
 21
93.10077303566155
 31
0.0
  0
LINE
  5
209
330
1F
100
AcDbEntity
  8
2
  6
CONTINUOUS
 62
     7
100
AcDbLine
 10
623.3996343291354
 20
93.10077303566155
 30
0.0
 11
622.4000000000001
 21
93.10077303566155
 31
0.0
  0
LINE
  5
20A
330
1F
100
AcDbEntity
  8
2
  6
CONTINUOUS
 62
     7
100
AcDbLine
 10
622.4000000000001
 20
93.10077303566155
 30
0.0
 11
622.1866194744183
 21
110.3895729392025
 31
0.0
  0
ARC
  5
20B
330
1F
100
AcDbEntity
  8
2
  6
CONTINUOUS
 62
     7
100
AcDbCircle
 10
-621.6866575520792
 20
110.3834023467753
 30
0.0
 40
0.5000000000000109
210
0.0
220
0.0
230
-1.0
100
AcDbArc
 50
100.4135436855997
 51
179.2928842433536
  0
LINE
  5
20C
330
1F
100
AcDbEntity
  8
2
  6
CONTINUOUS
 62
     7
100
AcDbLine
 10
580.6000000000001
 20
93.10077303566155
 30
0.0
 11
580.6003656708647
 21
93.10077303566155
 31
0.0
  0
LINE
  5
20D
330
1F
100
AcDbEntity
  8
2
  6
CONTINUOUS
 62
     7
100
AcDbLine
 10
623.3996343291354
 20
93.10077303566155
 30
0.0
 11
623.4000000000001
 21
93.10077303566155
 31
0.0
  0
LINE
  5
20E
330
1F
100
AcDbEntity
  8
2
  6
CONTINUOUS
 62
     7
100
AcDbLine
 10
579.8735668327964
 20
112.2820996877784
 30
0.0
 11
579.4000000000001
 21
93.10077303566155
 31
0.0
  0
LINE
  5
20F
330
1F
100
AcDbEntity
  8
2
  6
CONTINUOUS
 62
     7
100
AcDbLine
 10
624.6000000000001
 20
93.10077303566155
 30
0.0
 11
624.1264331672038
 21
112.2820996877784
 31
0.0
  0
LINE
  5
210
330
1F
100
AcDbEntity
  8
2
  6
CONTINUOUS
 62
     7
100
AcDbLine
 10
580.2695338973855
 20
112.7668623991643
 30
0.0
 11
580.2890346387334
 21
112.7706094137648
 31
0.0
  0
LINE
  5
211
330
1F
100
AcDbEntity
  8
2
  6
CONTINUOUS
 62
     7
100
AcDbLine
 10
580.2890346387334
 20
112.7706094137648
 30
0.0
 11
585.2887678112131
 21
113.6287181617675
 31
0.0
  0
ARC
  5
212
330
1F
100
AcDbEntity
  8
2
  6
CONTINUOUS
 62
     7
100
AcDbCircle
 10
-586.1345555115779
 20
108.7007730356615
 30
0.0
 40
5.000000000000004
210
0.0
220
0.0
230
-1.0
100
AcDbArc
 50
80.2611597205517
 51
81.06083636405229
  0
ARC
  5
213
330
1F
100
AcDbEntity
  8
2
  6
CONTINUOUS
 62
     7
100
AcDbCircle
 10
-617.8654444884223
 20
108.7007730356615
 30
0.0
 40
5.000000000000002
210
0.0
220
0.0
230
-1.0
100
AcDbArc
 50
98.93916363594772
 51
99.73884027944835
  0
LINE
  5
214
330
1F
100
AcDbEntity
  8
2
  6
CONTINUOUS
 62
     7
100
AcDbLine
 10
618.7112321887871
 20
113.6287181617675
 30
0.0
 11
623.7109653612666
 21
112.7706094137648
 31
0.0
  0
LINE
  5
215
330
1F
100
AcDbEntity
  8
2
  6
CONTINUOUS
 62
     7
100
AcDbLine
 10
623.7109653612667
 20
112.7706094137648
 30
0.0
 11
623.7304661026147
 21
112.7668623991643
 31
0.0
  0
LWPOLYLINE
  5
216
330
1F
100
AcDbEntity
  8
2
  6
CONTINUOUS
 62
     7
100
AcDbPolyline
 90
       33
 70
     0
 43
0.0
 10
-579.8737657252154
 20
112.290155616094
 10
-579.8747050753611
 20
112.3108339694346
 10
-579.8765004360763
 20
112.3314683481987
 10
-579.8791723528361
 20
112.3521643149041
 10
-579.8827063227637
 20
112.3727371478031
 10
-579.8872027789937
 20
112.3935926258164
 10
-579.8925851884906
 20
112.4142401601599
 10
-579.8988937935773
 20
112.4347896325837
 10
-579.9060795432855
 20
112.4550494480835
 10
-579.9138301443742
 20
112.474281590013
 10
-579.9223705176871
 20
112.4931747238864
 10
-579.9317535102534
 20
112.5118226680207
 10
-579.9419048684261
 20
112.5300602900005
 10
-579.953052256443
 20
112.5482369863515
 10
-579.9649613514975
 20
112.5659181744558
 10
-579.9777061512588
 20
112.5831953582064
 10
-579.9911761811794
 20
112.5999045889011
 10
-580.004831451922
 20
112.615453283791
 10
-580.0191123164929
 20
112.6304180429076
 10
-580.0342600087961
 20
112.6450170516661
 10
-580.0500142050457
 20
112.6589713810978
 10
-580.0663303072267
 20
112.6722451775524
 10
-580.0831637173239
 20
112.6848025873794
 10
-580.1008269021745
 20
112.6968462825829
 10
-580.1189735874365
 20
112.708115448901
 10
-580.1364167794899
 20
112.7179712191166
 10
-580.1542237170182
 20
112.7271123117334
 10
-580.1726649643393
 20
112.7356554889736
 10
-580.1914315886663
 20
112.7434399907957
 10
-580.2104727476906
 20
112.7504494344833
 10
-580.2297375991031
 20
112.7566674373203
 10
-580.2495500744953
 20
112.762178477304
 10
-580.2695338973855
 20
112.7668623991643
210
0.0
220
0.0
230
-1.0
  0
LINE
  5
217
330
1F
100
AcDbEntity
  8
2
  6
CONTINUOUS
 62
     7
100
AcDbLine
 10
579.8737657252154
 20
112.290155616094
 30
0.0
 11
579.8735668327963
 21
112.2820996877784
 31
0.0
  0
LWPOLYLINE
  5
218
330
1F
100
AcDbEntity
  8
2
  6
CONTINUOUS
 62
     7
100
AcDbPolyline
 90
       33
 70
     0
 43
0.0
 10
-623.7304661026147
 20
112.7668623991643
 10
-623.7498446082358
 20
112.7623316038575
 10
-623.7690787273788
 20
112.7570183706778
 10
-623.7881175655125
 20
112.7509337165055
 10
-623.8069102281062
 20
112.7440886582209
 10
-623.825939262149
 20
112.736265492224
 10
-623.8446688419392
 20
112.7276478519623
 10
-623.8630481609274
 20
112.7182573125
 10
-623.8810264125636
 20
112.7081154489011
 10
-623.8985936547973
 20
112.6972210957898
 10
-623.9157237499383
 20
112.6855904315082
 10
-623.9323708846299
 20
112.6732537156765
 10
-623.948489245515
 20
112.660241207915
 10
-623.9645059640136
 20
112.646153515018
 10
-623.9799293682394
 20
112.6313739891509
 10
-623.9947163544294
 20
112.6159439179123
 10
-624.0088238188207
 20
112.5999045889011
 10
-624.0218694814276
 20
112.5837422596524
 10
-624.0342470589256
 20
112.5670323869721
 10
-624.0459243417719
 20
112.5498192060168
 10
-624.0568691204244
 20
112.5321469519434
 10
-624.0673538297566
 20
112.51349679327
 10
-624.0770413471097
 20
112.494394771908
 10
-624.0859055851926
 20
112.4748944645987
 10
-624.0939204567146
 20
112.4550494480835
 10
-624.1008862104019
 20
112.435448520761
 10
-624.1070358801292
 20
112.4155579315262
 10
-624.1123544676748
 20
112.3954306716028
 10
-624.1168269748166
 20
112.3751197322146
 10
-624.1205391383247
 20
112.3540457291646
 10
-624.1233481401059
 20
112.3328189462329
 10
-624.1252483842343
 20
112.3115015272619
 10
-624.1262342747848
 20
112.290155616094
210
0.0
220
0.0
230
-1.0
  0
LINE
  5
219
330
1F
100
AcDbEntity
  8
2
  6
CONTINUOUS
 62
     7
100
AcDbLine
 10
624.1264331672037
 20
112.2820996877784
 30
0.0
 11
624.1262342747848
 21
112.290155616094
 31
0.0
  0
LINE
  5
21A
330
1F
100
AcDbEntity
  8
2
  6
CONTINUOUS
 62
     7
100
AcDbLine
 10
586.1345555115779
 20
113.7007730356615
 30
0.0
 11
585.3576272383103
 21
113.640042461214
 31
0.0
  0
LINE
  5
21B
330
1F
100
AcDbEntity
  8
2
  6
CONTINUOUS
 62
     7
100
AcDbLine
 10
586.2193980273767
 20
113.7007730356615
 30
0.0
 11
586.1345555115778
 21
113.7007730356615
 31
0.0
  0
LINE
  5
21C
330
1F
100
AcDbEntity
  8
2
  6
CONTINUOUS
 62
     7
100
AcDbLine
 10
617.8654444884223
 20
113.7007730356615
 30
0.0
 11
617.7806019726235
 21
113.7007730356615
 31
0.0
  0
LINE
  5
21D
330
1F
100
AcDbEntity
  8
2
  6
CONTINUOUS
 62
     7
100
AcDbLine
 10
617.8654444884223
 20
113.7007730356615
 30
0.0
 11
618.6423727616899
 21
113.640042461214
 31
0.0
  0
LINE
  5
21E
330
1F
100
AcDbEntity
  8
2
  6
CONTINUOUS
 62
     7
100
AcDbLine
 10
617.7806019726235
 20
113.7007730356615
 30
0.0
 11
586.2193980273767
 21
113.7007730356615
 31
0.0
  0
ELLIPSE
  5
21F
330
1F
100
AcDbEntity
  8
2
  6
CONTINUOUS
 62
   253
100
AcDbEllipse
 10
620.4000000000001
 20
85.40077303566154
 30
0.0
 11
0.5000000000000006
 21
0.0
 31
0.0
210
0.0
220
0.0
230
-1.0
 40
0.7132504491541811
 41
2.80046386204785
 42
3.141592653589793
  0
LINE
  5
220
330
1F
100
AcDbEntity
  8
2
  6
CONTINUOUS
 62
     7
100
AcDbLine
 10
619.9
 20
111.2201254848015
 30
0.0
 11
619.9
 21
85.40077303566154
 31
0.0
  0
ELLIPSE
  5
221
330
1F
100
AcDbEntity
  8
2
  6
CONTINUOUS
 62
   253
100
AcDbEllipse
 10
583.6000000000001
 20
85.40077303566154
 30
0.0
 11
0.499999999999945
 21
0.0
 31
0.0
210
0.0
220
0.0
230
-1.0
 40
0.7132504491541817
 41
0.0
 42
0.3411287915419423
  0
LINE
  5
222
330
1F
100
AcDbEntity
  8
2
  6
CONTINUOUS
 62
     7
100
AcDbLine
 10
584.1
 20
85.40077303566154
 30
0.0
 11
584.1
 21
111.2201254848015
 31
0.0
  0
LINE
  5
223
330
1F
100
AcDbEntity
  8
2
  6
CONTINUOUS
 62
   253
100
AcDbLine
 10
585.2437609742384
 20
113.6283861182625
 30
0.0
 11
585.2868331742211
 21
113.6283861182625
 31
0.0
  0
LINE
  5
224
330
1F
100
AcDbEntity
  8
2
  6
CONTINUOUS
 62
     7
100
AcDbLine
 10
585.2437609742744
 20
113.6283861182625
 30
0.0
 11
586.091481512227
 21
113.7007730356615
 31
0.0
  0
LINE
  5
225
330
1F
100
AcDbEntity
  8
2
  6
CONTINUOUS
 62
     7
100
AcDbLine
 10
617.9085184878094
 20
113.7007730356615
 30
0.0
 11
618.7562390257619
 21
113.6283861182624
 31
0.0
  0
LINE
  5
226
330
1F
100
AcDbEntity
  8
2
  6
CONTINUOUS
 62
   253
100
AcDbLine
 10
618.7131668257791
 20
113.6283861182625
 30
0.0
 11
618.7562390257619
 21
113.6283861182625
 31
0.0
  0
LINE
  5
227
330
1F
100
AcDbEntity
  8
2
  6
CONTINUOUS
 62
   253
100
AcDbLine
 10
580.2935994626251
 20
112.7713928786377
 30
0.0
 11
580.2626243329211
 21
112.7713928786377
 31
0.0
  0
LINE
  5
228
330
1F
100
AcDbEntity
  8
2
  6
CONTINUOUS
 62
     7
100
AcDbLine
 10
580.2626250364876
 20
112.7713929996847
 30
0.0
 11
585.2437166620444
 21
113.6283784944502
 31
0.0
  0
LINE
  5
229
330
1F
100
AcDbEntity
  8
2
  6
CONTINUOUS
 62
     7
100
AcDbLine
 10
618.7562833379558
 20
113.6283784944502
 30
0.0
 11
623.7373749635126
 21
112.7713929996847
 31
0.0
  0
LINE
  5
22A
330
1F
100
AcDbEntity
  8
2
  6
CONTINUOUS
 62
   253
100
AcDbLine
 10
579.8474660356277
 20
112.2848019278475
 30
0.0
 11
579.8736335482689
 21
112.2848019278475
 31
0.0
  0
LWPOLYLINE
  5
22B
330
1F
100
AcDbEntity
  8
2
  6
CONTINUOUS
 62
     7
100
AcDbPolyline
 90
       22
 70
     0
 43
0.0
 10
-579.8474660354867
 20
112.2848019278475
 10
-579.8483859702665
 20
112.3095696002552
 10
-579.8505320255352
 20
112.3342612537152
 10
-579.8538989281433
 20
112.3588162174764
 10
-579.8584784051532
 20
112.3831741566529
 10
-579.8642592041667
 20
112.4072752204748
 10
-579.8712271209746
 20
112.4310601893501
 10
-579.8793650344575
 20
112.454470620375
 10
-579.8886529486548
 20
112.4774489909361
 10
-579.8990680418981
 20
112.4999388400514
 10
-579.9105847228866
 20
112.5218849071026
 10
-579.9231746935687
 20
112.5432332676177
 10
-579.9368070186738
 20
112.5639314657712
 10
-579.9514482017249
 20
112.5839286432746
 10
-579.9670622673437
 20
112.603175664343
 10
-579.9836108496471
 20
112.6216252364275
 10
-580.0010532865175
 20
112.6392320264199
 10
-580.0193467195148
 20
112.6559527720424
 10
-580.038446199186
 20
112.6717463881485
 10
-580.0583047955115
 20
112.6865740676752
 10
-580.078873713219
 20
112.700399376997
 10
-580.1001024116797
 20
112.7131883454484
210
0.0
220
0.0
230
-1.0
  0
LINE
  5
22C
330
1F
100
AcDbEntity
  8
2
  6
CONTINUOUS
 62
     7
100
AcDbLine
 10
579.4
 20
93.97945269210189
 30
0.0
 11
579.4
 21
107.8200731256678
 31
0.0
  0
LINE
  5
22D
330
1F
100
AcDbEntity
  8
2
  6
CONTINUOUS
 62
     7
100
AcDbLine
 10
624.6000000000001
 20
93.97945269210189
 30
0.0
 11
624.6000000000001
 21
107.8200731256678
 31
0.0
  0
LINE
  5
22E
330
1F
100
AcDbEntity
  8
2
  6
CONTINUOUS
 62
   253
100
AcDbLine
 10
585.2449749636013
 20
113.633174928728
 30
0.0
 11
585.2436723498508
 21
113.628370870638
 31
0.0
  0
LINE
  5
22F
330
1F
100
AcDbEntity
  8
2
  6
CONTINUOUS
 62
   253
100
AcDbLine
 10
580.2626250364876
 20
112.7713929996847
 30
0.0
 11
580.2618723135785
 21
112.7717940780442
 31
0.0
  0
LINE
  5
230
330
1F
100
AcDbEntity
  8
2
  6
CONTINUOUS
 62
   253
100
AcDbLine
 10
580.2618723135785
 20
112.7717940780442
 30
0.0
 11
580.2604226450927
 21
112.7764358964579
 31
0.0
  0
LINE
  5
231
330
1F
100
AcDbEntity
  8
2
  6
CONTINUOUS
 62
   253
100
AcDbLine
 10
580.2604226450928
 20
112.7764358964579
 30
0.0
 11
580.2582742878535
 21
112.7941205655447
 31
0.0
  0
LINE
  5
232
330
1F
100
AcDbEntity
  8
2
  6
CONTINUOUS
 62
   253
100
AcDbLine
 10
618.7563276501494
 20
113.628370870638
 30
0.0
 11
618.7554084329623
 21
113.6295803876614
 31
0.0
  0
LINE
  5
233
330
1F
100
AcDbEntity
  8
2
  6
CONTINUOUS
 62
   253
100
AcDbLine
 10
618.7554084329623
 20
113.6295803876614
 30
0.0
 11
618.7550190078456
 21
113.6357626273817
 31
0.0
  0
LINE
  5
234
330
1F
100
AcDbEntity
  8
2
  6
CONTINUOUS
 62
   253
100
AcDbLine
 10
623.7410696047651
 20
112.7872068872506
 30
0.0
 11
623.7396532623438
 21
112.7768295740305
 31
0.0
  0
LINE
  5
235
330
1F
100
AcDbEntity
  8
2
  6
CONTINUOUS
 62
   253
100
AcDbLine
 10
623.739653262344
 20
112.7768295740305
 30
0.0
 11
623.7381543082685
 21
112.7718323249233
 31
0.0
  0
LINE
  5
236
330
1F
100
AcDbEntity
  8
2
  6
CONTINUOUS
 62
   253
100
AcDbLine
 10
623.7381543082683
 20
112.7718323249233
 30
0.0
 11
623.7373749635127
 21
112.7713929996847
 31
0.0
  0
LINE
  5
237
330
1F
100
AcDbEntity
  8
2
  6
CONTINUOUS
 62
     7
100
AcDbLine
 10
580.1001024116797
 20
112.7131883454484
 30
0.0
 11
580.2626243329211
 21
112.7713928786377
 31
0.0
  0
ELLIPSE
  5
238
330
1F
100
AcDbEntity
  8
2
  6
CONTINUOUS
 62
     7
100
AcDbEllipse
 10
581.4143417154243
 20
118.09514374388
 30
0.0
 11
4.950126712972297
 21
28.9934204542598
 31
0.0
210
0.0
220
0.0
230
1.0
 40
0.1699930946099252
 41
0.0290152450857514
 42
0.0456188912145076
  0
LINE
  5
239
330
1F
100
AcDbEntity
  8
2
  6
CONTINUOUS
 62
     7
100
AcDbLine
 10
617.7806019726235
 20
147.1007730356615
 30
0.0
 11
586.2193980273767
 21
147.1007730356615
 31
0.0
  0
ELLIPSE
  5
23A
330
1F
100
AcDbEntity
  8
2
  6
CONTINUOUS
 62
     7
100
AcDbEllipse
 10
622.5856582845759
 20
118.09514374388
 30
0.0
 11
4.950126712972311
 21
-28.99342045425985
 31
0.0
210
0.0
220
0.0
230
1.0
 40
0.1699930946099259
 41
3.095973762375277
 42
3.112577408504041
  0
LWPOLYLINE
  5
23B
330
1F
100
AcDbEntity
  8
2
  6
CONTINUOUS
 62
     7
100
AcDbPolyline
 90
        2
 70
     1
 43
0.0
 10
619.6101647013347
 20
119.1359303342553
 42
0.8550671013903417
 10
620.930729228394
 20
119.1258704503041
 42
0.6191511426447883
  0
LWPOLYLINE
  5
23C
330
1F
100
AcDbEntity
  8
2
  6
CONTINUOUS
 62
     7
100
AcDbPolyline
 90
        2
 70
     1
 43
0.0
 10
584.3898352986654
 20
119.1359303342553
 42
0.9555815403329104
 10
583.1654096340745
 20
118.7140299245053
 42
0.5022001109494388
  0
LINE
  5
23D
330
1F
100
AcDbEntity
  8
2
  6
CONTINUOUS
 62
     7
100
AcDbLine
 10
586.1345555115779
 20
147.0967749761282
 30
0.0
 11
585.3576272383102
 21
147.034766819867
 31
0.0
  0
ELLIPSE
  5
23E
330
1F
100
AcDbEntity
  8
2
  6
CONTINUOUS
 62
     7
100
AcDbEllipse
 10
586.1345555115779
 20
171.8636428665474
 30
0.0
 11
0.8803997016771302
 21
24.83068131964646
 31
0.0
210
0.0
220
0.0
230
1.0
 40
0.1982176521707167
 41
3.148620567421955
 42
3.162577557802341
  0
LINE
  5
23F
330
1F
100
AcDbEntity
  8
2
  6
CONTINUOUS
 62
     7
100
AcDbLine
 10
617.8654444884223
 20
147.0967749761282
 30
0.0
 11
618.64237276169
 21
147.034766819867
 31
0.0
  0
ELLIPSE
  5
240
330
1F
100
AcDbEntity
  8
2
  6
CONTINUOUS
 62
     7
100
AcDbEllipse
 10
617.8654444884223
 20
171.8636428665473
 30
0.0
 11
0.880399701677138
 21
-24.83068131964642
 31
0.0
210
0.0
220
0.0
230
1.0
 40
0.1982176521707169
 41
6.262200402967032
 42
6.276157393347418
  0
ELLIPSE
  5
241
330
1F
100
AcDbEntity
  8
2
  6
CONTINUOUS
 62
     7
100
AcDbEllipse
 10
626.5774527959109
 20
-111.2090984921198
 30
0.0
 11
2.871251621275207
 21
-239.4821337950905
 31
0.0
210
0.0
220
0.0
230
-1.0
 40
0.0020576071085829
 41
3.14199676156424
 42
3.151003156009707
  0
LINE
  5
242
330
1F
100
AcDbEntity
  8
2
  6
CONTINUOUS
 62
     7
100
AcDbLine
 10
618.7112321887871
 20
147.0323483210784
 30
0.0
 11
623.7109653612666
 21
147.0323483210784
 31
0.0
  0
LINE
  5
243
330
1F
100
AcDbEntity
  8
2
  6
CONTINUOUS
 62
     7
100
AcDbLine
 10
580.2890346387334
 20
147.0323483210784
 30
0.0
 11
585.2887678112131
 21
147.0323483210784
 31
0.0
  0
ELLIPSE
  5
244
330
1F
100
AcDbEntity
  8
2
  6
CONTINUOUS
 62
     7
100
AcDbEllipse
 10
623.6263865912302
 20
149.5154777756253
 30
0.0
 11
0.08803997016771378
 21
-2.483068131964642
 31
0.0
210
0.0
220
0.0
230
1.0
 40
0.1982176521707169
 41
6.276157393347418
 42
6.315874939676619
  0
LINE
  5
245
330
1F
100
AcDbEntity
  8
2
  6
CONTINUOUS
 62
     7
100
AcDbLine
 10
623.7304661026147
 20
147.0343066114818
 30
0.0
 11
624.1262342747849
 21
147.1004120806685
 31
0.0
  0
LINE
  5
246
330
1F
100
AcDbEntity
  8
2
  6
CONTINUOUS
 62
     7
100
AcDbLine
 10
579.8737657252154
 20
147.1004120806685
 30
0.0
 11
580.2695338973856
 21
147.0343066114818
 31
0.0
  0
ELLIPSE
  5
247
330
1F
100
AcDbEntity
  8
2
  6
CONTINUOUS
 62
     7
100
AcDbEllipse
 10
580.3736134087699
 20
149.5154777756254
 30
0.0
 11
0.08803997016771305
 21
2.483068131964646
 31
0.0
210
0.0
220
0.0
230
1.0
 40
0.1982176521707166
 41
3.10890302109277
 42
3.148620567421955
  0
LINE
  5
248
330
1F
100
AcDbEntity
  8
2
  6
CONTINUOUS
 62
     7
100
AcDbLine
 10
624.1262342747848
 20
127.891660024875
 30
0.0
 11
624.1263664517312
 21
127.8886279865998
 31
0.0
  0
LINE
  5
249
330
1F
100
AcDbEntity
  8
2
  6
CONTINUOUS
 62
     7
100
AcDbLine
 10
624.1264331672037
 20
147.1007730356615
 30
0.0
 11
624.1262342747848
 21
147.1004120806685
 31
0.0
  0
LINE
  5
24A
330
1F
100
AcDbEntity
  8
2
  6
CONTINUOUS
 62
     7
100
AcDbLine
 10
624.6000000000001
 20
147.1007730356615
 30
0.0
 11
624.1264331672038
 21
147.1007730356615
 31
0.0
  0
LINE
  5
24B
330
1F
100
AcDbEntity
  8
2
  6
CONTINUOUS
 62
     7
100
AcDbLine
 10
624.6000000000001
 20
120.6007730356616
 30
0.0
 11
624.6000000000001
 21
147.1007730356615
 31
0.0
  0
LINE
  5
24C
330
1F
100
AcDbEntity
  8
2
  6
CONTINUOUS
 62
     7
100
AcDbLine
 10
624.6000000000001
 20
109.9413934692275
 30
0.0
 11
624.6000000000001
 21
112.6007730356616
 31
0.0
  0
LINE
  5
24D
330
1F
100
AcDbEntity
  8
2
  6
CONTINUOUS
 62
     7
100
AcDbLine
 10
579.4
 20
120.6007730356616
 30
0.0
 11
579.4
 21
147.1007730356615
 31
0.0
  0
LINE
  5
24E
330
1F
100
AcDbEntity
  8
2
  6
CONTINUOUS
 62
     7
100
AcDbLine
 10
579.8735668327964
 20
147.1007730356615
 30
0.0
 11
579.4000000000001
 21
147.1007730356615
 31
0.0
  0
LINE
  5
24F
330
1F
100
AcDbEntity
  8
2
  6
CONTINUOUS
 62
     7
100
AcDbLine
 10
579.8737657252154
 20
147.1004120806685
 30
0.0
 11
579.8735668327964
 21
147.1007730356615
 31
0.0
  0
LINE
  5
250
330
1F
100
AcDbEntity
  8
2
  6
CONTINUOUS
 62
     7
100
AcDbLine
 10
579.8736335482689
 20
127.8886279865998
 30
0.0
 11
579.8737657252154
 21
127.8916600248751
 31
0.0
  0
LINE
  5
251
330
1F
100
AcDbEntity
  8
2
  6
CONTINUOUS
 62
     7
100
AcDbLine
 10
579.4
 20
109.9413934692275
 30
0.0
 11
579.4
 21
112.6007730356616
 31
0.0
  0
LINE
  5
252
330
1F
100
AcDbEntity
  8
2
  6
CONTINUOUS
 62
     7
100
AcDbLine
 10
618.0318688772245
 20
150.6105532264819
 30
0.0
 11
617.1817594157407
 21
150.6082578020837
 31
0.0
  0
LINE
  5
253
330
1F
100
AcDbEntity
  8
2
  6
CONTINUOUS
 62
     7
100
AcDbLine
 10
586.8182405842596
 20
150.6082578020837
 30
0.0
 11
585.9681311227756
 21
150.6105532264819
 31
0.0
  0
LINE
  5
254
330
1F
100
AcDbEntity
  8
2
  6
CONTINUOUS
 62
     7
100
AcDbLine
 10
586.8191626690154
 20
150.6082578020837
 30
0.0
 11
586.8182405842596
 21
150.6082578020837
 31
0.0
  0
LINE
  5
255
330
1F
100
AcDbEntity
  8
2
  6
CONTINUOUS
 62
     7
100
AcDbLine
 10
617.1808373309844
 20
150.6082578020837
 30
0.0
 11
586.8191626690153
 21
150.6082578020837
 31
0.0
  0
LINE
  5
256
330
1F
100
AcDbEntity
  8
2
  6
CONTINUOUS
 62
     7
100
AcDbLine
 10
617.1817594157405
 20
150.6082578020837
 30
0.0
 11
617.1808373309846
 21
150.6082578020837
 31
0.0
  0
ELLIPSE
  5
257
330
1F
100
AcDbEntity
  8
2
  6
CONTINUOUS
 62
     7
100
AcDbEllipse
 10
623.7394185600316
 20
149.3726015405233
 30
0.0
 11
0.9544277128031139
 21
-1.133226648028116
 31
0.0
210
0.0
220
0.0
230
1.0
 40
0.5222636694186693
 41
2.710198043102245
 42
2.72720171232332
  0
ELLIPSE
  5
258
330
1F
100
AcDbEntity
  8
2
  6
CONTINUOUS
 62
     7
100
AcDbEllipse
 10
618.9693268262924
 20
138.2305146018041
 30
0.0
 11
-1.525192045329222
 21
12.34251924451591
 31
0.0
210
0.0
220
0.0
230
1.0
 40
0.6319544511661171
 41
6.205251482169799
 42
6.208311820247363
  0
LINE
  5
259
330
1F
100
AcDbEntity
  8
2
  6
CONTINUOUS
 62
     7
100
AcDbLine
 10
623.1040672376325
 20
150.610611200381
 30
0.0
 11
618.0560258664348
 21
150.610611200381
 31
0.0
  0
ELLIPSE
  5
25A
330
1F
100
AcDbEntity
  8
2
  6
CONTINUOUS
 62
     7
100
AcDbEllipse
 10
580.2605814399686
 20
149.3726015405233
 30
0.0
 11
-0.9544277128031018
 21
-1.133226648028117
 31
0.0
210
0.0
220
0.0
230
1.0
 40
0.522263669418672
 41
3.555983594856256
 42
3.572987264077346
  0
LINE
  5
25B
330
1F
100
AcDbEntity
  8
2
  6
CONTINUOUS
 62
     7
100
AcDbLine
 10
585.9439741335653
 20
150.610611200381
 30
0.0
 11
580.8959327623677
 21
150.610611200381
 31
0.0
  0
ELLIPSE
  5
25C
330
1F
100
AcDbEntity
  8
2
  6
CONTINUOUS
 62
     7
100
AcDbEllipse
 10
585.0306731737074
 20
138.2305146018041
 30
0.0
 11
1.52519204532932
 21
12.34251924451589
 31
0.0
210
0.0
220
0.0
230
1.0
 40
0.6319544511661173
 41
0.0748734869322139
 42
0.0779338250097911
  0
ARC
  5
25D
330
1F
100
AcDbEntity
  8
2
  6
CONTINUOUS
 62
     7
100
AcDbCircle
 10
-620.4000000000001
 20
85.40077303566154
 30
0.0
 40
0.4999999999999679
210
0.0
220
0.0
230
-1.0
100
AcDbArc
 50
342.0087010751363
 51
0.0000000000000568
  0
ARC
  5
25E
330
1F
100
AcDbEntity
  8
2
  6
CONTINUOUS
 62
     7
100
AcDbCircle
 10
-583.6000000000001
 20
85.40077303566154
 30
0.0
 40
0.4999999999999449
210
0.0
220
0.0
230
-1.0
100
AcDbArc
 50
180.0000000000011
 51
197.9912989248637
  0
LINE
  5
25F
330
1F
100
AcDbEntity
  8
2
  6
CONTINUOUS
 62
     7
100
AcDbLine
 10
580.8800956973006
 20
150.6104322350659
 30
0.0
 11
580.4723813954382
 21
150.6080938368259
 31
0.0
  0
LINE
  5
260
330
1F
100
AcDbEntity
  8
2
  6
CONTINUOUS
 62
     7
100
AcDbLine
 10
623.5276186045619
 20
150.6080938368259
 30
0.0
 11
623.1199043026995
 21
150.6104322350659
 31
0.0
  0
LINE
  5
261
330
1F
100
AcDbEntity
  8
2
  6
CONTINUOUS
 62
     7
100
AcDbLine
 10
579.4
 20
147.1007730356615
 30
0.0
 11
580.0139968777679
 21
150.6082578020837
 31
0.0
  0
LINE
  5
262
330
1F
100
AcDbEntity
  8
2
  6
CONTINUOUS
 62
     7
100
AcDbLine
 10
580.4720227592697
 20
150.6082578020837
 30
0.0
 11
580.013996877768
 21
150.6082578020837
 31
0.0
  0
LINE
  5
263
330
1F
100
AcDbEntity
  8
2
  6
CONTINUOUS
 62
     7
100
AcDbLine
 10
580.4723813954382
 20
150.6080938368258
 30
0.0
 11
580.4720227592696
 21
150.6082578020837
 31
0.0
  0
LINE
  5
264
330
1F
100
AcDbEntity
  8
2
  6
CONTINUOUS
 62
     7
100
AcDbLine
 10
623.9860031222323
 20
150.6082578020837
 30
0.0
 11
624.6000000000001
 21
147.1007730356615
 31
0.0
  0
LINE
  5
265
330
1F
100
AcDbEntity
  8
2
  6
CONTINUOUS
 62
     7
100
AcDbLine
 10
623.5279772407304
 20
150.6082578020837
 30
0.0
 11
623.5276186045619
 21
150.6080938368259
 31
0.0
  0
LINE
  5
266
330
1F
100
AcDbEntity
  8
2
  6
CONTINUOUS
 62
     7
100
AcDbLine
 10
623.9860031222323
 20
150.6082578020837
 30
0.0
 11
623.5279772407305
 21
150.6082578020837
 31
0.0
  0
LINE
  5
267
330
1F
100
AcDbEntity
  8
2
  6
CONTINUOUS
 62
     7
100
AcDbLine
 10
586.0841774827142
 20
151.1007730356615
 30
0.0
 11
586.9600391720073
 21
151.1007730356615
 31
0.0
  0
LINE
  5
268
330
1F
100
AcDbEntity
  8
2
  6
CONTINUOUS
 62
     7
100
AcDbLine
 10
617.0399608279926
 20
151.1007730356615
 30
0.0
 11
617.915822517286
 21
151.1007730356615
 31
0.0
  0
LINE
  5
269
330
1F
100
AcDbEntity
  8
2
  6
CONTINUOUS
 62
     7
100
AcDbLine
 10
586.9600391720074
 20
151.1007730356615
 30
0.0
 11
617.0399608279926
 21
151.1007730356615
 31
0.0
  0
LINE
  5
26A
330
1F
100
AcDbEntity
  8
2
  6
CONTINUOUS
 62
     7
100
AcDbLine
 10
617.915822517286
 20
151.1007730356615
 30
0.0
 11
622.5330781661802
 21
151.1007730356615
 31
0.0
  0
LINE
  5
26B
330
1F
100
AcDbEntity
  8
2
  6
CONTINUOUS
 62
     7
100
AcDbLine
 10
581.4669218338198
 20
151.1007730356615
 30
0.0
 11
586.0841774827142
 21
151.1007730356615
 31
0.0
  0
LINE
  5
26C
330
1F
100
AcDbEntity
  8
2
  6
CONTINUOUS
 62
     7
100
AcDbLine
 10
581.0457533022359
 20
151.1007730356615
 30
0.0
 11
581.4669218338198
 21
151.1007730356615
 31
0.0
  0
LINE
  5
26D
330
1F
100
AcDbEntity
  8
2
  6
CONTINUOUS
 62
     7
100
AcDbLine
 10
622.5330781661803
 20
151.1007730356615
 30
0.0
 11
622.9542466977643
 21
151.1007730356615
 31
0.0
  0
LINE
  5
26E
330
1F
100
AcDbEntity
  8
2
  6
CONTINUOUS
 62
     7
100
AcDbLine
 10
580.0139968777679
 20
150.6082578020837
 30
0.0
 11
580.6003656708647
 21
151.1007730356616
 31
0.0
  0
LINE
  5
26F
330
1F
100
AcDbEntity
  8
2
  6
CONTINUOUS
 62
     7
100
AcDbLine
 10
580.6003656708647
 20
151.1007730356616
 30
0.0
 11
581.0457533022359
 21
151.1007730356615
 31
0.0
  0
LINE
  5
270
330
1F
100
AcDbEntity
  8
2
  6
CONTINUOUS
 62
     7
100
AcDbLine
 10
623.3996343291354
 20
151.1007730356616
 30
0.0
 11
623.9860031222322
 21
150.6082578020837
 31
0.0
  0
LINE
  5
271
330
1F
100
AcDbEntity
  8
2
  6
CONTINUOUS
 62
     7
100
AcDbLine
 10
622.9542466977643
 20
151.1007730356615
 30
0.0
 11
623.3996343291354
 21
151.1007730356616
 31
0.0
  0
LWPOLYLINE
  5
272
330
1F
100
AcDbEntity
  8
2
  6
CONTINUOUS
 62
     7
100
AcDbPolyline
 90
       25
 70
     0
 43
0.0
 10
595.3356056039863
 20
84.53651355387656
 10
595.2916413606254
 20
84.51871947548366
 10
595.2483279560802
 20
84.49868377755887
 10
595.2058414245922
 20
84.4764254345944
 10
595.1643571095545
 20
84.45197979206159
 10
595.1240475517171
 20
84.42539868717496
 10
595.085080351042
 20
84.3967502786227
 10
595.0476160549208
 20
84.36611857842993
 10
595.011806126635
 20
84.33360268884068
 10
594.977791046828
 20
84.29931575707303
 10
594.9456985973452
 20
84.26338367048938
 10
594.915642371216
 20
84.22594352360905
 10
594.8877205450666
 20
84.1871418959855
 10
594.8620149412579
 20
84.14713298587215
 10
594.8385903970327
 20
84.1060766485173
 10
594.8174944474856
 20
84.06413638969867
 10
594.7987573187802
 20
84.0214773647131
 10
594.7823922182727
 20
83.97826443059373
 10
594.7683958995273
 20
83.93466029507692
 10
594.75674947297
 20
83.89082380011436
 10
594.7474194273931
 20
83.84690837092107
 10
594.7403588238062
 20
83.80306065409576
 10
594.7355086212382
 20
83.75941936066438
 10
594.7327990939266
 20
83.71611432237255
 10
594.7321513007004
 20
83.67326576252212
  0
LWPOLYLINE
  5
273
330
1F
100
AcDbEntity
  8
2
  6
CONTINUOUS
 62
     7
100
AcDbPolyline
 90
       25
 70
     0
 43
0.0
 10
609.2678486992996
 20
83.67326576252232
 10
609.2672009060734
 20
83.71611432237194
 10
609.264491378762
 20
83.75941936066297
 10
609.259641176194
 20
83.80306065409351
 10
609.2525805726076
 20
83.84690837091802
 10
609.243250527031
 20
83.89082380011054
 10
609.2316041004742
 20
83.93466029507229
 10
609.2176077817294
 20
83.97826443058831
 10
609.2012426812224
 20
84.02147736470697
 10
609.1825055525176
 20
84.06413638969187
 10
609.1614096029715
 20
84.10607664850983
 10
609.1379850587471
 20
84.14713298586412
 10
609.1122794549392
 20
84.18714189597698
 10
609.0843576287908
 20
84.22594352360014
 10
609.0543014026626
 20
84.26338367048014
 10
609.0222089531809
 20
84.29931575706357
 10
608.9881938733752
 20
84.33360268883105
 10
608.9523839450906
 20
84.36611857842024
 10
608.9149196489703
 20
84.39675027861307
 10
608.8759524482966
 20
84.42539868716547
 10
608.8356428904603
 20
84.45197979205237
 10
608.7941585754238
 20
84.47642543458555
 10
608.7516720439369
 20
84.49868377755045
 10
608.7083586393927
 20
84.51871947547582
 10
608.6643943960329
 20
84.53651355386931
  0
LINE
  5
274
330
1F
100
AcDbEntity
  8
2
  6
CONTINUOUS
 62
     7
100
AcDbLine
 10
586.637627483292
 20
99.03309215487157
 30
0.0
 11
586.4833441012632
 21
111.5009855929234
 31
0.0
  0
ENDSEC
  0
SECTION
  2
OBJECTS
  0
DICTIONARY
  5
C
330
0
100
AcDbDictionary
  3
ACAD_GROUP
350
D
  3
ACAD_LAYOUT
350
1A
  3
ACAD_MATERIAL
350
43
  3
ACAD_MLEADERSTYLE
350
6B
  3
ACAD_MLINESTYLE
350
17
  3
ACAD_PLOTSETTINGS
350
19
  3
ACAD_SCALELIST
350
47
  3
ACAD_VISUALSTYLE
350
2A
  3
ACDBHEADERROUNDTRIPXREC
350
275
  3
ACDBVARIABLEDICTIONARY
350
296
  0
DICTIONARY
  5
29D
330
8
100
AcDbDictionary
280
     1
  3
ACAD_XREC_ROUNDTRIP
360
29E
  0
DICTIONARY
  5
D
102
{ACAD_REACTORS
330
C
102
}
330
C
100
AcDbDictionary
  0
DICTIONARY
  5
1A
102
{ACAD_REACTORS
330
C
102
}
330
C
100
AcDbDictionary
  0
DICTIONARY
  5
43
102
{ACAD_REACTORS
330
C
102
}
330
C
100
AcDbDictionary
  3
BYBLOCK
350
45
  3
BYLAYER
350
44
  3
GLOBAL
350
46
  0
DICTIONARY
  5
6B
102
{ACAD_REACTORS
330
C
102
}
330
C
100
AcDbDictionary
  3
STANDARD
350
6C
  0
DICTIONARY
  5
17
102
{ACAD_REACTORS
330
C
102
}
330
C
100
AcDbDictionary
  3
STANDARD
350
18
  0
DICTIONARY
  5
19
102
{ACAD_REACTORS
330
C
102
}
330
C
100
AcDbDictionary
  0
DICTIONARY
  5
47
102
{ACAD_REACTORS
330
C
102
}
330
C
100
AcDbDictionary
  3
A0
350
48
  3
A1
350
49
  3
A2
350
4A
  3
A3
350
4B
  3
A4
350
4C
  3
A5
350
4D
  3
A6
350
4E
  3
A7
350
4F
  3
A8
350
50
  3
A9
350
51
  3
B0
350
52
  3
B1
350
53
  3
B2
350
54
  3
B3
350
55
  3
B4
350
56
  3
B5
350
57
  3
B6
350
58
  3
B7
350
59
  3
B8
350
5A
  3
B9
350
5B
  3
C0
350
5C
  3
C1
350
5D
  3
C2
350
5E
  3
C3
350
5F
  3
C4
350
60
  3
C5
350
61
  3
C6
350
62
  3
C7
350
63
  3
C8
350
64
  3
C9
350
65
  3
D0
350
66
  3
D1
350
67
  3
D2
350
68
  0
DICTIONARY
  5
2A
102
{ACAD_REACTORS
330
C
102
}
330
C
100
AcDbDictionary
  3
2DWIREFRAME
350
2F
  3
BASIC
350
32
  3
BRIGHTEN
350
36
  3
COLORCHANGE
350
3A
  3
CONCEPTUAL
350
34
  3
DIM
350
35
  3
EDGECOLOROFF
350
3D
  3
FACEPATTERN
350
39
  3
FLAT
350
2B
  3
FLATWITHEDGES
350
2C
  3
GOURAUD
350
2D
  3
GOURAUDWITHEDGES
350
2E
  3
HIDDEN
350
31
  3
JITTEROFF
350
3B
  3
LINEPATTERN
350
38
  3
OVERHANGOFF
350
3C
  3
REALISTIC
350
33
  3
SHADED
350
42
  3
SHADED_WITH_EDGES
350
41
  3
SHADES_OF_GRAY
350
3E
  3
SKETCHY
350
3F
  3
THICKEN
350
37
  3
WIREFRAME
350
30
  3
X-RAY
350
40
  0
DICTIONARY
  5
275
102
{ACAD_REACTORS
330
C
102
}
330
C
100
AcDbDictionary
  3
CEPSNID
350
27F
  3
CEPSNTYPE
350
27E
  3
DIMSTYLEDATA
350
295
  3
FINGERPRINTGUID
350
280
  3
HYPERLINKBASE
350
278
  3
INSUNITS
350
27D
  3
LAYOUTDICT
350
27A
  3
LWETCUNION
350
27C
  3
PLOTSETDICT
350
27B
  3
PSVPSCALE
350
282
  3
PUCSBASE
350
285
  3
PUCSORGBACK
350
28B
  3
PUCSORGBOTTOM
350
287
  3
PUCSORGFRONT
350
28A
  3
PUCSORGLEFT
350
288
  3
PUCSORGRIGHT
350
289
  3
PUCSORGTOP
350
286
  3
PUCSORTHOREF
350
283
  3
PUCSORTHOVIEW
350
284
  3
STYLESHEET
350
279
  3
TSTACKALIGN
350
276
  3
TSTACKSIZE
350
277
  3
UCSBASE
350
28E
  3
UCSORGBACK
350
294
  3
UCSORGBOTTOM
350
290
  3
UCSORGFRONT
350
293
  3
UCSORGLEFT
350
291
  3
UCSORGRIGHT
350
292
  3
UCSORGTOP
350
28F
  3
UCSORTHOREF
350
28C
  3
UCSORTHOVIEW
350
28D
  3
VERSIONGUID
350
281
  0
DICTIONARY
  5
296
102
{ACAD_REACTORS
330
C
102
}
330
C
100
AcDbDictionary
  3
CANNOSCALE
350
29F
  3
CMLEADERSTYLE
350
298
  3
CTABLESTYLE
350
297
  3
DIMASSOC
350
29B
  3
HIDETEXT
350
29C
  3
MSLTSCALE
350
2A0
  0
XRECORD
  5
29E
102
{ACAD_REACTORS
330
29D
102
}
330
29D
100
AcDbXrecord
102
VTR_0.000_0.000_1.000_1.000_VISUALSTYLE
340
2F
102
VTR_0.000_0.000_1.000_1.000_GRIDDISPLAY
 70
     3
102
VTR_0.000_0.000_1.000_1.000_GRIDMAJOR
 70
     5
102
VTR_0.000_0.000_1.000_1.000_DEFAULTLIGHTING
280
     1
102
VTR_0.000_0.000_1.000_1.000_DEFAULTLIGHTINGTYPE
 70
     1
102
VTR_0.000_0.000_1.000_1.000_BRIGHTNESS
141
0.0
102
VTR_0.000_0.000_1.000_1.000_CONTRAST
142
0.0
  0
MATERIAL
  5
45
102
{ACAD_REACTORS
330
43
102
}
102
{ACAD_XDICTIONARY
360
2A3
102
}
330
43
100
AcDbMaterial
  1
BYBLOCK
  0
MATERIAL
  5
44
102
{ACAD_REACTORS
330
43
102
}
102
{ACAD_XDICTIONARY
360
2A1
102
}
330
43
100
AcDbMaterial
  1
BYLAYER
  0
MATERIAL
  5
46
102
{ACAD_REACTORS
330
43
102
}
102
{ACAD_XDICTIONARY
360
2A5
102
}
330
43
100
AcDbMaterial
  1
GLOBAL
  0
ACAD_PROXY_OBJECT
  5
6C
102
{ACAD_REACTORS
330
6B
102
}
330
6B
100
AcDbProxyObject
 90
      499
 91
      505
 93
      610
310
40901902A4063FBFFFFFE056BD1B81E855B9FC0AD7A3703D0AD73F4214DD185B99185C9900AD7A3703D0AC73F90141901A02B5E8DC0F42B1CFC02B5E8DC0F42B1CFE5764000000000000300FC0
340
14
340
0
340
11
340
0
 94
        0
1001
ACAD_MLEADERVER
1070
     2
  0
MLINESTYLE
  5
18
102
{ACAD_REACTORS
330
17
102
}
330
17
100
AcDbMlineStyle
  2
Standard
 70
     0
  3

 62
   256
 51
90.0
 52
90.0
 71
     2
 49
0.5
 62
   256
  6
BYLAYER
 49
-0.5
 62
   256
  6
BYLAYER
  0
ACAD_PROXY_OBJECT
  5
48
102
{ACAD_REACTORS
330
47
102
}
330
47
100
AcDbProxyObject
 90
      499
 91
      503
 93
       41
310
903313A31580
  0
ACAD_PROXY_OBJECT
  5
49
102
{ACAD_REACTORS
330
47
102
}
330
47
100
AcDbProxyObject
 90
      499
 91
      503
 93
      105
310
903313A324000000000000004000
  0
ACAD_PROXY_OBJECT
  5
4A
102
{ACAD_REACTORS
330
47
102
}
330
47
100
AcDbProxyObject
 90
      499
 91
      503
 93
      105
310
903313A344000000000000104000
  0
ACAD_PROXY_OBJECT
  5
4B
102
{ACAD_REACTORS
330
47
102
}
330
47
100
AcDbProxyObject
 90
      499
 91
      503
 93
      105
310
903313A354000000000000144000
  0
ACAD_PROXY_OBJECT
  5
4C
102
{ACAD_REACTORS
330
47
102
}
330
47
100
AcDbProxyObject
 90
      499
 91
      503
 93
      105
310
903313A384000000000000204000
  0
ACAD_PROXY_OBJECT
  5
4D
102
{ACAD_REACTORS
330
47
102
}
330
47
100
AcDbProxyObject
 90
      499
 91
      503
 93
      113
310
904313A31304000000000000244000
  0
ACAD_PROXY_OBJECT
  5
4E
102
{ACAD_REACTORS
330
47
102
}
330
47
100
AcDbProxyObject
 90
      499
 91
      503
 93
      113
310
904313A31364000000000000304000
  0
ACAD_PROXY_OBJECT
  5
4F
102
{ACAD_REACTORS
330
47
102
}
330
47
100
AcDbProxyObject
 90
      499
 91
      503
 93
      113
310
904313A32304000000000000344000
  0
ACAD_PROXY_OBJECT
  5
50
102
{ACAD_REACTORS
330
47
102
}
330
47
100
AcDbProxyObject
 90
      499
 91
      503
 93
      113
310
904313A333040000000000003E4000
  0
ACAD_PROXY_OBJECT
  5
51
102
{ACAD_REACTORS
330
47
102
}
330
47
100
AcDbProxyObject
 90
      499
 91
      503
 93
      113
310
904313A34304000000000000444000
  0
ACAD_PROXY_OBJECT
  5
52
102
{ACAD_REACTORS
330
47
102
}
330
47
100
AcDbProxyObject
 90
      499
 91
      503
 93
      113
310
904313A35304000000000000494000
  0
ACAD_PROXY_OBJECT
  5
53
102
{ACAD_REACTORS
330
47
102
}
330
47
100
AcDbProxyObject
 90
      499
 91
      503
 93
      121
310
905313A3130304000000000000594000
  0
ACAD_PROXY_OBJECT
  5
54
102
{ACAD_REACTORS
330
47
102
}
330
47
100
AcDbProxyObject
 90
      499
 91
      503
 93
      105
310
903323A310000000000000010100
  0
ACAD_PROXY_OBJECT
  5
55
102
{ACAD_REACTORS
330
47
102
}
330
47
100
AcDbProxyObject
 90
      499
 91
      503
 93
      105
310
903343A310000000000000410100
  0
ACAD_PROXY_OBJECT
  5
56
102
{ACAD_REACTORS
330
47
102
}
330
47
100
AcDbProxyObject
 90
      499
 91
      503
 93
      105
310
903383A310000000000000810100
  0
ACAD_PROXY_OBJECT
  5
57
102
{ACAD_REACTORS
330
47
102
}
330
47
100
AcDbProxyObject
 90
      499
 91
      503
 93
      113
310
90431303A310000000000000910100
  0
ACAD_PROXY_OBJECT
  5
58
102
{ACAD_REACTORS
330
47
102
}
330
47
100
AcDbProxyObject
 90
      499
 91
      503
 93
      121
310
9053130303A310000000000001650100
  0
ACAD_PROXY_OBJECT
  5
59
102
{ACAD_REACTORS
330
47
102
}
330
47
100
AcDbProxyObject
 90
      499
 91
      503
 93
      257
310
90E312F31323822203D2031272D3022000000000000200FC000000000000284000
  0
ACAD_PROXY_OBJECT
  5
5A
102
{ACAD_REACTORS
330
47
102
}
330
47
100
AcDbProxyObject
 90
      499
 91
      503
 93
      249
310
90D312F363422203D2031272D3022000000000000240FC000000000000284000
  0
ACAD_PROXY_OBJECT
  5
5B
102
{ACAD_REACTORS
330
47
102
}
330
47
100
AcDbProxyObject
 90
      499
 91
      503
 93
      249
310
90D312F333222203D2031272D3022000000000000280FC000000000000284000
  0
ACAD_PROXY_OBJECT
  5
5C
102
{ACAD_REACTORS
330
47
102
}
330
47
100
AcDbProxyObject
 90
      499
 91
      503
 93
      249
310
90D312F313622203D2031272D30220000000000002C0FC000000000000284000
  0
ACAD_PROXY_OBJECT
  5
5D
102
{ACAD_REACTORS
330
47
102
}
330
47
100
AcDbProxyObject
 90
      499
 91
      503
 93
      249
310
90D332F333222203D2031272D30220000000000002E0FC000000000000284000
  0
ACAD_PROXY_OBJECT
  5
5E
102
{ACAD_REACTORS
330
47
102
}
330
47
100
AcDbProxyObject
 90
      499
 91
      503
 93
      241
310
90C312F3822203D2031272D3022000000000000300FC000000000000284000
  0
ACAD_PROXY_OBJECT
  5
5F
102
{ACAD_REACTORS
330
47
102
}
330
47
100
AcDbProxyObject
 90
      499
 91
      503
 93
      249
310
90D332F313622203D2031272D3022000000000000320FC000000000000284000
  0
ACAD_PROXY_OBJECT
  5
60
102
{ACAD_REACTORS
330
47
102
}
330
47
100
AcDbProxyObject
 90
      499
 91
      503
 93
      241
310
90C312F3422203D2031272D3022000000000000340FC000000000000284000
  0
ACAD_PROXY_OBJECT
  5
61
102
{ACAD_REACTORS
330
47
102
}
330
47
100
AcDbProxyObject
 90
      499
 91
      503
 93
      241
310
90C332F3822203D2031272D3022000000000000360FC000000000000284000
  0
ACAD_PROXY_OBJECT
  5
62
102
{ACAD_REACTORS
330
47
102
}
330
47
100
AcDbProxyObject
 90
      499
 91
      503
 93
      241
310
90C312F3222203D2031272D3022000000000000380FC000000000000284000
  0
ACAD_PROXY_OBJECT
  5
63
102
{ACAD_REACTORS
330
47
102
}
330
47
100
AcDbProxyObject
 90
      499
 91
      503
 93
      241
310
90C332F3422203D2031272D30220000000000003A0FC000000000000284000
  0
ACAD_PROXY_OBJECT
  5
64
102
{ACAD_REACTORS
330
47
102
}
330
47
100
AcDbProxyObject
 90
      499
 91
      503
 93
      161
310
90A3122203D2031272D30224000000000000284000
  0
ACAD_PROXY_OBJECT
  5
65
102
{ACAD_REACTORS
330
47
102
}
330
47
100
AcDbProxyObject
 90
      499
 91
      503
 93
      257
310
90E312D312F3222203D2031272D30220000000000003E0FC000000000000284000
  0
ACAD_PROXY_OBJECT
  5
66
102
{ACAD_REACTORS
330
47
102
}
330
47
100
AcDbProxyObject
 90
      499
 91
      503
 93
      225
310
90A3322203D2031272D302200000000000002100000000000000284000
  0
ACAD_PROXY_OBJECT
  5
67
102
{ACAD_REACTORS
330
47
102
}
330
47
100
AcDbProxyObject
 90
      499
 91
      503
 93
      225
310
90A3622203D2031272D302200000000000006100000000000000284000
  0
ACAD_PROXY_OBJECT
  5
68
102
{ACAD_REACTORS
330
47
102
}
330
47
100
AcDbProxyObject
 90
      499
 91
      503
 93
      249
310
90D31272D3022203D2031272D30220000000000000A100000000000000284000
  0
ACAD_PROXY_OBJECT
  5
2F
102
{ACAD_REACTORS
330
2A
102
}
330
2A
100
AcDbProxyObject
 90
      499
 91
      501
 93
      436
310
42CC9915DA5C99599C985B595049028333333333333E33F0000000000000F90107901411070040501600405405064090741402480A0340
1001
ACAD
1000
AcDbSavedByObjectVersion
1070
     0
  0
ACAD_PROXY_OBJECT
  5
32
102
{ACAD_REACTORS
330
2A
102
}
330
2A
100
AcDbProxyObject
 90
      499
 91
      501
 93
      388
310
4150985CDA58D07406404333333333333E33F0000000000000F90107A41107004050150841D405064090741402480A0350
1001
ACAD
1000
AcDbSavedByObjectVersion
1070
     0
  0
ACAD_PROXY_OBJECT
  5
36
102
{ACAD_REACTORS
330
2A
102
}
330
2A
100
AcDbProxyObject
 90
      499
 91
      501
 93
      428
310
42109C9A59DA1D195B90C409028333333333333E33F0000000000000F9010790141107004050150841D405064090741402480A029950
1001
ACAD
1000
AcDbSavedByObjectVersion
1070
     0
  0
ACAD_PROXY_OBJECT
  5
3A
102
{ACAD_REACTORS
330
2A
102
}
330
2A
100
AcDbProxyObject
 90
      499
 91
      501
 93
      452
310
42D0DBDB1BDC90DA185B99D95104090240C333333333333E33F0000000000000F90108901411070040501508421405064090741402480A0350
1001
ACAD
1000
AcDbSavedByObjectVersion
1070
     0
  0
ACAD_PROXY_OBJECT
  5
34
102
{ACAD_REACTORS
330
2A
102
}
330
2A
100
AcDbProxyObject
 90
      499
 91
      501
 93
      500
310
4290DBDB98D95C1D1D585B10940D028333333333333E33F0000000000000F90107902409070040501000000000018199010841D405064090740C02480A0340
1001
ACAD
1000
AcDbSavedByObjectVersion
1070
     0
  0
ACAD_PROXY_OBJECT
  5
35
102
{ACAD_REACTORS
330
2A
102
}
330
2A
100
AcDbProxyObject
 90
      499
 91
      501
 93
      412
310
40D11A5B50B409028333333333333E33F0000000000000F9010790141107004050150841D405064090741402480A02677FFFFFD0
1001
ACAD
1000
AcDbSavedByObjectVersion
1070
     0
  0
ACAD_PROXY_OBJECT
  5
3D
102
{ACAD_REACTORS
330
2A
102
}
330
2A
100
AcDbProxyObject
 90
      499
 91
      501
 93
      452
310
43115919D950DBDB1BDC93D999916409028333333333333E33F0000000000000F9010790141107004050150841D405064090741402480A0350
1001
ACAD
1000
AcDbSavedByObjectVersion
1070
     0
  0
ACAD_PROXY_OBJECT
  5
39
102
{ACAD_REACTORS
330
2A
102
}
330
2A
100
AcDbProxyObject
 90
      499
 91
      501
 93
      444
310
42D19858D95C185D1D195C9B90F409028333333333333E33F0000000000000F9010790141107004050150841D405064090741402480A0350
1001
ACAD
1000
AcDbSavedByObjectVersion
1070
     0
  0
ACAD_PROXY_OBJECT
  5
2B
102
{ACAD_REACTORS
330
2A
102
}
330
2A
100
AcDbProxyObject
 90
      499
 91
      501
 93
      380
310
41119B185D240901404333333333333E33F0000000000000F9010740A907004050150841D405064090741402480A1B50
1001
ACAD
1000
AcDbSavedByObjectVersion
1070
     0
  0
ACAD_PROXY_OBJECT
  5
2C
102
{ACAD_REACTORS
330
2A
102
}
330
2A
100
AcDbProxyObject
 90
      499
 91
      501
 93
      468
310
43519B185D15DA5D1A115919D95CD0140901404333333333333E33F0000000000000F90107409019070040501600405405064090741402480A1B50
1001
ACAD
1000
AcDbSavedByObjectVersion
1070
     0
  0
ACAD_PROXY_OBJECT
  5
2D
102
{ACAD_REACTORS
330
2A
102
}
330
2A
100
AcDbProxyObject
 90
      499
 91
      501
 93
      404
310
41D1DBDD5C985D5910240902404333333333333E33F0000000000000F9010740A9070040501641D405064090741402480A1B50
1001
ACAD
1000
AcDbSavedByObjectVersion
1070
     0
  0
ACAD_PROXY_OBJECT
  5
2E
102
{ACAD_REACTORS
330
2A
102
}
330
2A
100
AcDbProxyObject
 90
      499
 91
      501
 93
      492
310
4411DBDD5C985D5915DA5D1A115919D95CD0340902404333333333333E33F0000000000000F90107409019070040501600405405064090741402480A1B50
1001
ACAD
1000
AcDbSavedByObjectVersion
1070
     0
  0
ACAD_PROXY_OBJECT
  5
31
102
{ACAD_REACTORS
330
2A
102
}
330
2A
100
AcDbProxyObject
 90
      499
 91
      501
 93
      476
310
41921A5919195B90640502408333333333333E33F0000000000000F901079024090700405020000000000001110200405405064090740C02480A0340
1001
ACAD
1000
AcDbSavedByObjectVersion
1070
     0
  0
ACAD_PROXY_OBJECT
  5
3B
102
{ACAD_REACTORS
330
2A
102
}
330
2A
100
AcDbProxyObject
 90
      499
 91
      501
 93
      428
310
42529A5D1D195C93D999914409028333333333333E33F0000000000000F9010790141107004050150A41D405064090741402480A0350
1001
ACAD
1000
AcDbSavedByObjectVersion
1070
     0
  0
ACAD_PROXY_OBJECT
  5
38
102
{ACAD_REACTORS
330
2A
102
}
330
2A
100
AcDbProxyObject
 90
      499
 91
      501
 93
      444
310
42D31A5B995C185D1D195C9B90E409028333333333333E33F0000000000000F9010790141107004050750841D405064090741402483A0350
1001
ACAD
1000
AcDbSavedByObjectVersion
1070
     0
  0
ACAD_PROXY_OBJECT
  5
3C
102
{ACAD_REACTORS
330
2A
102
}
330
2A
100
AcDbProxyObject
 90
      499
 91
      501
 93
      444
310
42D3DD995C9A185B99D3D999915409028333333333333E33F0000000000000F9010790141107004050150941D405064090741402480A0350
1001
ACAD
1000
AcDbSavedByObjectVersion
1070
     0
  0
ACAD_PROXY_OBJECT
  5
33
102
{ACAD_REACTORS
330
2A
102
}
330
2A
100
AcDbProxyObject
 90
      499
 91
      501
 93
      428
310
425499585B1A5CDD1A58D08409038333333333333E33F0000000000000F9010740A907004050150800405405064090740C02480A1B40
1001
ACAD
1000
AcDbSavedByObjectVersion
1070
     0
  0
ACAD_PROXY_OBJECT
  5
42
102
{ACAD_REACTORS
330
2A
102
}
330
2A
100
AcDbProxyObject
 90
      499
 91
      501
 93
      420
310
4194DA1859195911B40902404333333333333E33F0000000000000F9010740A41107004050150800405405064090840C02480A0B40
1001
ACAD
1000
AcDbSavedByObjectVersion
1070
     0
  0
ACAD_PROXY_OBJECT
  5
41
102
{ACAD_REACTORS
330
2A
102
}
330
2A
100
AcDbProxyObject
 90
      499
 91
      501
 93
      516
310
4454DA18591959081DDA5D1A08195919D95CD1A40902404333333333333E33F0000000000000F901074090142907004050250800405405064090740C02480A0B40
1001
ACAD
1000
AcDbSavedByObjectVersion
1070
     0
  0
ACAD_PROXY_OBJECT
  5
3E
102
{ACAD_REACTORS
330
2A
102
}
330
2A
100
AcDbProxyObject
 90
      499
 91
      501
 93
      532
310
4394DA1859195CC81BD98811DC985E5174090240C333333333333E33F0000000000000F901079024090741D01000000000000111010841D405064090740C02480A0340
1001
ACAD
1000
AcDbSavedByObjectVersion
1070
     0
  0
ACAD_PROXY_OBJECT
  5
3F
102
{ACAD_REACTORS
330
2A
102
}
330
2A
100
AcDbProxyObject
 90
      499
 91
      501
 93
      476
310
41D4DAD95D18DA1E51840502408333333333333E33F0000000000000F901079024090741D01000000000000111010B41D405064090741802480A0340
1001
ACAD
1000
AcDbSavedByObjectVersion
1070
     0
  0
ACAD_PROXY_OBJECT
  5
37
102
{ACAD_REACTORS
330
2A
102
}
330
2A
100
AcDbProxyObject
 90
      499
 91
      501
 93
      412
310
41D51A1A58DAD95B90D409028333333333333E33F0000000000000F9010790141107004050150C41D405064090741402480A0350
1001
ACAD
1000
AcDbSavedByObjectVersion
1070
     0
  0
ACAD_PROXY_OBJECT
  5
30
102
{ACAD_REACTORS
330
2A
102
}
330
2A
100
AcDbProxyObject
 90
      499
 91
      501
 93
      420
310
4255DA5C99599C985B595059028333333333333E33F0000000000000F90107901411070040501600405405064090740C02480A0340
1001
ACAD
1000
AcDbSavedByObjectVersion
1070
     0
  0
ACAD_PROXY_OBJECT
  5
40
102
{ACAD_REACTORS
330
2A
102
}
330
2A
100
AcDbProxyObject
 90
      499
 91
      501
 93
      404
310
41560B54985E51940902404000000000000E03F0000000000000F9010740501907004050150841D405064090740C02480A1B40
1001
ACAD
1000
AcDbSavedByObjectVersion
1070
     0
  0
XRECORD
  5
27F
102
{ACAD_REACTORS
330
275
102
}
330
275
100
AcDbXrecord
340
0
  0
XRECORD
  5
27E
102
{ACAD_REACTORS
330
275
102
}
330
275
100
AcDbXrecord
 90
        0
  0
XRECORD
  5
295
102
{ACAD_REACTORS
330
275
102
}
330
275
100
AcDbXrecord
1000
DSTYLE
1002
{
1070
   179
 70
     2
1070
   171
 70
     2
1070
   143
 40
25.4
1070
   274
 70
     2
1070
    41
 40
3.0
1070
   141
 40
0.09
1070
    43
 40
0.38
1070
   278
 70
    46
1070
    44
 40
1.5
1070
    42
 40
0.0625
1070
   147
 40
1.5
1070
   272
 70
     4
1070
    73
 70
     1
1070
   172
 70
     0
1070
    74
 70
     1
1070
   283
 70
     1
1070
   340
340
6F
1070
   140
 40
3.0
1070
   284
 70
     0
1070
    78
 70
     0
1002
}
  0
XRECORD
  5
280
102
{ACAD_REACTORS
330
275
102
}
330
275
100
AcDbXrecord
  1
{915E899B-7D1B-4EC7-A80F-E19ACF7BBEC9}
  0
XRECORD
  5
278
102
{ACAD_REACTORS
330
275
102
}
330
275
100
AcDbXrecord
  1

  0
XRECORD
  5
27D
102
{ACAD_REACTORS
330
275
102
}
330
275
100
AcDbXrecord
 90
        4
  0
XRECORD
  5
27A
102
{ACAD_REACTORS
330
275
102
}
330
275
100
AcDbXrecord
340
1A
  0
XRECORD
  5
27C
102
{ACAD_REACTORS
330
275
102
}
330
275
100
AcDbXrecord
 90
    10269
  0
XRECORD
  5
27B
102
{ACAD_REACTORS
330
275
102
}
330
275
100
AcDbXrecord
340
19
  0
XRECORD
  5
282
102
{ACAD_REACTORS
330
275
102
}
330
275
100
AcDbXrecord
 40
0.0
  0
XRECORD
  5
285
102
{ACAD_REACTORS
330
275
102
}
330
275
100
AcDbXrecord
340
0
  0
XRECORD
  5
28B
102
{ACAD_REACTORS
330
275
102
}
330
275
100
AcDbXrecord
 10
0.0
 20
0.0
 30
0.0
  0
XRECORD
  5
287
102
{ACAD_REACTORS
330
275
102
}
330
275
100
AcDbXrecord
 10
0.0
 20
0.0
 30
0.0
  0
XRECORD
  5
28A
102
{ACAD_REACTORS
330
275
102
}
330
275
100
AcDbXrecord
 10
0.0
 20
0.0
 30
0.0
  0
XRECORD
  5
288
102
{ACAD_REACTORS
330
275
102
}
330
275
100
AcDbXrecord
 10
0.0
 20
0.0
 30
0.0
  0
XRECORD
  5
289
102
{ACAD_REACTORS
330
275
102
}
330
275
100
AcDbXrecord
 10
0.0
 20
0.0
 30
0.0
  0
XRECORD
  5
286
102
{ACAD_REACTORS
330
275
102
}
330
275
100
AcDbXrecord
 10
0.0
 20
0.0
 30
0.0
  0
XRECORD
  5
283
102
{ACAD_REACTORS
330
275
102
}
330
275
100
AcDbXrecord
340
0
  0
XRECORD
  5
284
102
{ACAD_REACTORS
330
275
102
}
330
275
100
AcDbXrecord
 70
     0
  0
XRECORD
  5
279
102
{ACAD_REACTORS
330
275
102
}
330
275
100
AcDbXrecord
  1

  0
XRECORD
  5
276
102
{ACAD_REACTORS
330
275
102
}
330
275
100
AcDbXrecord
 90
        1
  0
XRECORD
  5
277
102
{ACAD_REACTORS
330
275
102
}
330
275
100
AcDbXrecord
 90
       70
  0
XRECORD
  5
28E
102
{ACAD_REACTORS
330
275
102
}
330
275
100
AcDbXrecord
340
0
  0
XRECORD
  5
294
102
{ACAD_REACTORS
330
275
102
}
330
275
100
AcDbXrecord
 10
0.0
 20
0.0
 30
0.0
  0
XRECORD
  5
290
102
{ACAD_REACTORS
330
275
102
}
330
275
100
AcDbXrecord
 10
0.0
 20
0.0
 30
0.0
  0
XRECORD
  5
293
102
{ACAD_REACTORS
330
275
102
}
330
275
100
AcDbXrecord
 10
0.0
 20
0.0
 30
0.0
  0
XRECORD
  5
291
102
{ACAD_REACTORS
330
275
102
}
330
275
100
AcDbXrecord
 10
0.0
 20
0.0
 30
0.0
  0
XRECORD
  5
292
102
{ACAD_REACTORS
330
275
102
}
330
275
100
AcDbXrecord
 10
0.0
 20
0.0
 30
0.0
  0
XRECORD
  5
28F
102
{ACAD_REACTORS
330
275
102
}
330
275
100
AcDbXrecord
 10
0.0
 20
0.0
 30
0.0
  0
XRECORD
  5
28C
102
{ACAD_REACTORS
330
275
102
}
330
275
100
AcDbXrecord
340
0
  0
XRECORD
  5
28D
102
{ACAD_REACTORS
330
275
102
}
330
275
100
AcDbXrecord
 70
     0
  0
XRECORD
  5
281
102
{ACAD_REACTORS
330
275
102
}
330
275
100
AcDbXrecord
  1
{FAEB1C32-E019-11D5-929B-00C0DF256EC4}
  0
DICTIONARYVAR
  5
29F
102
{ACAD_REACTORS
330
296
102
}
330
296
100
DictionaryVariables
280
     0
  1
1:1
  0
DICTIONARYVAR
  5
298
102
{ACAD_REACTORS
330
296
102
}
330
296
100
DictionaryVariables
280
     0
  1
Standard
  0
DICTIONARYVAR
  5
297
102
{ACAD_REACTORS
330
296
102
}
330
296
100
DictionaryVariables
280
     0
  1
Standard
  0
DICTIONARYVAR
  5
29B
102
{ACAD_REACTORS
330
296
102
}
330
296
100
DictionaryVariables
280
     0
  1
2
  0
DICTIONARYVAR
  5
29C
102
{ACAD_REACTORS
330
296
102
}
330
296
100
DictionaryVariables
280
     0
  1
1
  0
DICTIONARYVAR
  5
2A0
102
{ACAD_REACTORS
330
296
102
}
330
296
100
DictionaryVariables
280
     0
  1
1
  0
DICTIONARY
  5
2A3
330
45
100
AcDbDictionary
280
     1
  3
ACAD_XREC_ROUNDTRIP
360
2A4
  0
DICTIONARY
  5
2A1
330
44
100
AcDbDictionary
280
     1
  3
ACAD_XREC_ROUNDTRIP
360
2A2
  0
DICTIONARY
  5
2A5
330
46
100
AcDbDictionary
280
     1
  3
ACAD_XREC_ROUNDTRIP
360
2A6
  0
XRECORD
  5
2A4
102
{ACAD_REACTORS
330
2A3
102
}
330
2A3
100
AcDbXrecord
102
MATERIAL
148
0.0
149
0.0
149
0.0
 93
        0
 94
      127
282
     0
 72
     1
 77
     1
171
     1
175
     1
179
     1
273
     0
  0
XRECORD
  5
2A2
102
{ACAD_REACTORS
330
2A1
102
}
330
2A1
100
AcDbXrecord
102
MATERIAL
148
0.0
149
0.0
149
0.0
 93
        0
 94
      127
282
     0
 72
     1
 77
     1
171
     1
175
     1
179
     1
273
     0
  0
XRECORD
  5
2A6
102
{ACAD_REACTORS
330
2A5
102
}
330
2A5
100
AcDbXrecord
102
MATERIAL
148
0.0
149
0.0
149
0.0
 93
        0
 94
      127
282
     0
 72
     1
 77
     1
171
     1
175
     1
179
     1
273
     0
  0
ENDSEC
  0
EOF
