  0
SECTION
  2
HEADER
  9
$ACADVER
  1
AC1004
  9
$INSBASE
 10
0.0
 20
0.0
  9
$EXTMIN
 10
0.0
 20
0.0
  9
$EXTMAX
 10
711.5
 20
211.5
  9
$LIMMIN
 10
0.0
 20
0.0
  9
$LIMMAX
 10
12.0
 20
9.0
  9
$ORTHOMODE
 70
     0
  9
$REGENMODE
 70
     1
  9
$FILLMODE
 70
     1
  9
$QTEXTMODE
 70
     0
  9
$DRAGMODE
 70
     2
  9
$LTSCALE
 40
1.0
  9
$OSMODE
 70
    37
  9
$ATTMODE
 70
     1
  9
$TEXTSIZE
 40
0.2
  9
$TRACEWID
 40
0.05
  9
$TEXTSTYLE
  7
STANDARD
  9
$CLAYER
  8
0
  9
$CELTYPE
  6
BYLAYER
  9
$CECOLOR
 62
   256
  9
$DIMSCALE
 40
1.0
  9
$DIMASZ
 40
3.0
  9
$DIMEXO
 40
0.0625
  9
$DIMDLI
 40
0.38
  9
$DIMRND
 40
0.0
  9
$DIMDLE
 40
0.0
  9
$DIMEXE
 40
1.5
  9
$DIMTP
 40
0.0
  9
$DIMTM
 40
0.0
  9
$DIMTXT
 40
3.0
  9
$DIMCEN
 40
0.09
  9
$DIMTSZ
 40
0.0
  9
$DIMTOL
 70
     0
  9
$DIMLIM
 70
     0
  9
$DIMTIH
 70
     1
  9
$DIMTOH
 70
     1
  9
$DIMSE1
 70
     0
  9
$DIMSE2
 70
     0
  9
$DIMTAD
 70
     1
  9
$DIMZIN
 70
     0
  9
$DIMBLK
  1

  9
$DIMASO
 70
     1
  9
$DIMSHO
 70
     1
  9
$DIMPOST
  1

  9
$DIMAPOST
  1

  9
$DIMALT
 70
     0
  9
$DIMALTD
 70
     2
  9
$DIMALTF
 40
25.4
  9
$DIMLFAC
 40
1.0
  9
$DIMTOFL
 70
     0
  9
$DIMTVP
 40
0.0
  9
$DIMTIX
 70
     0
  9
$DIMSOXD
 70
     0
  9
$DIMSAH
 70
     0
  9
$DIMBLK1
  1

  9
$DIMBLK2
  1

  9
$LUNITS
 70
     2
  9
$LUPREC
 70
     4
  9
$SKETCHINC
 40
0.1
  9
$FILLETRAD
 40
0.5
  9
$AUNITS
 70
     0
  9
$AUPREC
 70
     0
  9
$MENU
  1
.
  9
$ELEVATION
 40
0.0
  9
$THICKNESS
 40
0.0
  9
$LIMCHECK
 70
     0
  9
$CHAMFERA
 40
0.0
  9
$CHAMFERB
 40
0.0
  9
$SKPOLY
 70
     0
  9
$TDCREATE
 40
2460258.572268843
  9
$TDUPDATE
 40
2460258.572269236
  9
$TDINDWG
 40
0.0000000116
  9
$TDUSRTIMER
 40
0.0000000116
  9
$USRTIMER
 70
     1
  9
$ANGBASE
 50
0.0
  9
$ANGDIR
 70
     0
  9
$PDMODE
 70
     0
  9
$PDSIZE
 40
0.0
  9
$PLINEWID
 40
0.0
  9
$COORDS
 70
     1
  9
$SPLFRAME
 70
     0
  9
$SPLINETYPE
 70
     6
  9
$SPLINESEGS
 70
     8
  9
$ATTDIA
 70
     0
  9
$ATTREQ
 70
     1
  9
$SURFTAB1
 70
     6
  9
$SURFTAB2
 70
     6
  9
$SURFTYPE
 70
     6
  9
$SURFU
 70
     6
  9
$SURFV
 70
     6
  9
$UCSNAME
  2

  9
$UCSORG
 10
0.0
 20
0.0
 30
0.0
  9
$UCSXDIR
 10
1.0
 20
0.0
 30
0.0
  9
$UCSYDIR
 10
0.0
 20
1.0
 30
0.0
  9
$USERI1
 70
     0
  9
$USERI2
 70
     0
  9
$USERI3
 70
     0
  9
$USERI4
 70
     0
  9
$USERI5
 70
     0
  9
$USERR1
 40
0.0
  9
$USERR2
 40
0.0
  9
$USERR3
 40
0.0
  9
$USERR4
 40
0.0
  9
$USERR5
 40
0.0
  9
$WORLDVIEW
 70
     1
  0
ENDSEC
  0
SECTION
  2
TABLES
  0
TABLE
  2
LTYPE
 70
     2
  0
LTYPE
  2
CONTINUOUS
 70
     0
  3
Solid line
 72
    65
 73
     0
 40
0.0
  0
LTYPE
  2
CENTER
 70
     0
  3

 72
    65
 73
     0
 40
0.0
  0
ENDTAB
  0
TABLE
  2
LAYER
 70
     1
  0
LAYER
  2
0
 70
     0
 62
     7
  6
CONTINUOUS
  0
ENDTAB
  0
TABLE
  2
STYLE
 70
     2
  0
STYLE
  2
STANDARD
 70
     0
 40
0.0
 41
1.0
 50
0.0
 71
     0
 42
0.2
  3
txt
  4

  0
STYLE
  2
ＭＳ_ゴシック
 70
     0
 40
0.0
 41
1.0
 50
0.0
 71
     0
 42
0.2
  3
ＭＳ ゴシック.shx
  4

  0
ENDTAB
  0
TABLE
  2
VIEW
 70
     0
  0
ENDTAB
  0
ENDSEC
  0
SECTION
  2
BLOCKS
  0
BLOCK
  8
0
  2
D_FRAME_VIEW_2100
 70
     0
 10
0.0
 20
0.0
  0
LINE
  8
0
  6
CONTINUOUS
 62
     7
 10
480.0537836568005
 20
140.7695753627031
 11
474.1844975973794
 21
142.0798742674171
  0
ARC
  8
0
  6
CONTINUOUS
 62
     7
 10
473.0950816372431
 20
137.2
 40
4.999999999999985
 50
77.41526696576653
 51
90.00000000000001
  0
LINE
  8
0
  6
CONTINUOUS
 62
     7
 10
406.9049183627569
 20
142.1999999999999
 11
473.0950816372431
 21
142.1999999999999
  0
ARC
  8
0
  6
CONTINUOUS
 62
     7
 10
406.9049183627569
 20
137.2
 40
5.000000000000004
 50
90.0
 51
102.5847330342333
  0
LINE
  8
0
  6
CONTINUOUS
 62
     7
 10
405.8155024026206
 20
142.0798742674171
 11
399.9462163431994
 21
140.7695753627031
  0
ARC
  8
0
  6
CONTINUOUS
 62
     7
 10
400.0339989262547
 20
140.376366539027
 40
0.402888273476126
 50
102.5847330342282
 51
179.2928842433569
  0
LINE
  8
0
  6
CONTINUOUS
 62
     7
 10
399.6311413348646
 20
140.3813386576856
 11
399.25
 21
109.4999999999999
  0
LINE
  8
0
  6
CONTINUOUS
 62
     7
 10
397.9504570885808
 20
109.4999999999999
 11
399.25
 21
109.4999999999999
  0
LINE
  8
0
  6
CONTINUOUS
 62
     7
 10
480.75
 20
109.4999999999999
 11
482.0495429114192
 21
109.4999999999999
  0
LINE
  8
0
  6
CONTINUOUS
 62
     7
 10
480.3688586651354
 20
140.3813386576856
 11
480.75
 21
109.4999999999999
  0
ARC
  8
0
  6
CONTINUOUS
 62
     7
 10
479.9660010737452
 20
140.376366539027
 40
0.4028882734752661
 50
0.7071157566471128
 51
77.41526696577101
  0
LINE
  8
0
  6
CONTINUOUS
 62
     7
 10
397.95
 20
109.4999999999999
 11
397.9504570885808
 21
109.4999999999999
  0
LINE
  8
0
  6
CONTINUOUS
 62
     7
 10
482.0495429114192
 20
109.4999999999999
 11
482.05
 21
109.4999999999999
  0
LINE
  8
0
  6
CONTINUOUS
 62
     7
 10
406.4033357720286
 20
145.0
 11
405.3306414185095
 21
144.8835772568812
  0
LINE
  8
0
  6
CONTINUOUS
 62
     7
 10
406.4863686625556
 20
145.0
 11
406.4033357720286
 21
145.0
  0
LINE
  8
0
  6
CONTINUOUS
 62
     7
 10
473.5966642279714
 20
145.0
 11
473.5136313374445
 21
145.0
  0
LINE
  8
0
  6
CONTINUOUS
 62
     7
 10
474.6693585814907
 20
144.8835772568812
 11
473.5966642279714
 21
145.0
  0
POLYLINE
  8
0
  6
CONTINUOUS
 62
     7
 66
     1
  0
VERTEX
  8
0
  6
CONTINUOUS
 62
     7
 10
482.7324470199866
 20
142.6141238765614
  0
VERTEX
  8
0
  6
CONTINUOUS
 62
     7
 10
482.7315089313496
 20
142.6347503324128
  0
VERTEX
  8
0
  6
CONTINUOUS
 62
     7
 10
482.729712768422
 20
142.6553929036811
  0
VERTEX
  8
0
  6
CONTINUOUS
 62
     7
 10
482.7270601549631
 20
142.6759864136341
  0
VERTEX
  8
0
  6
CONTINUOUS
 62
     7
 10
482.7235527147324
 20
142.6964656855395
  0
VERTEX
  8
0
  6
CONTINUOUS
 62
     7
 10
482.719045419256
 20
142.7174032807507
  0
VERTEX
  8
0
  6
CONTINUOUS
 62
     7
 10
482.7136351629399
 20
142.738167285005
  0
VERTEX
  8
0
  6
CONTINUOUS
 62
     7
 10
482.7073373720977
 20
142.7586958874009
  0
VERTEX
  8
0
  6
CONTINUOUS
 62
     7
 10
482.7001674730429
 20
142.778927277037
  0
VERTEX
  8
0
  6
CONTINUOUS
 62
     7
 10
482.6923743959392
 20
142.7982648942978
  0
VERTEX
  8
0
  6
CONTINUOUS
 62
     7
 10
482.6837726541455
 20
142.8172811772219
  0
VERTEX
  8
0
  6
CONTINUOUS
 62
     7
 10
482.6743862656219
 20
142.8359251829998
  0
VERTEX
  8
0
  6
CONTINUOUS
 62
     7
 10
482.6642392483284
 20
142.8541459688221
  0
VERTEX
  8
0
  6
CONTINUOUS
 62
     7
 10
482.6530151111427
 20
142.8724278961655
  0
VERTEX
  8
0
  6
CONTINUOUS
 62
     7
 10
482.641008493293
 20
142.8902244820482
  0
VERTEX
  8
0
  6
CONTINUOUS
 62
     7
 10
482.6282550271099
 20
142.9074865626416
  0
VERTEX
  8
0
  6
CONTINUOUS
 62
     7
 10
482.6147903449238
 20
142.9241649741174
  0
VERTEX
  8
0
  6
CONTINUOUS
 62
     7
 10
482.6009600028013
 20
142.9398786976288
  0
VERTEX
  8
0
  6
CONTINUOUS
 62
     7
 10
482.5864791782366
 20
142.955005194552
  0
VERTEX
  8
0
  6
CONTINUOUS
 62
     7
 10
482.5713889682327
 20
142.9695055505866
  0
VERTEX
  8
0
  6
CONTINUOUS
 62
     7
 10
482.555730469792
 20
142.983340851432
  0
VERTEX
  8
0
  6
CONTINUOUS
 62
     7
 10
482.5390391601304
 20
142.9968686599839
  0
VERTEX
  8
0
  6
CONTINUOUS
 62
     7
 10
482.5217827915312
 20
143.0096669933927
  0
VERTEX
  8
0
  6
CONTINUOUS
 62
     7
 10
482.5040136619413
 20
143.0217024116678
  0
VERTEX
  8
0
  6
CONTINUOUS
 62
     7
 10
482.4857840693074
 20
143.0329414748185
  0
VERTEX
  8
0
  6
CONTINUOUS
 62
     7
 10
482.4630042489215
 20
143.0455228357781
  0
VERTEX
  8
0
  6
CONTINUOUS
 62
     7
 10
482.4395975528561
 20
143.056900892951
  0
VERTEX
  8
0
  6
CONTINUOUS
 62
     7
 10
482.4156739867196
 20
143.0670401296771
  0
VERTEX
  8
0
  6
CONTINUOUS
 62
     7
 10
482.391343556121
 20
143.075905029296
  0
VERTEX
  8
0
  6
CONTINUOUS
 62
     7
 10
482.366716266669
 20
143.0834600751474
  0
SEQEND
  8
0
  6
CONTINUOUS
 62
     7
  0
LINE
  8
0
  6
CONTINUOUS
 62
     7
 10
482.7328235766404
 20
142.5988718452101
 11
482.7324470199866
 21
142.6141238765614
  0
LINE
  8
0
  6
CONTINUOUS
 62
     7
 10
397.2675529800134
 20
142.6141238765614
 11
397.2671764233596
 21
142.5988718452102
  0
POLYLINE
  8
0
  6
CONTINUOUS
 62
     7
 66
     1
  0
VERTEX
  8
0
  6
CONTINUOUS
 62
     7
 10
397.6332837333309
 20
143.0834600751475
  0
VERTEX
  8
0
  6
CONTINUOUS
 62
     7
 10
397.6128866902233
 20
143.0773085299845
  0
VERTEX
  8
0
  6
CONTINUOUS
 62
     7
 10
397.5927061813022
 20
143.0702709241215
  0
VERTEX
  8
0
  6
CONTINUOUS
 62
     7
 10
397.5728071509823
 20
143.0623625411639
  0
VERTEX
  8
0
  6
CONTINUOUS
 62
     7
 10
397.5528921476428
 20
143.0534301905762
  0
VERTEX
  8
0
  6
CONTINUOUS
 62
     7
 10
397.5333408558859
 20
143.0436145209022
  0
VERTEX
  8
0
  6
CONTINUOUS
 62
     7
 10
397.5142159306926
 20
143.0329414748185
  0
VERTEX
  8
0
  6
CONTINUOUS
 62
     7
 10
397.4965470147861
 20
143.0220665129132
  0
VERTEX
  8
0
  6
CONTINUOUS
 62
     7
 10
397.4793242188562
 20
143.010454131966
  0
VERTEX
  8
0
  6
CONTINUOUS
 62
     7
 10
397.4624669191883
 20
142.9980346006824
  0
VERTEX
  8
0
  6
CONTINUOUS
 62
     7
 10
397.446129212376
 20
142.9849080167916
  0
VERTEX
  8
0
  6
CONTINUOUS
 62
     7
 10
397.4300063195223
 20
142.9707883527953
  0
VERTEX
  8
0
  6
CONTINUOUS
 62
     7
 10
397.4144919526754
 20
142.9559800585253
  0
VERTEX
  8
0
  6
CONTINUOUS
 62
     7
 10
397.399510836615
 20
142.9403933268802
  0
VERTEX
  8
0
  6
CONTINUOUS
 62
     7
 10
397.3852096550762
 20
142.9241649741174
  0
VERTEX
  8
0
  6
CONTINUOUS
 62
     7
 10
397.3721482529635
 20
142.9080107497472
  0
VERTEX
  8
0
  6
CONTINUOUS
 62
     7
 10
397.3597646495119
 20
142.8913222436892
  0
VERTEX
  8
0
  6
CONTINUOUS
 62
     7
 10
397.348004513842
 20
142.8740085597116
  0
VERTEX
  8
0
  6
CONTINUOUS
 62
     7
 10
397.3369769459293
 20
142.8562147306028
  0
VERTEX
  8
0
  6
CONTINUOUS
 62
     7
 10
397.3264906030448
 20
142.8375756476686
  0
VERTEX
  8
0
  6
CONTINUOUS
 62
     7
 10
397.3168104630739
 20
142.8185052675978
  0
VERTEX
  8
0
  6
CONTINUOUS
 62
     7
 10
397.3078944679973
 20
142.7988968943594
  0
VERTEX
  8
0
  6
CONTINUOUS
 62
     7
 10
397.2998325269571
 20
142.778927277037
  0
VERTEX
  8
0
  6
CONTINUOUS
 62
     7
 10
397.292873451744
 20
142.7593386011406
  0
VERTEX
  8
0
  6
CONTINUOUS
 62
     7
 10
397.2867370686219
 20
142.7394875860007
  0
VERTEX
  8
0
  6
CONTINUOUS
 62
     7
 10
397.2814005862729
 20
142.719272302857
  0
VERTEX
  8
0
  6
CONTINUOUS
 62
     7
 10
397.2769171209023
 20
142.6988702069691
  0
VERTEX
  8
0
  6
CONTINUOUS
 62
     7
 10
397.2732244558827
 20
142.6778726138572
  0
VERTEX
  8
0
  6
CONTINUOUS
 62
     7
 10
397.2704334225428
 20
142.656770081411
  0
VERTEX
  8
0
  6
CONTINUOUS
 62
     7
 10
397.2685356765935
 20
142.6354491648032
  0
VERTEX
  8
0
  6
CONTINUOUS
 62
     7
 10
397.2675529800134
 20
142.6141238765614
  0
SEQEND
  8
0
  6
CONTINUOUS
 62
     7
  0
LINE
  8
0
  6
CONTINUOUS
 62
     7
 10
397.6332837333309
 20
143.0834600751474
 11
397.6535407110194
 21
143.0886465009742
  0
LINE
  8
0
  6
CONTINUOUS
 62
     7
 10
405.2647362465435
 20
144.8686333935268
 11
397.6535407110194
 21
143.0886465009742
  0
ARC
  8
0
  6
CONTINUOUS
 62
     7
 10
406.4033357720286
 20
139.9999999999999
 40
5.000000000000002
 50
102.3884752770868
 51
103.1628700997122
  0
ARC
  8
0
  6
CONTINUOUS
 62
     7
 10
473.5966642279714
 20
139.9999999999999
 40
5.000000000000002
 50
76.83712990028789
 51
77.6115247229119
  0
LINE
  8
0
  6
CONTINUOUS
 62
     7
 10
482.3464592889806
 20
143.0886465009742
 11
474.7352637534565
 21
144.8686333935268
  0
LINE
  8
0
  6
CONTINUOUS
 62
     7
 10
482.3464592889806
 20
143.0886465009742
 11
482.366716266669
 21
143.0834600751474
  0
LINE
  8
0
  6
CONTINUOUS
 62
     7
 10
483.55
 20
109.5
 11
482.7328235766404
 21
142.5988718452101
  0
LINE
  8
0
  6
CONTINUOUS
 62
     7
 10
397.2671764233596
 20
142.5988718452102
 11
396.45
 21
109.5
  0
LINE
  8
0
  6
CONTINUOUS
 62
     7
 10
473.5136313374445
 20
145.0
 11
406.4863686625556
 21
145.0
  0
LINE
  8
0
  6
CONTINUOUS
 62
     7
 10
476.8800641545006
 20
141.4780978551548
 11
477.408087480644
 21
98.69589172265789
  0
LINE
  8
0
  6
CONTINUOUS
 62
     7
 10
402.591912519356
 20
98.69589172265789
 11
403.1199358454994
 21
141.4780978551548
  0
LINE
  8
0
  6
CONTINUOUS
 62
     7
 10
400.55
 20
109.4830234667354
 11
400.55
 21
109.5
  0
LINE
  8
0
  6
CONTINUOUS
 62
     7
 10
400.55
 20
109.5
 11
400.36652012686
 21
109.4999999999999
  0
LINE
  8
0
  6
CONTINUOUS
 62
     7
 10
479.45
 20
109.4830234667354
 11
479.45
 21
109.5
  0
LINE
  8
0
  6
CONTINUOUS
 62
     7
 10
479.45
 20
109.5
 11
479.6334798731399
 21
109.4999999999999
  0
LINE
  8
0
  6
CONTINUOUS
 62
     9
 10
482.8174203550452
 20
142.608900597257
 11
482.8398140082182
 21
149.8676997536613
  0
LINE
  8
0
  6
CONTINUOUS
 62
     9
 10
482.8174203550452
 20
158.940838080879
 11
482.8398140082182
 21
149.8676997536613
  0
LINE
  8
0
  6
CONTINUOUS
 62
     7
 10
482.732575892979
 20
165.8149534075149
 11
482.8174203129109
 21
158.940838080359
  0
LINE
  8
0
  6
CONTINUOUS
 62
     7
 10
483.55
 20
131.231493398826
 11
483.55
 21
110.9644660940672
  0
LINE
  8
0
  6
CONTINUOUS
 62
     7
 10
397.182579687089
 20
158.940838080359
 11
397.267424107021
 21
165.8149534075149
  0
LINE
  8
0
  6
CONTINUOUS
 62
     9
 10
397.1601859917818
 20
149.8676997536614
 11
397.1825796449547
 21
158.940838080879
  0
LINE
  8
0
  6
CONTINUOUS
 62
     9
 10
397.1601859917818
 20
149.8676997536614
 11
397.1825796449547
 21
142.608900597257
  0
LINE
  8
0
  6
CONTINUOUS
 62
     7
 10
396.45
 20
131.231493398826
 11
396.45
 21
110.9644660940672
  0
LINE
  8
0
  6
CONTINUOUS
 62
     9
 10
406.2900948937124
 20
145.0
 11
406.2568925327668
 21
145.5857864376268
  0
LINE
  8
0
  6
CONTINUOUS
 62
     9
 10
473.7431074672332
 20
145.5857864376268
 11
473.7099051062876
 21
145.0
  0
LINE
  8
0
  6
CONTINUOUS
 62
     9
 10
473.7431580992913
 20
145.5857864376268
 11
473.7431580992913
 21
157.4213562373095
  0
LINE
  8
0
  6
CONTINUOUS
 62
     9
 10
406.2568419007087
 20
157.4213562373095
 11
406.2568419007087
 21
145.5857864376268
  0
LINE
  8
0
  6
CONTINUOUS
 62
     9
 10
473.7431327832622
 20
157.4213562373095
 11
406.2568672167377
 21
157.4213562373095
  0
LINE
  8
0
  6
CONTINUOUS
 62
     7
 10
473.7431074673476
 20
157.4213562067285
 11
474.8616276418698
 21
157.3317638487508
  0
LINE
  8
0
  6
CONTINUOUS
 62
     7
 10
405.1383723582391
 20
157.3317638487684
 11
406.2568925327668
 21
157.4213562371282
  0
LINE
  8
0
  6
CONTINUOUS
 62
     7
 10
405.1383941374626
 20
157.3317673832739
 11
397.5476763872869
 21
156.0999358925478
  0
LINE
  8
0
  6
CONTINUOUS
 62
     7
 10
482.452323612713
 20
156.0999358925478
 11
474.8616058625374
 21
157.3317673832739
  0
LINE
  8
0
  6
CONTINUOUS
 62
     7
 10
397.5683159547219
 20
158.936077080775
 11
397.1825796449664
 21
158.9408380808789
  0
LINE
  8
0
  6
CONTINUOUS
 62
     7
 10
482.4316849464181
 20
158.9360770929774
 11
482.8174203130599
 21
158.9408380682989
  0
LINE
  8
0
  6
CONTINUOUS
 62
     9
 10
473.7431074672332
 20
157.4213562373095
 11
473.7099051062876
 21
158.8355697996826
  0
LINE
  8
0
  6
CONTINUOUS
 62
     7
 10
473.7098828754722
 20
158.8355697923977
 11
474.8518558267648
 21
158.8425223336762
  0
LINE
  8
0
  6
CONTINUOUS
 62
     9
 10
406.2900948937124
 20
158.8355697996826
 11
406.2568925327668
 21
157.4213562373095
  0
LINE
  8
0
  6
CONTINUOUS
 62
     9
 10
406.2901171246177
 20
158.8355697996826
 11
473.7098939908349
 21
158.8355697996826
  0
LINE
  8
0
  6
CONTINUOUS
 62
     7
 10
405.148144173325
 20
158.8425223409611
 11
406.2901171246177
 21
158.8355697996826
  0
LINE
  8
0
  6
CONTINUOUS
 62
     7
 10
482.4316849464181
 20
158.9360770929775
 11
474.8518649953886
 21
158.8425224468408
  0
LINE
  8
0
  6
CONTINUOUS
 62
     7
 10
405.1481350046114
 20
158.8425224468408
 11
397.5683159547403
 21
158.9360770818548
  0
LINE
  8
0
  6
CONTINUOUS
 62
     9
 10
473.7098828753823
 20
158.8355697996826
 11
473.5966642279714
 21
168.0085718675888
  0
LINE
  8
0
  6
CONTINUOUS
 62
     7
 10
474.7386412790792
 20
168.0151922408815
 11
474.7352637534561
 21
168.0155982362809
  0
LINE
  8
0
  6
CONTINUOUS
 62
     7
 10
406.4863686625556
 20
201.5000000000001
 11
406.4033357720285
 21
201.4952894901355
  0
LINE
  8
0
  6
CONTINUOUS
 62
     7
 10
473.5136313374445
 20
201.5
 11
406.4863686625556
 21
201.5
  0
LINE
  8
0
  6
CONTINUOUS
 62
     7
 10
473.5966642279715
 20
201.4952894901355
 11
473.5136313374446
 21
201.5000000000001
  0
LINE
  8
0
  6
CONTINUOUS
 62
     9
 10
473.5966642279714
 20
168.0085718675888
 11
473.5966642279714
 21
201.4952894901355
  0
LINE
  8
0
  6
CONTINUOUS
 62
     9
 10
406.4033357720286
 20
168.0085718675904
 11
406.2901171246177
 21
158.8355697996826
  0
LINE
  8
0
  6
CONTINUOUS
 62
     9
 10
406.4033357720286
 20
201.4952894901355
 11
406.4033357720286
 21
168.0085718675904
  0
LINE
  8
0
  6
CONTINUOUS
 62
     7
 10
405.2647362465435
 20
168.0155982362805
 11
405.2613587209211
 21
168.015192240881
  0
LINE
  8
0
  6
CONTINUOUS
 62
     7
 10
472.6070076492998
 20
208.0049848322522
 11
472.5859798288737
 21
208.0050252531694
  0
LINE
  8
0
  6
CONTINUOUS
 62
     9
 10
473.5136313374445
 20
201.5
 11
472.6070076492998
 21
208.0049848322522
  0
LINE
  8
0
  6
CONTINUOUS
 62
     9
 10
407.3929923507003
 20
208.0049848322522
 11
406.4863686625556
 21
201.5
  0
LINE
  8
0
  6
CONTINUOUS
 62
     7
 10
407.4140201711262
 20
208.0050252531694
 11
407.3929923507004
 21
208.0049848322522
  0
LINE
  8
0
  6
CONTINUOUS
 62
     7
 10
474.6693585814907
 20
201.3953407531615
 11
473.5966642279714
 21
201.4952894901355
  0
LINE
  8
0
  6
CONTINUOUS
 62
     7
 10
474.6693585814907
 20
201.3953407531615
 11
474.7352637534564
 21
201.3926676332799
  0
LINE
  8
0
  6
CONTINUOUS
 62
     7
 10
405.2647362465435
 20
201.3926676332799
 11
405.3306414185094
 21
201.3953407531615
  0
LINE
  8
0
  6
CONTINUOUS
 62
     7
 10
406.4033357720286
 20
201.4952894901355
 11
405.3306414185095
 21
201.3953407531615
  0
LINE
  8
0
  6
CONTINUOUS
 62
     7
 10
405.2647362465435
 20
201.39266763328
 11
397.6535407110194
 21
201.3926676332801
  0
LINE
  8
0
  6
CONTINUOUS
 62
     7
 10
397.6332837333309
 20
201.3952269818436
 11
397.6535407110194
 21
201.3926676332802
  0
LINE
  8
0
  6
CONTINUOUS
 62
     7
 10
482.3464592889806
 20
201.39266763328
 11
482.366716266669
 21
201.3952269818434
  0
LINE
  8
0
  6
CONTINUOUS
 62
     7
 10
482.3464592889806
 20
201.39266763328
 11
474.7352637534565
 21
201.39266763328
  0
LINE
  8
0
  6
CONTINUOUS
 62
     7
 10
406.3558781680859
 20
208.5
 11
407.5501191783935
 21
208.5
  0
LINE
  8
0
  6
CONTINUOUS
 62
     9
 10
407.5501191783935
 20
208.5
 11
407.4140201711261
 21
208.0050252531694
  0
LINE
  8
0
  6
CONTINUOUS
 62
     9
 10
472.5859798288737
 20
208.0050252531694
 11
472.4498808216064
 21
208.5
  0
LINE
  8
0
  6
CONTINUOUS
 62
     7
 10
472.4498808216064
 20
208.5
 11
473.6441218319139
 21
208.5
  0
LINE
  8
0
  6
CONTINUOUS
 62
     7
 10
407.5501191783935
 20
208.5
 11
472.4498808216064
 21
208.5
  0
LINE
  8
0
  6
CONTINUOUS
 62
     7
 10
399.1310498679686
 20
208.5
 11
406.3558781680859
 21
208.5
  0
LINE
  8
0
  6
CONTINUOUS
 62
     7
 10
473.6441218319139
 20
208.5
 11
480.8689501320314
 21
208.5
  0
LINE
  8
0
  6
CONTINUOUS
 62
     7
 10
482.7324470199866
 20
165.8179662881747
 11
482.732575892979
 21
165.814953407515
  0
LINE
  8
0
  6
CONTINUOUS
 62
     7
 10
482.7324470199866
 20
201.4984295886591
 11
482.366716266669
 21
201.3952269818434
  0
LINE
  8
0
  6
CONTINUOUS
 62
     7
 10
482.7324470199866
 20
201.4984295886591
 11
482.7324470199866
 21
165.8179662881747
  0
LINE
  8
0
  6
CONTINUOUS
 62
     7
 10
397.2675529800134
 20
165.8179662881747
 11
397.2675529800134
 21
201.4984295886591
  0
LINE
  8
0
  6
CONTINUOUS
 62
     7
 10
397.6332837333309
 20
201.3952269818436
 11
397.2675529800134
 21
201.4984295886591
  0
LINE
  8
0
  6
CONTINUOUS
 62
     7
 10
397.2675529800134
 20
201.498429588659
 11
397.2671764233596
 21
201.5
  0
LINE
  8
0
  6
CONTINUOUS
 62
     9
 10
397.2671764233596
 20
201.5
 11
398.1737665284721
 21
208.0047438754824
  0
LINE
  8
0
  6
CONTINUOUS
 62
     7
 10
482.7328235766404
 20
201.5
 11
482.7324470199866
 21
201.4984295886591
  0
LINE
  8
0
  6
CONTINUOUS
 62
     9
 10
481.8262334715279
 20
208.0047438754824
 11
482.7328235766404
 21
201.5
  0
LINE
  8
0
  6
CONTINUOUS
 62
     7
 10
396.45
 20
201.4999999999999
 11
396.45
 21
152.0
  0
LINE
  8
0
  6
CONTINUOUS
 62
     7
 10
397.2671764233596
 20
201.5
 11
396.45
 21
201.4999999999999
  0
LINE
  8
0
  6
CONTINUOUS
 62
     7
 10
396.45
 20
143.0
 11
396.45
 21
134.7670273047588
  0
LINE
  8
0
  6
CONTINUOUS
 62
     7
 10
483.55
 20
201.4999999999999
 11
482.7328235766404
 21
201.5
  0
LINE
  8
0
  6
CONTINUOUS
 62
     7
 10
483.55
 20
201.4999999999999
 11
483.55
 21
152.0
  0
LINE
  8
0
  6
CONTINUOUS
 62
     7
 10
483.55
 20
143.0
 11
483.55
 21
134.7670273047588
  0
LINE
  8
0
  6
CONTINUOUS
 62
     7
 10
481.8266946405987
 20
208.0050252531694
 11
481.8262334715279
 21
208.0047438754824
  0
LINE
  8
0
  6
CONTINUOUS
 62
     7
 10
398.1733053594012
 20
208.0050252531694
 11
398.732542843892
 21
208.5
  0
LINE
  8
0
  6
CONTINUOUS
 62
     7
 10
398.732542843892
 20
208.5
 11
399.1310498679686
 21
208.5
  0
LINE
  8
0
  6
CONTINUOUS
 62
     7
 10
481.267457156108
 20
208.5
 11
481.8266946405987
 21
208.0050252531694
  0
LINE
  8
0
  6
CONTINUOUS
 62
     7
 10
480.8689501320314
 20
208.5
 11
481.267457156108
 21
208.5
  0
LINE
  8
0
  6
CONTINUOUS
 62
     7
 10
397.9504570885808
 20
208.5
 11
398.732542843892
 21
208.5
  0
LINE
  8
0
  6
CONTINUOUS
 62
     7
 10
481.267457156108
 20
208.5
 11
482.0495429114192
 21
208.5
  0
LINE
  8
0
  6
CONTINUOUS
 62
     7
 10
480.4044205063612
 20
81.49999999999999
 11
482.05
 21
81.49999999999999
  0
LINE
  8
0
  6
CONTINUOUS
 62
     7
 10
480.75
 20
109.5
 11
480.4044205063612
 21
81.49999999999999
  0
LINE
  8
0
  6
CONTINUOUS
 62
     7
 10
480.75
 20
109.5
 11
482.0495429114192
 21
109.5
  0
LINE
  8
0
  6
CONTINUOUS
 62
     7
 10
482.0495429114192
 20
109.5
 11
482.05
 21
109.5
  0
LINE
  8
0
  6
CONTINUOUS
 62
     7
 10
399.25
 20
109.5
 11
399.5955794936388
 21
81.49999999999999
  0
LINE
  8
0
  6
CONTINUOUS
 62
     7
 10
397.95
 20
81.49999999999999
 11
399.5955794936388
 21
81.49999999999999
  0
LINE
  8
0
  6
CONTINUOUS
 62
     7
 10
397.95
 20
109.5
 11
397.9504570885808
 21
109.5
  0
LINE
  8
0
  6
CONTINUOUS
 62
     7
 10
397.9504570885808
 20
109.5
 11
399.25
 21
109.5
  0
LINE
  8
0
  6
CONTINUOUS
 62
     7
 10
482.05
 20
81.49999999999999
 11
482.6207106781186
 21
81.49999999999996
  0
LINE
  8
0
  6
CONTINUOUS
 62
     7
 10
482.6207106781186
 20
109.5
 11
482.05
 21
109.5
  0
LINE
  8
0
  6
CONTINUOUS
 62
     7
 10
397.3792893218813
 20
81.49999999999996
 11
397.95
 21
81.49999999999999
  0
LINE
  8
0
  6
CONTINUOUS
 62
     7
 10
397.95
 20
109.5
 11
397.3792893218813
 21
109.5
  0
LINE
  8
0
  6
CONTINUOUS
 62
     7
 10
396.45
 20
109.5
 11
396.45
 21
81.49999999999996
  0
LINE
  8
0
  6
CONTINUOUS
 62
     7
 10
396.45
 20
81.49999999999996
 11
397.3792893218813
 21
81.49999999999996
  0
LINE
  8
0
  6
CONTINUOUS
 62
     7
 10
397.3792893218813
 20
109.5
 11
396.45
 21
109.5
  0
LINE
  8
0
  6
CONTINUOUS
 62
     7
 10
483.55
 20
81.49999999999996
 11
483.55
 21
109.5
  0
LINE
  8
0
  6
CONTINUOUS
 62
     7
 10
482.6207106781186
 20
81.49999999999996
 11
483.55
 21
81.49999999999996
  0
LINE
  8
0
  6
CONTINUOUS
 62
     7
 10
483.55
 20
109.5
 11
482.6207106781186
 21
109.5
  0
POLYLINE
  8
0
  6
CONTINUOUS
 62
     7
 66
     1
  0
VERTEX
  8
0
  6
CONTINUOUS
 62
     7
 10
439.5773502691896
 20
86.29999999999997
  0
VERTEX
  8
0
  6
CONTINUOUS
 62
     7
 10
439.4523502691897
 20
86.27628120948829
  0
VERTEX
  8
0
  6
CONTINUOUS
 62
     7
 10
439.357997306764
 20
86.22501417091024
  0
VERTEX
  8
0
  6
CONTINUOUS
 62
     7
 10
439.2785319548698
 20
86.15564177380554
  0
VERTEX
  8
0
  6
CONTINUOUS
 62
     7
 10
439.2085317201602
 20
86.0693616389189
  0
VERTEX
  8
0
  6
CONTINUOUS
 62
     7
 10
439.14404587379
 20
85.96086451166806
  0
VERTEX
  8
0
  6
CONTINUOUS
 62
     7
 10
439.0964242232842
 20
85.85328942999445
  0
SEQEND
  8
0
  6
CONTINUOUS
 62
     7
  0
ARC
  8
0
  6
CONTINUOUS
 62
     7
 10
440.5633740571541
 20
85.31259066692469
 40
1.563424755936774
 50
159.7667649813251
 51
180.4614228290654
  0
LINE
  8
0
  6
CONTINUOUS
 62
     7
 10
439.5773502691896
 20
86.29999999999997
 11
427.787528296899
 21
86.29999999999997
  0
LINE
  8
0
  6
CONTINUOUS
 62
     7
 10
439.0
 20
85.29999999999993
 11
439.0
 21
84.79999999999994
  0
LINE
  8
0
  6
CONTINUOUS
 62
     7
 10
440.0
 20
86.29999999999994
 11
439.5773502691896
 21
86.29999999999997
  0
LINE
  8
0
  6
CONTINUOUS
 62
     7
 10
439.0
 20
84.79999999999994
 11
440.0
 21
84.79999999999995
  0
ARC
  8
0
  6
CONTINUOUS
 62
     7
 10
439.4934043115111
 20
85.319056509551
 40
1.506716203911575
 50
359.2753202769452
 51
24.40857391251995
  0
POLYLINE
  8
0
  6
CONTINUOUS
 62
     7
 66
     1
  0
VERTEX
  8
0
  6
CONTINUOUS
 62
     7
 10
440.8654529820575
 20
85.94169297232955
  0
VERTEX
  8
0
  6
CONTINUOUS
 62
     7
 10
440.8056656158521
 20
86.04825897873963
  0
VERTEX
  8
0
  6
CONTINUOUS
 62
     7
 10
440.7335242084244
 20
86.14265382863968
  0
VERTEX
  8
0
  6
CONTINUOUS
 62
     7
 10
440.651460000623
 20
86.21811360138129
  0
VERTEX
  8
0
  6
CONTINUOUS
 62
     7
 10
440.5580592508998
 20
86.2721041671414
  0
VERTEX
  8
0
  6
CONTINUOUS
 62
     7
 10
440.4569257105477
 20
86.29823301440494
  0
VERTEX
  8
0
  6
CONTINUOUS
 62
     7
 10
440.4226497308103
 20
86.29999999999997
  0
SEQEND
  8
0
  6
CONTINUOUS
 62
     7
  0
LINE
  8
0
  6
CONTINUOUS
 62
     7
 10
452.212471703101
 20
86.29999999999997
 11
440.4226497308103
 21
86.29999999999997
  0
LINE
  8
0
  6
CONTINUOUS
 62
     7
 10
425.7875207531803
 20
85.37401421911851
 11
425.8274781962054
 21
85.37307631491167
  0
LINE
  8
0
  6
CONTINUOUS
 62
     7
 10
425.7449186894597
 20
84.79999999999994
 11
427.7504194045566
 21
84.79999999999994
  0
LINE
  8
0
  6
CONTINUOUS
 62
     7
 10
425.7875207531803
 20
85.3740142191185
 11
425.7449186894597
 21
84.79999999999995
  0
LINE
  8
0
  6
CONTINUOUS
 62
     7
 10
454.2550813105402
 20
84.79999999999995
 11
454.2124792468729
 21
85.37401421840026
  0
LINE
  8
0
  6
CONTINUOUS
 62
     7
 10
452.2495805954433
 20
84.79999999999994
 11
454.2550813105402
 21
84.79999999999994
  0
LINE
  8
0
  6
CONTINUOUS
 62
     7
 10
439.0
 20
84.79999999999994
 11
427.7504194045566
 21
84.79999999999995
  0
LINE
  8
0
  6
CONTINUOUS
 62
     7
 10
452.2495805954433
 20
84.79999999999995
 11
440.9999999999999
 21
84.79999999999993
  0
LINE
  8
0
  6
CONTINUOUS
 62
     7
 10
440.9999999999999
 20
85.29999999999993
 11
440.9999999999999
 21
84.79999999999993
  0
LINE
  8
0
  6
CONTINUOUS
 62
     7
 10
440.4226497308103
 20
86.29999999999997
 11
440.0
 21
86.29999999999994
  0
LINE
  8
0
  6
CONTINUOUS
 62
     7
 10
440.0
 20
84.79999999999995
 11
440.9999999999999
 21
84.79999999999993
  0
LINE
  8
0
  6
CONTINUOUS
 62
     7
 10
454.172521803795
 20
85.37307631491512
 11
454.2124792468197
 21
85.3740142191185
  0
LINE
  8
0
  6
CONTINUOUS
 62
     7
 10
453.2152220606494
 20
86.29999999999995
 11
452.212471703101
 21
86.29999999999995
  0
LINE
  8
0
  6
CONTINUOUS
 62
     7
 10
453.2152220606494
 20
86.29999999999995
 11
453.5679129485195
 21
86.23573988779644
  0
LINE
  8
0
  6
CONTINUOUS
 62
     7
 10
426.4320870026717
 20
86.23573986939985
 11
426.7847779393506
 21
86.29999999999995
  0
LINE
  8
0
  6
CONTINUOUS
 62
     7
 10
427.787528296899
 20
86.29999999999995
 11
426.7847779393506
 21
86.29999999999995
  0
LINE
  8
0
  6
CONTINUOUS
 62
     7
 10
443.9376325615866
 20
84.65966990016929
 11
443.9480475507206
 21
84.79999999999995
  0
LINE
  8
0
  6
CONTINUOUS
 62
     7
 10
454.2550813105402
 20
84.79999999999995
 11
454.2654962996742
 21
84.65966990016929
  0
LINE
  8
0
  6
CONTINUOUS
 62
     7
 10
436.0519524492793
 20
84.79999999999995
 11
436.0623674384133
 21
84.65966990016929
  0
LINE
  8
0
  6
CONTINUOUS
 62
     7
 10
425.7345037003257
 20
84.65966990016929
 11
425.7449186894597
 21
84.79999999999995
  0
LINE
  8
0
  6
CONTINUOUS
 62
     7
 10
436.0623674384133
 20
84.65966990016929
 11
436.2718751648175
 21
81.83679223959359
  0
LINE
  8
0
  6
CONTINUOUS
 62
     7
 10
425.7345037003257
 20
84.65966990016929
 11
425.5249959739216
 21
81.83679223959359
  0
LINE
  8
0
  6
CONTINUOUS
 62
     7
 10
443.9376325615866
 20
84.65966990016929
 11
443.7281248351825
 21
81.83679223959358
  0
LINE
  8
0
  6
CONTINUOUS
 62
     7
 10
454.2654962996742
 20
84.65966990016929
 11
454.4750040260783
 21
81.83679223959359
  0
LINE
  8
0
  6
CONTINUOUS
 62
     7
 10
455.5345579493639
 20
84.29999999999995
 11
455.5119186513504
 21
82.46568877480708
  0
LINE
  8
0
  6
CONTINUOUS
 62
     7
 10
456.5346341104856
 20
84.29999999999995
 11
455.5345579493639
 21
84.29999999999995
  0
LINE
  8
0
  6
CONTINUOUS
 62
     7
 10
456.5239134638224
 20
83.43137754961413
 11
456.5346341104856
 21
84.29999999999995
  0
LINE
  8
0
  6
CONTINUOUS
 62
     7
 10
455.5119186513504
 20
82.46568877480708
 11
456.5239134638224
 21
83.43137754961413
  0
LINE
  8
0
  6
CONTINUOUS
 62
     7
 10
423.4653658895144
 20
84.29999999999995
 11
423.4760865361775
 21
83.43137754961413
  0
LINE
  8
0
  6
CONTINUOUS
 62
     7
 10
399.571742190938
 20
83.43137754961414
 11
423.4760865361775
 21
83.43137754961413
  0
LINE
  8
0
  6
CONTINUOUS
 62
     7
 10
423.4653658895144
 20
84.29999999999995
 11
399.5610215442749
 21
84.29999999999995
  0
LINE
  8
0
  6
CONTINUOUS
 62
     7
 10
456.5239134638224
 20
83.43137754961413
 11
480.428257809062
 21
83.43137754961413
  0
LINE
  8
0
  6
CONTINUOUS
 62
     7
 10
480.4389784557251
 20
84.29999999999995
 11
456.5346341104856
 21
84.29999999999995
  0
LINE
  8
0
  6
CONTINUOUS
 62
     7
 10
424.4880813486496
 20
82.46568877480708
 11
424.4654420506361
 21
84.29999999999995
  0
LINE
  8
0
  6
CONTINUOUS
 62
     7
 10
423.4760865361775
 20
83.43137754961413
 11
424.4880813486496
 21
82.46568877480708
  0
LINE
  8
0
  6
CONTINUOUS
 62
     7
 10
424.4654420506361
 20
84.29999999999995
 11
423.4653658895144
 21
84.29999999999995
  0
LINE
  8
0
  6
CONTINUOUS
 62
     7
 10
424.4880813486496
 20
82.46568877480708
 11
424.5
 21
81.49999999999996
  0
LINE
  8
0
  6
CONTINUOUS
 62
     7
 10
399.5955794936388
 20
81.49999999999996
 11
424.5
 21
81.49999999999996
  0
LINE
  8
0
  6
CONTINUOUS
 62
     7
 10
455.5119186513504
 20
82.46568877480708
 11
455.5
 21
81.49999999999997
  0
LINE
  8
0
  6
CONTINUOUS
 62
     7
 10
455.5
 20
81.49999999999996
 11
480.4044205063612
 21
81.49999999999996
  0
LINE
  8
0
  6
CONTINUOUS
 62
     7
 10
443.7031288612609
 20
81.49999999999999
 11
454.5
 21
81.49999999999999
  0
LINE
  8
0
  6
CONTINUOUS
 62
     7
 10
443.7281248351825
 20
81.83679223959359
 11
443.7031288612609
 21
81.49999999999999
  0
LINE
  8
0
  6
CONTINUOUS
 62
     7
 10
454.5
 20
81.49999999999999
 11
454.4750040260783
 21
81.83679223959359
  0
LINE
  8
0
  6
CONTINUOUS
 62
     7
 10
425.5
 20
81.49999999999999
 11
436.2968711387391
 21
81.49999999999999
  0
LINE
  8
0
  6
CONTINUOUS
 62
     7
 10
436.2968711387391
 20
81.49999999999999
 11
436.2718751648175
 21
81.83679223959359
  0
LINE
  8
0
  6
CONTINUOUS
 62
     7
 10
425.5249959739216
 20
81.83679223959359
 11
425.5
 21
81.49999999999999
  0
LINE
  8
0
  6
CONTINUOUS
 62
     7
 10
455.034519868803
 20
84.29999999999995
 11
455.5345579493639
 21
84.29999999999995
  0
LINE
  8
0
  6
CONTINUOUS
 62
     7
 10
439.0000000000001
 20
81.69264030802077
 11
439.1151726483668
 21
81.49999999999996
  0
LINE
  8
0
  6
CONTINUOUS
 62
     7
 10
436.2467381610562
 20
82.17548469542429
 11
436.2567170643472
 21
82.10777740998196
  0
POLYLINE
  8
0
  6
CONTINUOUS
 62
     7
 66
     1
  0
VERTEX
  8
0
  6
CONTINUOUS
 62
     7
 10
436.2567170643472
 20
82.10777740998196
  0
VERTEX
  8
0
  6
CONTINUOUS
 62
     7
 10
436.2619338599862
 20
82.08648661317801
  0
VERTEX
  8
0
  6
CONTINUOUS
 62
     7
 10
436.2681215261299
 20
82.06537354006791
  0
VERTEX
  8
0
  6
CONTINUOUS
 62
     7
 10
436.27526770639
 20
82.04448035215952
  0
VERTEX
  8
0
  6
CONTINUOUS
 62
     7
 10
436.2833581302841
 20
82.02384877186346
  0
VERTEX
  8
0
  6
CONTINUOUS
 62
     7
 10
436.2923766417336
 20
82.00351999917604
  0
VERTEX
  8
0
  6
CONTINUOUS
 62
     7
 10
436.302305231326
 20
81.98353462940538
  0
VERTEX
  8
0
  6
CONTINUOUS
 62
     7
 10
436.3131240722789
 20
81.96393257210518
  0
VERTEX
  8
0
  6
CONTINUOUS
 62
     7
 10
436.3248115600326
 20
81.94475297137767
  0
VERTEX
  8
0
  6
CONTINUOUS
 62
     7
 10
436.3373443553932
 20
81.9260341277053
  0
VERTEX
  8
0
  6
CONTINUOUS
 62
     7
 10
436.3506974311397
 20
81.90781342146707
  0
VERTEX
  8
0
  6
CONTINUOUS
 62
     7
 10
436.3648441220013
 20
81.89012723829211
  0
VERTEX
  8
0
  6
CONTINUOUS
 62
     7
 10
436.379756177907
 20
81.87301089639996
  0
VERTEX
  8
0
  6
CONTINUOUS
 62
     7
 10
436.3954038203987
 20
81.85649857607214
  0
VERTEX
  8
0
  6
CONTINUOUS
 62
     7
 10
436.411755802097
 20
81.84062325139628
  0
VERTEX
  8
0
  6
CONTINUOUS
 62
     7
 10
436.4287794691011
 20
81.82541662441888
  0
VERTEX
  8
0
  6
CONTINUOUS
 62
     7
 10
436.4464408261951
 20
81.8109090618383
  0
VERTEX
  8
0
  6
CONTINUOUS
 62
     7
 10
436.4647046047359
 20
81.79712953436432
  0
VERTEX
  8
0
  6
CONTINUOUS
 62
     7
 10
436.4835343330814
 20
81.78410555886538
  0
VERTEX
  8
0
  6
CONTINUOUS
 62
     7
 10
436.5028924094229
 20
81.77186314341915
  0
VERTEX
  8
0
  6
CONTINUOUS
 62
     7
 10
436.5227401768731
 20
81.76042673537596
  0
VERTEX
  8
0
  6
CONTINUOUS
 62
     7
 10
436.5430380006617
 20
81.74981917253895
  0
VERTEX
  8
0
  6
CONTINUOUS
 62
     7
 10
436.5637453472836
 20
81.74006163755837
  0
VERTEX
  8
0
  6
CONTINUOUS
 62
     7
 10
436.5848208654417
 20
81.73117361563116
  0
VERTEX
  8
0
  6
CONTINUOUS
 62
     7
 10
436.6062224686232
 20
81.7231728555902
  0
VERTEX
  8
0
  6
CONTINUOUS
 62
     7
 10
436.6279074191434
 20
81.716075334461
  0
VERTEX
  8
0
  6
CONTINUOUS
 62
     7
 10
436.6498324134906
 20
81.70989522555648
  0
VERTEX
  8
0
  6
CONTINUOUS
 62
     7
 10
436.6719536688
 20
81.70464487017384
  0
VERTEX
  8
0
  6
CONTINUOUS
 62
     7
 10
436.6942270102862
 20
81.70033475294973
  0
VERTEX
  8
0
  6
CONTINUOUS
 62
     7
 10
436.7166079594565
 20
81.69697348092303
  0
VERTEX
  8
0
  6
CONTINUOUS
 62
     7
 10
436.7390518229329
 20
81.69456776634712
  0
VERTEX
  8
0
  6
CONTINUOUS
 62
     7
 10
436.7615137817008
 20
81.69312241328598
  0
VERTEX
  8
0
  6
CONTINUOUS
 62
     7
 10
436.783948980611
 20
81.69264030802076
  0
SEQEND
  8
0
  6
CONTINUOUS
 62
     7
  0
LINE
  8
0
  6
CONTINUOUS
 62
     7
 10
436.783948980611
 20
81.69264030802077
 11
439.0000000000001
 21
81.69264030802077
  0
LINE
  8
0
  6
CONTINUOUS
 62
     7
 10
439.1151726483668
 20
81.49999999999996
 11
436.2968711387391
 21
81.49999999999996
  0
LINE
  8
0
  6
CONTINUOUS
 62
     7
 10
425.5
 20
81.49999999999996
 11
424.5
 21
81.49999999999996
  0
LINE
  8
0
  6
CONTINUOUS
 62
     7
 10
440.8848273516332
 20
81.49999999999996
 11
440.9999999999999
 21
81.69264030802076
  0
LINE
  8
0
  6
CONTINUOUS
 62
     7
 10
440.9999999999999
 20
81.69264030802076
 11
443.2160510193889
 21
81.69264030802077
  0
POLYLINE
  8
0
  6
CONTINUOUS
 62
     7
 66
     1
  0
VERTEX
  8
0
  6
CONTINUOUS
 62
     7
 10
443.2160510193889
 20
81.69264030802076
  0
VERTEX
  8
0
  6
CONTINUOUS
 62
     7
 10
443.2406954989756
 20
81.69322191523146
  0
VERTEX
  8
0
  6
CONTINUOUS
 62
     7
 10
443.2653669390499
 20
81.69496533572091
  0
VERTEX
  8
0
  6
CONTINUOUS
 62
     7
 10
443.2900059039515
 20
81.69786636943638
  0
VERTEX
  8
0
  6
CONTINUOUS
 62
     7
 10
443.314553036256
 20
81.70191802753358
  0
VERTEX
  8
0
  6
CONTINUOUS
 62
     7
 10
443.3389491997717
 20
81.70711054921328
  0
VERTEX
  8
0
  6
CONTINUOUS
 62
     7
 10
443.3631356220037
 20
81.71343142523594
  0
VERTEX
  8
0
  6
CONTINUOUS
 62
     7
 10
443.3870540357423
 20
81.72086542805756
  0
VERTEX
  8
0
  6
CONTINUOUS
 62
     7
 10
443.4106468194339
 20
81.72939464851422
  0
VERTEX
  8
0
  6
CONTINUOUS
 62
     7
 10
443.4338571359961
 20
81.73899853896675
  0
VERTEX
  8
0
  6
CONTINUOUS
 62
     7
 10
443.4566290697433
 20
81.74965396280186
  0
VERTEX
  8
0
  6
CONTINUOUS
 62
     7
 10
443.4789077610926
 20
81.76133525017022
  0
VERTEX
  8
0
  6
CONTINUOUS
 62
     7
 10
443.5006395387249
 20
81.77401425982741
  0
VERTEX
  8
0
  6
CONTINUOUS
 62
     7
 10
443.5217720488847
 20
81.78766044692861
  0
VERTEX
  8
0
  6
CONTINUOUS
 62
     7
 10
443.5422543815039
 20
81.80224093661384
  0
VERTEX
  8
0
  6
CONTINUOUS
 62
     7
 10
443.5620371928492
 20
81.81772060320631
  0
VERTEX
  8
0
  6
CONTINUOUS
 62
     7
 10
443.5810728243953
 20
81.83406215483339
  0
VERTEX
  8
0
  6
CONTINUOUS
 62
     7
 10
443.5993154176385
 20
81.85122622326583
  0
VERTEX
  8
0
  6
CONTINUOUS
 62
     7
 10
443.6167210245737
 20
81.86917145875938
  0
VERTEX
  8
0
  6
CONTINUOUS
 62
     7
 10
443.6332477135693
 20
81.88785462966993
  0
VERTEX
  8
0
  6
CONTINUOUS
 62
     7
 10
443.6488556703842
 20
81.90723072660231
  0
VERTEX
  8
0
  6
CONTINUOUS
 62
     7
 10
443.6635072940829
 20
81.92725307084184
  0
VERTEX
  8
0
  6
CONTINUOUS
 62
     7
 10
443.6771672876209
 20
81.94787342680752
  0
VERTEX
  8
0
  6
CONTINUOUS
 62
     7
 10
443.6898027428772
 20
81.96904211825569
  0
VERTEX
  8
0
  6
CONTINUOUS
 62
     7
 10
443.7013832199333
 20
81.99070814795449
  0
VERTEX
  8
0
  6
CONTINUOUS
 62
     7
 10
443.7118808204057
 20
82.01281932054066
  0
VERTEX
  8
0
  6
CONTINUOUS
 62
     7
 10
443.7212702546553
 20
82.03532236826273
  0
VERTEX
  8
0
  6
CONTINUOUS
 62
     7
 10
443.7295289027127
 20
82.0581630793077
  0
VERTEX
  8
0
  6
CONTINUOUS
 62
     7
 10
443.7366368687713
 20
82.08128642840205
  0
VERTEX
  8
0
  6
CONTINUOUS
 62
     7
 10
443.7425770291183
 20
82.10463670937246
  0
VERTEX
  8
0
  6
CONTINUOUS
 62
     7
 10
443.747335073387
 20
82.12815766934682
  0
VERTEX
  8
0
  6
CONTINUOUS
 62
     7
 10
443.7508995390321
 20
82.15179264427236
  0
VERTEX
  8
0
  6
CONTINUOUS
 62
     7
 10
443.7532618389437
 20
82.17548469542429
  0
SEQEND
  8
0
  6
CONTINUOUS
 62
     7
  0
LINE
  8
0
  6
CONTINUOUS
 62
     7
 10
455.5
 20
81.49999999999996
 11
454.5
 21
81.49999999999996
  0
LINE
  8
0
  6
CONTINUOUS
 62
     7
 10
443.7031288612609
 20
81.49999999999996
 11
440.8848273516332
 21
81.49999999999996
  0
LINE
  8
0
  6
CONTINUOUS
 62
     7
 10
424.4654420506361
 20
84.29999999999995
 11
424.965480131197
 21
84.29999999999995
  0
LINE
  8
0
  6
CONTINUOUS
 62
     7
 10
455.034519868803
 20
84.29999999999995
 11
454.2921902028826
 21
84.29999999999995
  0
LINE
  8
0
  6
CONTINUOUS
 62
     7
 10
425.7078097971174
 20
84.29999999999995
 11
424.965480131197
 21
84.29999999999995
  0
LINE
  8
0
  6
CONTINUOUS
 62
     7
 10
436.0890613416217
 20
84.29999999999994
 11
436.5904365203959
 21
84.29999999999994
  0
LINE
  8
0
  6
CONTINUOUS
 62
     7
 10
443.409563479604
 20
84.29999999999994
 11
443.9109386583783
 21
84.29999999999994
  0
LINE
  8
0
  6
CONTINUOUS
 62
     7
 10
439.0
 20
84.2999999999999
 11
439.0000000000001
 21
81.69264030802077
  0
LINE
  8
0
  6
CONTINUOUS
 62
     7
 10
440.0
 20
84.29999999999995
 11
439.0
 21
84.2999999999999
  0
LINE
  8
0
  6
CONTINUOUS
 62
     7
 10
440.0
 20
81.49999999999996
 11
439.1151726483668
 21
81.49999999999996
  0
LINE
  8
0
  6
CONTINUOUS
 62
     7
 10
440.9999999999999
 20
84.2999999999999
 11
440.9999999999999
 21
81.69264030802076
  0
LINE
  8
0
  6
CONTINUOUS
 62
     7
 10
443.409563479604
 20
84.29999999999995
 11
440.9999999999999
 21
84.2999999999999
  0
LINE
  8
0
  6
CONTINUOUS
 62
     7
 10
440.9999999999999
 20
84.2999999999999
 11
440.0
 21
84.29999999999995
  0
LINE
  8
0
  6
CONTINUOUS
 62
     7
 10
440.8848273516332
 20
81.49999999999996
 11
440.0
 21
81.49999999999996
  0
LINE
  8
0
  6
CONTINUOUS
 62
     7
 10
439.0
 20
84.2999999999999
 11
436.5904365203959
 21
84.29999999999995
  0
POLYLINE
  8
0
  6
CONTINUOUS
 62
     7
 66
     1
  0
VERTEX
  8
0
  6
CONTINUOUS
 62
     7
 10
479.6334798731399
 20
109.5
  0
VERTEX
  8
0
  6
CONTINUOUS
 62
     7
 10
479.5882694997964
 20
109.4989774883059
  0
VERTEX
  8
0
  6
CONTINUOUS
 62
     7
 10
479.5431515827236
 20
109.4959120442842
  0
VERTEX
  8
0
  6
CONTINUOUS
 62
     7
 10
479.4982183891175
 20
109.4908099368395
  0
VERTEX
  8
0
  6
CONTINUOUS
 62
     7
 10
479.4535618084096
 20
109.4836815999009
  0
VERTEX
  8
0
  6
CONTINUOUS
 62
     7
 10
479.409273164352
 20
109.4745416110841
  0
VERTEX
  8
0
  6
CONTINUOUS
 62
     7
 10
479.3654430282577
 20
109.4634086618801
  0
VERTEX
  8
0
  6
CONTINUOUS
 62
     7
 10
479.32216103378
 20
109.4503055194302
  0
VERTEX
  8
0
  6
CONTINUOUS
 62
     7
 10
479.2795156936099
 20
109.4352589799673
  0
VERTEX
  8
0
  6
CONTINUOUS
 62
     7
 10
479.2375942184655
 20
109.4182998140166
  0
VERTEX
  8
0
  6
CONTINUOUS
 62
     7
 10
479.1964823387439
 20
109.399462703469
  0
VERTEX
  8
0
  6
CONTINUOUS
 62
     7
 10
479.1562641292006
 20
109.3787861706561
  0
VERTEX
  8
0
  6
CONTINUOUS
 62
     7
 10
479.1170218370148
 20
109.3563124995711
  0
VERTEX
  8
0
  6
CONTINUOUS
 62
     7
 10
479.0788357135918
 20
109.3320876493971
  0
VERTEX
  8
0
  6
CONTINUOUS
 62
     7
 10
479.0417838504471
 20
109.3061611605191
  0
VERTEX
  8
0
  6
CONTINUOUS
 62
     7
 10
479.0059420195075
 20
109.2785860532134
  0
VERTEX
  8
0
  6
CONTINUOUS
 62
     7
 10
478.9713835181554
 20
109.2494187192192
  0
VERTEX
  8
0
  6
CONTINUOUS
 62
     7
 10
478.9381790193344
 20
109.2187188064168
  0
VERTEX
  8
0
  6
CONTINUOUS
 62
     7
 10
478.9063964270211
 20
109.1865490968459
  0
VERTEX
  8
0
  6
CONTINUOUS
 62
     7
 10
478.8761007373602
 20
109.1529753783149
  0
VERTEX
  8
0
  6
CONTINUOUS
 62
     7
 10
478.8473539057455
 20
109.1180663098635
  0
VERTEX
  8
0
  6
CONTINUOUS
 62
     7
 10
478.8202147201202
 20
109.081893281353
  0
VERTEX
  8
0
  6
CONTINUOUS
 62
     7
 10
478.7947386807534
 20
109.0445302674728
  0
VERTEX
  8
0
  6
CONTINUOUS
 62
     7
 10
478.7709778867415
 20
109.0060536764601
  0
VERTEX
  8
0
  6
CONTINUOUS
 62
     7
 10
478.7489809294641
 20
108.9665421938435
  0
VERTEX
  8
0
  6
CONTINUOUS
 62
     7
 10
478.7287927932132
 20
108.926076621529
  0
VERTEX
  8
0
  6
CONTINUOUS
 62
     7
 10
478.7104547631995
 20
108.8847397125583
  0
VERTEX
  8
0
  6
CONTINUOUS
 62
     7
 10
478.6940043411234
 20
108.8426160018772
  0
VERTEX
  8
0
  6
CONTINUOUS
 62
     7
 10
478.6794751684828
 20
108.7997916334591
  0
VERTEX
  8
0
  6
CONTINUOUS
 62
     7
 10
478.6668969577755
 20
108.756354184139
  0
VERTEX
  8
0
  6
CONTINUOUS
 62
     7
 10
478.6562954317366
 20
108.7123924845168
  0
VERTEX
  8
0
  6
CONTINUOUS
 62
     7
 10
478.6476922707348
 20
108.6679964372963
  0
VERTEX
  8
0
  6
CONTINUOUS
 62
     7
 10
478.6411050684355
 20
108.6232568334324
  0
SEQEND
  8
0
  6
CONTINUOUS
 62
     7
  0
LINE
  8
0
  6
CONTINUOUS
 62
     7
 10
480.75
 20
109.5
 11
479.6334798731399
 21
109.5
  0
LINE
  8
0
  6
CONTINUOUS
 62
     7
 10
400.36652012686
 20
109.5
 11
399.25
 21
109.5
  0
POLYLINE
  8
0
  6
CONTINUOUS
 62
     7
 66
     1
  0
VERTEX
  8
0
  6
CONTINUOUS
 62
     7
 10
401.3588949315645
 20
108.6232568334324
  0
VERTEX
  8
0
  6
CONTINUOUS
 62
     7
 10
401.3523077292652
 20
108.6679964372963
  0
VERTEX
  8
0
  6
CONTINUOUS
 62
     7
 10
401.3437045682634
 20
108.7123924845168
  0
VERTEX
  8
0
  6
CONTINUOUS
 62
     7
 10
401.3331030422245
 20
108.756354184139
  0
VERTEX
  8
0
  6
CONTINUOUS
 62
     7
 10
401.3205248315172
 20
108.7997916334591
  0
VERTEX
  8
0
  6
CONTINUOUS
 62
     7
 10
401.3059956588766
 20
108.8426160018772
  0
VERTEX
  8
0
  6
CONTINUOUS
 62
     7
 10
401.2895452368005
 20
108.8847397125583
  0
VERTEX
  8
0
  6
CONTINUOUS
 62
     7
 10
401.2712072067868
 20
108.926076621529
  0
VERTEX
  8
0
  6
CONTINUOUS
 62
     7
 10
401.2510190705359
 20
108.9665421938435
  0
VERTEX
  8
0
  6
CONTINUOUS
 62
     7
 10
401.2290221132585
 20
109.0060536764601
  0
VERTEX
  8
0
  6
CONTINUOUS
 62
     7
 10
401.2052613192466
 20
109.0445302674728
  0
VERTEX
  8
0
  6
CONTINUOUS
 62
     7
 10
401.1797852798798
 20
109.081893281353
  0
VERTEX
  8
0
  6
CONTINUOUS
 62
     7
 10
401.1526460942544
 20
109.1180663098635
  0
VERTEX
  8
0
  6
CONTINUOUS
 62
     7
 10
401.1238992626398
 20
109.1529753783149
  0
VERTEX
  8
0
  6
CONTINUOUS
 62
     7
 10
401.0936035729789
 20
109.1865490968459
  0
VERTEX
  8
0
  6
CONTINUOUS
 62
     7
 10
401.0618209806656
 20
109.2187188064168
  0
VERTEX
  8
0
  6
CONTINUOUS
 62
     7
 10
401.0286164818446
 20
109.2494187192192
  0
VERTEX
  8
0
  6
CONTINUOUS
 62
     7
 10
400.9940579804925
 20
109.2785860532134
  0
VERTEX
  8
0
  6
CONTINUOUS
 62
     7
 10
400.9582161495529
 20
109.3061611605191
  0
VERTEX
  8
0
  6
CONTINUOUS
 62
     7
 10
400.9211642864082
 20
109.3320876493971
  0
VERTEX
  8
0
  6
CONTINUOUS
 62
     7
 10
400.8829781629852
 20
109.3563124995711
  0
VERTEX
  8
0
  6
CONTINUOUS
 62
     7
 10
400.8437358707994
 20
109.3787861706561
  0
VERTEX
  8
0
  6
CONTINUOUS
 62
     7
 10
400.8035176612561
 20
109.399462703469
  0
VERTEX
  8
0
  6
CONTINUOUS
 62
     7
 10
400.7624057815345
 20
109.4182998140166
  0
VERTEX
  8
0
  6
CONTINUOUS
 62
     7
 10
400.7204843063901
 20
109.4352589799673
  0
VERTEX
  8
0
  6
CONTINUOUS
 62
     7
 10
400.67783896622
 20
109.4503055194302
  0
VERTEX
  8
0
  6
CONTINUOUS
 62
     7
 10
400.6345569717423
 20
109.4634086618801
  0
VERTEX
  8
0
  6
CONTINUOUS
 62
     7
 10
400.590726835648
 20
109.4745416110841
  0
VERTEX
  8
0
  6
CONTINUOUS
 62
     7
 10
400.5464381915904
 20
109.4836815999009
  0
VERTEX
  8
0
  6
CONTINUOUS
 62
     7
 10
400.5017816108825
 20
109.4908099368395
  0
VERTEX
  8
0
  6
CONTINUOUS
 62
     7
 10
400.4568484172764
 20
109.4959120442842
  0
VERTEX
  8
0
  6
CONTINUOUS
 62
     7
 10
400.4117305002036
 20
109.4989774883059
  0
VERTEX
  8
0
  6
CONTINUOUS
 62
     7
 10
400.3665201268601
 20
109.5
  0
SEQEND
  8
0
  6
CONTINUOUS
 62
     7
  0
LINE
  8
0
  6
CONTINUOUS
 62
     7
 10
478.6411050684355
 20
108.6232568334324
 11
475.6200614044484
 21
84.29999999999995
  0
LINE
  8
0
  6
CONTINUOUS
 62
     7
 10
404.3799385955516
 20
84.29999999999995
 11
401.3588949315645
 21
108.6232568334324
  0
POLYLINE
  8
0
  6
CONTINUOUS
 62
     7
 66
     1
  0
VERTEX
  8
0
  6
CONTINUOUS
 62
     7
 10
402.6074385420277
 20
99.95386172032886
  0
VERTEX
  8
0
  6
CONTINUOUS
 62
     7
 10
403.5126290544535
 20
100.0730643100368
  0
VERTEX
  8
0
  6
CONTINUOUS
 62
     7
 10
404.3678666634268
 20
100.3142665185357
  0
VERTEX
  8
0
  6
CONTINUOUS
 62
     7
 10
405.1406047773838
 20
100.6682892478979
  0
VERTEX
  8
0
  6
CONTINUOUS
 62
     7
 10
405.8014363736249
 20
101.1216599461027
  0
SEQEND
  8
0
  6
CONTINUOUS
 62
     7
  0
POLYLINE
  8
0
  6
CONTINUOUS
 62
     7
 66
     1
  0
VERTEX
  8
0
  6
CONTINUOUS
 62
     7
 10
474.1985636263751
 20
101.1216599461027
  0
VERTEX
  8
0
  6
CONTINUOUS
 62
     7
 10
474.8593952226161
 20
100.6682892478979
  0
VERTEX
  8
0
  6
CONTINUOUS
 62
     7
 10
475.6321333365731
 20
100.3142665185358
  0
VERTEX
  8
0
  6
CONTINUOUS
 62
     7
 10
476.4873709455464
 20
100.0730643100368
  0
VERTEX
  8
0
  6
CONTINUOUS
 62
     7
 10
477.3925614579722
 20
99.95386172032887
  0
SEQEND
  8
0
  6
CONTINUOUS
 62
     7
  0
LINE
  8
0
  6
CONTINUOUS
 62
     7
 10
405.8014363736249
 20
101.1216599461027
 11
405.9199170683272
 21
101.35017527196
  0
LINE
  8
0
  6
CONTINUOUS
 62
     7
 10
474.0800829316728
 20
101.35017527196
 11
474.1985636263751
 21
101.1216599461027
  0
LINE
  8
0
  6
CONTINUOUS
 62
     7
 10
474.5356857874535
 20
142.0014999508716
 11
474.0800829316728
 21
105.2076024491313
  0
LINE
  8
0
  6
CONTINUOUS
 62
     7
 10
474.0800829316728
 20
105.2076024491313
 11
474.0800829316728
 21
101.35017527196
  0
LINE
  8
0
  6
CONTINUOUS
 62
     7
 10
405.9199170683272
 20
105.2076024491313
 11
405.4643130536267
 21
142.0015935332599
  0
LINE
  8
0
  6
CONTINUOUS
 62
     7
 10
405.9199170683272
 20
101.35017527196
 11
405.9199170683272
 21
105.2076024491313
  0
POLYLINE
  8
0
  6
CONTINUOUS
 62
     7
 66
     1
  0
VERTEX
  8
0
  6
CONTINUOUS
 62
     7
 10
483.55
 20
110.9644660940673
  0
VERTEX
  8
0
  6
CONTINUOUS
 62
     7
 10
483.5519824243814
 20
110.2954975806377
  0
VERTEX
  8
0
  6
CONTINUOUS
 62
     7
 10
483.5578396375586
 20
109.8175362766825
  0
SEQEND
  8
0
  6
CONTINUOUS
 62
     7
  0
LINE
  8
0
  6
CONTINUOUS
 62
     7
 10
483.5578396375586
 20
109.8175362766825
 11
483.55
 21
109.5
  0
POLYLINE
  8
0
  6
CONTINUOUS
 62
     7
 66
     1
  0
VERTEX
  8
0
  6
CONTINUOUS
 62
     7
 10
396.4421603624414
 20
109.8175362766824
  0
VERTEX
  8
0
  6
CONTINUOUS
 62
     7
 10
396.4480175756186
 20
110.2954975806376
  0
VERTEX
  8
0
  6
CONTINUOUS
 62
     7
 10
396.45
 20
110.9644660940672
  0
SEQEND
  8
0
  6
CONTINUOUS
 62
     7
  0
LINE
  8
0
  6
CONTINUOUS
 62
     7
 10
396.45
 20
109.5
 11
396.4421603624414
 21
109.8175362766825
  0
LINE
  8
0
  6
CONTINUOUS
 62
     7
 10
483.55
 20
110.9644660940672
 11
483.55
 21
131.231493398826
  0
LINE
  8
0
  6
CONTINUOUS
 62
     7
 10
396.45
 20
110.9644660940672
 11
396.45
 21
131.231493398826
  0
LINE
  8
0
  6
CONTINUOUS
 62
     7
 10
405.7087992766269
 20
122.2577777210913
 11
474.2911961172201
 21
122.2577777210913
  0
LINE
  8
0
  6
CONTINUOUS
 62
     7
 10
483.55
 20
134.7670273047588
 11
483.5578396375586
 21
133.0135925384169
  0
POLYLINE
  8
0
  6
CONTINUOUS
 62
     7
 66
     1
  0
VERTEX
  8
0
  6
CONTINUOUS
 62
     7
 10
483.5578396375586
 20
133.0135925384169
  0
VERTEX
  8
0
  6
CONTINUOUS
 62
     7
 10
483.5519824243814
 20
132.0610784128584
  0
VERTEX
  8
0
  6
CONTINUOUS
 62
     7
 10
483.55
 20
131.2314933988261
  0
SEQEND
  8
0
  6
CONTINUOUS
 62
     7
  0
LINE
  8
0
  6
CONTINUOUS
 62
     7
 10
396.4421603624414
 20
133.0135925384169
 11
396.45
 21
134.7670273047588
  0
POLYLINE
  8
0
  6
CONTINUOUS
 62
     7
 66
     1
  0
VERTEX
  8
0
  6
CONTINUOUS
 62
     7
 10
396.45
 20
131.231493398826
  0
VERTEX
  8
0
  6
CONTINUOUS
 62
     7
 10
396.4480175756186
 20
132.0610784128584
  0
VERTEX
  8
0
  6
CONTINUOUS
 62
     7
 10
396.4421603624414
 20
133.0135925384169
  0
SEQEND
  8
0
  6
CONTINUOUS
 62
     7
  0
LINE
  8
0
  6
CONTINUOUS
 62
     7
 10
482.0495429114192
 20
208.5
 11
482.05
 21
208.5
  0
LINE
  8
0
  6
CONTINUOUS
 62
     7
 10
482.6207106781187
 20
208.0050252531694
 11
482.05
 21
208.5
  0
LINE
  8
0
  6
CONTINUOUS
 62
     7
 10
483.55
 20
201.4999999999999
 11
482.6207106781187
 21
208.0050252531694
  0
LINE
  8
0
  6
CONTINUOUS
 62
     7
 10
483.55
 20
134.7670273047588
 11
483.55
 21
143.0
  0
LINE
  8
0
  6
CONTINUOUS
 62
     7
 10
483.55
 20
143.0
 11
483.55
 21
152.0
  0
LINE
  8
0
  6
CONTINUOUS
 62
     7
 10
483.55
 20
152.0
 11
483.55
 21
201.4999999999999
  0
LINE
  8
0
  6
CONTINUOUS
 62
     7
 10
397.3792893218813
 20
208.0050252531694
 11
396.45
 21
201.4999999999999
  0
LINE
  8
0
  6
CONTINUOUS
 62
     7
 10
397.95
 20
208.5
 11
397.3792893218813
 21
208.0050252531694
  0
LINE
  8
0
  6
CONTINUOUS
 62
     7
 10
397.95
 20
208.5
 11
397.9504570885808
 21
208.5
  0
LINE
  8
0
  6
CONTINUOUS
 62
     7
 10
396.45
 20
134.7670273047588
 11
396.45
 21
143.0
  0
LINE
  8
0
  6
CONTINUOUS
 62
     7
 10
396.45
 20
143.0
 11
396.45
 21
152.0
  0
LINE
  8
0
  6
CONTINUOUS
 62
     7
 10
396.45
 20
152.0
 11
396.45
 21
201.4999999999999
  0
POLYLINE
  8
0
  6
CONTINUOUS
 62
     7
 66
     1
  0
VERTEX
  8
0
  6
CONTINUOUS
 62
     7
 10
454.1713655792092
 20
85.37249272686034
  0
VERTEX
  8
0
  6
CONTINUOUS
 62
     7
 10
454.1707177859838
 20
85.41534128670406
  0
VERTEX
  8
0
  6
CONTINUOUS
 62
     7
 10
454.1680082586736
 20
85.4586463249891
  0
VERTEX
  8
0
  6
CONTINUOUS
 62
     7
 10
454.1631580561075
 20
85.50228761841362
  0
VERTEX
  8
0
  6
CONTINUOUS
 62
     7
 10
454.1560974525233
 20
85.54613533523211
  0
VERTEX
  8
0
  6
CONTINUOUS
 62
     7
 10
454.1467674069497
 20
85.59005076441872
  0
VERTEX
  8
0
  6
CONTINUOUS
 62
     7
 10
454.1351209803964
 20
85.63388725937473
  0
VERTEX
  8
0
  6
CONTINUOUS
 62
     7
 10
454.1211246616555
 20
85.67749139488521
  0
VERTEX
  8
0
  6
CONTINUOUS
 62
     7
 10
454.1047595611531
 20
85.72070432899862
  0
VERTEX
  8
0
  6
CONTINUOUS
 62
     7
 10
454.0860224324536
 20
85.7633633539786
  0
VERTEX
  8
0
  6
CONTINUOUS
 62
     7
 10
454.0649264829131
 20
85.80530361279209
  0
VERTEX
  8
0
  6
CONTINUOUS
 62
     7
 10
454.0415019386949
 20
85.84635995014239
  0
VERTEX
  8
0
  6
CONTINUOUS
 62
     7
 10
454.0157963348938
 20
85.8863688602518
  0
VERTEX
  8
0
  6
CONTINUOUS
 62
     7
 10
453.9878745087526
 20
85.92517048787205
  0
VERTEX
  8
0
  6
CONTINUOUS
 62
     7
 10
453.9578182826317
 20
85.96261063474982
  0
VERTEX
  8
0
  6
CONTINUOUS
 62
     7
 10
453.9257258331577
 20
85.99854272133172
  0
VERTEX
  8
0
  6
CONTINUOUS
 62
     7
 10
453.8917107533599
 20
86.0328296530984
  0
VERTEX
  8
0
  6
CONTINUOUS
 62
     7
 10
453.8559008250834
 20
86.0653455426875
  0
VERTEX
  8
0
  6
CONTINUOUS
 62
     7
 10
453.8184365289714
 20
86.09597724288098
  0
VERTEX
  8
0
  6
CONTINUOUS
 62
     7
 10
453.7794693283057
 20
86.12462565143476
  0
VERTEX
  8
0
  6
CONTINUOUS
 62
     7
 10
453.7391597704776
 20
86.15120675632377
  0
VERTEX
  8
0
  6
CONTINUOUS
 62
     7
 10
453.6976754554489
 20
86.1756523988598
  0
VERTEX
  8
0
  6
CONTINUOUS
 62
     7
 10
453.6551889239697
 20
86.1979107418282
  0
VERTEX
  8
0
  6
CONTINUOUS
 62
     7
 10
453.611875519433
 20
86.21794643975771
  0
VERTEX
  8
0
  6
CONTINUOUS
 62
     7
 10
453.5679112760801
 20
86.23574051815596
  0
SEQEND
  8
0
  6
CONTINUOUS
 62
     7
  0
POLYLINE
  8
0
  6
CONTINUOUS
 62
     7
 66
     1
  0
VERTEX
  8
0
  6
CONTINUOUS
 62
     7
 10
426.432088724062
 20
86.23574051820954
  0
VERTEX
  8
0
  6
CONTINUOUS
 62
     7
 10
426.3881244807018
 20
86.21794643981613
  0
VERTEX
  8
0
  6
CONTINUOUS
 62
     7
 10
426.3448110761573
 20
86.19791074189088
  0
VERTEX
  8
0
  6
CONTINUOUS
 62
     7
 10
426.3023245446701
 20
86.17565239892606
  0
VERTEX
  8
0
  6
CONTINUOUS
 62
     7
 10
426.2608402296331
 20
86.15120675639292
  0
VERTEX
  8
0
  6
CONTINUOUS
 62
     7
 10
426.2205306717966
 20
86.12462565150608
  0
VERTEX
  8
0
  6
CONTINUOUS
 62
     7
 10
426.1815634711222
 20
86.0959772429537
  0
VERTEX
  8
0
  6
CONTINUOUS
 62
     7
 10
426.1440991750017
 20
86.06534554276088
  0
VERTEX
  8
0
  6
CONTINUOUS
 62
     7
 10
426.1082892467167
 20
86.03282965317166
  0
VERTEX
  8
0
  6
CONTINUOUS
 62
     7
 10
426.0742741669106
 20
85.99854272140412
  0
VERTEX
  8
0
  6
CONTINUOUS
 62
     7
 10
426.0421817174285
 20
85.96261063482065
  0
VERTEX
  8
0
  6
CONTINUOUS
 62
     7
 10
426.0121254913
 20
85.9251704879406
  0
VERTEX
  8
0
  6
CONTINUOUS
 62
     7
 10
425.9842036651514
 20
85.88636886031742
  0
VERTEX
  8
0
  6
CONTINUOUS
 62
     7
 10
425.9584980613434
 20
85.84635995020447
  0
VERTEX
  8
0
  6
CONTINUOUS
 62
     7
 10
425.9350735171188
 20
85.8053036128501
  0
VERTEX
  8
0
  6
CONTINUOUS
 62
     7
 10
425.9139775675725
 20
85.76336335403205
  0
VERTEX
  8
0
  6
CONTINUOUS
 62
     7
 10
425.8952404388677
 20
85.72070432904708
  0
VERTEX
  8
0
  6
CONTINUOUS
 62
     7
 10
425.8788753383607
 20
85.67749139492832
  0
VERTEX
  8
0
  6
CONTINUOUS
 62
     7
 10
425.8648790196157
 20
85.63388725941222
  0
VERTEX
  8
0
  6
CONTINUOUS
 62
     7
 10
425.853232593059
 20
85.59005076445037
  0
VERTEX
  8
0
  6
CONTINUOUS
 62
     7
 10
425.8439025474826
 20
85.54613533525776
  0
VERTEX
  8
0
  6
CONTINUOUS
 62
     7
 10
425.8368419438961
 20
85.50228761843319
  0
VERTEX
  8
0
  6
CONTINUOUS
 62
     7
 10
425.8319917413284
 20
85.45864632500256
  0
VERTEX
  8
0
  6
CONTINUOUS
 62
     7
 10
425.829282214017
 20
85.41534128671148
  0
VERTEX
  8
0
  6
CONTINUOUS
 62
     7
 10
425.8286344207911
 20
85.37249272686176
  0
SEQEND
  8
0
  6
CONTINUOUS
 62
     7
  0
LINE
  8
0
  6
CONTINUOUS
 62
     7
 10
436.2515904672726
 20
82.11003316996549
 11
436.2512221622786
 21
82.11501833498956
  0
ENDBLK
  8
0
  0
BLOCK
  8
0
  2
D_FRAME_DRAWING_17
 70
     0
 10
0.0
 20
0.0
  0
LINE
  8
0
  6
CONTINUOUS
 62
     7
 10
0.0
 20
0.0
 11
210.0
 21
0.0
  0
LINE
  8
0
  6
CONTINUOUS
 62
     7
 10
210.0
 20
0.0
 11
210.0
 21
297.0
  0
LINE
  8
0
  6
CONTINUOUS
 62
     7
 10
210.0
 20
297.0
 11
0.0
 21
297.0
  0
LINE
  8
0
  6
CONTINUOUS
 62
     7
 10
0.0
 20
297.0
 11
0.0
 21
0.0
  0
ENDBLK
  8
0
  0
BLOCK
  8
0
  2
D_FRAME_VIEW_1288
 70
     0
 10
0.0
 20
0.0
  0
LINE
  8
0
  6
CONTINUOUS
 62
     7
 10
647.40112815479
 20
201.5
 11
647.3858761234386
 21
201.4984295886591
  0
LINE
  8
0
  6
CONTINUOUS
 62
     7
 10
680.5000000000001
 20
201.4999999999999
 11
647.4011281547898
 21
201.5
  0
LINE
  8
0
  6
CONTINUOUS
 62
     7
 10
679.4693054350672
 20
153.4956150621524
 11
679.4693054350672
 21
152.0
  0
LINE
  8
0
  6
CONTINUOUS
 62
     7
 10
678.5007092607857
 20
153.3572441801122
 11
679.4693054350672
 21
153.4956150621524
  0
LINE
  8
0
  6
CONTINUOUS
 62
     7
 10
678.5007092607856
 20
141.6427558198877
 11
678.5007092607856
 21
153.3572441801122
  0
LINE
  8
0
  6
CONTINUOUS
 62
     7
 10
679.469305435067
 20
141.5043849378476
 11
678.5007092607857
 21
141.6427558198877
  0
LINE
  8
0
  6
CONTINUOUS
 62
     7
 10
679.469305435067
 20
143.0
 11
679.469305435067
 21
141.5043849378476
  0
LINE
  8
0
  6
CONTINUOUS
 62
     7
 10
677.5009877599651
 20
153.2144268228521
 11
678.4604655730641
 21
153.3514950818663
  0
LINE
  8
0
  6
CONTINUOUS
 62
     7
 10
677.5009877599651
 20
141.7855731771478
 11
677.5009877599651
 21
153.2144268228521
  0
LINE
  8
0
  6
CONTINUOUS
 62
     7
 10
678.4604655730639
 20
141.6485049181337
 11
677.500987759965
 21
141.7855731771478
  0
LINE
  8
0
  6
CONTINUOUS
 62
     7
 10
678.4604655730641
 20
153.3514950818663
 11
678.4604655730639
 21
141.6485049181337
  0
LINE
  8
0
  6
CONTINUOUS
 62
     7
 10
676.5012662591445
 20
153.071609465592
 11
677.451625711061
 21
153.2073751015801
  0
LINE
  8
0
  6
CONTINUOUS
 62
     7
 10
676.5012662591445
 20
141.9283905344079
 11
676.5012662591445
 21
153.071609465592
  0
LINE
  8
0
  6
CONTINUOUS
 62
     7
 10
677.4516257110607
 20
141.7926248984199
 11
676.5012662591444
 21
141.9283905344079
  0
LINE
  8
0
  6
CONTINUOUS
 62
     7
 10
677.451625711061
 20
153.2073751015801
 11
677.4516257110607
 21
141.7926248984199
  0
LINE
  8
0
  6
CONTINUOUS
 62
     7
 10
675.5015447583239
 20
152.928792108332
 11
676.4427858490579
 21
153.063255121294
  0
LINE
  8
0
  6
CONTINUOUS
 62
     7
 10
675.5015447583239
 20
142.071207891668
 11
675.5015447583239
 21
152.928792108332
  0
LINE
  8
0
  6
CONTINUOUS
 62
     7
 10
676.4427858490577
 20
141.936744878706
 11
675.5015447583239
 21
142.071207891668
  0
LINE
  8
0
  6
CONTINUOUS
 62
     7
 10
676.4427858490579
 20
153.063255121294
 11
676.4427858490577
 21
141.936744878706
  0
LINE
  8
0
  6
CONTINUOUS
 62
     7
 10
674.5018232575034
 20
152.7859747510719
 11
675.4339459870548
 21
152.9191351410078
  0
LINE
  8
0
  6
CONTINUOUS
 62
     7
 10
674.5018232575032
 20
142.2140252489281
 11
674.5018232575032
 21
152.7859747510719
  0
LINE
  8
0
  6
CONTINUOUS
 62
     7
 10
675.4339459870546
 20
142.0808648589922
 11
674.5018232575034
 21
142.2140252489281
  0
LINE
  8
0
  6
CONTINUOUS
 62
     7
 10
675.4339459870548
 20
152.9191351410078
 11
675.4339459870546
 21
142.0808648589922
  0
LINE
  8
0
  6
CONTINUOUS
 62
     7
 10
674.2171572875254
 20
152.7453081839322
 11
674.4251061250517
 21
152.7750151607216
  0
ARC
  8
0
  6
CONTINUOUS
 62
     7
 10
674.5000000000001
 20
150.7654091966099
 40
1.999999999999995
 50
98.13010235415624
 51
119.9304987687955
  0
LINE
  8
0
  6
CONTINUOUS
 62
     7
 10
673.5021017566828
 20
142.5013282450959
 11
673.5021017566828
 21
152.498671754904
  0
ARC
  8
0
  6
CONTINUOUS
 62
     7
 10
674.5000000000001
 20
144.2345908033901
 40
1.999999999999995
 50
240.0695012312041
 51
261.8698976458444
  0
LINE
  8
0
  6
CONTINUOUS
 62
     7
 10
674.4251061250515
 20
142.2249848392783
 11
674.2171572875254
 21
142.2546918160677
  0
LINE
  8
0
  6
CONTINUOUS
 62
     7
 10
674.4251061250517
 20
152.7750151607216
 11
674.4251061250515
 21
142.2249848392783
  0
ARC
  8
0
  6
CONTINUOUS
 62
     7
 10
674.5000000000001
 20
150.7654091966099
 40
1.999999999999995
 50
122.8108153212564
 51
177.2043838821869
  0
LINE
  8
0
  6
CONTINUOUS
 62
     7
 10
672.5023802558621
 20
144.1370441077487
 11
672.5023802558621
 21
150.8629558922513
  0
ARC
  8
0
  6
CONTINUOUS
 62
     7
 10
674.5000000000001
 20
144.2345908033901
 40
1.999999999999995
 50
182.7956161178085
 51
237.189184678738
  0
LINE
  8
0
  6
CONTINUOUS
 62
     7
 10
673.4162662630486
 20
152.4463378647553
 11
673.4162662630484
 21
142.5536621352447
  0
LINE
  8
0
  6
CONTINUOUS
 62
     7
 10
679.4693054350671
 20
152.0
 11
680.5
 21
152.0
  0
LINE
  8
0
  6
CONTINUOUS
 62
     7
 10
679.469305435067
 20
143.0
 11
680.5000000000001
 21
143.0
  0
LINE
  8
0
  6
CONTINUOUS
 62
     7
 10
680.5000000000001
 20
201.4999999999999
 11
680.5000000000001
 21
152.0
  0
LINE
  8
0
  6
CONTINUOUS
 62
     7
 10
680.5000000000001
 20
143.0
 11
680.5000000000001
 21
134.7670273047587
  0
LINE
  8
0
  6
CONTINUOUS
 62
     7
 10
647.0
 20
110.530694564933
 11
648.4956150621524
 21
110.530694564933
  0
LINE
  8
0
  6
CONTINUOUS
 62
     7
 10
648.4956150621524
 20
110.530694564933
 11
648.3572441801123
 21
111.4992907392143
  0
LINE
  8
0
  6
CONTINUOUS
 62
     7
 10
648.3572441801123
 20
111.4992907392143
 11
636.6427558198878
 21
111.4992907392143
  0
LINE
  8
0
  6
CONTINUOUS
 62
     7
 10
636.6427558198877
 20
111.4992907392143
 11
636.5043849378476
 21
110.5306945649328
  0
LINE
  8
0
  6
CONTINUOUS
 62
     7
 10
636.5043849378476
 20
110.5306945649328
 11
638.0
 21
110.5306945649328
  0
LINE
  8
0
  6
CONTINUOUS
 62
     7
 10
588.5
 20
109.5
 11
588.5
 21
142.5988718452101
  0
LINE
  8
0
  6
CONTINUOUS
 62
     7
 10
588.501570411341
 20
142.6141238765614
 11
588.5000000000001
 21
142.5988718452101
  0
LINE
  8
0
  6
CONTINUOUS
 62
     7
 10
648.3514950818662
 20
111.5395344269361
 11
648.2144268228521
 21
112.4990122400349
  0
LINE
  8
0
  6
CONTINUOUS
 62
     7
 10
648.2144268228523
 20
112.4990122400349
 11
636.7855731771479
 21
112.4990122400349
  0
LINE
  8
0
  6
CONTINUOUS
 62
     7
 10
636.7855731771479
 20
112.4990122400349
 11
636.6485049181338
 21
111.5395344269359
  0
LINE
  8
0
  6
CONTINUOUS
 62
     7
 10
636.6485049181338
 20
111.5395344269359
 11
648.3514950818662
 21
111.5395344269361
  0
LINE
  8
0
  6
CONTINUOUS
 62
     7
 10
648.20737510158
 20
112.5483742889392
 11
648.071609465592
 21
113.4987337408555
  0
LINE
  8
0
  6
CONTINUOUS
 62
     7
 10
648.071609465592
 20
113.4987337408555
 11
636.9283905344079
 21
113.4987337408555
  0
LINE
  8
0
  6
CONTINUOUS
 62
     7
 10
636.928390534408
 20
113.4987337408555
 11
636.79262489842
 21
112.548374288939
  0
LINE
  8
0
  6
CONTINUOUS
 62
     7
 10
636.79262489842
 20
112.548374288939
 11
648.2073751015802
 21
112.5483742889392
  0
LINE
  8
0
  6
CONTINUOUS
 62
     7
 10
648.063255121294
 20
113.5572141509423
 11
647.9287921083321
 21
114.4984552416761
  0
LINE
  8
0
  6
CONTINUOUS
 62
     7
 10
647.928792108332
 20
114.4984552416761
 11
637.071207891668
 21
114.4984552416761
  0
LINE
  8
0
  6
CONTINUOUS
 62
     7
 10
637.071207891668
 20
114.4984552416761
 11
636.936744878706
 21
113.5572141509421
  0
LINE
  8
0
  6
CONTINUOUS
 62
     7
 10
636.936744878706
 20
113.5572141509421
 11
648.0632551212939
 21
113.5572141509423
  0
LINE
  8
0
  6
CONTINUOUS
 62
     7
 10
647.9191351410078
 20
114.5660540129454
 11
647.7859747510719
 21
115.4981767424967
  0
LINE
  8
0
  6
CONTINUOUS
 62
     7
 10
647.7859747510719
 20
115.4981767424967
 11
637.2140252489281
 21
115.4981767424966
  0
LINE
  8
0
  6
CONTINUOUS
 62
     7
 10
637.2140252489281
 20
115.4981767424966
 11
637.0808648589922
 21
114.5660540129452
  0
LINE
  8
0
  6
CONTINUOUS
 62
     7
 10
637.0808648589922
 20
114.5660540129452
 11
647.9191351410078
 21
114.5660540129454
  0
LINE
  8
0
  6
CONTINUOUS
 62
     7
 10
647.7750151607216
 20
115.5748938749485
 11
647.7453081839323
 21
115.7828427124746
  0
ARC
  8
0
  6
CONTINUOUS
 62
     7
 10
645.76540919661
 20
115.5
 40
1.999999999999995
 50
8.130102354155602
 51
29.93049876879595
  0
LINE
  8
0
  6
CONTINUOUS
 62
     7
 10
647.4986717549041
 20
116.4978982433172
 11
637.501328245096
 21
116.4978982433172
  0
ARC
  8
0
  6
CONTINUOUS
 62
     7
 10
639.2345908033901
 20
115.4999999999999
 40
1.999999999999995
 50
150.0695012312045
 51
171.8698976458438
  0
LINE
  8
0
  6
CONTINUOUS
 62
     7
 10
637.2546918160679
 20
115.7828427124746
 11
637.2249848392784
 21
115.5748938749483
  0
LINE
  8
0
  6
CONTINUOUS
 62
     7
 10
637.2249848392784
 20
115.5748938749483
 11
647.7750151607216
 21
115.5748938749485
  0
ARC
  8
0
  6
CONTINUOUS
 62
     7
 10
645.76540919661
 20
115.5
 40
1.999999999999995
 50
32.81081532126206
 51
87.20438388219154
  0
LINE
  8
0
  6
CONTINUOUS
 62
     7
 10
645.8629558922513
 20
117.4976197441378
 11
639.1370441077487
 21
117.4976197441378
  0
ARC
  8
0
  6
CONTINUOUS
 62
     7
 10
639.2345908033901
 20
115.4999999999999
 40
1.999999999999995
 50
92.7956161178133
 51
147.1891846787437
  0
LINE
  8
0
  6
CONTINUOUS
 62
     7
 10
637.5536621352446
 20
116.5837337369514
 11
647.4463378647553
 21
116.5837337369516
  0
LINE
  8
0
  6
CONTINUOUS
 62
     7
 10
588.5
 20
109.5
 11
638.0
 21
109.5
  0
LINE
  8
0
  6
CONTINUOUS
 62
     7
 10
647.0
 20
109.4999999999999
 11
655.2329726952413
 21
109.5
  0
LINE
  8
0
  6
CONTINUOUS
 62
     7
 10
647.0
 20
110.530694564933
 11
647.0
 21
109.4999999999999
  0
LINE
  8
0
  6
CONTINUOUS
 62
     7
 10
638.0
 20
110.5306945649328
 11
638.0
 21
109.4999999999999
  0
LINE
  8
0
  6
CONTINUOUS
 62
     7
 10
679.0355339059328
 20
131.231493398826
 11
658.768506601174
 21
110.9644660940672
  0
LINE
  8
0
  6
CONTINUOUS
 62
     7
 10
581.9949747468306
 20
109.4999999999999
 11
588.5
 21
109.4999999999999
  0
LINE
  8
0
  6
CONTINUOUS
 62
     7
 10
680.5000000000001
 20
208.0050252531694
 11
680.5000000000001
 21
201.4999999999999
  0
LINE
  8
0
  6
CONTINUOUS
 62
     7
 10
647.0
 20
111.2016832500573
 11
638.0
 21
111.2016832500573
  0
LINE
  8
0
  6
CONTINUOUS
 62
     7
 10
647.0
 20
111.2016832500573
 11
647.0
 21
110.530694564933
  0
LINE
  8
0
  6
CONTINUOUS
 62
     7
 10
638.0
 20
111.2016832500573
 11
638.0
 21
110.5306945649328
  0
LINE
  8
0
  6
CONTINUOUS
 62
     7
 10
678.7983167499427
 20
143.0
 11
678.7983167499427
 21
152.0
  0
LINE
  8
0
  6
CONTINUOUS
 62
     7
 10
678.7983167499427
 20
152.0
 11
679.4693054350671
 21
152.0
  0
LINE
  8
0
  6
CONTINUOUS
 62
     7
 10
678.7983167499427
 20
143.0
 11
679.469305435067
 21
143.0
  0
LINE
  8
0
  6
CONTINUOUS
 62
     7
 10
588.5015704113408
 20
142.6141238765614
 11
588.6047730181566
 21
143.0834600751474
  0
LINE
  8
0
  6
CONTINUOUS
 62
     7
 10
647.3858761234386
 20
201.4984295886591
 11
646.9165399248526
 21
201.3952269818434
  0
LINE
  8
0
  6
CONTINUOUS
 62
     7
 10
588.60733236672
 20
143.0886465009742
 11
588.6047730181566
 21
143.0834600751474
  0
LINE
  8
0
  6
CONTINUOUS
 62
     7
 10
646.9113534990257
 20
201.39266763328
 11
646.9165399248525
 21
201.3952269818434
  0
LINE
  8
0
  6
CONTINUOUS
 62
     7
 10
648.822438769601
 20
208.5
 11
680.5000000000001
 21
208.5
  0
LINE
  8
0
  6
CONTINUOUS
 62
     7
 10
581.5
 20
141.177561230399
 11
581.5
 21
109.4999999999999
  0
LINE
  8
0
  6
CONTINUOUS
 62
     7
 10
588.6073323667201
 20
144.8686333935268
 11
588.6046592468385
 21
144.8835772568812
  0
LINE
  8
0
  6
CONTINUOUS
 62
     7
 10
588.60733236672
 20
143.0886465009742
 11
588.60733236672
 21
144.8686333935268
  0
LINE
  8
0
  6
CONTINUOUS
 62
     7
 10
646.9113534990257
 20
201.39266763328
 11
645.1313666064731
 21
201.39266763328
  0
LINE
  8
0
  6
CONTINUOUS
 62
     7
 10
645.1164227431187
 20
201.3953407531615
 11
645.1313666064731
 21
201.3926676332799
  0
LINE
  8
0
  6
CONTINUOUS
 62
     7
 10
621.9844017637191
 20
144.8686333935257
 11
621.9848077591176
 21
144.8678435108724
  0
LINE
  8
0
  6
CONTINUOUS
 62
     7
 10
645.132156489128
 20
168.0151922408816
 11
645.1313666064747
 21
168.0155982362809
  0
LINE
  8
0
  6
CONTINUOUS
 62
     7
 10
648.3263013162785
 20
208.5
 11
648.822438769601
 21
208.5
  0
LINE
  8
0
  6
CONTINUOUS
 62
     7
 10
581.5
 20
141.6736986837215
 11
581.5
 21
141.177561230399
  0
LINE
  8
0
  6
CONTINUOUS
 62
     7
 10
646.636671925583
 20
208.5
 11
648.3263013162784
 21
208.5
  0
LINE
  8
0
  6
CONTINUOUS
 62
     7
 10
581.5
 20
143.363328074417
 11
581.5
 21
141.6736986837215
  0
ARC
  8
0
  6
CONTINUOUS
 62
     7
 10
631.1641161700767
 20
147.0007581360661
 40
2.000758160710514
 50
270.0089928947227
 51
314.9910071052765
  0
ARC
  8
0
  6
CONTINUOUS
 62
     7
 10
642.999241863934
 20
158.8358838299233
 40
2.000758160710514
 50
315.0089928947235
 51
359.9910071052773
  0
LINE
  8
0
  6
CONTINUOUS
 62
     7
 10
632.5786437626906
 20
145.5857864376268
 11
644.4142135623731
 21
157.4213562373095
  0
LINE
  8
0
  6
CONTINUOUS
 62
     7
 10
631.1644302003174
 20
145.0
 11
621.9914281324112
 21
145.0
  0
LINE
  8
0
  6
CONTINUOUS
 62
     7
 10
645.0
 20
158.8355697996826
 11
645.0
 21
168.0085718675888
  0
LINE
  8
0
  6
CONTINUOUS
 62
     7
 10
645.0
 20
168.0085718675888
 11
645.0
 21
201.4952894901355
  0
LINE
  8
0
  6
CONTINUOUS
 62
     7
 10
645.1164227431187
 20
201.3953407531615
 11
645.0
 21
201.4952894901355
  0
LINE
  8
0
  6
CONTINUOUS
 62
     7
 10
588.6046592468384
 20
144.8835772568812
 11
588.5047105098644
 21
145.0
  0
LINE
  8
0
  6
CONTINUOUS
 62
     7
 10
621.9914281324112
 20
145.0
 11
588.5047105098645
 21
145.0
  0
LINE
  8
0
  6
CONTINUOUS
 62
     7
 10
588.5
 20
145.0
 11
581.9950151677477
 21
144.0707164525354
  0
LINE
  8
0
  6
CONTINUOUS
 62
     7
 10
588.5047105098644
 20
145.0
 11
588.4999999999998
 21
145.0
  0
LINE
  8
0
  6
CONTINUOUS
 62
     7
 10
645.0
 20
201.4952894901355
 11
645.0
 21
201.5000000000001
  0
LINE
  8
0
  6
CONTINUOUS
 62
     7
 10
645.0
 20
201.5
 11
645.9292835474646
 21
208.0049848322522
  0
POLYLINE
  8
0
  6
CONTINUOUS
 62
     7
 10
0.0
 20
0.0
 30
0.0
 66
     1
 70
     8
  0
VERTEX
  8
0
  6
CONTINUOUS
 62
     7
 10
645.9292835474646
 20
208.0049848322522
 30
0.0
 70
    32
  0
VERTEX
  8
0
  6
CONTINUOUS
 62
     7
 10
645.9292893218815
 20
208.0050252531694
 30
0.0
 70
    32
  0
SEQEND
  8
0
  6
CONTINUOUS
 62
     7
  0
LINE
  8
0
  6
CONTINUOUS
 62
     7
 10
645.9292893218815
 20
208.0050252531694
 11
646.5000000000001
 21
208.5
  0
LINE
  8
0
  6
CONTINUOUS
 62
     7
 10
646.5000000000001
 20
208.5
 11
646.636671925583
 21
208.5
  0
LINE
  8
0
  6
CONTINUOUS
 62
     7
 10
581.9949747468306
 20
144.0707106781186
 11
581.5
 21
143.4999999999999
  0
POLYLINE
  8
0
  6
CONTINUOUS
 62
     7
 10
0.0
 20
0.0
 30
0.0
 66
     1
 70
     8
  0
VERTEX
  8
0
  6
CONTINUOUS
 62
     7
 10
581.9950151677477
 20
144.0707164525354
 30
0.0
 70
    32
  0
VERTEX
  8
0
  6
CONTINUOUS
 62
     7
 10
581.9949747468307
 20
144.0707106781186
 30
0.0
 70
    32
  0
SEQEND
  8
0
  6
CONTINUOUS
 62
     7
  0
LINE
  8
0
  6
CONTINUOUS
 62
     7
 10
581.5
 20
143.5
 11
581.5
 21
143.363328074417
  0
LINE
  8
0
  6
CONTINUOUS
 62
     7
 10
708.5
 20
173.4999999999999
 11
708.5
 21
104.6874265228132
  0
ARC
  8
0
  6
CONTINUOUS
 62
     7
 10
675.5
 20
134.7670273047588
 40
5.000000000000004
 50
339.4706620052668
 51
0.0
  0
LINE
  8
0
  6
CONTINUOUS
 62
     7
 10
680.5
 20
134.7670273047588
 11
680.5
 21
143.0
  0
LINE
  8
0
  6
CONTINUOUS
 62
     7
 10
680.5
 20
143.0
 11
680.5
 21
152.0
  0
LINE
  8
0
  6
CONTINUOUS
 62
     7
 10
680.5
 20
152.0
 11
680.5
 21
201.4999999999999
  0
LINE
  8
0
  6
CONTINUOUS
 62
     7
 10
708.5
 20
104.6874265228132
 11
708.5
 21
91.49999999999997
  0
LINE
  8
0
  6
CONTINUOUS
 62
     7
 10
708.5
 20
91.49999999999997
 11
698.5
 21
81.49999999999996
  0
LINE
  8
0
  6
CONTINUOUS
 62
     7
 10
685.3125734771869
 20
81.49999999999996
 11
698.5000000000001
 21
81.49999999999996
  0
ARC
  8
0
  6
CONTINUOUS
 62
     7
 10
655.2329726952413
 20
114.5
 40
5.000000000000001
 50
290.5293379947331
 51
315.0
  0
LINE
  8
0
  6
CONTINUOUS
 62
     7
 10
658.768506601174
 20
110.9644660940672
 11
679.0355339059328
 21
131.231493398826
  0
ARC
  8
0
  6
CONTINUOUS
 62
     7
 10
675.5
 20
134.7670273047588
 40
5.000000000000001
 50
315.0
 51
339.4706620052668
  0
LINE
  8
0
  6
CONTINUOUS
 62
     7
 10
616.5
 20
81.49999999999996
 11
685.3125734771869
 21
81.49999999999996
  0
LINE
  8
0
  6
CONTINUOUS
 62
     7
 10
655.2329726952413
 20
109.5
 11
647.0000000000001
 21
109.5
  0
LINE
  8
0
  6
CONTINUOUS
 62
     7
 10
647.0
 20
109.5
 11
638.0
 21
109.5
  0
LINE
  8
0
  6
CONTINUOUS
 62
     7
 10
638.0
 20
109.5
 11
588.5
 21
109.5
  0
ARC
  8
0
  6
CONTINUOUS
 62
     7
 10
655.2329726952413
 20
114.5
 40
5.000000000000004
 50
270.0
 51
290.5293379947332
  0
LINE
  8
0
  6
CONTINUOUS
 62
     7
 10
588.5
 20
109.5
 11
581.9949747468306
 21
109.5
  0
LINE
  8
0
  6
CONTINUOUS
 62
     7
 10
588.5
 20
81.49999999999996
 11
588.5
 21
109.5
  0
LINE
  8
0
  6
CONTINUOUS
 62
     7
 10
581.9949747468307
 20
81.49999999999996
 11
588.5000000000001
 21
81.49999999999996
  0
LINE
  8
0
  6
CONTINUOUS
 62
     7
 10
708.5
 20
201.4999999999999
 11
680.5
 21
201.4999999999999
  0
LINE
  8
0
  6
CONTINUOUS
 62
     7
 10
708.5
 20
201.4999999999999
 11
708.5
 21
173.5
  0
LINE
  8
0
  6
CONTINUOUS
 62
     7
 10
708.5
 20
208.0050252531694
 11
708.5
 21
201.4999999999999
  0
LINE
  8
0
  6
CONTINUOUS
 62
     7
 10
680.5
 20
201.4999999999999
 11
680.5
 21
208.0050252531694
  0
LINE
  8
0
  6
CONTINUOUS
 62
     7
 10
588.5
 20
81.49999999999996
 11
616.5
 21
81.49999999999996
  0
LINE
  8
0
  6
CONTINUOUS
 62
     7
 10
581.5
 20
109.5
 11
581.5
 21
81.49999999999999
  0
LINE
  8
0
  6
CONTINUOUS
 62
     7
 10
581.5000000000001
 20
81.49999999999999
 11
581.9949747468307
 21
81.49999999999996
  0
LINE
  8
0
  6
CONTINUOUS
 62
     7
 10
581.9949747468307
 20
109.5
 11
581.5000000000001
 21
109.5
  0
LINE
  8
0
  6
CONTINUOUS
 62
     7
 10
680.5
 20
208.5
 11
708.5
 21
208.4999999999999
  0
LINE
  8
0
  6
CONTINUOUS
 62
     7
 10
708.5
 20
208.4999999999999
 11
708.5
 21
208.0050252531694
  0
LINE
  8
0
  6
CONTINUOUS
 62
     7
 10
680.5
 20
208.0050252531694
 11
680.5
 21
208.5
  0
ENDBLK
  8
0
  0
ENDSEC
  0
SECTION
  2
ENTITIES
  0
INSERT
  8
0
  6
CONTINUOUS
 62
     7
  2
D_FRAME_VIEW_2100
 10
0.0
 20
0.0
 30
0.0
  0
INSERT
  8
0
 62
     7
  2
D_FRAME_DRAWING_17
 10
0.0
 20
0.0
 30
0.0
  0
LINE
  8
0
  6
CENTER
 62
     1
 10
440.0
 20
78.49999999999996
 11
440.0
 21
211.5
  0
LINE
  8
0
  6
CENTER
 62
     1
 10
578.5
 20
211.5
 11
711.5
 21
78.49999999999996
  0
INSERT
  8
0
  6
CONTINUOUS
 62
     7
  2
D_FRAME_VIEW_1288
 10
0.0
 20
0.0
 30
0.0
  0
TEXT
  8
0
  6
CONTINUOUS
 62
     7
 10
528.846392397149
 20
30.5424534200325
 40
8.0
  1
MIDI-80
  0
ENDSEC
  0
EOF
