  0
SECTION
  2
HEADER
  9
$ACADVER
  1
AC1004
  9
$INSBASE
 10
0.0
 20
0.0
  9
$EXTMIN
 10
0.0
 20
0.0
  9
$EXTMAX
 10
570.0110259763417
 20
243.85
  9
$LIMMIN
 10
0.0
 20
0.0
  9
$LIMMAX
 10
12.0
 20
9.0
  9
$ORTHOMODE
 70
     0
  9
$REGENMODE
 70
     1
  9
$FILLMODE
 70
     1
  9
$QTEXTMODE
 70
     0
  9
$DRAGMODE
 70
     2
  9
$LTSCALE
 40
1.0
  9
$OSMODE
 70
    37
  9
$ATTMODE
 70
     1
  9
$TEXTSIZE
 40
0.2
  9
$TRACEWID
 40
0.05
  9
$TEXTSTYLE
  7
STANDARD
  9
$CLAYER
  8
0
  9
$CELTYPE
  6
BYLAYER
  9
$CECOLOR
 62
   256
  9
$DIMSCALE
 40
1.0
  9
$DIMASZ
 40
3.0
  9
$DIMEXO
 40
0.0625
  9
$DIMDLI
 40
0.38
  9
$DIMRND
 40
0.0
  9
$DIMDLE
 40
0.0
  9
$DIMEXE
 40
1.5
  9
$DIMTP
 40
0.0
  9
$DIMTM
 40
0.0
  9
$DIMTXT
 40
3.0
  9
$DIMCEN
 40
0.09
  9
$DIMTSZ
 40
0.0
  9
$DIMTOL
 70
     0
  9
$DIMLIM
 70
     0
  9
$DIMTIH
 70
     1
  9
$DIMTOH
 70
     1
  9
$DIMSE1
 70
     0
  9
$DIMSE2
 70
     0
  9
$DIMTAD
 70
     1
  9
$DIMZIN
 70
     0
  9
$DIMBLK
  1

  9
$DIMASO
 70
     1
  9
$DIMSHO
 70
     1
  9
$DIMPOST
  1

  9
$DIMAPOST
  1

  9
$DIMALT
 70
     0
  9
$DIMALTD
 70
     2
  9
$DIMALTF
 40
25.4
  9
$DIMLFAC
 40
1.0
  9
$DIMTOFL
 70
     0
  9
$DIMTVP
 40
0.0
  9
$DIMTIX
 70
     0
  9
$DIMSOXD
 70
     0
  9
$DIMSAH
 70
     0
  9
$DIMBLK1
  1

  9
$DIMBLK2
  1

  9
$LUNITS
 70
     2
  9
$LUPREC
 70
     4
  9
$SKETCHINC
 40
0.1
  9
$FILLETRAD
 40
0.5
  9
$AUNITS
 70
     0
  9
$AUPREC
 70
     0
  9
$MENU
  1
.
  9
$ELEVATION
 40
0.0
  9
$THICKNESS
 40
0.0
  9
$LIMCHECK
 70
     0
  9
$CHAMFERA
 40
0.0
  9
$CHAMFERB
 40
0.0
  9
$SKPOLY
 70
     0
  9
$TDCREATE
 40
2460256.475383958
  9
$TDUPDATE
 40
2460256.475384144
  9
$TDINDWG
 40
0.0000000116
  9
$TDUSRTIMER
 40
0.0000000116
  9
$USRTIMER
 70
     1
  9
$ANGBASE
 50
0.0
  9
$ANGDIR
 70
     0
  9
$PDMODE
 70
     0
  9
$PDSIZE
 40
0.0
  9
$PLINEWID
 40
0.0
  9
$COORDS
 70
     1
  9
$SPLFRAME
 70
     0
  9
$SPLINETYPE
 70
     6
  9
$SPLINESEGS
 70
     8
  9
$ATTDIA
 70
     0
  9
$ATTREQ
 70
     1
  9
$SURFTAB1
 70
     6
  9
$SURFTAB2
 70
     6
  9
$SURFTYPE
 70
     6
  9
$SURFU
 70
     6
  9
$SURFV
 70
     6
  9
$UCSNAME
  2

  9
$UCSORG
 10
0.0
 20
0.0
 30
0.0
  9
$UCSXDIR
 10
1.0
 20
0.0
 30
0.0
  9
$UCSYDIR
 10
0.0
 20
1.0
 30
0.0
  9
$USERI1
 70
     0
  9
$USERI2
 70
     0
  9
$USERI3
 70
     0
  9
$USERI4
 70
     0
  9
$USERI5
 70
     0
  9
$USERR1
 40
0.0
  9
$USERR2
 40
0.0
  9
$USERR3
 40
0.0
  9
$USERR4
 40
0.0
  9
$USERR5
 40
0.0
  9
$WORLDVIEW
 70
     1
  0
ENDSEC
  0
SECTION
  2
TABLES
  0
TABLE
  2
LTYPE
 70
     2
  0
LTYPE
  2
CONTINUOUS
 70
     0
  3
Solid line
 72
    65
 73
     0
 40
0.0
  0
LTYPE
  2
CENTER
 70
     0
  3

 72
    65
 73
     0
 40
0.0
  0
ENDTAB
  0
TABLE
  2
LAYER
 70
     1
  0
LAYER
  2
0
 70
     0
 62
     7
  6
CONTINUOUS
  0
ENDTAB
  0
TABLE
  2
STYLE
 70
     2
  0
STYLE
  2
STANDARD
 70
     0
 40
0.0
 41
1.0
 50
0.0
 71
     0
 42
0.2
  3
txt
  4

  0
STYLE
  2
ＭＳ_ゴシック
 70
     0
 40
0.0
 41
1.0
 50
0.0
 71
     0
 42
0.2
  3
ＭＳ ゴシック.shx
  4

  0
ENDTAB
  0
TABLE
  2
VIEW
 70
     0
  0
ENDTAB
  0
ENDSEC
  0
SECTION
  2
BLOCKS
  0
BLOCK
  8
0
  2
D_FRAME_VIEW_1825
 70
     0
 10
0.0
 20
0.0
  0
ARC
  8
0
  6
CONTINUOUS
 62
     7
 10
372.742703133494
 20
88.98897402365843
 40
1.000000000000004
 50
112.0542782259312
 51
114.642886911767
  0
LINE
  8
0
  6
CONTINUOUS
 62
     7
 10
373.4461508442925
 20
89.98897402365843
 11
372.742703133494
 21
89.98897402365843
  0
ARC
  8
0
  6
CONTINUOUS
 62
     7
 10
457.257296866506
 20
88.98897402365843
 40
1.000000000000004
 50
65.35711308823302
 51
67.94572177406896
  0
LINE
  8
0
  6
CONTINUOUS
 62
     7
 10
456.5538491557076
 20
89.98897402365843
 11
457.257296866506
 21
89.98897402365843
  0
LINE
  8
0
  6
CONTINUOUS
 62
     7
 10
374.1193028143981
 20
69.98897402365843
 11
455.880697185602
 21
69.98897402365843
  0
LINE
  8
0
  6
CONTINUOUS
 62
     7
 10
373.3917236443293
 20
69.98897402365843
 11
374.1193028143981
 21
69.98897402365843
  0
LINE
  8
0
  6
CONTINUOUS
 62
     7
 10
456.6082763556707
 20
69.98897402365843
 11
455.880697185602
 21
69.98897402365843
  0
LINE
  8
0
  6
CONTINUOUS
 62
     7
 10
354.886153299562
 20
69.98897402365843
 11
373.3917236443293
 21
69.98897402365843
  0
LINE
  8
0
  6
CONTINUOUS
 62
     7
 10
475.1138467004381
 20
69.98897402365843
 11
456.6082763556707
 21
69.98897402365843
  0
LINE
  8
0
  6
CONTINUOUS
 62
     7
 10
374.1211994875909
 20
72.78897402365843
 11
455.8788005124092
 21
72.78897402365843
  0
LINE
  8
0
  6
CONTINUOUS
 62
     7
 10
374.1211994875909
 20
72.78897402365843
 11
373.6682622511948
 21
72.78897402365843
  0
LINE
  8
0
  6
CONTINUOUS
 62
     7
 10
455.8788005124092
 20
72.78897402365843
 11
456.3317377488053
 21
72.78897402365843
  0
LINE
  8
0
  6
CONTINUOUS
 62
     7
 10
373.6682622504016
 20
72.78897402365843
 11
355.1764667713086
 21
72.78897402365843
  0
LINE
  8
0
  6
CONTINUOUS
 62
     7
 10
456.3317377495985
 20
72.78897402365843
 11
474.8235332286914
 21
72.78897402365843
  0
LINE
  8
0
  6
CONTINUOUS
 62
     7
 10
353.853415144504
 20
71.87595648790727
 11
353.7646309849215
 21
71.6655188358698
  0
LINE
  8
0
  6
CONTINUOUS
 62
     7
 10
476.1465848554961
 20
71.87595648790727
 11
476.2353690150786
 21
71.6655188358698
  0
LINE
  8
0
  6
CONTINUOUS
 62
     7
 10
353.7646308497613
 20
71.66550334804853
 11
353.7500000000001
 21
69.98897402365843
  0
LINE
  8
0
  6
CONTINUOUS
 62
     7
 10
353.7500000000001
 20
69.98897402365843
 11
354.886153299562
 21
69.98897402365843
  0
LINE
  8
0
  6
CONTINUOUS
 62
     7
 10
476.2353691502388
 20
71.66550334804853
 11
476.2500000000001
 21
69.98897402365843
  0
LINE
  8
0
  6
CONTINUOUS
 62
     7
 10
476.2500000000001
 20
69.98897402365843
 11
475.1138467004382
 21
69.98897402365843
  0
LINE
  8
0
  6
CONTINUOUS
 62
     7
 10
354.6867113627582
 20
72.70201237080907
 11
354.6910472309155
 21
72.70224756757996
  0
LINE
  8
0
  6
CONTINUOUS
 62
     7
 10
354.6910472309155
 20
72.70224756757996
 11
354.6952044267763
 21
72.70228099663515
  0
LINE
  8
0
  6
CONTINUOUS
 62
     7
 10
354.686720071192
 20
72.70202100357724
 11
353.8534304320255
 21
71.87597164259876
  0
LINE
  8
0
  6
CONTINUOUS
 62
     7
 10
475.3132886372419
 20
72.70201237080907
 11
475.3047948975753
 21
72.70228099979954
  0
LINE
  8
0
  6
CONTINUOUS
 62
     7
 10
475.313279928808
 20
72.70202100357724
 11
476.1465695679746
 21
71.87597164259876
  0
LINE
  8
0
  6
CONTINUOUS
 62
     7
 10
354.8979331969628
 20
72.78897402365843
 11
354.7976263840065
 21
72.77170807409198
  0
LINE
  8
0
  6
CONTINUOUS
 62
     7
 10
355.1764745388658
 20
72.78897402365843
 11
354.8979677207807
 21
72.78897402365843
  0
LINE
  8
0
  6
CONTINUOUS
 62
     7
 10
475.1020668030373
 20
72.78897402365843
 11
475.2023736159935
 21
72.77170807409198
  0
LINE
  8
0
  6
CONTINUOUS
 62
     7
 10
474.8235254611342
 20
72.78897402365843
 11
475.1020668259899
 21
72.78897402365843
  0
LINE
  8
0
  6
CONTINUOUS
 62
     7
 10
379.597123526743
 20
89.98897402365843
 11
450.402876473257
 21
89.98897402365843
  0
LINE
  8
0
  6
CONTINUOUS
 62
     7
 10
379.3685113975442
 20
89.98897402365843
 11
379.597123526743
 21
89.98897402365843
  0
LINE
  8
0
  6
CONTINUOUS
 62
     7
 10
450.6314886024559
 20
89.98897402365843
 11
450.402876473257
 21
89.98897402365843
  0
LINE
  8
0
  6
CONTINUOUS
 62
     7
 10
373.4461508442925
 20
89.98897402365843
 11
372.6275290418508
 21
89.97125364069987
  0
LINE
  8
0
  6
CONTINUOUS
 62
     7
 10
379.3685113975442
 20
89.98897402365843
 11
373.4461508442925
 21
89.98897402365843
  0
LINE
  8
0
  6
CONTINUOUS
 62
     7
 10
457.3724709581493
 20
89.97125364069987
 11
456.5538491557076
 21
89.98897402365843
  0
LINE
  8
0
  6
CONTINUOUS
 62
     7
 10
450.6314886024559
 20
89.98897402365843
 11
456.5538491557076
 21
89.98897402365843
  0
ARC
  8
0
  6
CONTINUOUS
 62
     7
 10
370.2796469665472
 20
73.28897402365843
 40
0.5000000000000004
 50
270.0
 51
356.5000000000001
  0
ARC
  8
0
  6
CONTINUOUS
 62
     7
 10
459.7203530334529
 20
73.28897402365843
 40
0.5000000000000004
 50
183.5
 51
270.0
  0
LINE
  8
0
  6
CONTINUOUS
 62
     7
 10
371.7445683350722
 20
89.0500225631933
 11
370.7787143657581
 21
73.258449753891
  0
LINE
  8
0
  6
CONTINUOUS
 62
     7
 10
458.2554316649279
 20
89.0500225631933
 11
459.221285634242
 21
73.258449753891
  0
ARC
  8
0
  6
CONTINUOUS
 62
     7
 10
372.742703133494
 20
88.98897402365843
 40
1.000000000000001
 50
114.6428869117704
 51
176.5000000000001
  0
LINE
  8
0
  6
CONTINUOUS
 62
     7
 10
372.6275290418508
 20
89.97125364069989
 11
372.3672999195733
 21
89.91560392615457
  0
LINE
  8
0
  6
CONTINUOUS
 62
     7
 10
372.3672999195733
 20
89.91560392615457
 11
372.3381016823199
 21
89.90344620445387
  0
LINE
  8
0
  6
CONTINUOUS
 62
     7
 10
372.3381016823199
 20
89.90344620445387
 11
372.325741878487
 21
89.89789828443216
  0
ARC
  8
0
  6
CONTINUOUS
 62
     7
 10
457.257296866506
 20
88.98897402365843
 40
1.000000000000001
 50
3.499999999999886
 51
65.35711308822954
  0
LINE
  8
0
  6
CONTINUOUS
 62
     7
 10
457.3724709581492
 20
89.97125364069989
 11
457.6327000804268
 21
89.91560392615457
  0
LINE
  8
0
  6
CONTINUOUS
 62
     7
 10
457.6327000804268
 20
89.91560392615457
 11
457.6618983176802
 21
89.90344620445387
  0
LINE
  8
0
  6
CONTINUOUS
 62
     7
 10
457.6618983176802
 20
89.90344620445387
 11
457.674258121513
 21
89.89789828443216
  0
LINE
  8
0
  6
CONTINUOUS
 62
     7
 10
354.7978581548886
 20
72.77175321126794
 11
354.6952089858816
 21
72.70228101797764
  0
LINE
  8
0
  6
CONTINUOUS
 62
     7
 10
475.3047910141185
 20
72.70228101797764
 11
475.2021418451115
 21
72.77175321126794
  0
ENDBLK
  8
0
  0
BLOCK
  8
0
  2
D_FRAME_VIEW_1966
 70
     0
 10
0.0
 20
0.0
  0
LINE
  8
0
  6
CONTINUOUS
 62
     7
 10
570.0110259763417
 20
159.65
 11
570.0110259763417
 21
234.6788799847531
  0
LINE
  8
0
  6
CONTINUOUS
 62
     7
 10
568.3344811641304
 20
159.65
 11
570.0110259763417
 21
159.65
  0
LINE
  8
0
  6
CONTINUOUS
 62
     7
 10
568.3344811641304
 20
159.65
 11
568.1240435120928
 21
159.65
  0
LINE
  8
0
  6
CONTINUOUS
 62
     7
 10
570.0110259763417
 20
236.1340383248905
 11
570.0110259763417
 21
234.6788799847531
  0
LINE
  8
0
  6
CONTINUOUS
 62
     7
 10
568.1240435120928
 20
159.65
 11
567.2979703636547
 21
159.65
  0
LINE
  8
0
  6
CONTINUOUS
 62
     7
 10
567.2110259763416
 20
159.65
 11
567.2110259763416
 21
234.6666150068559
  0
LINE
  8
0
  6
CONTINUOUS
 62
     7
 10
567.2979703636547
 20
159.65
 11
567.2110259763416
 21
159.65
  0
LINE
  8
0
  6
CONTINUOUS
 62
     7
 10
567.2110259763416
 20
234.6666156311957
 11
567.2110259763416
 21
235.0224614495347
  0
LINE
  8
0
  6
CONTINUOUS
 62
     7
 10
570.0110259763417
 20
240.7604309110824
 11
570.0110259763417
 21
236.1340383248905
  0
LINE
  8
0
  6
CONTINUOUS
 62
     7
 10
567.2110259763416
 20
235.0224279481979
 11
567.2110259763416
 21
239.6463031070428
  0
LINE
  8
0
  6
CONTINUOUS
 62
     7
 10
566.741550246109
 20
159.65
 11
567.2110259763416
 21
159.65
  0
LINE
  8
0
  6
CONTINUOUS
 62
     7
 10
550.9499774368069
 20
159.65
 11
566.741550246109
 21
159.65
  0
LINE
  8
0
  6
CONTINUOUS
 62
     7
 10
550.0110259763417
 20
159.65
 11
550.0110259763417
 21
220.2717499079908
  0
LINE
  8
0
  6
CONTINUOUS
 62
     7
 10
550.9499774368069
 20
159.65
 11
550.0110259763417
 21
159.65
  0
LINE
  8
0
  6
CONTINUOUS
 62
     7
 10
550.0110259763417
 20
220.2717499079908
 11
550.0110259763417
 21
221.8307636171791
  0
LINE
  8
0
  6
CONTINUOUS
 62
     7
 10
568.334481125288
 20
240.8353690147396
 11
568.1240435001914
 21
240.7465848434903
  0
LINE
  8
0
  6
CONTINUOUS
 62
     7
 10
568.3344811641304
 20
240.8353690150786
 11
570.0110259763417
 21
240.85
  0
LINE
  8
0
  6
CONTINUOUS
 62
     7
 10
570.0110259763417
 20
240.85
 11
570.0110259763417
 21
240.7604309110823
  0
LINE
  8
0
  6
CONTINUOUS
 62
     7
 10
567.2979703652887
 20
239.9132712220224
 11
567.2979671077428
 21
239.9122754658847
  0
LINE
  8
0
  6
CONTINUOUS
 62
     7
 10
567.2979703636547
 20
239.913271220374
 11
568.1240435120927
 21
240.7465848554961
  0
LINE
  8
0
  6
CONTINUOUS
 62
     7
 10
567.2331386186745
 20
239.8151093456872
 11
567.2110259763416
 21
239.7020668063055
  0
LINE
  8
0
  6
CONTINUOUS
 62
     7
 10
567.2110259763416
 20
239.6463031038723
 11
567.2110259763416
 21
239.7020668063055
  0
ARC
  8
0
  6
CONTINUOUS
 62
     7
 10
566.7110259763417
 20
224.3203530334528
 40
0.4999999999999958
 50
273.5
 51
0.0
  0
LINE
  8
0
  6
CONTINUOUS
 62
     7
 10
550.9499774368069
 20
222.8554316649278
 11
566.741550246109
 21
223.8212856342419
  0
ARC
  8
0
  6
CONTINUOUS
 62
     7
 10
551.0110259763417
 20
221.8572968665059
 40
1.000000000000001
 50
93.49999999999993
 51
180.0
  0
LINE
  8
0
  6
CONTINUOUS
 62
     7
 10
550.0110259763417
 20
221.8307636171791
 11
550.0110259763417
 21
221.8572968665059
  0
LINE
  8
0
  6
CONTINUOUS
 62
     7
 10
570.0110259763417
 20
145.3211200152469
 11
570.0110259763417
 21
159.65
  0
LINE
  8
0
  6
CONTINUOUS
 62
     7
 10
570.0110259763417
 20
145.3211200152469
 11
570.0110259763417
 21
143.8659616751095
  0
LINE
  8
0
  6
CONTINUOUS
 62
     7
 10
567.2110259763416
 20
144.9766794071782
 11
567.2110259763416
 21
145.3333843688043
  0
LINE
  8
0
  6
CONTINUOUS
 62
     7
 10
567.2110259763416
 20
145.3333849931441
 11
567.2110259763416
 21
159.637782617702
  0
LINE
  8
0
  6
CONTINUOUS
 62
     7
 10
570.0110259763417
 20
143.8659616751095
 11
570.0110259763417
 21
139.2395690889177
  0
LINE
  8
0
  6
CONTINUOUS
 62
     7
 10
567.2110259763416
 20
140.3536968929572
 11
567.2110259763416
 21
144.9766457627304
  0
LINE
  8
0
  6
CONTINUOUS
 62
     7
 10
550.0110259763417
 20
158.1692363828209
 11
550.0110259763417
 21
159.562732983586
  0
LINE
  8
0
  6
CONTINUOUS
 62
     7
 10
568.1240435001914
 20
139.2534151565097
 11
568.334481125288
 21
139.1646309852604
  0
LINE
  8
0
  6
CONTINUOUS
 62
     7
 10
570.0110259763417
 20
139.15
 11
568.3344811641304
 21
139.1646309849214
  0
LINE
  8
0
  6
CONTINUOUS
 62
     7
 10
570.0110259763417
 20
139.2395690889177
 11
570.0110259763417
 21
139.15
  0
LINE
  8
0
  6
CONTINUOUS
 62
     7
 10
567.2979703636547
 20
140.086728779626
 11
568.1240435120927
 21
139.2534151445039
  0
LINE
  8
0
  6
CONTINUOUS
 62
     7
 10
567.2110259763416
 20
140.2979331969627
 11
567.2332573383293
 21
140.1845992491063
  0
LINE
  8
0
  6
CONTINUOUS
 62
     7
 10
567.2110259763416
 20
140.2979331936945
 11
567.2110259763416
 21
140.3536968961277
  0
LINE
  8
0
  6
CONTINUOUS
 62
     7
 10
550.0110259763417
 20
159.65
 11
550.0110259763417
 21
159.562732983586
  0
LINE
  8
0
  6
CONTINUOUS
 62
     7
 10
566.741550246109
 20
156.1787143657581
 11
550.9499774368069
 21
157.1445683350721
  0
POLYLINE
  8
0
  6
CONTINUOUS
 62
     7
 66
     1
  0
VERTEX
  8
0
  6
CONTINUOUS
 62
     7
 10
567.2110259763416
 20
155.6796469665472
  0
VERTEX
  8
0
  6
CONTINUOUS
 62
     7
 10
567.2104696284507
 20
155.7032274323625
  0
VERTEX
  8
0
  6
CONTINUOUS
 62
     7
 10
567.2088018228693
 20
155.7267554224082
  0
VERTEX
  8
0
  6
CONTINUOUS
 62
     7
 10
567.2060262711185
 20
155.7501785776936
  0
VERTEX
  8
0
  6
CONTINUOUS
 62
     7
 10
567.2021491498872
 20
155.7734447725265
  0
VERTEX
  8
0
  6
CONTINUOUS
 62
     7
 10
567.1971790872886
 20
155.7965022305133
  0
VERTEX
  8
0
  6
CONTINUOUS
 62
     7
 10
567.191127143658
 20
155.8192996397814
  0
VERTEX
  8
0
  6
CONTINUOUS
 62
     7
 10
567.1840067869397
 20
155.8417862671686
  0
VERTEX
  8
0
  6
CONTINUOUS
 62
     7
 10
567.1758338627155
 20
155.8639120711239
  0
VERTEX
  8
0
  6
CONTINUOUS
 62
     7
 10
567.166626558942
 20
155.88562781307
  0
VERTEX
  8
0
  6
CONTINUOUS
 62
     7
 10
567.1564053654753
 20
155.9068851669778
  0
VERTEX
  8
0
  6
CONTINUOUS
 62
     7
 10
567.1451930284732
 20
155.9276368269113
  0
VERTEX
  8
0
  6
CONTINUOUS
 62
     7
 10
567.1330144997758
 20
155.9478366123016
  0
VERTEX
  8
0
  6
CONTINUOUS
 62
     7
 10
567.1198968813782
 20
155.9674395707166
  0
VERTEX
  8
0
  6
CONTINUOUS
 62
     7
 10
567.1058693651177
 20
155.9864020778981
  0
VERTEX
  8
0
  6
CONTINUOUS
 62
     7
 10
567.0909631677106
 20
156.0046819348425
  0
VERTEX
  8
0
  6
CONTINUOUS
 62
     7
 10
567.075211461283
 20
156.0222384617103
  0
VERTEX
  8
0
  6
CONTINUOUS
 62
     7
 10
567.0586492995492
 20
156.0390325883549
  0
VERTEX
  8
0
  6
CONTINUOUS
 62
     7
 10
567.0413135398046
 20
156.0550269412684
  0
VERTEX
  8
0
  6
CONTINUOUS
 62
     7
 10
567.0232427609025
 20
156.0701859267528
  0
VERTEX
  8
0
  6
CONTINUOUS
 62
     7
 10
567.0044771774018
 20
156.0844758101297
  0
VERTEX
  8
0
  6
CONTINUOUS
 62
     7
 10
566.9850585500737
 20
156.0978647908131
  0
VERTEX
  8
0
  6
CONTINUOUS
 62
     7
 10
566.9650300929678
 20
156.1103230730785
  0
VERTEX
  8
0
  6
CONTINUOUS
 62
     7
 10
566.9444363772435
 20
156.1218229323694
  0
VERTEX
  8
0
  6
CONTINUOUS
 62
     7
 10
566.9233232319821
 20
156.1323387769961
  0
VERTEX
  8
0
  6
CONTINUOUS
 62
     7
 10
566.9017376421988
 20
156.1418472050867
  0
VERTEX
  8
0
  6
CONTINUOUS
 62
     7
 10
566.8797276442831
 20
156.1503270566654
  0
VERTEX
  8
0
  6
CONTINUOUS
 62
     7
 10
566.8573422190987
 20
156.1577594607423
  0
VERTEX
  8
0
  6
CONTINUOUS
 62
     7
 10
566.8346311829821
 20
156.1641278773077
  0
VERTEX
  8
0
  6
CONTINUOUS
 62
     7
 10
566.8116450768812
 20
156.1694181341414
  0
VERTEX
  8
0
  6
CONTINUOUS
 62
     7
 10
566.7884350538827
 20
156.1736184583503
  0
VERTEX
  8
0
  6
CONTINUOUS
 62
     7
 10
566.7650527653763
 20
156.1767195025684
  0
VERTEX
  8
0
  6
CONTINUOUS
 62
     7
 10
566.741550246109
 20
156.1787143657581
  0
SEQEND
  8
0
  6
CONTINUOUS
 62
     7
  0
ARC
  8
0
  6
CONTINUOUS
 62
     7
 10
551.0110259763417
 20
158.142703133494
 40
0.9999999999999982
 50
180.0
 51
266.5
  0
LINE
  8
0
  6
CONTINUOUS
 62
     7
 10
550.0110259763417
 20
158.1692363828209
 11
550.0110259763417
 21
158.142703133494
  0
LINE
  8
0
  6
CONTINUOUS
 62
     7
 10
567.2979671077015
 20
239.9122754343813
 11
567.2331356037399
 21
239.8151019354459
  0
LINE
  8
0
  6
CONTINUOUS
 62
     7
 10
567.2332556811914
 20
140.1846033091335
 11
567.2979662560064
 21
140.0885516097981
  0
ENDBLK
  8
0
  0
BLOCK
  8
0
  2
D_FRAME_DRAWING_17
 70
     0
 10
0.0
 20
0.0
  0
LINE
  8
0
  6
CONTINUOUS
 62
     7
 10
0.0
 20
0.0
 11
210.0
 21
0.0
  0
LINE
  8
0
  6
CONTINUOUS
 62
     7
 10
210.0
 20
0.0
 11
210.0
 21
297.0
  0
LINE
  8
0
  6
CONTINUOUS
 62
     7
 10
210.0
 20
297.0
 11
0.0
 21
297.0
  0
LINE
  8
0
  6
CONTINUOUS
 62
     7
 10
0.0
 20
297.0
 11
0.0
 21
0.0
  0
ENDBLK
  8
0
  0
BLOCK
  8
0
  2
D_FRAME_VIEW_1288
 70
     0
 10
0.0
 20
0.0
  0
LINE
  8
0
  6
CONTINUOUS
 62
     7
 10
371.7445683350722
 20
159.65
 11
372.742703133494
 21
159.65
  0
LINE
  8
0
  6
CONTINUOUS
 62
     7
 10
458.2554316649279
 20
159.65
 11
457.257296866506
 21
159.65
  0
LINE
  8
0
  6
CONTINUOUS
 62
     7
 10
455.2500000000001
 20
159.65
 11
457.257296866506
 21
159.65
  0
LINE
  8
0
  6
CONTINUOUS
 62
     7
 10
455.2500000000001
 20
159.65
 11
455.2500000000001
 21
160.8044042463532
  0
LINE
  8
0
  6
CONTINUOUS
 62
     7
 10
455.2500000000001
 20
160.8044042463532
 11
455.2500000000001
 21
218.0953884621441
  0
ARC
  8
0
  6
CONTINUOUS
 62
     7
 10
454.2500000000001
 20
218.0953884621441
 40
0.9999999999999943
 50
0.0000000000000568
 51
76.75948008481289
  0
LINE
  8
0
  6
CONTINUOUS
 62
     7
 10
454.4790393337256
 20
219.0688056304777
 11
450.5914058497115
 21
219.9835429208339
  0
ARC
  8
0
  6
CONTINUOUS
 62
     7
 10
450.0188075153976
 20
217.55
 40
2.500000000000002
 50
76.75948008481284
 51
90.0
  0
LINE
  8
0
  6
CONTINUOUS
 62
     7
 10
450.0188075153976
 20
220.05
 11
379.9811924846025
 21
220.05
  0
ARC
  8
0
  6
CONTINUOUS
 62
     7
 10
379.9811924846025
 20
217.55
 40
2.500000000000002
 50
90.00000000000001
 51
103.2405199151872
  0
LINE
  8
0
  6
CONTINUOUS
 62
     7
 10
375.5209606662745
 20
219.0688056304777
 11
379.4085941502886
 21
219.9835429208339
  0
ARC
  8
0
  6
CONTINUOUS
 62
     7
 10
375.75
 20
218.0953884621441
 40
0.9999999999999943
 50
103.2405199151872
 51
180.0
  0
LINE
  8
0
  6
CONTINUOUS
 62
     7
 10
374.75
 20
159.65
 11
374.75
 21
160.8044042463532
  0
LINE
  8
0
  6
CONTINUOUS
 62
     7
 10
374.75
 20
160.8044042463532
 11
374.75
 21
218.0953884621441
  0
LINE
  8
0
  6
CONTINUOUS
 62
     7
 10
374.75
 20
159.65
 11
372.742703133494
 21
159.65
  0
LINE
  8
0
  6
CONTINUOUS
 62
     7
 10
458.2554316649279
 20
159.65
 11
459.2212856342419
 21
159.65
  0
LINE
  8
0
  6
CONTINUOUS
 62
     7
 10
371.7445683350722
 20
159.65
 11
370.7787143657582
 21
159.65
  0
LINE
  8
0
  6
CONTINUOUS
 62
     7
 10
370.7787143657581
 20
159.65
 11
370.2796469665472
 21
159.65
  0
LINE
  8
0
  6
CONTINUOUS
 62
     7
 10
459.221285634242
 20
159.65
 11
459.7203530334529
 21
159.65
  0
CIRCLE
  8
0
  6
CONTINUOUS
 62
     7
 10
415.0
 20
231.15
 40
0.5000000000000004
  0
LINE
  8
0
  6
CONTINUOUS
 62
     7
 10
366.75
 20
160.85
 11
366.75
 21
159.65
  0
ARC
  8
0
  6
CONTINUOUS
 62
     7
 10
366.25
 20
160.85
 40
0.5000000000000004
 50
0.0
 51
90.0
  0
LINE
  8
0
  6
CONTINUOUS
 62
     7
 10
359.25
 20
161.35
 11
366.25
 21
161.35
  0
ARC
  8
0
  6
CONTINUOUS
 62
     7
 10
359.25
 20
160.85
 40
0.4999999999999727
 50
90.00000000000001
 51
180.0
  0
LINE
  8
0
  6
CONTINUOUS
 62
     7
 10
358.75
 20
159.65
 11
358.75
 21
160.85
  0
LINE
  8
0
  6
CONTINUOUS
 62
     7
 10
471.2500000000001
 20
159.65
 11
471.2500000000001
 21
160.85
  0
ARC
  8
0
  6
CONTINUOUS
 62
     7
 10
470.7500000000001
 20
160.85
 40
0.5000000000000004
 50
0.0
 51
90.0
  0
LINE
  8
0
  6
CONTINUOUS
 62
     7
 10
470.7500000000001
 20
161.35
 11
463.7500000000001
 21
161.35
  0
ARC
  8
0
  6
CONTINUOUS
 62
     7
 10
463.7500000000001
 20
160.85
 40
0.5000000000000004
 50
90.0
 51
180.0
  0
LINE
  8
0
  6
CONTINUOUS
 62
     7
 10
463.2500000000001
 20
160.85
 11
463.2500000000001
 21
159.65
  0
CIRCLE
  8
0
  6
CONTINUOUS
 62
     7
 10
441.0
 20
231.15
 40
0.5000000000000004
  0
CIRCLE
  8
0
  6
CONTINUOUS
 62
     7
 10
467.0
 20
209.65
 40
0.5000000000000004
  0
CIRCLE
  8
0
  6
CONTINUOUS
 62
     7
 10
467.0
 20
189.65
 40
0.5000000000000004
  0
CIRCLE
  8
0
  6
CONTINUOUS
 62
     7
 10
467.0
 20
169.65
 40
0.5000000000000004
  0
CIRCLE
  8
0
  6
CONTINUOUS
 62
     7
 10
389.0
 20
231.15
 40
0.5000000000000004
  0
CIRCLE
  8
0
  6
CONTINUOUS
 62
     7
 10
363.0000000000001
 20
209.65
 40
0.5000000000000004
  0
CIRCLE
  8
0
  6
CONTINUOUS
 62
     7
 10
363.0000000000001
 20
189.65
 40
0.5000000000000004
  0
CIRCLE
  8
0
  6
CONTINUOUS
 62
     7
 10
363.0000000000001
 20
169.65
 40
0.5000000000000004
  0
LINE
  8
0
  6
CONTINUOUS
 62
     7
 10
459.7203530334529
 20
159.65
 11
463.2500000000001
 21
159.65
  0
LINE
  8
0
  6
CONTINUOUS
 62
     7
 10
471.2500000000001
 20
159.65
 11
475.1020668030373
 21
159.65
  0
LINE
  8
0
  6
CONTINUOUS
 62
     7
 10
358.75
 20
159.65
 11
354.8979331969628
 21
159.65
  0
LINE
  8
0
  6
CONTINUOUS
 62
     7
 10
370.2796469665472
 20
159.65
 11
366.75
 21
159.65
  0
LINE
  8
0
  6
CONTINUOUS
 62
     7
 10
354.686728779626
 20
159.65
 11
354.8979331969628
 21
159.65
  0
LINE
  8
0
  6
CONTINUOUS
 62
     7
 10
475.313271220374
 20
159.65
 11
475.1020668030373
 21
159.65
  0
LINE
  8
0
  6
CONTINUOUS
 62
     7
 10
476.1465848554961
 20
159.65
 11
475.313271220374
 21
159.65
  0
LINE
  8
0
  6
CONTINUOUS
 62
     7
 10
353.853415144504
 20
159.65
 11
354.686728779626
 21
159.65
  0
LINE
  8
0
  6
CONTINUOUS
 62
     7
 10
353.7646309849215
 20
159.65
 11
353.853415144504
 21
159.65
  0
LINE
  8
0
  6
CONTINUOUS
 62
     7
 10
476.2353690150786
 20
159.65
 11
476.1465848554961
 21
159.65
  0
POLYLINE
  8
0
  6
CONTINUOUS
 62
     7
 66
     1
  0
VERTEX
  8
0
  6
CONTINUOUS
 62
     7
 10
476.2500000000001
 20
234.6788799847531
  0
VERTEX
  8
0
  6
CONTINUOUS
 62
     7
 10
476.2231767253037
 20
234.961280636545
  0
VERTEX
  8
0
  6
CONTINUOUS
 62
     7
 10
476.1436661821074
 20
235.2335786028488
  0
VERTEX
  8
0
  6
CONTINUOUS
 62
     7
 10
476.0143119063223
 20
235.4860356902801
  0
VERTEX
  8
0
  6
CONTINUOUS
 62
     7
 10
475.839739995491
 20
235.7096232748938
  0
VERTEX
  8
0
  6
CONTINUOUS
 62
     7
 10
475.6261936656397
 20
235.8963451929034
  0
VERTEX
  8
0
  6
CONTINUOUS
 62
     7
 10
475.3813099751163
 20
236.0395237075215
  0
VERTEX
  8
0
  6
CONTINUOUS
 62
     7
 10
475.1138467004382
 20
236.1340383248905
  0
SEQEND
  8
0
  6
CONTINUOUS
 62
     7
  0
POLYLINE
  8
0
  6
CONTINUOUS
 62
     7
 66
     1
  0
VERTEX
  8
0
  6
CONTINUOUS
 62
     7
 10
354.8861532995619
 20
236.1340383248904
  0
VERTEX
  8
0
  6
CONTINUOUS
 62
     7
 10
354.6186900248838
 20
236.0395237075214
  0
VERTEX
  8
0
  6
CONTINUOUS
 62
     7
 10
354.3738063343604
 20
235.8963451929034
  0
VERTEX
  8
0
  6
CONTINUOUS
 62
     7
 10
354.1602600045091
 20
235.7096232748938
  0
VERTEX
  8
0
  6
CONTINUOUS
 62
     7
 10
353.9856880936778
 20
235.48603569028
  0
VERTEX
  8
0
  6
CONTINUOUS
 62
     7
 10
353.8563338178927
 20
235.2335786028488
  0
VERTEX
  8
0
  6
CONTINUOUS
 62
     7
 10
353.7768232746963
 20
234.961280636545
  0
VERTEX
  8
0
  6
CONTINUOUS
 62
     7
 10
353.75
 20
234.6788799847531
  0
SEQEND
  8
0
  6
CONTINUOUS
 62
     7
  0
LINE
  8
0
  6
CONTINUOUS
 62
     7
 10
456.6082763556707
 20
240.7604309110824
 11
475.1138467004381
 21
236.1340383248905
  0
LINE
  8
0
  6
CONTINUOUS
 62
     7
 10
373.3917236443293
 20
240.7604309110823
 11
354.8861532995619
 21
236.1340383248905
  0
LINE
  8
0
  6
CONTINUOUS
 62
     7
 10
353.75
 20
159.65
 11
353.75
 21
234.678879984753
  0
LINE
  8
0
  6
CONTINUOUS
 62
     7
 10
353.7646309849215
 20
159.65
 11
353.75
 21
159.65
  0
LINE
  8
0
  6
CONTINUOUS
 62
     7
 10
476.2500000000001
 20
159.65
 11
476.25
 21
234.6788799847531
  0
LINE
  8
0
  6
CONTINUOUS
 62
     7
 10
476.2353690150786
 20
159.65
 11
476.2500000000001
 21
159.65
  0
LINE
  8
0
  6
CONTINUOUS
 62
     7
 10
456.6082763556707
 20
240.7604309110823
 11
455.880697185602
 21
240.85
  0
LINE
  8
0
  6
CONTINUOUS
 62
     7
 10
374.1193028143981
 20
240.85
 11
373.3917236443294
 21
240.7604309110823
  0
LINE
  8
0
  6
CONTINUOUS
 62
     7
 10
455.8806971856019
 20
240.85
 11
374.1193028143981
 21
240.85
  0
LINE
  8
0
  6
CONTINUOUS
 62
     7
 10
463.2500000000001
 20
159.65
 11
463.3491273132209
 21
159.65
  0
LINE
  8
0
  6
CONTINUOUS
 62
     7
 10
471.1508726867791
 20
159.65
 11
471.2500000000001
 21
159.65
  0
LINE
  8
0
  6
CONTINUOUS
 62
     7
 10
366.75
 20
159.65
 11
366.6508726867791
 21
159.65
  0
LINE
  8
0
  6
CONTINUOUS
 62
     7
 10
358.8491273132209
 20
159.65
 11
358.75
 21
159.65
  0
LINE
  8
0
  6
CONTINUOUS
 62
     7
 10
379.2043271159494
 20
159.7563272778945
 11
380.1204495663875
 21
159.6499999999999
  0
LINE
  8
0
  6
CONTINUOUS
 62
     7
 10
449.8795504336126
 20
159.65
 11
380.1204495663875
 21
159.65
  0
LINE
  8
0
  6
CONTINUOUS
 62
     7
 10
379.2043271159494
 20
159.7563272778946
 11
374.75
 21
160.8044042463532
  0
LINE
  8
0
  6
CONTINUOUS
 62
     7
 10
450.7956728840507
 20
159.7563272778946
 11
455.2500000000001
 21
160.8044042463532
  0
LINE
  8
0
  6
CONTINUOUS
 62
     7
 10
449.8795504336126
 20
159.65
 11
450.7956728840507
 21
159.7563272778946
  0
CIRCLE
  8
0
  6
CONTINUOUS
 62
     7
 10
390.0000000000001
 20
148.65
 40
0.5000000000000004
  0
CIRCLE
  8
0
  6
CONTINUOUS
 62
     7
 10
415.0
 20
148.65
 40
0.5000000000000004
  0
CIRCLE
  8
0
  6
CONTINUOUS
 62
     7
 10
440.0000000000001
 20
148.65
 40
0.5000000000000004
  0
LINE
  8
0
  6
CONTINUOUS
 62
     7
 10
366.65
 20
160.85
 11
366.65
 21
159.65
  0
LINE
  8
0
  6
CONTINUOUS
 62
     7
 10
366.65
 20
159.65
 11
366.6508726867791
 21
159.65
  0
LINE
  8
0
  6
CONTINUOUS
 62
     7
 10
463.35
 20
159.65
 11
463.3491273132209
 21
159.65
  0
LINE
  8
0
  6
CONTINUOUS
 62
     7
 10
463.35
 20
160.85
 11
463.35
 21
159.65
  0
LINE
  8
0
  6
CONTINUOUS
 62
     7
 10
358.85
 20
159.65
 11
358.8491273132209
 21
159.65
  0
LINE
  8
0
  6
CONTINUOUS
 62
     7
 10
358.85
 20
159.65
 11
358.85
 21
160.85
  0
LINE
  8
0
  6
CONTINUOUS
 62
     7
 10
471.15
 20
159.65
 11
471.1508726867791
 21
159.65
  0
LINE
  8
0
  6
CONTINUOUS
 62
     7
 10
471.15
 20
159.65
 11
471.15
 21
160.85
  0
ARC
  8
0
  6
CONTINUOUS
 62
     7
 10
366.25
 20
160.85
 40
0.4000000000000115
 50
0.0
 51
90.00000000000006
  0
LINE
  8
0
  6
CONTINUOUS
 62
     7
 10
359.25
 20
161.25
 11
366.25
 21
161.25
  0
ARC
  8
0
  6
CONTINUOUS
 62
     7
 10
359.25
 20
160.85
 40
0.3999999999999837
 50
90.00000000000001
 51
180.0
  0
ARC
  8
0
  6
CONTINUOUS
 62
     7
 10
463.7500000000001
 20
160.85
 40
0.4000000000000115
 50
90.0
 51
180.0
  0
LINE
  8
0
  6
CONTINUOUS
 62
     7
 10
470.7500000000001
 20
161.25
 11
463.7500000000001
 21
161.25
  0
ARC
  8
0
  6
CONTINUOUS
 62
     7
 10
470.7500000000001
 20
160.85
 40
0.4000000000000115
 50
0.0
 51
90.0
  0
POLYLINE
  8
0
  6
CONTINUOUS
 62
     7
 66
     1
  0
VERTEX
  8
0
  6
CONTINUOUS
 62
     7
 10
475.1138467004382
 20
143.8659616751095
  0
VERTEX
  8
0
  6
CONTINUOUS
 62
     7
 10
475.3813099751162
 20
143.9604762924785
  0
VERTEX
  8
0
  6
CONTINUOUS
 62
     7
 10
475.6261936656396
 20
144.1036548070966
  0
VERTEX
  8
0
  6
CONTINUOUS
 62
     7
 10
475.839739995491
 20
144.2903767251062
  0
VERTEX
  8
0
  6
CONTINUOUS
 62
     7
 10
476.0143119063223
 20
144.51396430972
  0
VERTEX
  8
0
  6
CONTINUOUS
 62
     7
 10
476.1436661821073
 20
144.7664213971512
  0
VERTEX
  8
0
  6
CONTINUOUS
 62
     7
 10
476.2231767253037
 20
145.038719363455
  0
VERTEX
  8
0
  6
CONTINUOUS
 62
     7
 10
476.2500000000001
 20
145.3211200152469
  0
SEQEND
  8
0
  6
CONTINUOUS
 62
     7
  0
LINE
  8
0
  6
CONTINUOUS
 62
     7
 10
354.886153299562
 20
143.8659616751095
 11
373.3917236443293
 21
139.2395690889176
  0
POLYLINE
  8
0
  6
CONTINUOUS
 62
     7
 66
     1
  0
VERTEX
  8
0
  6
CONTINUOUS
 62
     7
 10
353.75
 20
145.3211200152469
  0
VERTEX
  8
0
  6
CONTINUOUS
 62
     7
 10
353.7768232746963
 20
145.038719363455
  0
VERTEX
  8
0
  6
CONTINUOUS
 62
     7
 10
353.8563338178927
 20
144.7664213971512
  0
VERTEX
  8
0
  6
CONTINUOUS
 62
     7
 10
353.9856880936778
 20
144.5139643097199
  0
VERTEX
  8
0
  6
CONTINUOUS
 62
     7
 10
354.1602600045091
 20
144.2903767251062
  0
VERTEX
  8
0
  6
CONTINUOUS
 62
     7
 10
354.3738063343604
 20
144.1036548070966
  0
VERTEX
  8
0
  6
CONTINUOUS
 62
     7
 10
354.6186900248838
 20
143.9604762924785
  0
VERTEX
  8
0
  6
CONTINUOUS
 62
     7
 10
354.8861532995619
 20
143.8659616751095
  0
SEQEND
  8
0
  6
CONTINUOUS
 62
     7
  0
LINE
  8
0
  6
CONTINUOUS
 62
     7
 10
475.1138467004381
 20
143.8659616751095
 11
456.6082763556707
 21
139.2395690889177
  0
LINE
  8
0
  6
CONTINUOUS
 62
     7
 10
476.2500000000001
 20
145.3211200152469
 11
476.2500000000001
 21
159.65
  0
LINE
  8
0
  6
CONTINUOUS
 62
     7
 10
353.7500000000001
 20
145.3211200152469
 11
353.75
 21
159.65
  0
LINE
  8
0
  6
CONTINUOUS
 62
     7
 10
455.8806971856021
 20
139.15
 11
456.6082763556707
 21
139.2395690889177
  0
LINE
  8
0
  6
CONTINUOUS
 62
     7
 10
373.3917236443294
 20
139.2395690889177
 11
374.1193028143981
 21
139.15
  0
LINE
  8
0
  6
CONTINUOUS
 62
     7
 10
374.1193028143981
 20
139.15
 11
455.880697185602
 21
139.15
  0
ENDBLK
  8
0
  0
ENDSEC
  0
SECTION
  2
ENTITIES
  0
INSERT
  8
0
  6
CENTER
 62
     7
  2
D_FRAME_VIEW_1825
 10
0.0
 20
0.0
 30
0.0
  0
INSERT
  8
0
  6
CENTER
 62
     7
  2
D_FRAME_VIEW_1966
 10
0.0
 20
0.0
 30
0.0
  0
INSERT
  8
0
 62
     7
  2
D_FRAME_DRAWING_17
 10
0.0
 20
0.0
 30
0.0
  0
LINE
  8
0
  6
CENTER
 62
     1
 10
415.0
 20
136.1499999999999
 11
415.0
 21
243.85
  0
LINE
  8
0
  6
CENTER
 62
     1
 10
415.0
 20
66.98897402365843
 11
415.0
 21
92.98897402365844
  0
INSERT
  8
0
  6
CENTER
 62
     7
  2
D_FRAME_VIEW_1288
 10
0.0
 20
0.0
 30
0.0
  0
TEXT
  8
0
  6
CONTINUOUS
 62
     7
 10
528.846392397149
 20
75.54245342003252
 40
8.0
  1
MIDK-80
  0
ENDSEC
  0
EOF
