  0
SECTION
  2
HEADER
  9
$ACADVER
  1
AC1014
  9
$ACADMAINTVER
 70
     9
  9
$DWGCODEPAGE
  3
ANSI_932
  9
$INSBASE
 10
0.0
 20
0.0
 30
0.0
  9
$EXTMIN
 10
14.19999999999998
 20
12.99249718644493
 30
0.0
  9
$EXTMAX
 10
237.8004140735197
 20
190.8004140735197
 30
0.0
  9
$LIMMIN
 10
0.0
 20
0.0
  9
$LIMMAX
 10
12.0
 20
9.0
  9
$ORTHOMODE
 70
     0
  9
$REGENMODE
 70
     1
  9
$FILLMODE
 70
     1
  9
$QTEXTMODE
 70
     0
  9
$MIRRTEXT
 70
     1
  9
$DRAGMODE
 70
     2
  9
$LTSCALE
 40
1.0
  9
$OSMODE
 70
    37
  9
$ATTMODE
 70
     1
  9
$TEXTSIZE
 40
0.2
  9
$TRACEWID
 40
0.05
  9
$TEXTSTYLE
  7
STANDARD
  9
$CLAYER
  8
0
  9
$CELTYPE
  6
BYLAYER
  9
$CECOLOR
 62
   256
  9
$CELTSCALE
 40
1.0
  9
$DELOBJ
 70
     1
  9
$DISPSILH
 70
     0
  9
$DIMSCALE
 40
1.0
  9
$DIMASZ
 40
3.0
  9
$DIMEXO
 40
0.0625
  9
$DIMDLI
 40
0.38
  9
$DIMRND
 40
0.0
  9
$DIMDLE
 40
0.0
  9
$DIMEXE
 40
1.5
  9
$DIMTP
 40
0.0
  9
$DIMTM
 40
0.0
  9
$DIMTXT
 40
3.0
  9
$DIMCEN
 40
0.09
  9
$DIMTSZ
 40
0.0
  9
$DIMTOL
 70
     0
  9
$DIMLIM
 70
     0
  9
$DIMTIH
 70
     1
  9
$DIMTOH
 70
     1
  9
$DIMSE1
 70
     0
  9
$DIMSE2
 70
     0
  9
$DIMTAD
 70
     1
  9
$DIMZIN
 70
     0
  9
$DIMBLK
  1

  9
$DIMASO
 70
     1
  9
$DIMSHO
 70
     1
  9
$DIMPOST
  1

  9
$DIMAPOST
  1

  9
$DIMALT
 70
     0
  9
$DIMALTD
 70
     2
  9
$DIMALTF
 40
25.4
  9
$DIMLFAC
 40
1.0
  9
$DIMTOFL
 70
     0
  9
$DIMTVP
 40
0.0
  9
$DIMTIX
 70
     0
  9
$DIMSOXD
 70
     0
  9
$DIMSAH
 70
     0
  9
$DIMBLK1
  1

  9
$DIMBLK2
  1

  9
$DIMSTYLE
  2
STANDARD
  9
$DIMCLRD
 70
     0
  9
$DIMCLRE
 70
     0
  9
$DIMCLRT
 70
     0
  9
$DIMTFAC
 40
1.0
  9
$DIMGAP
 40
1.5
  9
$DIMJUST
 70
     0
  9
$DIMSD1
 70
     0
  9
$DIMSD2
 70
     0
  9
$DIMTOLJ
 70
     1
  9
$DIMTZIN
 70
     0
  9
$DIMALTZ
 70
     0
  9
$DIMALTTZ
 70
     0
  9
$DIMFIT
 70
     3
  9
$DIMUPT
 70
     0
  9
$DIMUNIT
 70
     2
  9
$DIMDEC
 70
     2
  9
$DIMTDEC
 70
     4
  9
$DIMALTU
 70
     2
  9
$DIMALTTD
 70
     2
  9
$DIMTXSTY
  7
ＭＳ_ゴシック
  9
$DIMAUNIT
 70
     0
  9
$LUNITS
 70
     2
  9
$LUPREC
 70
     4
  9
$SKETCHINC
 40
0.1
  9
$FILLETRAD
 40
0.5
  9
$AUNITS
 70
     0
  9
$AUPREC
 70
     0
  9
$MENU
  1
.
  9
$ELEVATION
 40
0.0
  9
$PELEVATION
 40
0.0
  9
$THICKNESS
 40
0.0
  9
$LIMCHECK
 70
     0
  9
$CHAMFERA
 40
0.0
  9
$CHAMFERB
 40
0.0
  9
$CHAMFERC
 40
0.0
  9
$CHAMFERD
 40
0.0
  9
$SKPOLY
 70
     0
  9
$TDCREATE
 40
2459277.744327546
  9
$TDUPDATE
 40
2459277.744327731
  9
$TDINDWG
 40
0.0000000116
  9
$TDUSRTIMER
 40
0.0000000116
  9
$USRTIMER
 70
     1
  9
$ANGBASE
 50
0.0
  9
$ANGDIR
 70
     0
  9
$PDMODE
 70
     0
  9
$PDSIZE
 40
0.0
  9
$PLINEWID
 40
0.0
  9
$COORDS
 70
     1
  9
$SPLFRAME
 70
     0
  9
$SPLINETYPE
 70
     6
  9
$SPLINESEGS
 70
     8
  9
$ATTDIA
 70
     0
  9
$ATTREQ
 70
     1
  9
$HANDLING
 70
     1
  9
$HANDSEED
  5
232
  9
$SURFTAB1
 70
     6
  9
$SURFTAB2
 70
     6
  9
$SURFTYPE
 70
     6
  9
$SURFU
 70
     6
  9
$SURFV
 70
     6
  9
$UCSNAME
  2

  9
$UCSORG
 10
0.0
 20
0.0
 30
0.0
  9
$UCSXDIR
 10
1.0
 20
0.0
 30
0.0
  9
$UCSYDIR
 10
0.0
 20
1.0
 30
0.0
  9
$PUCSNAME
  2

  9
$PUCSORG
 10
0.0
 20
0.0
 30
0.0
  9
$PUCSXDIR
 10
1.0
 20
0.0
 30
0.0
  9
$PUCSYDIR
 10
0.0
 20
1.0
 30
0.0
  9
$USERI1
 70
     0
  9
$USERI2
 70
     0
  9
$USERI3
 70
     0
  9
$USERI4
 70
     0
  9
$USERI5
 70
     0
  9
$USERR1
 40
0.0
  9
$USERR2
 40
0.0
  9
$USERR3
 40
0.0
  9
$USERR4
 40
0.0
  9
$USERR5
 40
0.0
  9
$WORLDVIEW
 70
     1
  9
$SHADEDGE
 70
     3
  9
$SHADEDIF
 70
    70
  9
$TILEMODE
 70
     1
  9
$MAXACTVP
 70
    64
  9
$PINSBASE
 10
0.0
 20
0.0
 30
0.0
  9
$PLIMCHECK
 70
     0
  9
$PEXTMIN
 10
1.000000000000000E+20
 20
1.000000000000000E+20
 30
1.000000000000000E+20
  9
$PEXTMAX
 10
-1.000000000000000E+20
 20
-1.000000000000000E+20
 30
-1.000000000000000E+20
  9
$PLIMMIN
 10
0.0
 20
0.0
  9
$PLIMMAX
 10
12.0
 20
9.0
  9
$UNITMODE
 70
     0
  9
$VISRETAIN
 70
     1
  9
$PLINEGEN
 70
     0
  9
$PSLTSCALE
 70
     1
  9
$TREEDEPTH
 70
  3020
  9
$PICKSTYLE
 70
     1
  9
$CMLSTYLE
  2
STANDARD
  9
$CMLJUST
 70
     0
  9
$CMLSCALE
 40
1.0
  9
$PROXYGRAPHICS
 70
     1
  9
$MEASUREMENT
 70
     1
  0
ENDSEC
  0
SECTION
  2
CLASSES
  0
CLASS
  1
ACDBDICTIONARYWDFLT
  2
AcDbDictionaryWithDefault
  3
ObjectDBX Classes
 90
        0
280
     0
281
     0
  0
CLASS
  1
VISUALSTYLE
  2
AcDbVisualStyle
  3
ObjectDBX Classes
 90
     4095
280
     0
281
     0
  0
CLASS
  1
MATERIAL
  2
AcDbMaterial
  3
ObjectDBX Classes
 90
     1153
280
     0
281
     0
  0
CLASS
  1
SCALE
  2
AcDbScale
  3
ObjectDBX Classes
 90
     1153
280
     0
281
     0
  0
CLASS
  1
TABLESTYLE
  2
AcDbTableStyle
  3
ObjectDBX Classes
 90
     4095
280
     0
281
     0
  0
CLASS
  1
MLEADERSTYLE
  2
AcDbMLeaderStyle
  3
ACDB_MLEADERSTYLE_CLASS
 90
     4095
280
     0
281
     0
  0
CLASS
  1
SUN
  2
AcDbSun
  3
SCENEOE
 90
     1153
280
     0
281
     0
  0
CLASS
  1
DICTIONARYVAR
  2
AcDbDictionaryVar
  3
ObjectDBX Classes
 90
        0
280
     0
281
     0
  0
CLASS
  1
XRECORD
  2
AcDbXrecord
  3
ObjectDBX Classes
 90
        0
280
     0
281
     0
  0
CLASS
  1
LWPOLYLINE
  2
AcDbPolyline
  3
ObjectDBX Classes
 90
        0
280
     0
281
     1
  0
CLASS
  1
HATCH
  2
AcDbHatch
  3
ObjectDBX Classes
 90
        0
280
     0
281
     1
  0
CLASS
  1
ACDBPLACEHOLDER
  2
AcDbPlaceHolder
  3
ObjectDBX Classes
 90
        0
280
     0
281
     0
  0
CLASS
  1
LAYOUT
  2
AcDbLayout
  3
ObjectDBX Classes
 90
        0
280
     0
281
     0
  0
ENDSEC
  0
SECTION
  2
TABLES
  0
TABLE
  2
VPORT
  5
8
102
{ACAD_XDICTIONARY
360
227
102
}
330
0
100
AcDbSymbolTable
 70
     1
  0
VPORT
  5
29
330
8
100
AcDbSymbolTableRecord
100
AcDbViewportTableRecord
  2
*ACTIVE
 70
     0
 10
0.0
 20
0.0
 11
1.0
 21
1.0
 12
126.0002070367598
 22
101.8964556299823
 13
0.0
 23
0.0
 14
0.5
 24
0.5
 15
0.5
 25
0.5
 16
0.0
 26
0.0
 36
1.0
 17
0.0
 27
0.0
 37
0.0
 40
177.8079168870748
 41
1.6
 42
50.0
 43
0.0
 44
0.0
 50
0.0
 51
0.0
 71
     0
 72
   100
 73
     1
 74
     3
 75
     0
 76
     0
 77
     0
 78
     0
  0
ENDTAB
  0
TABLE
  2
LTYPE
  5
5
330
0
100
AcDbSymbolTable
 70
     2
  0
LTYPE
  5
14
330
5
100
AcDbSymbolTableRecord
100
AcDbLinetypeTableRecord
  2
BYBLOCK
 70
     0
  3

 72
    65
 73
     0
 40
0.0
  0
LTYPE
  5
15
330
5
100
AcDbSymbolTableRecord
100
AcDbLinetypeTableRecord
  2
BYLAYER
 70
     0
  3

 72
    65
 73
     0
 40
0.0
  0
LTYPE
  5
16
330
5
100
AcDbSymbolTableRecord
100
AcDbLinetypeTableRecord
  2
CONTINUOUS
 70
     0
  3
Solid line
 72
    65
 73
     0
 40
0.0
  0
LTYPE
  5
B0
330
5
100
AcDbSymbolTableRecord
100
AcDbLinetypeTableRecord
  2
CENTER
 70
     0
  3

 72
    65
 73
     0
 40
0.0
  0
ENDTAB
  0
TABLE
  2
LAYER
  5
2
330
0
100
AcDbSymbolTable
 70
     2
  0
LAYER
  5
10
330
2
100
AcDbSymbolTableRecord
100
AcDbLayerTableRecord
  2
0
 70
     0
 62
     7
  6
CONTINUOUS
  0
LAYER
  5
6E
330
2
100
AcDbSymbolTableRecord
100
AcDbLayerTableRecord
  2
1
 70
     0
 62
     7
  6
CONTINUOUS
  0
ENDTAB
  0
TABLE
  2
STYLE
  5
3
330
0
100
AcDbSymbolTable
 70
     2
  0
STYLE
  5
11
330
3
100
AcDbSymbolTableRecord
100
AcDbTextStyleTableRecord
  2
STANDARD
 70
     0
 40
0.0
 41
1.0
 50
0.0
 71
     0
 42
0.2
  3
txt
  4

  0
STYLE
  5
6F
330
3
100
AcDbSymbolTableRecord
100
AcDbTextStyleTableRecord
  2
ＭＳ_ゴシック
 70
     0
 40
0.0
 41
1.0
 50
0.0
 71
     0
 42
0.2
  3
ＭＳ ゴシック.shx
  4

  0
ENDTAB
  0
TABLE
  2
VIEW
  5
6
330
0
100
AcDbSymbolTable
 70
     0
  0
ENDTAB
  0
TABLE
  2
UCS
  5
7
330
0
100
AcDbSymbolTable
 70
     0
  0
ENDTAB
  0
TABLE
  2
APPID
  5
9
330
0
100
AcDbSymbolTable
 70
     2
  0
APPID
  5
12
330
9
100
AcDbSymbolTableRecord
100
AcDbRegAppTableRecord
  2
ACAD
 70
     0
  0
APPID
  5
231
330
9
100
AcDbSymbolTableRecord
100
AcDbRegAppTableRecord
  2
ACAD_MLEADERVER
 70
     0
  0
ENDTAB
  0
TABLE
  2
DIMSTYLE
  5
A
330
0
100
AcDbSymbolTable
 70
     1
  0
DIMSTYLE
105
27
330
A
100
AcDbSymbolTableRecord
100
AcDbDimStyleTableRecord
  2
STANDARD
 70
     0
  3

  4

  5

  6

  7

 40
1.0
 41
0.18
 42
0.0625
 43
0.38
 44
0.18
 45
0.0
 46
0.0
 47
0.0
 48
0.0
140
0.18
141
0.09
142
0.0
143
25.4
144
1.0
145
0.0
146
1.0
147
0.09
 71
     0
 72
     0
 73
     1
 74
     1
 75
     0
 76
     0
 77
     0
 78
     0
170
     0
171
     2
172
     0
173
     0
174
     0
175
     0
176
     0
177
     0
178
     0
270
     2
271
     4
272
     4
273
     2
274
     2
340
11
275
     0
280
     0
281
     0
282
     0
283
     1
284
     0
285
     0
286
     0
287
     3
288
     0
  0
ENDTAB
  0
TABLE
  2
BLOCK_RECORD
  5
1
330
0
100
AcDbSymbolTable
 70
     0
  0
BLOCK_RECORD
  5
1F
330
1
100
AcDbSymbolTableRecord
100
AcDbBlockTableRecord
  2
*MODEL_SPACE
  0
BLOCK_RECORD
  5
1B
330
1
100
AcDbSymbolTableRecord
100
AcDbBlockTableRecord
  2
*PAPER_SPACE
  0
ENDTAB
  0
ENDSEC
  0
SECTION
  2
BLOCKS
  0
BLOCK
  5
20
330
1F
100
AcDbEntity
  8
0
100
AcDbBlockBegin
  2
*MODEL_SPACE
 70
     0
 10
0.0
 20
0.0
 30
0.0
  3
*MODEL_SPACE
  1

  0
ENDBLK
  5
21
330
1F
100
AcDbEntity
  8
0
100
AcDbBlockEnd
  0
BLOCK
  5
1C
330
1B
100
AcDbEntity
 67
     1
  8
0
100
AcDbBlockBegin
  2
*PAPER_SPACE
 70
     0
 10
0.0
 20
0.0
 30
0.0
  3
*PAPER_SPACE
  1

  0
ENDBLK
  5
1D
330
1B
100
AcDbEntity
 67
     1
  8
0
100
AcDbBlockEnd
  0
ENDSEC
  0
SECTION
  2
ENTITIES
  0
MTEXT
  5
70
330
1F
100
AcDbEntity
  8
1
 62
     7
100
AcDbMText
 10
46.02507190196322
 20
21.85613355008129
 30
0.0
 40
10.0
 41
0.0
 71
     1
 72
     1
  1
{\fＭＳ ゴシック;MIDM-40}
  0
LWPOLYLINE
  5
71
330
1F
100
AcDbEntity
  8
1
  6
CONTINUOUS
 62
     7
100
AcDbPolyline
 90
       26
 70
     0
 43
0.0
 10
97.52547884418513
 20
41.17072372064875
 10
97.52565096768983
 20
41.21410653935646
 10
97.52373121366661
 20
41.25801288151199
 10
97.51963345746714
 20
41.30232020309223
 10
97.51328086872162
 20
41.34689544684949
 10
97.5046075166788
 20
41.39159576048871
 10
97.49355993045067
 20
41.43626945142216
 10
97.48009857086886
 20
41.48075717879322
 10
97.46419916867038
 20
41.5248933756226
 10
97.44585388345772
 20
41.56850788543026
 10
97.42507223956027
 20
41.61142778889853
 10
97.4018817987066
 20
41.65347938751454
 10
97.37632853532452
 20
41.69449030315704
 10
97.34847688819656
 20
41.73429164577924
 10
97.31840947184683
 20
41.77272019616468
 10
97.28622644200907
 20
41.80962054760663
 10
97.25204452130043
 20
41.84484714958206
 10
97.21599570317888
 20
41.87826619821874
 10
97.17822566373756
 20
41.909757322583
 10
97.14460051559328
 20
41.93513484560786
 10
97.10993138025393
 20
41.95896105765821
 10
97.07432755323813
 20
41.98118791085523
 10
97.03790155924041
 20
42.00177668732956
 10
97.00076808258201
 20
42.02069814094546
 10
96.96304289953694
 20
42.0379325097276
 10
96.92484183208039
 20
42.05346940341703
  0
LWPOLYLINE
  5
72
330
1F
100
AcDbEntity
  8
1
  6
CONTINUOUS
 62
     7
100
AcDbPolyline
 90
       26
 70
     0
 43
0.0
 10
83.47515816790249
 20
42.0534694034105
 10
83.43695710044668
 20
42.03793250972056
 10
83.39923191740245
 20
42.02069814093798
 10
83.3620984407449
 20
42.00177668732168
 10
83.32567244674804
 20
41.98118791084703
 10
83.29006861973315
 20
41.95896105764974
 10
83.2553994843947
 20
41.93513484559919
 10
83.2217743362513
 20
41.90975732257421
 10
83.18400429681103
 20
41.87826619820989
 10
83.14795547869049
 20
41.84484714957323
 10
83.11377355798294
 20
41.80962054759793
 10
83.08159052814612
 20
41.77272019615619
 10
83.05152311179731
 20
41.73429164577102
 10
83.02367146467027
 20
41.6944903031492
 10
82.99811820128896
 20
41.65347938750713
 10
82.97492776043607
 20
41.61142778889163
 10
82.95414611653933
 20
41.56850788542393
 10
82.93580083132731
 20
41.52489337561686
 10
82.91990142912935
 20
41.48075717878813
 10
82.90644006954805
 20
41.43626945141776
 10
82.89539248332031
 20
41.39159576048501
 10
82.88671913127779
 20
41.34689544684651
 10
82.88036654253256
 20
41.30232020308997
 10
82.8762687863332
 20
41.25801288151046
 10
82.8743490323101
 20
41.21410653935564
 10
82.87452115581483
 20
41.17072372064865
  0
LWPOLYLINE
  5
73
330
1F
100
AcDbEntity
  8
1
  6
CONTINUOUS
 62
     7
100
AcDbPolyline
 90
       33
 70
     0
 43
0.0
 10
101.5890735392607
 20
63.62381760905501
 10
101.5883513387735
 20
63.64820912919321
 10
101.5867886496168
 20
63.67253214393606
 10
101.5843891947407
 20
63.69672870614291
 10
101.5811586906053
 20
63.72074116993348
 10
101.5771048335627
 20
63.74451232802353
 10
101.5722372815201
 20
63.76798554801541
 10
101.5665676309315
 20
63.79110490731907
 10
101.5601093891705
 20
63.81381532638204
 10
101.5528779423495
 20
63.83606269991093
 10
101.5448905186646
 20
63.85779402577181
 10
101.5361661473508
 20
63.87895753126255
 10
101.526725613347
 20
63.89950279645599
 10
101.5165914077775
 20
63.91938087432049
 10
101.5057876743698
 20
63.93854440733118
 10
101.4943401519341
 20
63.95694774029456
 10
101.4822761130432
 20
63.97454702911748
 10
101.4696242990587
 20
63.99130034526118
 10
101.4564148516572
 20
64.0071677756319
 10
101.442679241021
 20
64.02211151766979
 10
101.4284501908634
 20
64.03609596940971
 10
101.4137616004679
 20
64.04908781429938
 10
101.3986484639265
 20
64.06105610057264
 10
101.3831467867697
 20
64.07197231498903
 10
101.3672935001871
 20
64.0818104507636
 10
101.3511263730422
 20
64.09054706952557
 10
101.3346839218926
 20
64.09816135715789
 10
101.3180053192272
 20
64.10463517338466
 10
101.3011303001425
 20
64.10995309498871
 10
101.2840990676773
 20
64.11410245255567
 10
101.266952197033
 20
64.11707336065771
 10
101.2497305389077
 20
64.11885874140457
 10
101.2324751221726
 20
64.11945434130584
  0
LWPOLYLINE
  5
74
330
1F
100
AcDbEntity
  8
1
  6
CONTINUOUS
 62
     7
100
AcDbPolyline
 90
       29
 70
     0
 43
0.0
 10
110.4480124331134
 20
68.03550446728052
 10
110.447190451136
 20
68.06012935452469
 10
110.4451563899082
 20
68.0846838514872
 10
110.4419151886247
 20
68.109108333885
 10
110.4374747177097
 20
68.13334349314201
 10
110.431845759705
 20
68.15733048040472
 10
110.425041983088
 20
68.18101104944152
 10
110.417079909081
 20
68.20432769807863
 10
110.4079788715337
 20
68.22722380782949
 10
110.397760969976
 20
68.24964378137801
 10
110.3864510159548
 20
68.27153317758253
 10
110.3740764727857
 20
68.29283884367199
 10
110.3606673888653
 20
68.31350904431392
 10
110.3462563247066
 20
68.33349358724026
 10
110.3308782738739
 20
68.35274394512645
 10
110.3145705780099
 20
68.37121337342752
 10
110.2973728361615
 20
68.38885702388527
 10
110.2793268086233
 20
68.40563205343064
 10
110.2604763155335
 20
68.4214977282172
 10
110.2408671304683
 20
68.43641552253268
 10
110.2205468692922
 20
68.45034921234891
 10
110.1995648745352
 20
68.46326496328246
 10
110.1779720955772
 20
68.47513141275272
 10
110.1558209649305
 20
68.48591974613802
 10
110.1331652709209
 20
68.49560376674432
 10
110.1100600270766
 20
68.50415995941734
 10
110.0865613385421
 20
68.5115675476429
 10
110.0627262658411
 20
68.51780854399745
 10
110.0386126863197
 20
68.52286779382588
  0
LWPOLYLINE
  5
75
330
1F
100
AcDbEntity
  8
1
  6
CONTINUOUS
 62
     7
100
AcDbPolyline
 90
       29
 70
     0
 43
0.0
 10
70.36138731368021
 20
68.52286779382588
 10
70.33727373415884
 20
68.51780854399745
 10
70.31343866145782
 20
68.5115675476429
 10
70.28993997292334
 20
68.50415995941735
 10
70.26683472907908
 20
68.49560376674434
 10
70.2441790350695
 20
68.48591974613802
 10
70.22202790442277
 20
68.47513141275273
 10
70.20043512546475
 20
68.46326496328246
 10
70.17945313070776
 20
68.45034921234891
 10
70.15913286953165
 20
68.43641552253268
 10
70.13952368446647
 20
68.4214977282172
 10
70.12067319137668
 20
68.40563205343064
 10
70.10262716383843
 20
68.38885702388527
 10
70.08542942199
 20
68.37121337342752
 10
70.06912172612604
 20
68.35274394512645
 10
70.05374367529332
 20
68.33349358724027
 10
70.03933261113464
 20
68.31350904431393
 10
70.0259235272143
 20
68.29283884367199
 10
70.01354898404522
 20
68.27153317758253
 10
70.00223903002397
 20
68.24964378137801
 10
69.99202112846625
 20
68.2272238078295
 10
69.98292009091895
 20
68.20432769807864
 10
69.97495801691194
 20
68.18101104944152
 10
69.96815424029495
 20
68.15733048040472
 10
69.96252528229027
 20
68.13334349314201
 10
69.95808481137519
 20
68.109108333885
 10
69.95484361009177
 20
68.08468385148721
 10
69.95280954886398
 20
68.0601293545247
 10
69.95198756688659
 20
68.03550446728052
  0
LWPOLYLINE
  5
76
330
1F
100
AcDbEntity
  8
1
  6
CONTINUOUS
 62
     7
100
AcDbPolyline
 90
       33
 70
     0
 43
0.0
 10
-67.9369987187993
 20
69.92347996124772
 10
-67.93800222084803
 20
69.94321528844505
 10
-67.93978649344854
 20
69.96291400502089
 10
-67.94234680019414
 20
69.98252999042262
 10
-67.94567840467822
 20
70.00201712409756
 10
-67.94989957732804
 20
70.02186647319546
 10
-67.95492770532643
 20
70.04154744294925
 10
-67.96074963152948
 20
70.06101128706023
 10
-67.96735219879325
 20
70.08020925922963
 10
-67.97486252947452
 20
70.09943825837594
 10
-67.98316826175343
 20
70.11835910517172
 10
-67.99224714721272
 20
70.13692331028456
 10
-68.0020769374351
 20
70.15508238438208
 10
-68.01296956313188
 20
70.17332751401217
 10
-68.02463859057765
 20
70.19111012231963
 10
-68.0370510158913
 20
70.20838214655451
 10
-68.05017383519167
 20
70.22509552396691
 10
-68.0636361559889
 20
70.24082905905199
 10
-68.07774970457527
 20
70.2560039133932
 10
-68.09247674709047
 20
70.27058149254047
 10
-68.10777954967428
 20
70.28452320204379
 10
-68.12411828327721
 20
70.2981935094694
 10
-68.14103718335117
 20
70.31116524835332
 10
-68.15848859417065
 20
70.32340411173651
 10
-68.17642486001012
 20
70.33487579266004
 10
-68.19430065986604
 20
70.34527450757541
 10
-68.21260223657352
 20
70.35493109029763
 10
-68.23128133280615
 20
70.36382213863253
 10
-68.25028969123754
 20
70.37192425038593
 10
-68.27017599339389
 20
70.37942834099886
 10
-68.29037440195492
 20
70.3860843167703
 10
-68.31082901138952
 20
70.3918761350071
 10
-68.33148391616658
 20
70.39678775301611
210
0.0
220
0.0
230
-1.0
  0
LWPOLYLINE
  5
77
330
1F
100
AcDbEntity
  8
1
  6
CONTINUOUS
 62
     7
100
AcDbPolyline
 90
       33
 70
     0
 43
0.0
 10
-112.0685160838334
 20
70.39678775301611
 10
-112.0877075416157
 20
70.39225513210883
 10
-112.1067274081641
 20
70.38696300643579
 10
-112.1255308121249
 20
70.38092395074985
 10
-112.1440728821443
 20
70.37415053980384
 10
-112.1628144726498
 20
70.36643803060785
 10
-112.1812489739107
 20
70.35796263994273
 10
-112.199330552094
 20
70.34874580377915
 10
-112.2170133733665
 20
70.33880895808778
 10
-112.2345654967974
 20
70.32797405063803
 10
-112.2516742686383
 20
70.31641182922166
 10
-112.2682957899539
 20
70.30415268263496
 10
-112.2843861618085
 20
70.29122699967436
 10
-112.3003722042349
 20
70.27723965533625
 10
-112.3157657730607
 20
70.26257058935016
 10
-112.3305253177167
 20
70.24726071802385
 10
-112.3446092876336
 20
70.23135095766506
 10
-112.357669638977
 20
70.21528177044235
 10
-112.3700645594744
 20
70.19867066327632
 10
-112.3817626645686
 20
70.18156153577866
 10
-112.3927325697025
 20
70.16399828756111
 10
-112.4032500906636
 20
70.14546237043844
 10
-112.4129765457114
 20
70.12647879693526
 10
-112.4218864906578
 20
70.10710043942892
 10
-112.4299544813148
 20
70.08738017029667
 10
-112.436977295856
 20
70.06790971265141
 10
-112.443192892362
 20
70.04815071400408
 10
-112.4485866047558
 20
70.02815465536419
 10
-112.4531437669607
 20
70.0079730177412
 10
-112.4569532707898
 20
69.98703055116664
 10
-112.4598701998302
 20
69.96592919351507
 10
-112.461888290996
 20
69.94472648385316
 10
-112.4630012812007
 20
69.92347996124771
210
0.0
220
0.0
230
-1.0
  0
LWPOLYLINE
  5
78
330
1F
100
AcDbEntity
  8
1
  6
CONTINUOUS
 62
     7
100
AcDbPolyline
 90
       33
 70
     0
 43
0.0
 10
-95.73916126134677
 20
63.62381760905504
 10
-95.73958243011263
 20
63.64820912919322
 10
-95.74084493301798
 20
63.67253214393609
 10
-95.74294576227638
 20
63.69672870614293
 10
-95.74587991287301
 20
63.72074116993348
 10
-95.74964039448867
 20
63.74451232802353
 10
-95.75421824815342
 20
63.76798554801541
 10
-95.7596025675905
 20
63.79110490731907
 10
-95.76578052519943
 20
63.81381532638204
 10
-95.77273740261643
 20
63.83606269991093
 10
-95.78045662577952
 20
63.85779402577181
 10
-95.78891980441442
 20
63.87895753126255
 10
-95.79810677584777
 20
63.89950279645599
 10
-95.80799565304237
 20
63.9193808743205
 10
-95.81856287674117
 20
63.93854440733118
 10
-95.82978327159458
 20
63.95694774029456
 10
-95.8416301061383
 20
63.97454702911748
 10
-95.85407515647842
 20
63.99130034526118
 10
-95.86708877353192
 20
64.00716777563191
 10
-95.8806399536627
 20
64.02211151766979
 10
-95.8946964125445
 20
64.03609596940971
 10
-95.9092246620753
 20
64.04908781429938
 10
-95.92419009015912
 20
64.06105610057266
 10
-95.939557043166
 20
64.07197231498903
 10
-95.95528891087321
 20
64.0818104507636
 10
-95.97134821368525
 20
64.09054706952557
 10
-95.98769669192552
 20
64.09816135715789
 10
-96.00429539698591
 20
64.10463517338468
 10
-96.02110478411798
 20
64.10995309498871
 10
-96.03808480664452
 20
64.11410245255567
 10
-96.05519501136652
 20
64.11707336065771
 10
-96.07239463493907
 20
64.11885874140458
 10
-96.08964270098575
 20
64.11945434130585
210
0.0
220
0.0
230
-1.0
  0
LINE
  5
79
330
1F
100
AcDbEntity
  8
1
  6
CONTINUOUS
 62
     7
100
AcDbLine
 10
142.6097503526614
 20
50.61945434130583
 30
0.0
 11
142.608922205622
 21
50.61945434130583
 31
0.0
  0
LINE
  5
7A
330
1F
100
AcDbEntity
  8
1
  6
CONTINUOUS
 62
     7
100
AcDbLine
 10
234.8710998289046
 20
50.61945434130584
 30
0.0
 11
237.7995859264803
 21
50.61945434130584
 31
0.0
  0
ARC
  5
7B
330
1F
100
AcDbEntity
  8
1
  6
CONTINUOUS
 62
     7
100
AcDbCircle
 10
-163.3331186718246
 20
57.61945434130585
 30
0.0
 40
1.0
210
0.0
220
0.0
230
-1.0
100
AcDbArc
 50
90.0
 51
171.8698976458442
  0
LINE
  5
7C
330
1F
100
AcDbEntity
  8
1
  6
CONTINUOUS
 62
     7
100
AcDbLine
 10
164.3432712163768
 20
57.61945434130585
 30
0.0
 11
164.486128359234
 21
56.61945434130584
 31
0.0
  0
LINE
  5
7D
330
1F
100
AcDbEntity
  8
1
  6
CONTINUOUS
 62
     7
100
AcDbLine
 10
142.8183829847606
 20
38.61945434130583
 30
0.0
 11
146.2096253758903
 21
38.61945434130583
 31
0.0
  0
LINE
  5
7E
330
1F
100
AcDbEntity
  8
1
  6
CONTINUOUS
 62
     7
100
AcDbLine
 10
146.0001645967517
 20
50.61945434130583
 30
0.0
 11
142.6097503526614
 21
50.61945434130583
 31
0.0
  0
LINE
  5
7F
330
1F
100
AcDbEntity
  8
1
  6
CONTINUOUS
 62
     7
100
AcDbLine
 10
237.7995859264803
 20
50.61945434130584
 30
0.0
 11
237.5901251473417
 21
38.61945434130583
 31
0.0
  0
LINE
  5
80
330
1F
100
AcDbEntity
  8
1
  6
CONTINUOUS
 62
     7
100
AcDbLine
 10
237.5901251473417
 20
38.61945434130583
 30
0.0
 11
234.661639049766
 21
38.61945434130583
 31
0.0
  0
ELLIPSE
  5
81
330
1F
100
AcDbEntity
  8
1
  6
CONTINUOUS
 62
     7
100
AcDbEllipse
 10
68.71650495008492
 20
92.70049023754166
 30
0.0
 11
-0.3536610945847897
 21
-0.3536610945847894
 31
0.0
210
0.0
220
0.0
230
1.0
 40
0.9996954598818865
 41
5.680097743305343
 42
7.068431177329444
  0
LINE
  5
82
330
1F
100
AcDbEntity
  8
1
  6
CONTINUOUS
 62
     7
100
AcDbLine
 10
215.728072024056
 20
50.61945434130583
 30
0.0
 11
208.6580811700678
 21
50.61945434130583
 31
0.0
  0
LINE
  5
83
330
1F
100
AcDbEntity
  8
1
  6
CONTINUOUS
 62
     7
100
AcDbLine
 10
208.6580811700678
 20
50.61945434130583
 30
0.0
 11
208.6582784497887
 21
50.61945434130583
 31
0.0
  0
LINE
  5
84
330
1F
100
AcDbEntity
  8
1
  6
CONTINUOUS
 62
     7
100
AcDbLine
 10
155.2004140735197
 20
50.61945434130583
 30
0.0
 11
163.2004140735197
 21
50.61945434130583
 31
0.0
  0
LINE
  5
85
330
1F
100
AcDbEntity
  8
1
  6
CONTINUOUS
 62
     7
100
AcDbLine
 10
234.661639049766
 20
38.61945434130583
 30
0.0
 11
215.6413105285516
 21
38.61945434130583
 31
0.0
  0
LINE
  5
86
330
1F
100
AcDbEntity
  8
1
  6
CONTINUOUS
 62
     7
100
AcDbLine
 10
164.6289855020911
 20
55.61945434130584
 30
0.0
 11
164.7718426449483
 21
54.61945434130584
 31
0.0
  0
ARC
  5
87
330
1F
100
AcDbEntity
  8
1
  6
CONTINUOUS
 62
     7
100
AcDbCircle
 10
-155.0677094752147
 20
57.61945434130585
 30
0.0
 40
1.0
210
0.0
220
0.0
230
-1.0
100
AcDbArc
 50
8.130102354155916
 51
90.00000000000006
  0
ELLIPSE
  5
88
330
1F
100
AcDbEntity
  8
1
  6
CONTINUOUS
 62
     7
100
AcDbEllipse
 10
17.70007616402195
 20
186.6839091234347
 30
0.0
 11
0.3536610945847896
 21
-0.3536610945847896
 31
0.0
210
0.0
220
0.0
230
-1.0
 40
0.9996954598818668
 41
2.356346783439929
 42
3.744680217464025
  0
LINE
  5
89
330
1F
100
AcDbEntity
  8
1
  6
CONTINUOUS
 62
     7
100
AcDbLine
 10
208.5713196745633
 20
38.61945434130583
 30
0.0
 11
215.6413105285516
 21
38.61945434130583
 31
0.0
  0
LINE
  5
8A
330
1F
100
AcDbEntity
  8
1
  6
CONTINUOUS
 62
     7
100
AcDbLine
 10
163.2004140735197
 20
50.61945434130585
 30
0.0
 11
208.6580811700678
 21
50.61945434130583
 31
0.0
  0
LINE
  5
8B
330
1F
100
AcDbEntity
  8
1
  6
CONTINUOUS
 62
     7
100
AcDbLine
 10
164.486128359234
 20
56.61945434130584
 30
0.0
 11
164.6289855020911
 21
55.61945434130584
 31
0.0
  0
LINE
  5
8C
330
1F
100
AcDbEntity
  8
1
  6
CONTINUOUS
 62
     7
100
AcDbLine
 10
153.486128359234
 20
53.61945434130584
 30
0.0
 11
153.6289855020911
 21
54.61945434130584
 31
0.0
  0
LINE
  5
8D
330
1F
100
AcDbEntity
  8
1
  6
CONTINUOUS
 62
     7
100
AcDbLine
 10
153.3432712163768
 20
52.61945434130584
 30
0.0
 11
153.486128359234
 21
53.61945434130584
 31
0.0
  0
LINE
  5
8E
330
1F
100
AcDbEntity
  8
1
  6
CONTINUOUS
 62
     7
100
AcDbLine
 10
153.2004140735197
 20
51.61945434130584
 30
0.0
 11
153.3432712163768
 21
52.61945434130584
 31
0.0
  0
LINE
  5
8F
330
1F
100
AcDbEntity
  8
1
  6
CONTINUOUS
 62
     7
100
AcDbLine
 10
142.4090467056189
 20
38.61945434130583
 30
0.0
 11
142.8183829847606
 21
38.61945434130583
 31
0.0
  0
LINE
  5
90
330
1F
100
AcDbEntity
  8
1
  6
CONTINUOUS
 62
     7
100
AcDbLine
 10
165.2004140735197
 20
51.61945434130584
 30
0.0
 11
163.2004140735197
 21
51.61945434130584
 31
0.0
  0
LINE
  5
91
330
1F
100
AcDbEntity
  8
1
  6
CONTINUOUS
 62
     7
100
AcDbLine
 10
164.9146997878054
 20
53.61945434130584
 30
0.0
 11
165.0575569306625
 21
52.61945434130584
 31
0.0
  0
LINE
  5
92
330
1F
100
AcDbEntity
  8
1
  6
CONTINUOUS
 62
     7
100
AcDbLine
 10
153.9146997878054
 20
56.61945434130583
 30
0.0
 11
154.0575569306626
 21
57.61945434130585
 31
0.0
  0
LINE
  5
93
330
1F
100
AcDbEntity
  8
1
  6
CONTINUOUS
 62
     7
100
AcDbLine
 10
164.7718426449483
 20
54.61945434130584
 30
0.0
 11
164.9146997878054
 21
53.61945434130584
 31
0.0
  0
ARC
  5
94
330
1F
100
AcDbEntity
  8
1
  6
CONTINUOUS
 62
     7
100
AcDbCircle
 10
102.8
 20
158.6582784497888
 30
0.0
 40
10.00000000000001
100
AcDbArc
 50
359.9999999999998
 51
0.9118346398215069
  0
LINE
  5
95
330
1F
100
AcDbEntity
  8
1
  6
CONTINUOUS
 62
     7
100
AcDbLine
 10
154.0575569306625
 20
57.61945434130585
 30
0.0
 11
154.0777599815536
 21
57.76087569754315
 31
0.0
  0
LINE
  5
96
330
1F
100
AcDbEntity
  8
1
  6
CONTINUOUS
 62
     7
100
AcDbLine
 10
153.6289855020911
 20
54.61945434130584
 30
0.0
 11
153.7718426449483
 21
55.61945434130584
 31
0.0
  0
ELLIPSE
  5
97
330
1F
100
AcDbEntity
  8
1
  6
CONTINUOUS
 62
     7
100
AcDbEllipse
 10
17.70007616402196
 20
143.7169190236046
 30
0.0
 11
-0.3536610945847913
 21
-0.3536610945847913
 31
0.0
210
0.0
220
0.0
230
-1.0
 40
0.9996954598818666
 41
5.680097743305352
 42
7.068431177329448
  0
ELLIPSE
  5
98
330
1F
100
AcDbEntity
  8
1
  6
CONTINUOUS
 62
     7
100
AcDbEllipse
 10
111.683495049915
 20
92.70049023754164
 30
0.0
 11
-0.3536610945847894
 21
0.3536610945847898
 31
0.0
210
0.0
220
0.0
230
1.0
 40
0.999695459881867
 41
2.356346783439936
 42
3.74468021746401
  0
LINE
  5
99
330
1F
100
AcDbEntity
  8
1
  6
CONTINUOUS
 62
     7
100
AcDbLine
 10
146.2096253758903
 20
38.61945434130583
 30
0.0
 11
208.5713196745633
 21
38.61945434130583
 31
0.0
  0
LINE
  5
9A
330
1F
100
AcDbEntity
  8
1
  6
CONTINUOUS
 62
     7
100
AcDbLine
 10
146.0001645967517
 20
50.61945434130583
 30
0.0
 11
146.0009927437911
 21
50.61945434130583
 31
0.0
  0
LINE
  5
9B
330
1F
100
AcDbEntity
  8
1
  6
CONTINUOUS
 62
     7
100
AcDbLine
 10
165.0575569306625
 20
52.61945434130584
 30
0.0
 11
165.2004140735197
 21
51.61945434130584
 31
0.0
  0
LINE
  5
9C
330
1F
100
AcDbEntity
  8
1
  6
CONTINUOUS
 62
     7
100
AcDbLine
 10
163.3331186718246
 20
58.61945434130585
 30
0.0
 11
155.0677094752147
 21
58.61945434130585
 31
0.0
  0
LINE
  5
9D
330
1F
100
AcDbEntity
  8
1
  6
CONTINUOUS
 62
     7
100
AcDbLine
 10
153.7718426449482
 20
55.61945434130584
 30
0.0
 11
153.9146997878054
 21
56.61945434130583
 31
0.0
  0
LINE
  5
9E
330
1F
100
AcDbEntity
  8
1
  6
CONTINUOUS
 62
     7
100
AcDbLine
 10
153.2004140735197
 20
51.61945434130584
 30
0.0
 11
155.2004140735197
 21
51.61945434130584
 31
0.0
  0
LINE
  5
9F
330
1F
100
AcDbEntity
  8
1
  6
CONTINUOUS
 62
     7
100
AcDbLine
 10
142.1995859264803
 20
50.61945434130583
 30
0.0
 11
142.4090467056189
 21
38.61945434130583
 31
0.0
  0
LINE
  5
A0
330
1F
100
AcDbEntity
  8
1
  6
CONTINUOUS
 62
     7
100
AcDbLine
 10
163.2004140735197
 20
51.61945434130584
 30
0.0
 11
163.2004140735197
 21
50.61945434130585
 31
0.0
  0
ARC
  5
A1
330
1F
100
AcDbEntity
  8
1
  6
CONTINUOUS
 62
     7
100
AcDbCircle
 10
102.8
 20
158.6582784497888
 30
0.0
 40
10.00000000000002
100
AcDbArc
 50
0.9118346398214802
 51
44.99999999999995
  0
LINE
  5
A2
330
1F
100
AcDbEntity
  8
1
  6
CONTINUOUS
 62
     7
100
AcDbLine
 10
155.2004140735197
 20
51.61945434130584
 30
0.0
 11
155.2004140735197
 21
50.61945434130585
 31
0.0
  0
LINE
  5
A3
330
1F
100
AcDbEntity
  8
1
  6
CONTINUOUS
 62
     7
100
AcDbLine
 10
146.0009927437911
 20
50.61945434130583
 30
0.0
 11
146.3378278108849
 21
69.91672241100335
 31
0.0
  0
LINE
  5
A4
330
1F
100
AcDbEntity
  8
1
  6
CONTINUOUS
 62
     7
100
AcDbLine
 10
146.2096253758903
 20
38.61945434130583
 30
0.0
 11
146.0001645967517
 21
50.61945434130583
 31
0.0
  0
LINE
  5
A5
330
1F
100
AcDbEntity
  8
1
  6
CONTINUOUS
 62
     7
100
AcDbLine
 10
208.6582784497887
 20
50.61945434130583
 30
0.0
 11
215.7293462616542
 21
50.61945434130583
 31
0.0
  0
LINE
  5
A6
330
1F
100
AcDbEntity
  8
1
  6
CONTINUOUS
 62
     7
100
AcDbLine
 10
146.0009927437911
 20
50.61945434130583
 30
0.0
 11
155.2004140735197
 21
50.61945434130585
 31
0.0
  0
LINE
  5
A7
330
1F
100
AcDbEntity
  8
1
  6
CONTINUOUS
 62
     7
100
AcDbLine
 10
146.0009927437911
 20
50.61945434130583
 30
0.0
 11
155.2004140735197
 21
50.61945434130583
 31
0.0
  0
LINE
  5
A8
330
1F
100
AcDbEntity
  8
1
  6
CONTINUOUS
 62
     7
100
AcDbLine
 10
142.608922205622
 20
50.61945434130583
 30
0.0
 11
142.1995859264803
 21
50.61945434130583
 31
0.0
  0
LINE
  5
A9
330
1F
100
AcDbEntity
  8
1
  6
CONTINUOUS
 62
     7
100
AcDbLine
 10
163.2004140735197
 20
50.61945434130583
 30
0.0
 11
208.6580811700677
 21
50.61945434130583
 31
0.0
  0
LINE
  5
AA
330
1F
100
AcDbEntity
  8
1
  6
CONTINUOUS
 62
     7
100
AcDbLine
 10
215.7293462616542
 20
50.61945434130583
 30
0.0
 11
215.728072024056
 21
50.61945434130583
 31
0.0
  0
LINE
  5
AB
330
1F
100
AcDbEntity
  8
1
  6
CONTINUOUS
 62
     7
100
AcDbLine
 10
164.3230681654858
 20
57.76087569754315
 30
0.0
 11
164.3432712163769
 21
57.61945434130585
 31
0.0
  0
LINE
  5
AC
330
1F
100
AcDbEntity
  8
1
  6
CONTINUOUS
 62
     7
100
AcDbLine
 10
211.5894801034254
 20
71.31945434130581
 30
0.0
 11
220.7934205139235
 21
71.31945434130581
 31
0.0
  0
LINE
  5
AD
330
1F
100
AcDbEntity
  8
1
  6
CONTINUOUS
 62
     7
100
AcDbLine
 10
146.3456781765722
 20
70.39835488991744
 30
0.0
 11
146.3453272378904
 21
70.39678775301611
 31
0.0
  0
LINE
  5
AE
330
1F
100
AcDbEntity
  8
1
  6
CONTINUOUS
 62
     7
100
AcDbLine
 10
142.5423753264958
 20
70.21040140351569
 30
0.0
 11
142.5408903017346
 21
70.12532439192337
 31
0.0
  0
LINE
  5
AF
330
1F
100
AcDbEntity
  8
1
  6
CENTER
 62
     1
100
AcDbLine
 10
90.19999999999997
 20
89.19958592648028
 30
0.0
 11
90.19999999999997
 21
190.8004140735197
 31
0.0
  0
LINE
  5
B1
330
1F
100
AcDbEntity
  8
1
  6
CONTINUOUS
 62
     7
100
AcDbLine
 10
142.5408903017346
 20
70.12532439192337
 30
0.0
 11
142.5283674693571
 21
69.40789180550489
 31
0.0
  0
LINE
  5
B2
330
1F
100
AcDbEntity
  8
1
  6
CONTINUOUS
 62
     7
100
AcDbLine
 10
146.3456781765722
 20
70.39835488991744
 30
0.0
 11
146.3600731290079
 21
71.22304116263307
 31
0.0
  0
ARC
  5
B3
330
1F
100
AcDbEntity
  8
1
  6
CONTINUOUS
 62
     7
100
AcDbCircle
 10
-236.9636551588477
 20
69.90799620778472
 30
0.0
 40
0.4999999999999961
210
0.0
220
0.0
230
-1.0
100
AcDbArc
 50
101.2699287635201
 51
178.9999999999998
  0
LINE
  5
B4
330
1F
100
AcDbEntity
  8
1
  6
CONTINUOUS
 62
     7
100
AcDbLine
 10
234.8710998289046
 20
50.61945434130584
 30
0.0
 11
215.7293462616542
 21
50.61945434130583
 31
0.0
  0
LINE
  5
B5
330
1F
100
AcDbEntity
  8
1
  6
CONTINUOUS
 62
     7
100
AcDbLine
 10
164.7718426449483
 20
54.61945434130584
 30
0.0
 11
153.6289855020911
 21
54.61945434130584
 31
0.0
  0
ELLIPSE
  5
B6
330
1F
100
AcDbEntity
  8
1
  6
CONTINUOUS
 62
     7
100
AcDbEllipse
 10
143.622976318322
 20
69.90799620778472
 30
0.0
 11
2.714864802312238
 21
0.01069565154034211
 31
0.0
210
0.0
220
0.0
230
-1.0
 40
0.184129091630168
 41
6.273605783363097
 42
6.287124949476396
  0
LINE
  5
B7
330
1F
100
AcDbEntity
  8
1
  6
CONTINUOUS
 62
     7
100
AcDbLine
 10
220.767104386498
 20
71.3172301223953
 30
0.0
 11
220.7934205139232
 21
71.31945434130604
 31
0.0
  0
LINE
  5
B8
330
1F
100
AcDbEntity
  8
1
  6
CENTER
 62
     1
100
AcDbLine
 10
14.19999999999998
 20
165.2004140735197
 30
0.0
 11
115.8
 21
165.2004140735197
 31
0.0
  0
ELLIPSE
  5
B9
330
1F
100
AcDbEntity
  8
1
  6
CONTINUOUS
 62
     7
100
AcDbEllipse
 10
119.1274889414685
 20
66.31945434130581
 30
0.0
 11
27.23205822607719
 21
4.910186859115718
 31
0.0
210
0.0
220
0.0
230
-1.0
 40
0.0346441888165791
 41
0.0049417282648575
 42
0.0068729009798882
  0
LINE
  5
BA
330
1F
100
AcDbEntity
  8
1
  6
CONTINUOUS
 62
     7
100
AcDbLine
 10
221.5276753166581
 20
71.31945434130581
 30
0.0
 11
230.7316157271563
 21
71.31945434130581
 31
0.0
  0
LINE
  5
BB
330
1F
100
AcDbEntity
  8
1
  6
CONTINUOUS
 62
     7
100
AcDbLine
 10
163.2004140735197
 20
52.61945434130584
 30
0.0
 11
163.2004140735197
 21
51.61945434130584
 31
0.0
  0
LINE
  5
BC
330
1F
100
AcDbEntity
  8
1
  6
CONTINUOUS
 62
     7
100
AcDbLine
 10
164.486128359234
 20
56.61945434130584
 30
0.0
 11
153.9146997878054
 21
56.61945434130583
 31
0.0
  0
ARC
  5
BD
330
1F
100
AcDbEntity
  8
1
  6
CONTINUOUS
 62
     7
100
AcDbCircle
 10
-231.945759206143
 20
66.31945434130583
 30
0.0
 40
4.99999999999999
210
0.0
220
0.0
230
-1.0
100
AcDbArc
 50
90.0
 51
101.26992876352
  0
LINE
  5
BE
330
1F
100
AcDbEntity
  8
1
  6
CONTINUOUS
 62
     7
100
AcDbLine
 10
237.4635790064259
 20
69.91672241100335
 30
0.0
 11
237.8004140735197
 21
50.61945434130584
 31
0.0
  0
LINE
  5
BF
330
1F
100
AcDbEntity
  8
1
  6
CONTINUOUS
 62
     7
100
AcDbLine
 10
237.0613708835652
 20
70.39835488991744
 30
0.0
 11
232.9229164533176
 21
71.22304116263308
 31
0.0
  0
LINE
  5
C0
330
1F
100
AcDbEntity
  8
1
  6
CONTINUOUS
 62
     7
100
AcDbLine
 10
234.8714818853852
 20
50.61945434130584
 30
0.0
 11
234.8710998289046
 21
50.61945434130584
 31
0.0
  0
LINE
  5
C1
330
1F
100
AcDbEntity
  8
1
  6
CONTINUOUS
 62
     7
100
AcDbLine
 10
164.6289855020911
 20
55.61945434130584
 30
0.0
 11
153.7718426449482
 21
55.61945434130584
 31
0.0
  0
LINE
  5
C2
330
1F
100
AcDbEntity
  8
1
  6
CONTINUOUS
 62
     7
100
AcDbLine
 10
146.3616832684943
 20
71.31944504253539
 30
0.0
 11
142.9520120592918
 21
70.69345587997478
 31
0.0
  0
LINE
  5
C3
330
1F
100
AcDbEntity
  8
1
  6
CONTINUOUS
 62
     7
100
AcDbLine
 10
146.0001645967517
 20
50.61945434130583
 30
0.0
 11
146.0009927437911
 21
50.61945434130583
 31
0.0
  0
LINE
  5
C4
330
1F
100
AcDbEntity
  8
1
  6
CONTINUOUS
 62
     7
100
AcDbLine
 10
237.8004140735197
 20
50.61945434130584
 30
0.0
 11
237.7995859264803
 21
50.61945434130584
 31
0.0
  0
LINE
  5
C5
330
1F
100
AcDbEntity
  8
1
  6
CENTER
 62
     1
100
AcDbLine
 10
90.19999999999997
 20
35.6194543413058
 30
0.0
 11
90.19999999999997
 21
74.31945434130606
 31
0.0
  0
LINE
  5
C6
330
1F
100
AcDbEntity
  8
1
  6
CONTINUOUS
 62
     7
100
AcDbLine
 10
237.7995859264803
 20
50.61945434130584
 30
0.0
 11
234.8714818853852
 21
50.61945434130584
 31
0.0
  0
LINE
  5
C7
330
1F
100
AcDbEntity
  8
1
  6
CONTINUOUS
 62
     7
100
AcDbLine
 10
146.3616832684943
 20
71.31944504253539
 30
0.0
 11
146.3600552867661
 21
71.22491907708988
 31
0.0
  0
LINE
  5
C8
330
1F
100
AcDbEntity
  8
1
  6
CONTINUOUS
 62
     7
100
AcDbLine
 10
142.2004140735197
 20
50.61945434130583
 30
0.0
 11
142.6097503526614
 21
50.61945434130583
 31
0.0
  0
LINE
  5
C9
330
1F
100
AcDbEntity
  8
1
  6
CONTINUOUS
 62
     7
100
AcDbLine
 10
155.2004140735197
 20
52.61945434130584
 30
0.0
 11
155.2004140735197
 21
51.61945434130584
 31
0.0
  0
LINE
  5
CA
330
1F
100
AcDbEntity
  8
1
  6
CONTINUOUS
 62
     7
100
AcDbLine
 10
211.5894801034254
 20
71.31945434130581
 30
0.0
 11
208.6582784497887
 21
71.31945434130581
 31
0.0
  0
LINE
  5
CB
330
1F
100
AcDbEntity
  8
1
  6
CONTINUOUS
 62
     7
100
AcDbLine
 10
221.5276753166581
 20
71.31945434130581
 30
0.0
 11
220.7934205139235
 21
71.31945434130581
 31
0.0
  0
LINE
  5
CC
330
1F
100
AcDbEntity
  8
1
  6
CONTINUOUS
 62
     7
100
AcDbLine
 10
230.7316157271563
 20
71.31945434130581
 30
0.0
 11
231.945759206143
 21
71.31945434130581
 31
0.0
  0
LINE
  5
CD
330
1F
100
AcDbEntity
  8
1
  6
CONTINUOUS
 62
     7
100
AcDbLine
 10
142.5283674693571
 20
69.40789180550489
 30
0.0
 11
142.2004140735197
 21
50.61945434130583
 31
0.0
  0
LINE
  5
CE
330
1F
100
AcDbEntity
  8
1
  6
CONTINUOUS
 62
     7
100
AcDbLine
 10
165.0575569306625
 20
52.61945434130584
 30
0.0
 11
153.3432712163768
 21
52.61945434130584
 31
0.0
  0
LINE
  5
CF
330
1F
100
AcDbEntity
  8
1
  6
CONTINUOUS
 62
     7
100
AcDbLine
 10
208.6582784497887
 20
71.31945434130581
 30
0.0
 11
146.3617339175338
 21
71.31945434130581
 31
0.0
  0
LINE
  5
D0
330
1F
100
AcDbEntity
  8
1
  6
CONTINUOUS
 62
     7
100
AcDbLine
 10
146.3453272378904
 20
70.39678775301611
 30
0.0
 11
146.3376976882724
 21
69.92347996124771
 31
0.0
  0
LINE
  5
D1
330
1F
100
AcDbEntity
  8
1
  6
CONTINUOUS
 62
     7
100
AcDbLine
 10
164.3432712163768
 20
57.61945434130585
 30
0.0
 11
154.0575569306625
 21
57.61945434130585
 31
0.0
  0
LINE
  5
D2
330
1F
100
AcDbEntity
  8
1
  6
CONTINUOUS
 62
     7
100
AcDbLine
 10
164.9146997878054
 20
53.61945434130584
 30
0.0
 11
153.486128359234
 21
53.61945434130584
 31
0.0
  0
ARC
  5
D3
330
1F
100
AcDbEntity
  8
1
  6
CONTINUOUS
 62
     7
100
AcDbCircle
 10
-143.042299174074
 20
70.20167520029703
 30
0.0
 40
0.5000000000000059
210
0.0
220
0.0
230
-1.0
100
AcDbArc
 50
1.000000000001022
 51
79.59679116869344
  0
LINE
  5
D4
330
1F
100
AcDbEntity
  8
1
  6
CONTINUOUS
 62
     7
100
AcDbLine
 10
92.89673851795696
 20
63.12417584702365
 30
0.0
 11
92.71028605789446
 21
42.11945451983961
 31
0.0
  0
LINE
  5
D5
330
1F
100
AcDbEntity
  8
1
  6
CONTINUOUS
 62
     7
100
AcDbLine
 10
30.2
 20
187.7995859264803
 30
0.0
 11
38.2
 21
187.7995859264803
 31
0.0
  0
LINE
  5
D6
330
1F
100
AcDbEntity
  8
1
  6
CONTINUOUS
 62
     7
100
AcDbLine
 10
67.6
 20
124.7712849751978
 30
0.0
 11
67.6
 21
113.2004140735197
 31
0.0
  0
LINE
  5
D7
330
1F
100
AcDbEntity
  8
1
  6
CONTINUOUS
 62
     7
100
AcDbLine
 10
67.59999999999998
 20
105.2004140735197
 30
0.0
 11
67.59999999999998
 21
96.00099274379113
 31
0.0
  0
LINE
  5
D8
330
1F
100
AcDbEntity
  8
1
  6
CONTINUOUS
 62
     7
100
AcDbLine
 10
93.52758983330162
 20
63.61945434130583
 30
0.0
 11
93.06687305997829
 21
63.50659184011274
 31
0.0
  0
LINE
  5
D9
330
1F
100
AcDbEntity
  8
1
  6
CONTINUOUS
 62
     7
100
AcDbLine
 10
101.6505280558169
 20
58.64437865875255
 30
0.0
 11
99.97985347903604
 21
63.28869920556351
 31
0.0
  0
LINE
  5
DA
330
1F
100
AcDbEntity
  8
1
  6
CONTINUOUS
 62
     7
100
AcDbLine
 10
112.8
 20
113.2004140735197
 30
0.0
 11
112.8
 21
158.6580811700677
 31
0.0
  0
LINE
  5
DB
330
1F
100
AcDbEntity
  8
1
  6
CONTINUOUS
 62
     7
100
AcDbLine
 10
110.6
 20
92.19958592648028
 30
0.0
 11
110.6
 21
92.20041407351968
 31
0.0
  0
LINE
  5
DC
330
1F
100
AcDbEntity
  8
1
  6
CONTINUOUS
 62
     7
100
AcDbLine
 10
38.2
 20
187.7995859264803
 30
0.0
 11
83.65849524358745
 21
187.7995859264803
 31
0.0
  0
LINE
  5
DD
330
1F
100
AcDbEntity
  8
1
  6
CONTINUOUS
 62
     7
100
AcDbLine
 10
17.19999999999998
 20
185.5995859264803
 30
0.0
 11
17.19999999999998
 21
185.6004140735197
 31
0.0
  0
ARC
  5
DE
330
1F
100
AcDbEntity
  8
1
  6
CONTINUOUS
 62
     7
100
AcDbCircle
 10
99.50936843578556
 20
63.11945434130583
 30
0.0
 40
0.50000000000001
100
AcDbArc
 50
19.78488685911465
 51
90.00000000000001
  0
LINE
  5
DF
330
1F
100
AcDbEntity
  8
1
  6
CONTINUOUS
 62
     7
100
AcDbLine
 10
69.9047224134891
 20
92.40904670561892
 30
0.0
 11
69.9047224134891
 21
92.40987485265833
 31
0.0
  0
LINE
  5
E0
330
1F
100
AcDbEntity
  8
1
  6
CONTINUOUS
 62
     7
100
AcDbLine
 10
69.79999999999998
 20
92.20041407351971
 30
0.0
 11
69.79999999999998
 21
92.19958592648031
 31
0.0
  0
LINE
  5
E1
330
1F
100
AcDbEntity
  8
1
  6
CONTINUOUS
 62
     7
100
AcDbLine
 10
17.2
 20
143.7159385601215
 30
0.0
 11
17.2
 21
143.7167667071609
 31
0.0
  0
LINE
  5
E2
330
1F
100
AcDbEntity
  8
1
  6
CONTINUOUS
 62
     7
100
AcDbLine
 10
90.7284860975757
 20
184.8710998289046
 30
0.0
 11
109.8715139024243
 21
165.728072024056
 31
0.0
  0
LINE
  5
E3
330
1F
100
AcDbEntity
  8
1
  6
CONTINUOUS
 62
     7
100
AcDbLine
 10
110.4952775865109
 20
92.40987485265832
 30
0.0
 11
110.4952775865109
 21
92.40904670561889
 31
0.0
  0
LINE
  5
E4
330
1F
100
AcDbEntity
  8
1
  6
CONTINUOUS
 62
     7
100
AcDbLine
 10
92.89217336623776
 20
63.2108170557752
 30
0.0
 11
92.8844676986571
 21
63.16980510518531
 31
0.0
  0
LINE
  5
E5
330
1F
100
AcDbEntity
  8
1
  6
CONTINUOUS
 62
     7
100
AcDbLine
 10
68.22470254573439
 20
92.60892220562202
 30
0.0
 11
67.59999999999998
 21
96.00016459675176
 31
0.0
  0
LINE
  5
E6
330
1F
100
AcDbEntity
  8
1
  6
CONTINUOUS
 62
     7
100
AcDbLine
 10
17.19999999999998
 20
185.6004140735197
 30
0.0
 11
17.19999999999998
 21
186.6832332928391
 31
0.0
  0
LINE
  5
E7
330
1F
100
AcDbEntity
  8
1
  6
CONTINUOUS
 62
     7
100
AcDbLine
 10
17.41111719936744
 20
185.4948635129912
 30
0.0
 11
17.40946077913859
 21
185.4948635129912
 31
0.0
  0
ELLIPSE
  5
E8
330
1F
100
AcDbEntity
  8
1
  6
CONTINUOUS
 62
     7
100
AcDbEllipse
 10
49.77144668257036
 20
140.5992812703925
 30
0.0
 11
-0.7655034529218649
 21
-1.848088818087402
 31
0.0
210
0.0
220
0.0
230
-1.0
 40
0.999821570769976
 41
2.7489566577987
 42
3.534228649380885
  0
LINE
  5
E9
330
1F
100
AcDbEntity
  8
1
  6
CONTINUOUS
 62
     7
100
AcDbLine
 10
68.71635263364116
 20
92.19958592648031
 30
0.0
 11
69.79999999999998
 21
92.19958592648031
 31
0.0
  0
ELLIPSE
  5
EA
330
1F
100
AcDbEntity
  8
1
  6
CONTINUOUS
 62
     7
100
AcDbEllipse
 10
65.59969534391216
 20
124.7710326090507
 30
0.0
 11
-1.848088818087403
 21
-0.7655034529218647
 31
0.0
210
0.0
220
0.0
230
1.0
 40
0.9998215707699734
 41
2.781329333374067
 42
3.534228649380887
  0
LINE
  5
EB
330
1F
100
AcDbEntity
  8
1
  6
CONTINUOUS
 62
     7
100
AcDbLine
 10
17.60933627914171
 20
143.2242884722147
 30
0.0
 11
21.00057867027144
 21
142.5995859264803
 31
0.0
  0
LINE
  5
EC
330
1F
100
AcDbEntity
  8
1
  6
CONTINUOUS
 62
     7
100
AcDbLine
 10
112.8
 20
96.00016459675173
 30
0.0
 11
112.8
 21
96.0009927437911
 31
0.0
  0
LINE
  5
ED
330
1F
100
AcDbEntity
  8
1
  6
CONTINUOUS
 62
     7
100
AcDbLine
 10
110.6
 20
92.19958592648028
 30
0.0
 11
110.4952775865109
 21
92.40904670561889
 31
0.0
  0
LINE
  5
EE
330
1F
100
AcDbEntity
  8
1
  6
CONTINUOUS
 62
     7
100
AcDbLine
 10
112.8
 20
105.2004140735197
 30
0.0
 11
112.8
 21
113.2004140735197
 31
0.0
  0
ELLIPSE
  5
EF
330
1F
100
AcDbEntity
  8
1
  6
CONTINUOUS
 62
     7
100
AcDbEllipse
 10
18.62200568429862
 20
186.9636551588477
 30
0.0
 11
2.72319877056231
 21
0.10066682886042
 31
0.0
210
0.0
220
0.0
230
1.0
 40
0.1798478190827055
 41
6.277163401497455
 42
6.29260357277909
  0
LINE
  5
F0
330
1F
100
AcDbEntity
  8
1
  6
CONTINUOUS
 62
     7
100
AcDbLine
 10
17.19999999999998
 20
185.5995859264803
 30
0.0
 11
17.40946077913859
 21
185.4948635129912
 31
0.0
  0
LINE
  5
F1
330
1F
100
AcDbEntity
  8
1
  6
CONTINUOUS
 62
     7
100
AcDbLine
 10
112.4630012812007
 20
96.33769768827243
 30
0.0
 11
112.4631649329062
 21
96.33782781088493
 31
0.0
  0
LINE
  5
F2
330
1F
100
AcDbEntity
  8
1
  6
CONTINUOUS
 62
     7
100
AcDbLine
 10
17.2
 20
143.7167667071609
 30
0.0
 11
17.2
 21
144.7995859264803
 31
0.0
  0
ELLIPSE
  5
F3
330
1F
100
AcDbEntity
  8
1
  6
CONTINUOUS
 62
     7
100
AcDbEllipse
 10
68.71650495008492
 20
92.69966209050226
 30
0.0
 11
0.3536610945847898
 21
0.3536610945847894
 31
0.0
210
0.0
220
0.0
230
-1.0
 40
0.9996954598818865
 41
2.356346783439935
 42
3.744680217464038
  0
ELLIPSE
  5
F4
330
1F
100
AcDbEntity
  8
1
  6
CONTINUOUS
 62
     7
100
AcDbEllipse
 10
65.59969534391216
 20
124.7710326090507
 30
0.0
 11
-1.848088818087403
 21
-0.7655034529218647
 31
0.0
210
0.0
220
0.0
230
1.0
 40
0.9998215707699734
 41
2.748956657798701
 42
2.781329333374067
  0
LINE
  5
F5
330
1F
100
AcDbEntity
  8
1
  6
CONTINUOUS
 62
     7
100
AcDbLine
 10
17.2
 20
144.7995859264803
 30
0.0
 11
17.2
 21
144.8004140735197
 31
0.0
  0
LINE
  5
F6
330
1F
100
AcDbEntity
  8
1
  6
CONTINUOUS
 62
     7
100
AcDbLine
 10
91.79302729751412
 20
40.39897926397531
 30
0.0
 11
91.73265381116691
 21
40.11937692750288
 31
0.0
  0
LINE
  5
F7
330
1F
100
AcDbEntity
  8
1
  6
CONTINUOUS
 62
     7
100
AcDbLine
 10
17.19999999999998
 20
185.5995859264803
 30
0.0
 11
17.20165642022883
 21
185.5995859264803
 31
0.0
  0
LINE
  5
F8
330
1F
100
AcDbEntity
  8
1
  6
CONTINUOUS
 62
     7
100
AcDbLine
 10
112.8
 20
96.0009927437911
 30
0.0
 11
112.8
 21
105.2004140735197
 31
0.0
  0
ELLIPSE
  5
F9
330
1F
100
AcDbEntity
  8
1
  6
CONTINUOUS
 62
     7
100
AcDbEllipse
 10
83.65723341285191
 20
177.7980626460412
 30
0.0
 11
-3.827517264609327
 21
-9.240444090437009
 31
0.0
210
0.0
220
0.0
230
1.0
 40
0.9998215707699767
 41
2.748956657798697
 42
3.534228649380887
  0
ELLIPSE
  5
FA
330
1F
100
AcDbEntity
  8
1
  6
CONTINUOUS
 62
     7
100
AcDbEllipse
 10
102.7984767195609
 20
158.6568193393322
 30
0.0
 11
-9.240444090437013
 21
-3.827517264609326
 31
0.0
210
0.0
220
0.0
230
-1.0
 40
0.999821570769976
 41
2.748956657798697
 42
3.518294650409178
  0
ELLIPSE
  5
FB
330
1F
100
AcDbEntity
  8
1
  6
CONTINUOUS
 62
     7
100
AcDbEllipse
 10
102.7984767195609
 20
158.6568193393322
 30
0.0
 11
-9.240444090437013
 21
-3.827517264609326
 31
0.0
210
0.0
220
0.0
230
-1.0
 40
0.999821570769976
 41
3.518294650409179
 42
3.534228649380888
  0
LINE
  5
FC
330
1F
100
AcDbEntity
  8
1
  6
CONTINUOUS
 62
     7
100
AcDbLine
 10
17.2
 20
143.7167667071609
 30
0.0
 11
17.2
 21
144.7995859264803
 31
0.0
  0
LINE
  5
FD
330
1F
100
AcDbEntity
  8
1
  6
CONTINUOUS
 62
     7
100
AcDbLine
 10
112.8
 20
96.00016459675173
 30
0.0
 11
112.1752974542655
 21
92.608922205622
 31
0.0
  0
ELLIPSE
  5
FE
330
1F
100
AcDbEntity
  8
1
  6
CONTINUOUS
 62
     7
100
AcDbEllipse
 10
111.683495049915
 20
92.69966209050223
 30
0.0
 11
0.3536610945847894
 21
-0.3536610945847898
 31
0.0
210
0.0
220
0.0
230
-1.0
 40
0.9996954598819066
 41
5.680097743305338
 42
7.068431177329442
  0
LINE
  5
FF
330
1F
100
AcDbEntity
  8
1
  6
CONTINUOUS
 62
     7
100
AcDbLine
 10
110.6
 20
92.19958592648028
 30
0.0
 11
111.6836473663588
 21
92.19958592648028
 31
0.0
  0
LINE
  5
100
330
1F
100
AcDbEntity
  8
1
  6
CONTINUOUS
 62
     7
100
AcDbLine
 10
17.50399828574198
 20
144.9524016404063
 30
0.0
 11
17.2
 21
144.8004140735197
 31
0.0
  0
LINE
  5
101
330
1F
100
AcDbEntity
  8
1
  6
CONTINUOUS
 62
     7
100
AcDbLine
 10
17.51250524425047
 20
145.3618013871999
 30
0.0
 11
17.50399828574198
 21
144.9524016404063
 31
0.0
  0
LINE
  5
102
330
1F
100
AcDbEntity
  8
1
  6
CONTINUOUS
 62
     7
100
AcDbLine
 10
21.33728361475273
 20
187.4634153547204
 30
0.0
 11
21.33741373736523
 21
187.4635790064259
 31
0.0
  0
LINE
  5
103
330
1F
100
AcDbEntity
  8
1
  6
CONTINUOUS
 62
     7
100
AcDbLine
 10
17.52147457283436
 20
148.1512863352231
 30
0.0
 11
17.51250524425047
 21
145.3618013871999
 31
0.0
  0
LINE
  5
104
330
1F
100
AcDbEntity
  8
1
  6
CONTINUOUS
 62
     7
100
AcDbLine
 10
17.52291870117203
 20
149.0570984826078
 30
0.0
 11
17.52147457283436
 21
148.1512863352231
 31
0.0
  0
LINE
  5
105
330
1F
100
AcDbEntity
  8
1
  6
CONTINUOUS
 62
     7
100
AcDbLine
 10
49.77169904871747
 20
142.5995859264803
 30
0.0
 11
21.00057867027144
 21
142.5995859264803
 31
0.0
  0
LINE
  5
106
330
1F
100
AcDbEntity
  8
1
  6
CONTINUOUS
 62
     7
100
AcDbLine
 10
67.6
 20
113.2004140735197
 30
0.0
 11
67.59999999999998
 21
105.2004140735197
 31
0.0
  0
LINE
  5
107
330
1F
100
AcDbEntity
  8
1
  6
CONTINUOUS
 62
     7
100
AcDbLine
 10
67.59999999999998
 20
96.00099274379113
 30
0.0
 11
67.59999999999998
 21
96.00016459675176
 31
0.0
  0
LINE
  5
108
330
1F
100
AcDbEntity
  8
1
  6
CONTINUOUS
 62
     7
100
AcDbLine
 10
17.52291870117203
 20
149.0570984826078
 30
0.0
 11
17.52291870117202
 21
181.3437296644316
 31
0.0
  0
LINE
  5
109
330
1F
100
AcDbEntity
  8
1
  6
CONTINUOUS
 62
     7
100
AcDbLine
 10
17.52147457283436
 20
182.2495418118163
 30
0.0
 11
17.52291870117202
 21
181.3437296644316
 31
0.0
  0
ELLIPSE
  5
10A
330
1F
100
AcDbEntity
  8
1
  6
CONTINUOUS
 62
     7
100
AcDbEllipse
 10
17.70007616402195
 20
143.7160908765653
 30
0.0
 11
0.3536610945847895
 21
0.3536610945847897
 31
0.0
210
0.0
220
0.0
230
1.0
 40
0.999695459881867
 41
2.356346783439923
 42
3.744680217464027
  0
LINE
  5
10B
330
1F
100
AcDbEntity
  8
1
  6
CONTINUOUS
 62
     7
100
AcDbLine
 10
17.51250524425046
 20
185.0390267598395
 30
0.0
 11
17.52147457283436
 21
182.2495418118163
 31
0.0
  0
LINE
  5
10C
330
1F
100
AcDbEntity
  8
1
  6
CONTINUOUS
 62
     7
100
AcDbLine
 10
67.01430278048485
 20
126.1852831459954
 30
0.0
 11
51.18569721951512
 21
142.0138887069652
 31
0.0
  0
LINE
  5
10D
330
1F
100
AcDbEntity
  8
1
  6
CONTINUOUS
 62
     7
100
AcDbLine
 10
69.79999999999998
 20
92.19958592648031
 30
0.0
 11
69.9047224134891
 21
92.40904670561892
 31
0.0
  0
LINE
  5
10E
330
1F
100
AcDbEntity
  8
1
  6
CONTINUOUS
 62
     7
100
AcDbLine
 10
92.8844676986571
 20
63.16980510518531
 30
0.0
 11
92.88116949926275
 21
63.12394883539306
 31
0.0
  0
LINE
  5
10F
330
1F
100
AcDbEntity
  8
1
  6
CONTINUOUS
 62
     7
100
AcDbLine
 10
112.1752974542655
 20
92.60975035266141
 30
0.0
 11
112.8
 21
96.00099274379112
 31
0.0
  0
LINE
  5
110
330
1F
100
AcDbEntity
  8
1
  6
CONTINUOUS
 62
     7
100
AcDbLine
 10
107.2491277382966
 20
92.52188864635404
 30
0.0
 11
106.3433155909119
 21
92.52333277469171
 31
0.0
  0
LINE
  5
111
330
1F
100
AcDbEntity
  8
1
  6
CONTINUOUS
 62
     7
100
AcDbLine
 10
49.7715728752538
 20
142.6004140735197
 30
0.0
 11
38.20000000000001
 21
142.6004140735197
 31
0.0
  0
LINE
  5
112
330
1F
100
AcDbEntity
  8
1
  6
CONTINUOUS
 62
     7
100
AcDbLine
 10
17.60933627914171
 20
187.1757115277853
 30
0.0
 11
21.00057867027143
 21
187.8004140735197
 31
0.0
  0
LINE
  5
113
330
1F
100
AcDbEntity
  8
1
  6
CONTINUOUS
 62
     7
100
AcDbLine
 10
67.6
 20
124.7719869487735
 30
0.0
 11
67.6
 21
124.7712849751978
 31
0.0
  0
LINE
  5
114
330
1F
100
AcDbEntity
  8
1
  6
CONTINUOUS
 62
     7
100
AcDbLine
 10
67.6
 20
105.2004140735197
 30
0.0
 11
67.59999999999998
 21
96.00099274379113
 31
0.0
  0
LINE
  5
115
330
1F
100
AcDbEntity
  8
1
  6
CONTINUOUS
 62
     7
100
AcDbLine
 10
17.50399828574198
 20
185.4484265066331
 30
0.0
 11
17.51250524425046
 21
185.0390267598395
 31
0.0
  0
LINE
  5
116
330
1F
100
AcDbEntity
  8
1
  6
CONTINUOUS
 62
     7
100
AcDbLine
 10
73.15087226170338
 20
92.52188864635406
 30
0.0
 11
70.36138731368021
 21
92.51291931777017
 31
0.0
  0
LINE
  5
117
330
1F
100
AcDbEntity
  8
1
  6
CONTINUOUS
 62
     7
100
AcDbLine
 10
17.2
 20
185.6004140735197
 30
0.0
 11
17.2
 21
186.6832332928391
 31
0.0
  0
LINE
  5
118
330
1F
100
AcDbEntity
  8
1
  6
CONTINUOUS
 62
     7
100
AcDbLine
 10
70.36138731368021
 20
92.51291931777017
 30
0.0
 11
69.95198756688659
 21
92.50441235926169
 31
0.0
  0
LINE
  5
119
330
1F
100
AcDbEntity
  8
1
  6
CONTINUOUS
 62
     7
100
AcDbLine
 10
69.95198756688659
 20
92.50441235926168
 30
0.0
 11
69.79999999999998
 21
92.20041407351971
 31
0.0
  0
LINE
  5
11A
330
1F
100
AcDbEntity
  8
1
  6
CONTINUOUS
 62
     7
100
AcDbLine
 10
68.71635263364116
 20
92.20041407351971
 30
0.0
 11
69.79999999999998
 21
92.20041407351971
 31
0.0
  0
LINE
  5
11B
330
1F
100
AcDbEntity
  8
1
  6
CONTINUOUS
 62
     7
100
AcDbLine
 10
112.8
 20
113.2004140735197
 30
0.0
 11
112.8
 21
158.6580811700678
 31
0.0
  0
LINE
  5
11C
330
1F
100
AcDbEntity
  8
1
  6
CONTINUOUS
 62
     7
100
AcDbLine
 10
67.59999999999998
 20
96.00099274379113
 30
0.0
 11
68.2247025457344
 21
92.60975035266144
 31
0.0
  0
LINE
  5
11D
330
1F
100
AcDbEntity
  8
1
  6
CONTINUOUS
 62
     7
100
AcDbLine
 10
110.4480124331134
 20
92.50441235926168
 30
0.0
 11
110.0386126863197
 21
92.51291931777016
 31
0.0
  0
ARC
  5
11E
330
1F
100
AcDbEntity
  8
1
  6
CONTINUOUS
 62
     7
100
AcDbCircle
 10
-65.6
 20
124.7719869487735
 30
0.0
 40
1.999999999999998
210
0.0
220
0.0
230
-1.0
100
AcDbArc
 50
178.1654073626685
 51
180.0
  0
LINE
  5
11F
330
1F
100
AcDbEntity
  8
1
  6
CONTINUOUS
 62
     7
100
AcDbLine
 10
17.50399828574198
 20
185.4484265066331
 30
0.0
 11
17.2
 21
185.6004140735197
 31
0.0
  0
LINE
  5
120
330
1F
100
AcDbEntity
  8
1
  6
CONTINUOUS
 62
     7
100
AcDbLine
 10
74.05668440908805
 20
92.52333277469174
 30
0.0
 11
73.15087226170338
 21
92.52188864635407
 31
0.0
  0
LINE
  5
121
330
1F
100
AcDbEntity
  8
1
  6
CONTINUOUS
 62
     7
100
AcDbLine
 10
38.2
 20
187.8004140735197
 30
0.0
 11
83.65786437626905
 21
187.8004140735197
 31
0.0
  0
LINE
  5
122
330
1F
100
AcDbEntity
  8
1
  6
CONTINUOUS
 62
     7
100
AcDbLine
 10
67.0142135623731
 20
126.1862005111466
 30
0.0
 11
51.18578643762689
 21
142.0146276358928
 31
0.0
  0
ARC
  5
123
330
1F
100
AcDbEntity
  8
1
  6
CONTINUOUS
 62
     7
100
AcDbCircle
 10
49.7715728752538
 20
140.6004140735197
 30
0.0
 40
2.000000000000012
100
AcDbArc
 50
45.00000000000028
 51
90.0
  0
LINE
  5
124
330
1F
100
AcDbEntity
  8
1
  6
CONTINUOUS
 62
     7
100
AcDbLine
 10
17.2
 20
186.6832332928391
 30
0.0
 11
17.2
 21
186.6840614398785
 31
0.0
  0
LINE
  5
125
330
1F
100
AcDbEntity
  8
1
  6
CONTINUOUS
 62
     7
100
AcDbLine
 10
110.4480124331134
 20
92.50441235926166
 30
0.0
 11
110.6
 21
92.20041407351968
 31
0.0
  0
LINE
  5
126
330
1F
100
AcDbEntity
  8
1
  6
CONTINUOUS
 62
     7
100
AcDbLine
 10
21.00057867027143
 20
142.6004140735197
 30
0.0
 11
17.60933627914172
 21
143.2251166192541
 31
0.0
  0
LINE
  5
127
330
1F
100
AcDbEntity
  8
1
  6
CONTINUOUS
 62
     7
100
AcDbLine
 10
112.8
 20
158.6580811700678
 30
0.0
 11
112.8
 21
158.6582784497888
 31
0.0
  0
ARC
  5
128
330
1F
100
AcDbEntity
  8
1
  6
CONTINUOUS
 62
     7
100
AcDbCircle
 10
-65.6
 20
124.7719869487735
 30
0.0
 40
2.000000000000003
210
0.0
220
0.0
230
-1.0
100
AcDbArc
 50
135.0000000000003
 51
178.1654073626685
  0
LINE
  5
129
330
1F
100
AcDbEntity
  8
1
  6
CONTINUOUS
 62
     7
100
AcDbLine
 10
110.6
 20
92.20041407351968
 30
0.0
 11
111.6836473663588
 21
92.20041407351968
 31
0.0
  0
LINE
  5
12A
330
1F
100
AcDbEntity
  8
1
  6
CONTINUOUS
 62
     7
100
AcDbLine
 10
112.8
 20
96.00099274379112
 30
0.0
 11
112.8
 21
105.2004140735197
 31
0.0
  0
LINE
  5
12B
330
1F
100
AcDbEntity
  8
1
  6
CONTINUOUS
 62
     7
100
AcDbLine
 10
90.72893218813452
 20
184.8714818853852
 30
0.0
 11
109.8710678118655
 21
165.7293462616542
 31
0.0
  0
ARC
  5
12C
330
1F
100
AcDbEntity
  8
1
  6
CONTINUOUS
 62
     7
100
AcDbCircle
 10
-83.65786437626905
 20
177.8004140735197
 30
0.0
 40
10.00000000000001
210
0.0
220
0.0
230
-1.0
100
AcDbArc
 50
90.0
 51
135.0
  0
LINE
  5
12D
330
1F
100
AcDbEntity
  8
1
  6
CONTINUOUS
 62
     7
100
AcDbLine
 10
74.05668440908805
 20
92.52333277469172
 30
0.0
 11
106.3433155909119
 21
92.52333277469171
 31
0.0
  0
LINE
  5
12E
330
1F
100
AcDbEntity
  8
1
  6
CONTINUOUS
 62
     7
100
AcDbLine
 10
110.0386126863197
 20
92.51291931777016
 30
0.0
 11
107.2491277382966
 21
92.52188864635404
 31
0.0
  0
LINE
  5
12F
330
1F
100
AcDbEntity
  8
1
  6
CONTINUOUS
 62
     7
100
AcDbLine
 10
21.00057867027143
 20
187.8004140735197
 30
0.0
 11
30.2
 21
187.8004140735197
 31
0.0
  0
LINE
  5
130
330
1F
100
AcDbEntity
  8
1
  6
CONTINUOUS
 62
     7
100
AcDbLine
 10
97.52660218437612
 20
41.17113266803045
 30
0.0
 11
97.56623774054904
 21
41.17179029754877
 31
0.0
  0
LINE
  5
131
330
1F
100
AcDbEntity
  8
1
  6
CONTINUOUS
 62
     7
100
AcDbLine
 10
110.4952775865109
 20
38.61945434130583
 30
0.0
 11
111.4741865872202
 21
38.61945434130583
 31
0.0
  0
LINE
  5
132
330
1F
100
AcDbEntity
  8
1
  6
CONTINUOUS
 62
     7
100
AcDbLine
 10
82.80481555856606
 20
40.61945434130583
 30
0.0
 11
82.77861166892455
 21
40.11945434130583
 31
0.0
  0
LINE
  5
133
330
1F
100
AcDbEntity
  8
1
  6
CONTINUOUS
 62
     7
100
AcDbLine
 10
68.71635263364116
 20
50.61945434130583
 30
0.0
 11
68.22470254573439
 21
50.61945434130583
 31
0.0
  0
LINE
  5
134
330
1F
100
AcDbEntity
  8
1
  6
CONTINUOUS
 62
     7
100
AcDbLine
 10
97.62138833107542
 20
40.11945434130583
 30
0.0
 11
97.59518444143391
 21
40.61945434130583
 31
0.0
  0
LINE
  5
135
330
1F
100
AcDbEntity
  8
1
  6
CONTINUOUS
 62
     7
100
AcDbLine
 10
99.77998391048662
 20
40.11945434130583
 30
0.0
 11
98.77861166892454
 21
40.11945434130583
 31
0.0
  0
LINE
  5
136
330
1F
100
AcDbEntity
  8
1
  6
CONTINUOUS
 62
     7
100
AcDbLine
 10
89.44999999999995
 20
41.11945434130583
 30
0.0
 11
89.44999999999995
 21
40.61945434130583
 31
0.0
  0
LINE
  5
137
330
1F
100
AcDbEntity
  8
1
  6
CONTINUOUS
 62
     7
100
AcDbLine
 10
69.79999999999998
 20
50.61945434130583
 30
0.0
 11
69.9047224134891
 21
38.61945434130583
 31
0.0
  0
LWPOLYLINE
  5
138
330
1F
100
AcDbEntity
  8
1
  6
CONTINUOUS
 62
     7
100
AcDbPolyline
 90
        8
 70
     0
 43
0.0
 10
90.0273502691896
 20
42.11945434130583
 10
89.90235026918958
 20
42.09573555079414
 10
89.80799730676405
 20
42.04446851221608
 10
89.72853195486971
 20
41.97509611511136
 10
89.65853172016014
 20
41.88881598022472
 10
89.59404587379002
 20
41.78031885297391
 10
89.54642422328415
 20
41.67274377130027
 42
0.0905436998776938
 10
89.44999999999995
 20
41.11945434130583
  0
LWPOLYLINE
  5
139
330
1F
100
AcDbEntity
  8
1
  6
CONTINUOUS
 62
     7
100
AcDbPolyline
 90
        8
 70
     0
 43
0.0
 10
90.94999999999997
 20
41.11945434130583
 42
0.1122413663609828
 10
90.81089714657242
 20
41.77046675504771
 10
90.75035091350014
 20
41.87577773615001
 10
90.67707101283656
 20
41.96914994720509
 10
90.59439792528947
 20
42.0427543119079
 10
90.49993733908713
 20
42.09484816412642
 10
90.39844468663787
 20
42.11845552274057
 10
90.37264973081035
 20
42.11945434130583
  0
LINE
  5
13A
330
1F
100
AcDbEntity
  8
1
  6
CONTINUOUS
 62
     7
100
AcDbLine
 10
99.70137224156205
 20
38.61945434130583
 30
0.0
 11
110.4952775865109
 21
38.61945434130583
 31
0.0
  0
LINE
  5
13B
330
1F
100
AcDbEntity
  8
1
  6
CONTINUOUS
 62
     7
100
AcDbLine
 10
98.69999999999997
 20
38.61945434130583
 30
0.0
 11
99.70137224156205
 21
38.61945434130583
 31
0.0
  0
LINE
  5
13C
330
1F
100
AcDbEntity
  8
1
  6
CONTINUOUS
 62
     7
100
AcDbLine
 10
82.83376225945094
 20
41.17179029754877
 30
0.0
 11
82.80481555856606
 21
40.61945434130583
 31
0.0
  0
LINE
  5
13D
330
1F
100
AcDbEntity
  8
1
  6
CONTINUOUS
 62
     7
100
AcDbLine
 10
90.19999999999997
 20
42.11945434130583
 30
0.0
 11
90.0273502691896
 21
42.11945434130583
 31
0.0
  0
LINE
  5
13E
330
1F
100
AcDbEntity
  8
1
  6
CONTINUOUS
 62
     7
100
AcDbLine
 10
67.80946077913859
 20
38.61945434130583
 30
0.0
 11
68.434163324873
 21
38.61945434130583
 31
0.0
  0
LINE
  5
13F
330
1F
100
AcDbEntity
  8
1
  6
CONTINUOUS
 62
     7
100
AcDbLine
 10
95.59243974943807
 20
40.61945434130583
 30
0.0
 11
97.59518444143389
 21
40.61945434130583
 31
0.0
  0
LINE
  5
140
330
1F
100
AcDbEntity
  8
1
  6
CONTINUOUS
 62
     7
100
AcDbLine
 10
111.4741865872202
 20
38.61945434130583
 30
0.0
 11
111.9658366751269
 21
38.61945434130583
 31
0.0
  0
LINE
  5
141
330
1F
100
AcDbEntity
  8
1
  6
CONTINUOUS
 62
     7
100
AcDbLine
 10
95.56623585979654
 20
42.11945434130583
 30
0.0
 11
90.37264973081035
 21
42.11945434130583
 31
0.0
  0
LINE
  5
142
330
1F
100
AcDbEntity
  8
1
  6
CONTINUOUS
 62
     7
100
AcDbLine
 10
82.80481555856606
 20
40.61945434130583
 30
0.0
 11
84.8075602505619
 21
40.61945434130583
 31
0.0
  0
LINE
  5
143
330
1F
100
AcDbEntity
  8
1
  6
CONTINUOUS
 62
     7
100
AcDbLine
 10
68.92581341277977
 20
38.61945434130583
 30
0.0
 11
69.9047224134891
 21
38.61945434130583
 31
0.0
  0
LINE
  5
144
330
1F
100
AcDbEntity
  8
1
  6
CONTINUOUS
 62
     7
100
AcDbLine
 10
90.37264973081035
 20
42.11945434130583
 30
0.0
 11
90.19999999999997
 21
42.11945434130583
 31
0.0
  0
LINE
  5
145
330
1F
100
AcDbEntity
  8
1
  6
CONTINUOUS
 62
     7
100
AcDbLine
 10
84.8075602505619
 20
40.61945434130583
 30
0.0
 11
89.44999999999995
 21
40.61945434130583
 31
0.0
  0
LINE
  5
146
330
1F
100
AcDbEntity
  8
1
  6
CONTINUOUS
 62
     7
100
AcDbLine
 10
84.83376414020344
 20
42.11945434130583
 30
0.0
 11
83.8323917942055
 21
42.11945434130583
 31
0.0
  0
LINE
  5
147
330
1F
100
AcDbEntity
  8
1
  6
CONTINUOUS
 62
     7
100
AcDbLine
 10
111.9658366751269
 20
38.61945434130583
 30
0.0
 11
112.5905392208614
 21
38.61945434130583
 31
0.0
  0
LINE
  5
148
330
1F
100
AcDbEntity
  8
1
  6
CONTINUOUS
 62
     7
100
AcDbLine
 10
90.94999999999997
 20
41.11945434130583
 30
0.0
 11
90.94999999999997
 21
40.61945434130583
 31
0.0
  0
LINE
  5
149
330
1F
100
AcDbEntity
  8
1
  6
CONTINUOUS
 62
     7
100
AcDbLine
 10
90.19999999999997
 20
40.61945434130583
 30
0.0
 11
90.94999999999997
 21
40.61945434130583
 31
0.0
  0
LINE
  5
14A
330
1F
100
AcDbEntity
  8
1
  6
CONTINUOUS
 62
     7
100
AcDbLine
 10
96.92484306797708
 20
42.05346893072151
 30
0.0
 11
96.62500081614058
 21
42.11780602697459
 31
0.0
  0
LINE
  5
14B
330
1F
100
AcDbEntity
  8
1
  6
CONTINUOUS
 62
     7
100
AcDbLine
 10
112.1752974542655
 20
50.61945434130583
 30
0.0
 11
111.6836473663588
 21
50.61945434130583
 31
0.0
  0
LINE
  5
14C
330
1F
100
AcDbEntity
  8
1
  6
CONTINUOUS
 62
     7
100
AcDbLine
 10
96.62500081614058
 20
42.11780602697459
 30
0.0
 11
96.56760820579446
 21
42.11945434130583
 31
0.0
  0
LINE
  5
14D
330
1F
100
AcDbEntity
  8
1
  6
CONTINUOUS
 62
     7
100
AcDbLine
 10
68.71635263364116
 20
50.61945434130583
 30
0.0
 11
69.79999999999998
 21
50.61945434130583
 31
0.0
  0
LINE
  5
14E
330
1F
100
AcDbEntity
  8
1
  6
CONTINUOUS
 62
     7
100
AcDbLine
 10
90.02735026918957
 20
42.11945434130583
 30
0.0
 11
84.83376414020344
 21
42.11945434130583
 31
0.0
  0
LINE
  5
14F
330
1F
100
AcDbEntity
  8
1
  6
CONTINUOUS
 62
     7
100
AcDbLine
 10
88.62138833107541
 20
40.11945434130583
 30
0.0
 11
88.59518444143391
 21
40.61945434130583
 31
0.0
  0
LINE
  5
150
330
1F
100
AcDbEntity
  8
1
  6
CONTINUOUS
 62
     7
100
AcDbLine
 10
69.9047224134891
 20
38.61945434130583
 30
0.0
 11
80.69862775843792
 21
38.61945434130583
 31
0.0
  0
LINE
  5
151
330
1F
100
AcDbEntity
  8
1
  6
CONTINUOUS
 62
     7
100
AcDbLine
 10
96.56760820579446
 20
42.11945434130583
 30
0.0
 11
95.56623585979654
 21
42.11945434130583
 31
0.0
  0
LINE
  5
152
330
1F
100
AcDbEntity
  8
1
  6
CONTINUOUS
 62
     7
100
AcDbLine
 10
99.70137224156205
 20
38.61945434130583
 30
0.0
 11
99.77998391048662
 21
40.11945434130583
 31
0.0
  0
LINE
  5
153
330
1F
100
AcDbEntity
  8
1
  6
CONTINUOUS
 62
     7
100
AcDbLine
 10
112.8
 20
50.61945434130583
 30
0.0
 11
112.1752974542655
 21
50.61945434130583
 31
0.0
  0
LINE
  5
154
330
1F
100
AcDbEntity
  8
1
  6
CONTINUOUS
 62
     7
100
AcDbLine
 10
99.77998391048662
 20
40.11945434130583
 30
0.0
 11
108.8828972152855
 21
40.11945434130583
 31
0.0
  0
LINE
  5
155
330
1F
100
AcDbEntity
  8
1
  6
CONTINUOUS
 62
     7
100
AcDbLine
 10
110.6
 20
50.61945434130583
 30
0.0
 11
110.4952775865109
 21
38.61945434130583
 31
0.0
  0
LINE
  5
156
330
1F
100
AcDbEntity
  8
1
  6
CONTINUOUS
 62
     7
100
AcDbLine
 10
68.22470254573439
 20
50.61945434130583
 30
0.0
 11
67.59999999999998
 21
50.61945434130583
 31
0.0
  0
LINE
  5
157
330
1F
100
AcDbEntity
  8
1
  6
CONTINUOUS
 62
     7
100
AcDbLine
 10
97.59518444143389
 20
40.61945434130583
 30
0.0
 11
97.5662377405662
 21
41.17179029722115
 31
0.0
  0
LINE
  5
158
330
1F
100
AcDbEntity
  8
1
  6
CONTINUOUS
 62
     7
100
AcDbLine
 10
91.80481555856606
 20
40.61945434130583
 30
0.0
 11
91.77861166892454
 21
40.11945434130583
 31
0.0
  0
LINE
  5
159
330
1F
100
AcDbEntity
  8
1
  6
CONTINUOUS
 62
     7
100
AcDbLine
 10
80.62001608951336
 20
40.11945434130583
 30
0.0
 11
80.69862775843792
 21
38.61945434130583
 31
0.0
  0
LINE
  5
15A
330
1F
100
AcDbEntity
  8
1
  6
CONTINUOUS
 62
     7
100
AcDbLine
 10
67.59999999999998
 20
50.61945434130583
 30
0.0
 11
67.80946077913859
 21
38.61945434130583
 31
0.0
  0
LINE
  5
15B
330
1F
100
AcDbEntity
  8
1
  6
CONTINUOUS
 62
     7
100
AcDbLine
 10
110.6
 20
50.61945434130583
 30
0.0
 11
111.6836473663588
 21
50.61945434130583
 31
0.0
  0
LINE
  5
15C
330
1F
100
AcDbEntity
  8
1
  6
CONTINUOUS
 62
     7
100
AcDbLine
 10
82.83376225945094
 20
41.17179029754877
 30
0.0
 11
82.87339781562378
 21
41.17113266803071
 31
0.0
  0
LINE
  5
15D
330
1F
100
AcDbEntity
  8
1
  6
CONTINUOUS
 62
     7
100
AcDbLine
 10
83.47515693200621
 20
42.05346893071515
 30
0.0
 11
83.8323917942055
 21
42.11945434130583
 31
0.0
  0
LINE
  5
15E
330
1F
100
AcDbEntity
  8
1
  6
CONTINUOUS
 62
     7
100
AcDbLine
 10
71.51710278471448
 20
40.11945434130583
 30
0.0
 11
80.62001608951336
 21
40.11945434130583
 31
0.0
  0
LINE
  5
15F
330
1F
100
AcDbEntity
  8
1
  6
CONTINUOUS
 62
     7
100
AcDbLine
 10
90.19999999999997
 20
42.11945434130583
 30
0.0
 11
90.19999999999997
 21
40.61945434130583
 31
0.0
  0
LINE
  5
160
330
1F
100
AcDbEntity
  8
1
  6
CONTINUOUS
 62
     7
100
AcDbLine
 10
98.77861166892454
 20
40.11945434130583
 30
0.0
 11
98.69999999999997
 21
38.61945434130583
 31
0.0
  0
LINE
  5
161
330
1F
100
AcDbEntity
  8
1
  6
CONTINUOUS
 62
     7
100
AcDbLine
 10
112.5905392208614
 20
38.61945434130583
 30
0.0
 11
112.8
 21
50.61945434130583
 31
0.0
  0
LINE
  5
162
330
1F
100
AcDbEntity
  8
1
  6
CONTINUOUS
 62
     7
100
AcDbLine
 10
89.44999999999995
 20
40.61945434130583
 30
0.0
 11
90.19999999999997
 21
40.61945434130583
 31
0.0
  0
LINE
  5
163
330
1F
100
AcDbEntity
  8
1
  6
CONTINUOUS
 62
     7
100
AcDbLine
 10
68.434163324873
 20
38.61945434130583
 30
0.0
 11
68.92581341277977
 21
38.61945434130583
 31
0.0
  0
LINE
  5
164
330
1F
100
AcDbEntity
  8
1
  6
CONTINUOUS
 62
     7
100
AcDbLine
 10
90.94999999999997
 20
40.61945434130583
 30
0.0
 11
95.59243974943807
 21
40.61945434130583
 31
0.0
  0
LINE
  5
165
330
1F
100
AcDbEntity
  8
1
  6
CONTINUOUS
 62
     7
100
AcDbLine
 10
91.69999999999997
 20
38.61945434130583
 30
0.0
 11
97.69999999999997
 21
38.61945434130583
 31
0.0
  0
LINE
  5
166
330
1F
100
AcDbEntity
  8
1
  6
CONTINUOUS
 62
     7
100
AcDbLine
 10
90.19999999999997
 20
38.6194543413058
 30
0.0
 11
90.94999999999997
 21
38.6194543413058
 31
0.0
  0
LINE
  5
167
330
1F
100
AcDbEntity
  8
1
  6
CONTINUOUS
 62
     7
100
AcDbLine
 10
97.62138833107542
 20
40.11945434130583
 30
0.0
 11
98.77861166892454
 21
40.11945434130583
 31
0.0
  0
LINE
  5
168
330
1F
100
AcDbEntity
  8
1
  6
CONTINUOUS
 62
     7
100
AcDbLine
 10
81.62138833107544
 20
40.11945434130583
 30
0.0
 11
82.77861166892455
 21
40.11945434130583
 31
0.0
  0
LINE
  5
169
330
1F
100
AcDbEntity
  8
1
  6
CONTINUOUS
 62
     7
100
AcDbLine
 10
91.69200126112514
 20
38.61945434130583
 30
0.0
 11
91.69999999999997
 21
38.61945434130583
 31
0.0
  0
LINE
  5
16A
330
1F
100
AcDbEntity
  8
1
  6
CONTINUOUS
 62
     7
100
AcDbLine
 10
97.69999999999997
 20
38.61945434130583
 30
0.0
 11
97.62662910900372
 21
40.01945434130582
 31
0.0
  0
LINE
  5
16B
330
1F
100
AcDbEntity
  8
1
  6
CONTINUOUS
 62
     7
100
AcDbLine
 10
67.01430278048484
 20
50.61945434130583
 30
0.0
 11
67.59999999999998
 21
50.61945434130583
 31
0.0
  0
LINE
  5
16C
330
1F
100
AcDbEntity
  8
1
  6
CONTINUOUS
 62
     7
100
AcDbLine
 10
67.22376355962346
 20
38.61945434130583
 30
0.0
 11
51.27245871501957
 21
38.61945434130583
 31
0.0
  0
LINE
  5
16D
330
1F
100
AcDbEntity
  8
1
  6
CONTINUOUS
 62
     7
100
AcDbLine
 10
21.21003944941004
 20
38.61945434130583
 30
0.0
 11
17.81879705828033
 21
38.61945434130583
 31
0.0
  0
LINE
  5
16E
330
1F
100
AcDbEntity
  8
1
  6
CONTINUOUS
 62
     7
100
AcDbLine
 10
17.60933627914171
 20
50.61945434130584
 30
0.0
 11
21.00057867027144
 21
50.61945434130584
 31
0.0
  0
LINE
  5
16F
330
1F
100
AcDbEntity
  8
1
  6
CONTINUOUS
 62
     7
100
AcDbLine
 10
101.5727922061358
 20
40.11945434130583
 30
0.0
 11
101.5727922061358
 21
50.61945434130583
 31
0.0
  0
LINE
  5
170
330
1F
100
AcDbEntity
  8
1
  6
CONTINUOUS
 62
     7
100
AcDbLine
 10
82.69999999999999
 20
38.61945434130583
 30
0.0
 11
88.69999999999997
 21
38.61945434130583
 31
0.0
  0
LINE
  5
171
330
1F
100
AcDbEntity
  8
1
  6
CONTINUOUS
 62
     7
100
AcDbLine
 10
97.62662910900374
 20
40.01945434130582
 30
0.0
 11
97.62138833107542
 21
40.11945434130583
 31
0.0
  0
LINE
  5
172
330
1F
100
AcDbEntity
  8
1
  6
CONTINUOUS
 62
     7
100
AcDbLine
 10
109.2201364759257
 20
49.70661008405348
 30
0.0
 11
108.3813690329778
 21
40.11945434130583
 31
0.0
  0
ARC
  5
173
330
1F
100
AcDbEntity
  8
1
  6
CONTINUOUS
 62
     7
100
AcDbCircle
 10
70.18366882598256
 20
49.61945434130583
 30
0.0
 40
1.0
100
AcDbArc
 50
4.999999999999845
 51
90.00000000000001
  0
LINE
  5
174
330
1F
100
AcDbEntity
  8
1
  6
CONTINUOUS
 62
     7
100
AcDbLine
 10
88.7
 20
38.61945434130582
 30
0.0
 11
88.71056904023344
 21
38.61945434130583
 31
0.0
  0
LINE
  5
175
330
1F
100
AcDbEntity
  8
1
  6
CONTINUOUS
 62
     7
100
AcDbLine
 10
91.77337089099623
 20
40.01945434130583
 30
0.0
 11
91.7
 21
38.61945434130583
 31
0.0
  0
LINE
  5
176
330
1F
100
AcDbEntity
  8
1
  6
CONTINUOUS
 62
     7
100
AcDbLine
 10
90.94999999999997
 20
40.11945434130578
 30
0.0
 11
91.63796372790463
 21
40.11945434130583
 31
0.0
  0
LINE
  5
177
330
1F
100
AcDbEntity
  8
1
  6
CONTINUOUS
 62
     7
100
AcDbLine
 10
72.01863096702219
 20
40.11945434130583
 30
0.0
 11
71.1798635240743
 21
49.70661008405348
 31
0.0
  0
LINE
  5
178
330
1F
100
AcDbEntity
  8
1
  6
CONTINUOUS
 62
     7
100
AcDbLine
 10
89.44999999999997
 20
38.61945434130583
 30
0.0
 11
90.19999999999997
 21
38.6194543413058
 31
0.0
  0
LINE
  5
179
330
1F
100
AcDbEntity
  8
1
  6
CONTINUOUS
 62
     7
100
AcDbLine
 10
82.77337089099623
 20
40.01945434130583
 30
0.0
 11
82.69999999999999
 21
38.61945434130583
 31
0.0
  0
LINE
  5
17A
330
1F
100
AcDbEntity
  8
1
  6
CONTINUOUS
 62
     7
100
AcDbLine
 10
82.77337089099623
 20
40.01945434130583
 30
0.0
 11
82.77861166892455
 21
40.11945434130583
 31
0.0
  0
LINE
  5
17B
330
1F
100
AcDbEntity
  8
1
  6
CONTINUOUS
 62
     7
100
AcDbLine
 10
88.69999999999997
 20
38.61945434130583
 30
0.0
 11
88.62662910900373
 21
40.01945434130583
 31
0.0
  0
LINE
  5
17C
330
1F
100
AcDbEntity
  8
1
  6
CONTINUOUS
 62
     7
100
AcDbLine
 10
91.77337089099623
 20
40.01945434130583
 30
0.0
 11
91.77861166892454
 21
40.11945434130583
 31
0.0
  0
LINE
  5
17D
330
1F
100
AcDbEntity
  8
1
  6
CONTINUOUS
 62
     7
100
AcDbLine
 10
88.6420362055682
 20
40.11945434130583
 30
0.0
 11
88.68171950287024
 21
40.11945434130583
 31
0.0
  0
LINE
  5
17E
330
1F
100
AcDbEntity
  8
1
  6
CONTINUOUS
 62
     7
100
AcDbLine
 10
89.44999999999997
 20
40.11945434130583
 30
0.0
 11
89.44999999999997
 21
38.61945434130583
 31
0.0
  0
LINE
  5
17F
330
1F
100
AcDbEntity
  8
1
  6
CONTINUOUS
 62
     7
100
AcDbLine
 10
80.69862775843792
 20
38.61945434130583
 30
0.0
 11
81.69999999999999
 21
38.61945434130583
 31
0.0
  0
LINE
  5
180
330
1F
100
AcDbEntity
  8
1
  6
CONTINUOUS
 62
     7
100
AcDbLine
 10
110.6
 20
50.61945434130583
 30
0.0
 11
110.2163311740174
 21
50.61945434130583
 31
0.0
  0
LINE
  5
181
330
1F
100
AcDbEntity
  8
1
  6
CONTINUOUS
 62
     7
100
AcDbLine
 10
88.68171950287024
 20
40.11945434130583
 30
0.0
 11
89.44999999999997
 21
40.11945434130583
 31
0.0
  0
LINE
  5
182
330
1F
100
AcDbEntity
  8
1
  6
CONTINUOUS
 62
     7
100
AcDbLine
 10
91.63796372790463
 20
40.11945434130583
 30
0.0
 11
91.72893174756166
 21
40.11945434130583
 31
0.0
  0
LINE
  5
183
330
1F
100
AcDbEntity
  8
1
  6
CONTINUOUS
 62
     7
100
AcDbLine
 10
90.94999999999997
 20
38.6194543413058
 30
0.0
 11
91.69200126112514
 21
38.61945434130583
 31
0.0
  0
LINE
  5
184
330
1F
100
AcDbEntity
  8
1
  6
CONTINUOUS
 62
     7
100
AcDbLine
 10
89.44999999999997
 20
40.11945434130583
 30
0.0
 11
90.19999999999997
 21
40.1194543413058
 31
0.0
  0
LINE
  5
185
330
1F
100
AcDbEntity
  8
1
  6
CONTINUOUS
 62
     7
100
AcDbLine
 10
88.71056904023344
 20
38.61945434130583
 30
0.0
 11
89.44999999999997
 21
38.61945434130583
 31
0.0
  0
LINE
  5
186
330
1F
100
AcDbEntity
  8
1
  6
CONTINUOUS
 62
     7
100
AcDbLine
 10
67.80946077913859
 20
38.61945434130583
 30
0.0
 11
67.22376355962345
 21
38.61945434130583
 31
0.0
  0
LINE
  5
187
330
1F
100
AcDbEntity
  8
1
  6
CONTINUOUS
 62
     7
100
AcDbLine
 10
67.0142135623731
 20
50.61945434130583
 30
0.0
 11
51.18578643762689
 21
50.61945434130584
 31
0.0
  0
LINE
  5
188
330
1F
100
AcDbEntity
  8
1
  6
CONTINUOUS
 62
     7
100
AcDbLine
 10
49.85846054422193
 20
38.61945434130583
 30
0.0
 11
51.27245871501957
 21
38.61945434130583
 31
0.0
  0
LINE
  5
189
330
1F
100
AcDbEntity
  8
1
  6
CONTINUOUS
 62
     7
100
AcDbLine
 10
91.72893174756166
 20
40.11945434130583
 30
0.0
 11
91.75796379443179
 21
40.11945434130583
 31
0.0
  0
LINE
  5
18A
330
1F
100
AcDbEntity
  8
1
  6
CONTINUOUS
 62
     7
100
AcDbLine
 10
51.18569721951512
 20
50.61945434130584
 30
0.0
 11
49.77169904871747
 21
50.61945434130584
 31
0.0
  0
LINE
  5
18B
330
1F
100
AcDbEntity
  8
1
  6
CONTINUOUS
 62
     7
100
AcDbLine
 10
21.00057867027144
 20
50.61945434130584
 30
0.0
 11
21.21003944941004
 21
38.61945434130583
 31
0.0
  0
LINE
  5
18C
330
1F
100
AcDbEntity
  8
1
  6
CONTINUOUS
 62
     7
100
AcDbLine
 10
49.85846054422193
 20
38.61945434130583
 30
0.0
 11
21.21003944941004
 21
38.61945434130583
 31
0.0
  0
LINE
  5
18D
330
1F
100
AcDbEntity
  8
1
  6
CONTINUOUS
 62
     7
100
AcDbLine
 10
90.94999999999997
 20
40.11945434130578
 30
0.0
 11
90.94999999999997
 21
38.6194543413058
 31
0.0
  0
LINE
  5
18E
330
1F
100
AcDbEntity
  8
1
  6
CONTINUOUS
 62
     7
100
AcDbLine
 10
49.77169904871747
 20
50.61945434130584
 30
0.0
 11
49.7715728752538
 21
50.61945434130584
 31
0.0
  0
LINE
  5
18F
330
1F
100
AcDbEntity
  8
1
  6
CONTINUOUS
 62
     7
100
AcDbLine
 10
70.18366882598256
 20
50.61945434130583
 30
0.0
 11
69.79999999999998
 21
50.61945434130583
 31
0.0
  0
LINE
  5
190
330
1F
100
AcDbEntity
  8
1
  6
CONTINUOUS
 62
     7
100
AcDbLine
 10
49.7715728752538
 20
50.61945434130584
 30
0.0
 11
21.00057867027144
 21
50.61945434130584
 31
0.0
  0
LINE
  5
191
330
1F
100
AcDbEntity
  8
1
  6
CONTINUOUS
 62
     7
100
AcDbLine
 10
17.4094607791386
 20
38.61945434130583
 30
0.0
 11
17.2
 21
50.61945434130584
 31
0.0
  0
LINE
  5
192
330
1F
100
AcDbEntity
  8
1
  6
CONTINUOUS
 62
     7
100
AcDbLine
 10
17.81879705828033
 20
38.61945434130583
 30
0.0
 11
17.40946077913861
 21
38.61945434130583
 31
0.0
  0
LINE
  5
193
330
1F
100
AcDbEntity
  8
1
  6
CONTINUOUS
 62
     7
100
AcDbLine
 10
17.2
 20
50.61945434130584
 30
0.0
 11
17.60933627914171
 21
50.61945434130584
 31
0.0
  0
LINE
  5
194
330
1F
100
AcDbEntity
  8
1
  6
CONTINUOUS
 62
     7
100
AcDbLine
 10
108.4033845024714
 20
50.61945434130583
 30
0.0
 11
108.6
 21
50.61945434130583
 31
0.0
  0
ARC
  5
195
330
1F
100
AcDbEntity
  8
1
  6
CONTINUOUS
 62
     7
100
AcDbCircle
 10
110.2163311740174
 20
49.61945434130583
 30
0.0
 40
1.0
100
AcDbArc
 50
90.0
 51
174.9999999999998
  0
LINE
  5
196
330
1F
100
AcDbEntity
  8
1
  6
CONTINUOUS
 62
     7
100
AcDbLine
 10
88.62138833107544
 20
40.11945434130583
 30
0.0
 11
88.62662910900373
 21
40.01945434130583
 31
0.0
  0
LINE
  5
197
330
1F
100
AcDbEntity
  8
1
  6
CONTINUOUS
 62
     7
100
AcDbLine
 10
81.62138833107541
 20
40.11945434130583
 30
0.0
 11
80.62001608951336
 21
40.11945434130583
 31
0.0
  0
LINE
  5
198
330
1F
100
AcDbEntity
  8
1
  6
CONTINUOUS
 62
     7
100
AcDbLine
 10
81.69999999999999
 20
38.61945434130583
 30
0.0
 11
81.62138833107541
 21
40.11945434130583
 31
0.0
  0
LINE
  5
199
330
1F
100
AcDbEntity
  8
1
  6
CONTINUOUS
 62
     7
100
AcDbLine
 10
97.69999999999997
 20
38.61945434130583
 30
0.0
 11
98.69999999999997
 21
38.61945434130583
 31
0.0
  0
LINE
  5
19A
330
1F
100
AcDbEntity
  8
1
  6
CONTINUOUS
 62
     7
100
AcDbLine
 10
81.69999999999999
 20
38.61945434130583
 30
0.0
 11
82.69999999999999
 21
38.61945434130583
 31
0.0
  0
LINE
  5
19B
330
1F
100
AcDbEntity
  8
1
  6
CONTINUOUS
 62
     7
100
AcDbLine
 10
90.19999999999997
 20
40.1194543413058
 30
0.0
 11
90.19999999999997
 21
38.6194543413058
 31
0.0
  0
LINE
  5
19C
330
1F
100
AcDbEntity
  8
1
  6
CONTINUOUS
 62
     7
100
AcDbLine
 10
90.19999999999997
 20
40.1194543413058
 30
0.0
 11
90.94999999999997
 21
40.11945434130578
 31
0.0
  0
LINE
  5
19D
330
1F
100
AcDbEntity
  8
1
  6
CONTINUOUS
 62
     7
100
AcDbLine
 10
72.47749762020214
 20
71.22304116263308
 30
0.0
 11
68.33904318995451
 21
70.39835488991744
 31
0.0
  0
LINE
  5
19E
330
1F
100
AcDbEntity
  8
1
  6
CONTINUOUS
 62
     7
100
AcDbLine
 10
112.8
 20
50.61945434130583
 30
0.0
 11
112.4631649329062
 21
69.91672241100335
 31
0.0
  0
ARC
  5
19F
330
1F
100
AcDbEntity
  8
1
  6
CONTINUOUS
 62
     7
100
AcDbCircle
 10
-106.9453451326233
 20
66.31945434130581
 30
0.0
 40
5.000000000000007
210
0.0
220
0.0
230
-1.0
100
AcDbArc
 50
101.1592807174379
 51
101.2699287635202
  0
ELLIPSE
  5
1A0
330
1F
100
AcDbEntity
  8
1
  6
CONTINUOUS
 62
     7
100
AcDbEllipse
 10
18.62256224480225
 20
69.90799620778473
 30
0.0
 11
-2.714864802312282
 21
-0.01069565154034188
 31
0.0
210
0.0
220
0.0
230
1.0
 40
0.1841290916301649
 41
3.137653011292979
 42
3.15117217740629
  0
LINE
  5
1A1
330
1F
100
AcDbEntity
  8
1
  6
CONTINUOUS
 62
     7
100
AcDbLine
 10
112.0609568100454
 20
70.39835488991744
 30
0.0
 11
112.0685160838334
 21
70.39678775301611
 31
0.0
  0
LINE
  5
1A2
330
1F
100
AcDbEntity
  8
1
  6
CONTINUOUS
 62
     7
100
AcDbLine
 10
68.33148391616658
 20
70.39678775301611
 30
0.0
 11
68.33904318995451
 21
70.39835488991746
 31
0.0
  0
ARC
  5
1A3
330
1F
100
AcDbEntity
  8
1
  6
CONTINUOUS
 62
     7
100
AcDbCircle
 10
106.3433155909119
 20
64.11945434130583
 30
0.0
 40
5.0
100
AcDbArc
 50
79.56252464888192
 51
89.99999999999999
  0
LINE
  5
1A4
330
1F
100
AcDbEntity
  8
1
  6
CONTINUOUS
 62
     7
100
AcDbLine
 10
73.15087226170338
 20
69.0367202842512
 30
0.0
 11
70.36138731368021
 21
68.52286779382588
 31
0.0
  0
LINE
  5
1A5
330
1F
100
AcDbEntity
  8
1
  6
CONTINUOUS
 62
     7
100
AcDbLine
 10
92.89673944075749
 20
63.12417482558875
 30
0.0
 11
92.88116950495373
 21
63.12394882587245
 31
0.0
  0
ARC
  5
1A6
330
1F
100
AcDbEntity
  8
1
  6
CONTINUOUS
 62
     7
100
AcDbCircle
 10
-106.9453451326233
 20
66.31945434130581
 30
0.0
 40
5.000000000000006
210
0.0
220
0.0
230
-1.0
100
AcDbArc
 50
90.0
 51
90.11050080922361
  0
LINE
  5
1A7
330
1F
100
AcDbEntity
  8
1
  6
CONTINUOUS
 62
     7
100
AcDbLine
 10
74.05668440908805
 20
69.11945434130581
 30
0.0
 11
106.3433155909119
 21
69.11945434130581
 31
0.0
  0
LINE
  5
1A8
330
1F
100
AcDbEntity
  8
1
  6
CONTINUOUS
 62
     7
100
AcDbLine
 10
71.73650913350541
 20
43.34412165415337
 30
0.0
 11
71.95880870633759
 21
68.81712962931537
 31
0.0
  0
LINE
  5
1A9
330
1F
100
AcDbEntity
  8
1
  6
CONTINUOUS
 62
     7
100
AcDbLine
 10
71.79999999999997
 20
50.61945434130584
 30
0.0
 11
83.78212844498096
 21
50.61945434130584
 31
0.0
  0
LINE
  5
1AA
330
1F
100
AcDbEntity
  8
1
  6
CONTINUOUS
 62
     7
100
AcDbLine
 10
111.6836473663588
 20
50.61945434130583
 30
0.0
 11
112.1752974542655
 21
50.61945434130583
 31
0.0
  0
LINE
  5
1AB
330
1F
100
AcDbEntity
  8
1
  6
CONTINUOUS
 62
     7
100
AcDbLine
 10
40.05714285714286
 20
52.61945434130585
 30
0.0
 11
39.91428571428572
 21
53.61945434130585
 31
0.0
  0
LINE
  5
1AC
330
1F
100
AcDbEntity
  8
1
  6
CONTINUOUS
 62
     7
100
AcDbLine
 10
110.0386126863197
 20
68.52286779382587
 30
0.0
 11
107.2491277382966
 21
69.03672028425119
 31
0.0
  0
LINE
  5
1AD
330
1F
100
AcDbEntity
  8
1
  6
CONTINUOUS
 62
     7
100
AcDbLine
 10
67.93683506709378
 20
69.91672241100336
 30
0.0
 11
67.59999999999998
 21
50.61945434130583
 31
0.0
  0
LINE
  5
1AE
330
1F
100
AcDbEntity
  8
1
  6
CONTINUOUS
 62
     7
100
AcDbLine
 10
40.2
 20
51.61945434130585
 30
0.0
 11
38.2
 21
51.61945434130585
 31
0.0
  0
LINE
  5
1AF
330
1F
100
AcDbEntity
  8
1
  6
CONTINUOUS
 62
     7
100
AcDbLine
 10
68.22470254573439
 20
50.61945434130583
 30
0.0
 11
68.71635263364116
 21
50.61945434130583
 31
0.0
  0
LINE
  5
1B0
330
1F
100
AcDbEntity
  8
1
  6
CONTINUOUS
 62
     7
100
AcDbLine
 10
39.77142857142857
 20
54.61945434130585
 30
0.0
 11
39.62857142857143
 21
55.61945434130585
 31
0.0
  0
LINE
  5
1B1
330
1F
100
AcDbEntity
  8
1
  6
CONTINUOUS
 62
     7
100
AcDbLine
 10
70.29999999999998
 20
50.61945434130586
 30
0.0
 11
70.18366882598256
 21
50.61945434130583
 31
0.0
  0
ARC
  5
1B2
330
1F
100
AcDbEntity
  8
1
  6
CONTINUOUS
 62
     7
100
AcDbCircle
 10
-73.45465486737662
 20
66.31945434130581
 30
0.0
 40
5.000000000000006
210
0.0
220
0.0
230
-1.0
100
AcDbArc
 50
78.73007123648021
 51
78.84071928256242
  0
LINE
  5
1B3
330
1F
100
AcDbEntity
  8
1
  6
CONTINUOUS
 62
     7
100
AcDbLine
 10
55.32565259585575
 20
71.31945434130583
 30
0.0
 11
62.87273875686159
 21
71.31945434130583
 31
0.0
  0
LINE
  5
1B4
330
1F
100
AcDbEntity
  8
1
  6
CONTINUOUS
 62
     7
100
AcDbLine
 10
39.48571428571429
 20
56.61945434130584
 30
0.0
 11
39.34285714285715
 21
57.61945434130585
 31
0.0
  0
LINE
  5
1B5
330
1F
100
AcDbEntity
  8
1
  6
CONTINUOUS
 62
     7
100
AcDbLine
 10
108.4033008588991
 20
50.61945434130583
 30
0.0
 11
101.5727922061358
 21
50.61945434130583
 31
0.0
  0
LINE
  5
1B6
330
1F
100
AcDbEntity
  8
1
  6
CONTINUOUS
 62
     7
100
AcDbLine
 10
89.08534566030787
 20
50.61945434130583
 30
0.0
 11
83.78224673485524
 21
50.61945434130584
 31
0.0
  0
LINE
  5
1B7
330
1F
100
AcDbEntity
  8
1
  6
CONTINUOUS
 62
     7
100
AcDbLine
 10
96.62010605921903
 20
63.61945434130583
 30
0.0
 11
97.00982345906661
 21
63.61945434130583
 31
0.0
  0
LINE
  5
1B8
330
1F
100
AcDbEntity
  8
1
  6
CONTINUOUS
 62
     7
100
AcDbLine
 10
67.6
 20
50.61945434130583
 30
0.0
 11
67.59946891548763
 21
50.61945434130583
 31
0.0
  0
LINE
  5
1B9
330
1F
100
AcDbEntity
  8
1
  6
CONTINUOUS
 62
     7
100
AcDbLine
 10
106.9549881413808
 20
71.31944504253539
 30
0.0
 11
107.9130308904905
 21
71.22491907708988
 31
0.0
  0
LINE
  5
1BA
330
1F
100
AcDbEntity
  8
1
  6
CONTINUOUS
 62
     7
100
AcDbLine
 10
69.95198756688659
 20
68.03550446728052
 30
0.0
 11
69.79999999999998
 21
50.61945434130583
 31
0.0
  0
LINE
  5
1BB
330
1F
100
AcDbEntity
  8
1
  6
CONTINUOUS
 62
     7
100
AcDbLine
 10
110.2163311740174
 20
50.61945434130585
 30
0.0
 11
110.1
 21
50.61945434130585
 31
0.0
  0
ARC
  5
1BC
330
1F
100
AcDbEntity
  8
1
  6
CONTINUOUS
 62
     7
100
AcDbCircle
 10
74.05668440908805
 20
64.11945434130583
 30
0.0
 40
5.000000000000002
100
AcDbArc
 50
90.0
 51
100.4374753511181
  0
LINE
  5
1BD
330
1F
100
AcDbEntity
  8
1
  6
CONTINUOUS
 62
     7
100
AcDbLine
 10
70.29999999999998
 20
50.61266482149204
 30
0.0
 11
70.29999999999998
 21
50.61945434130586
 31
0.0
  0
LINE
  5
1BE
330
1F
100
AcDbEntity
  8
1
  6
CONTINUOUS
 62
     7
100
AcDbLine
 10
63.60699355959615
 20
71.31945434130583
 30
0.0
 11
62.87273875686159
 21
71.31945434130583
 31
0.0
  0
LINE
  5
1BF
330
1F
100
AcDbEntity
  8
1
  6
CONTINUOUS
 62
     7
100
AcDbLine
 10
39.91428571428572
 20
53.61945434130585
 30
0.0
 11
39.77142857142857
 21
54.61945434130585
 31
0.0
  0
LINE
  5
1C0
330
1F
100
AcDbEntity
  8
1
  6
CONTINUOUS
 62
     7
100
AcDbLine
 10
99.16219102306076
 20
63.61945434130583
 30
0.0
 11
99.50936843578556
 21
63.61945434130583
 31
0.0
  0
LINE
  5
1C1
330
1F
100
AcDbEntity
  8
1
  6
CONTINUOUS
 62
     7
100
AcDbLine
 10
108.4411912936624
 20
68.81712962931537
 30
0.0
 11
108.6634908664945
 21
43.34412165415316
 31
0.0
  0
LINE
  5
1C2
330
1F
100
AcDbEntity
  8
1
  6
CONTINUOUS
 62
     7
100
AcDbLine
 10
110.1
 20
50.61945434130585
 30
0.0
 11
110.1
 21
50.61266482149204
 31
0.0
  0
LINE
  5
1C3
330
1F
100
AcDbEntity
  8
1
  6
CONTINUOUS
 62
     7
100
AcDbLine
 10
97.00982345906661
 20
63.61945434130583
 30
0.0
 11
99.16219102306076
 21
63.61945434130583
 31
0.0
  0
LINE
  5
1C4
330
1F
100
AcDbEntity
  8
1
  6
CONTINUOUS
 62
     7
100
AcDbLine
 10
21.33741373736522
 20
69.91672241100338
 30
0.0
 11
21.00057867027143
 21
50.61945434130584
 31
0.0
  0
LINE
  5
1C5
330
1F
100
AcDbEntity
  8
1
  6
CONTINUOUS
 62
     7
100
AcDbLine
 10
71.15407972060194
 20
71.31945434130583
 30
0.0
 11
73.45465486737665
 21
71.31945434130583
 31
0.0
  0
LINE
  5
1C6
330
1F
100
AcDbEntity
  8
1
  6
CONTINUOUS
 62
     7
100
AcDbLine
 10
38.2
 20
50.61945434130585
 30
0.0
 11
38.2
 21
51.61945434130585
 31
0.0
  0
LINE
  5
1C7
330
1F
100
AcDbEntity
  8
1
  6
CONTINUOUS
 62
     7
100
AcDbLine
 10
40.2
 20
51.61945434130585
 30
0.0
 11
40.05714285714286
 21
52.61945434130585
 31
0.0
  0
LINE
  5
1C8
330
1F
100
AcDbEntity
  8
1
  6
CONTINUOUS
 62
     7
100
AcDbLine
 10
39.62857142857143
 20
55.61945434130585
 30
0.0
 11
39.48571428571429
 21
56.61945434130584
 31
0.0
  0
LINE
  5
1C9
330
1F
100
AcDbEntity
  8
1
  6
CONTINUOUS
 62
     7
100
AcDbLine
 10
67.93683506709378
 20
69.91672241100336
 30
0.0
 11
67.93699871879929
 21
69.92347996124772
 31
0.0
  0
LINE
  5
1CA
330
1F
100
AcDbEntity
  8
1
  6
CONTINUOUS
 62
     7
100
AcDbLine
 10
39.34285714285715
 20
57.61945434130585
 30
0.0
 11
39.3226540919661
 21
57.76087569754316
 31
0.0
  0
LINE
  5
1CB
330
1F
100
AcDbEntity
  8
1
  6
CONTINUOUS
 62
     7
100
AcDbLine
 10
93.52758983330162
 20
63.61945434130583
 30
0.0
 11
96.62010605921903
 21
63.61945434130583
 31
0.0
  0
LINE
  5
1CC
330
1F
100
AcDbEntity
  8
1
  6
CONTINUOUS
 62
     7
100
AcDbLine
 10
106.9453451326233
 20
71.31945434130581
 30
0.0
 11
73.45465486737663
 21
71.31945434130581
 31
0.0
  0
ARC
  5
1CD
330
1F
100
AcDbEntity
  8
1
  6
CONTINUOUS
 62
     7
100
AcDbCircle
 10
38.33270459830494
 20
57.61945434130585
 30
0.0
 40
1.0
100
AcDbArc
 50
8.130102354156138
 51
89.99999999999991
  0
LINE
  5
1CE
330
1F
100
AcDbEntity
  8
1
  6
CONTINUOUS
 62
     7
100
AcDbLine
 10
30.06729540169507
 20
58.61945434130585
 30
0.0
 11
38.33270459830494
 21
58.61945434130585
 31
0.0
  0
ARC
  5
1CF
330
1F
100
AcDbEntity
  8
1
  6
CONTINUOUS
 62
     7
100
AcDbCircle
 10
30.06729540169507
 20
57.61945434130585
 30
0.0
 40
1.0
100
AcDbArc
 50
90.0
 51
171.8698976458438
  0
LINE
  5
1D0
330
1F
100
AcDbEntity
  8
1
  6
CONTINUOUS
 62
     7
100
AcDbLine
 10
29.07734590803391
 20
57.76087569754316
 30
0.0
 11
29.05714285714286
 21
57.61945434130585
 31
0.0
  0
LINE
  5
1D1
330
1F
100
AcDbEntity
  8
1
  6
CONTINUOUS
 62
     7
100
AcDbLine
 10
89.08542930388005
 20
50.61945434130584
 30
0.0
 11
92.7858005509298
 21
50.61945434130584
 31
0.0
  0
LINE
  5
1D2
330
1F
100
AcDbEntity
  8
1
  6
CONTINUOUS
 62
     7
100
AcDbLine
 10
29.05714285714286
 20
57.61945434130585
 30
0.0
 11
28.91428571428572
 21
56.61945434130585
 31
0.0
  0
LINE
  5
1D3
330
1F
100
AcDbEntity
  8
1
  6
CONTINUOUS
 62
     7
100
AcDbLine
 10
67.59946891548763
 20
50.61945434130583
 30
0.0
 11
67.0142135623731
 21
50.61945434130583
 31
0.0
  0
ELLIPSE
  5
1D4
330
1F
100
AcDbEntity
  8
1
  6
CONTINUOUS
 62
     7
100
AcDbEllipse
 10
93.38245937709074
 20
63.11945434130583
 30
0.0
 11
0.0
 21
0.5000000000000004
 31
0.0
210
0.0
220
0.0
230
-1.0
 40
0.997378746275293
 41
4.896158416446064
 42
5.597997350035348
  0
LINE
  5
1D5
330
1F
100
AcDbEntity
  8
1
  6
CONTINUOUS
 62
     7
100
AcDbLine
 10
112.4630012812007
 20
69.92347996124771
 30
0.0
 11
112.4631649329062
 21
69.91672241100335
 31
0.0
  0
LINE
  5
1D6
330
1F
100
AcDbEntity
  8
1
  6
CONTINUOUS
 62
     7
100
AcDbLine
 10
83.78212844498096
 20
50.61945434130584
 30
0.0
 11
83.78224673485524
 21
50.61945434130584
 31
0.0
  0
LINE
  5
1D7
330
1F
100
AcDbEntity
  8
1
  6
CONTINUOUS
 62
     7
100
AcDbLine
 10
73.44501185861918
 20
71.31944504253539
 30
0.0
 11
72.48696910950947
 21
71.22491907708988
 31
0.0
  0
ARC
  5
1D8
330
1F
100
AcDbEntity
  8
1
  6
CONTINUOUS
 62
     7
100
AcDbCircle
 10
-73.45465486737662
 20
66.31945434130581
 30
0.0
 40
5.000000000000006
210
0.0
220
0.0
230
-1.0
100
AcDbArc
 50
89.88949919077672
 51
90.00000000000016
  0
LINE
  5
1D9
330
1F
100
AcDbEntity
  8
1
  6
CONTINUOUS
 62
     7
100
AcDbLine
 10
63.60699355959615
 20
71.31945434130583
 30
0.0
 11
71.15407972060194
 21
71.31945434130583
 31
0.0
  0
LINE
  5
1DA
330
1F
100
AcDbEntity
  8
1
  6
CONTINUOUS
 62
     7
100
AcDbLine
 10
112.0609568100454
 20
70.39835488991744
 30
0.0
 11
107.9225023797978
 21
71.22304116263307
 31
0.0
  0
LINE
  5
1DB
330
1F
100
AcDbEntity
  8
1
  6
CONTINUOUS
 62
     7
100
AcDbLine
 10
49.7715728752538
 20
50.61945434130584
 30
0.0
 11
51.18578643762689
 21
50.61945434130584
 31
0.0
  0
LINE
  5
1DC
330
1F
100
AcDbEntity
  8
1
  6
CONTINUOUS
 62
     7
100
AcDbLine
 10
110.4480124331134
 20
68.03550446728052
 30
0.0
 11
110.6
 21
50.61945434130583
 31
0.0
  0
LINE
  5
1DD
330
1F
100
AcDbEntity
  8
1
  6
CONTINUOUS
 62
     7
100
AcDbLine
 10
21.36126919497458
 20
71.3194450425354
 30
0.0
 11
21.35964121324636
 21
71.2249190770899
 31
0.0
  0
LINE
  5
1DE
330
1F
100
AcDbEntity
  8
1
  6
CONTINUOUS
 62
     7
100
AcDbLine
 10
39.48571428571429
 20
56.61945434130584
 30
0.0
 11
28.91428571428572
 21
56.61945434130585
 31
0.0
  0
LINE
  5
1DF
330
1F
100
AcDbEntity
  8
1
  6
CONTINUOUS
 62
     7
100
AcDbLine
 10
21.33728361475273
 20
69.92347996124774
 30
0.0
 11
21.34491316437072
 21
70.39678775301613
 31
0.0
  0
LINE
  5
1E0
330
1F
100
AcDbEntity
  8
1
  6
CONTINUOUS
 62
     7
100
AcDbLine
 10
17.60933627914171
 20
50.61945434130584
 30
0.0
 11
17.2
 21
50.61945434130584
 31
0.0
  0
LINE
  5
1E1
330
1F
100
AcDbEntity
  8
1
  6
CONTINUOUS
 62
     7
100
AcDbLine
 10
28.62857142857143
 20
54.61945434130585
 30
0.0
 11
28.48571428571429
 21
53.61945434130585
 31
0.0
  0
LINE
  5
1E2
330
1F
100
AcDbEntity
  8
1
  6
CONTINUOUS
 62
     7
100
AcDbLine
 10
28.91428571428572
 20
56.61945434130585
 30
0.0
 11
28.77142857142858
 21
55.61945434130585
 31
0.0
  0
ELLIPSE
  5
1E3
330
1F
100
AcDbEntity
  8
1
  6
CONTINUOUS
 62
     7
100
AcDbEllipse
 10
-5.872925132050778
 20
66.31945434130583
 30
0.0
 11
-27.23205822607678
 21
-4.910186859115716
 31
0.0
210
0.0
220
0.0
230
1.0
 40
0.0346441888165796
 41
3.134719752609894
 42
3.136650925324936
  0
LINE
  5
1E4
330
1F
100
AcDbEntity
  8
1
  6
CONTINUOUS
 62
     7
100
AcDbLine
 10
39.77142857142857
 20
54.61945434130585
 30
0.0
 11
28.62857142857143
 21
54.61945434130585
 31
0.0
  0
LINE
  5
1E5
330
1F
100
AcDbEntity
  8
1
  6
CONTINUOUS
 62
     7
100
AcDbLine
 10
17.2
 20
50.61945434130584
 30
0.0
 11
17.52795339583735
 21
69.4078918055049
 31
0.0
  0
LINE
  5
1E6
330
1F
100
AcDbEntity
  8
1
  6
CONTINUOUS
 62
     7
100
AcDbLine
 10
17.52795339583735
 20
69.4078918055049
 30
0.0
 11
17.54047622821491
 21
70.1253243919234
 31
0.0
  0
LINE
  5
1E7
330
1F
100
AcDbEntity
  8
1
  6
CONTINUOUS
 62
     7
100
AcDbLine
 10
30.2
 20
51.61945434130585
 30
0.0
 11
30.2
 21
52.61945434130585
 31
0.0
  0
LINE
  5
1E8
330
1F
100
AcDbEntity
  8
1
  6
CONTINUOUS
 62
     7
100
AcDbLine
 10
17.95159798577211
 20
70.69345587997479
 30
0.0
 11
21.36126919497458
 21
71.3194450425354
 31
0.0
  0
LINE
  5
1E9
330
1F
100
AcDbEntity
  8
1
  6
CONTINUOUS
 62
     7
100
AcDbLine
 10
30.2
 20
50.61945434130585
 30
0.0
 11
30.2
 21
51.61945434130585
 31
0.0
  0
LINE
  5
1EA
330
1F
100
AcDbEntity
  8
1
  6
CONTINUOUS
 62
     7
100
AcDbLine
 10
38.2
 20
51.61945434130585
 30
0.0
 11
38.2
 21
52.61945434130585
 31
0.0
  0
LINE
  5
1EB
330
1F
100
AcDbEntity
  8
1
  6
CONTINUOUS
 62
     7
100
AcDbLine
 10
39.34285714285715
 20
57.61945434130585
 30
0.0
 11
29.05714285714286
 21
57.61945434130585
 31
0.0
  0
LINE
  5
1EC
330
1F
100
AcDbEntity
  8
1
  6
CONTINUOUS
 62
     7
100
AcDbLine
 10
21.34491316437072
 20
70.39678775301613
 30
0.0
 11
21.34526410305256
 21
70.39835488991747
 31
0.0
  0
LINE
  5
1ED
330
1F
100
AcDbEntity
  8
1
  6
CONTINUOUS
 62
     7
100
AcDbLine
 10
28.34285714285715
 20
52.61945434130585
 30
0.0
 11
28.2
 21
51.61945434130585
 31
0.0
  0
LINE
  5
1EE
330
1F
100
AcDbEntity
  8
1
  6
CONTINUOUS
 62
     7
100
AcDbLine
 10
101.7495689014324
 20
50.61945434130583
 30
0.0
 11
101.5890735392607
 21
63.62381760905501
 31
0.0
  0
LINE
  5
1EF
330
1F
100
AcDbEntity
  8
1
  6
CONTINUOUS
 62
     7
100
AcDbLine
 10
39.62857142857143
 20
55.61945434130585
 30
0.0
 11
28.77142857142858
 21
55.61945434130585
 31
0.0
  0
LINE
  5
1F0
330
1F
100
AcDbEntity
  8
1
  6
CONTINUOUS
 62
     7
100
AcDbLine
 10
83.78212844498096
 20
50.61945434130584
 30
0.0
 11
89.08542930388005
 21
50.61945434130583
 31
0.0
  0
LINE
  5
1F1
330
1F
100
AcDbEntity
  8
1
  6
CONTINUOUS
 62
     7
100
AcDbLine
 10
21.36131984401411
 20
71.31945434130583
 30
0.0
 11
49.7715728752538
 21
71.31945434130583
 31
0.0
  0
LINE
  5
1F2
330
1F
100
AcDbEntity
  8
1
  6
CONTINUOUS
 62
     7
100
AcDbLine
 10
28.77142857142858
 20
55.61945434130585
 30
0.0
 11
28.62857142857143
 21
54.61945434130585
 31
0.0
  0
LINE
  5
1F3
330
1F
100
AcDbEntity
  8
1
  6
CONTINUOUS
 62
     7
100
AcDbLine
 10
28.48571428571429
 20
53.61945434130585
 30
0.0
 11
28.34285714285715
 21
52.61945434130585
 31
0.0
  0
LINE
  5
1F4
330
1F
100
AcDbEntity
  8
1
  6
CONTINUOUS
 62
     7
100
AcDbLine
 10
40.05714285714286
 20
52.61945434130585
 30
0.0
 11
28.34285714285715
 21
52.61945434130585
 31
0.0
  0
LINE
  5
1F5
330
1F
100
AcDbEntity
  8
1
  6
CONTINUOUS
 62
     7
100
AcDbLine
 10
21.35965905548821
 20
71.22304116263308
 30
0.0
 11
21.34526410305255
 21
70.39835488991746
 31
0.0
  0
LINE
  5
1F6
330
1F
100
AcDbEntity
  8
1
  6
CONTINUOUS
 62
     7
100
AcDbLine
 10
108.6
 20
50.61945434130583
 30
0.0
 11
108.4033008588991
 21
50.61945434130583
 31
0.0
  0
LINE
  5
1F7
330
1F
100
AcDbEntity
  8
1
  6
CONTINUOUS
 62
     7
100
AcDbLine
 10
39.91428571428572
 20
53.61945434130585
 30
0.0
 11
28.48571428571429
 21
53.61945434130585
 31
0.0
  0
LINE
  5
1F8
330
1F
100
AcDbEntity
  8
1
  6
CONTINUOUS
 62
     7
100
AcDbLine
 10
95.73916126134677
 20
63.61945434130583
 30
0.0
 11
95.73916126134677
 21
63.62381760905504
 31
0.0
  0
ARC
  5
1F9
330
1F
100
AcDbEntity
  8
1
  6
CONTINUOUS
 62
     7
100
AcDbCircle
 10
-18.04188510055435
 20
70.20167520029705
 30
0.0
 40
0.5000000000000024
210
0.0
220
0.0
230
-1.0
100
AcDbArc
 50
0.9999999999994502
 51
79.59679116869432
  0
LINE
  5
1FA
330
1F
100
AcDbEntity
  8
1
  6
CONTINUOUS
 62
     7
100
AcDbLine
 10
55.32565259585576
 20
71.31945434130583
 30
0.0
 11
49.7715728752538
 21
71.31945434130583
 31
0.0
  0
LINE
  5
1FB
330
1F
100
AcDbEntity
  8
1
  6
CONTINUOUS
 62
     7
100
AcDbLine
 10
101.2324751221726
 20
64.11945434130584
 30
0.0
 11
96.08964270098572
 21
64.11945434130585
 31
0.0
  0
LINE
  5
1FC
330
1F
100
AcDbEntity
  8
1
  6
CONTINUOUS
 62
     7
100
AcDbLine
 10
30.2
 20
51.61945434130585
 30
0.0
 11
28.2
 21
51.61945434130585
 31
0.0
  0
LINE
  5
1FD
330
1F
100
AcDbEntity
  8
1
  6
CONTINUOUS
 62
     7
100
AcDbLine
 10
91.79351665425655
 20
40.4056763990539
 30
0.0
 11
91.7930272975141
 21
40.39897926397531
 31
0.0
  0
LINE
  5
1FE
330
1F
100
AcDbEntity
  8
1
  6
CONTINUOUS
 62
     7
100
AcDbLine
 10
17.54047622821491
 20
70.1253243919234
 30
0.0
 11
17.54196125297615
 21
70.2104014035157
 31
0.0
  0
ENDSEC
  0
SECTION
  2
OBJECTS
  0
DICTIONARY
  5
C
330
0
100
AcDbDictionary
  3
ACAD_GROUP
350
D
  3
ACAD_LAYOUT
350
1A
  3
ACAD_MATERIAL
350
43
  3
ACAD_MLEADERSTYLE
350
6B
  3
ACAD_MLINESTYLE
350
17
  3
ACAD_PLOTSETTINGS
350
19
  3
ACAD_SCALELIST
350
47
  3
ACAD_VISUALSTYLE
350
2A
  3
ACDBHEADERROUNDTRIPXREC
350
1FF
  3
ACDBVARIABLEDICTIONARY
350
220
  0
DICTIONARY
  5
227
330
8
100
AcDbDictionary
280
     1
  3
ACAD_XREC_ROUNDTRIP
360
228
  0
DICTIONARY
  5
D
102
{ACAD_REACTORS
330
C
102
}
330
C
100
AcDbDictionary
  0
DICTIONARY
  5
1A
102
{ACAD_REACTORS
330
C
102
}
330
C
100
AcDbDictionary
  0
DICTIONARY
  5
43
102
{ACAD_REACTORS
330
C
102
}
330
C
100
AcDbDictionary
  3
BYBLOCK
350
45
  3
BYLAYER
350
44
  3
GLOBAL
350
46
  0
DICTIONARY
  5
6B
102
{ACAD_REACTORS
330
C
102
}
330
C
100
AcDbDictionary
  3
STANDARD
350
6C
  0
DICTIONARY
  5
17
102
{ACAD_REACTORS
330
C
102
}
330
C
100
AcDbDictionary
  3
STANDARD
350
18
  0
DICTIONARY
  5
19
102
{ACAD_REACTORS
330
C
102
}
330
C
100
AcDbDictionary
  0
DICTIONARY
  5
47
102
{ACAD_REACTORS
330
C
102
}
330
C
100
AcDbDictionary
  3
A0
350
48
  3
A1
350
49
  3
A2
350
4A
  3
A3
350
4B
  3
A4
350
4C
  3
A5
350
4D
  3
A6
350
4E
  3
A7
350
4F
  3
A8
350
50
  3
A9
350
51
  3
B0
350
52
  3
B1
350
53
  3
B2
350
54
  3
B3
350
55
  3
B4
350
56
  3
B5
350
57
  3
B6
350
58
  3
B7
350
59
  3
B8
350
5A
  3
B9
350
5B
  3
C0
350
5C
  3
C1
350
5D
  3
C2
350
5E
  3
C3
350
5F
  3
C4
350
60
  3
C5
350
61
  3
C6
350
62
  3
C7
350
63
  3
C8
350
64
  3
C9
350
65
  3
D0
350
66
  3
D1
350
67
  3
D2
350
68
  0
DICTIONARY
  5
2A
102
{ACAD_REACTORS
330
C
102
}
330
C
100
AcDbDictionary
  3
2DWIREFRAME
350
2F
  3
BASIC
350
32
  3
BRIGHTEN
350
36
  3
COLORCHANGE
350
3A
  3
CONCEPTUAL
350
34
  3
DIM
350
35
  3
EDGECOLOROFF
350
3D
  3
FACEPATTERN
350
39
  3
FLAT
350
2B
  3
FLATWITHEDGES
350
2C
  3
GOURAUD
350
2D
  3
GOURAUDWITHEDGES
350
2E
  3
HIDDEN
350
31
  3
JITTEROFF
350
3B
  3
LINEPATTERN
350
38
  3
OVERHANGOFF
350
3C
  3
REALISTIC
350
33
  3
SHADED
350
42
  3
SHADED_WITH_EDGES
350
41
  3
SHADES_OF_GRAY
350
3E
  3
SKETCHY
350
3F
  3
THICKEN
350
37
  3
WIREFRAME
350
30
  3
X-RAY
350
40
  0
DICTIONARY
  5
1FF
102
{ACAD_REACTORS
330
C
102
}
330
C
100
AcDbDictionary
  3
CEPSNID
350
209
  3
CEPSNTYPE
350
208
  3
DIMSTYLEDATA
350
21F
  3
FINGERPRINTGUID
350
20A
  3
HYPERLINKBASE
350
202
  3
INSUNITS
350
207
  3
LAYOUTDICT
350
204
  3
LWETCUNION
350
206
  3
PLOTSETDICT
350
205
  3
PSVPSCALE
350
20C
  3
PUCSBASE
350
20F
  3
PUCSORGBACK
350
215
  3
PUCSORGBOTTOM
350
211
  3
PUCSORGFRONT
350
214
  3
PUCSORGLEFT
350
212
  3
PUCSORGRIGHT
350
213
  3
PUCSORGTOP
350
210
  3
PUCSORTHOREF
350
20D
  3
PUCSORTHOVIEW
350
20E
  3
STYLESHEET
350
203
  3
TSTACKALIGN
350
200
  3
TSTACKSIZE
350
201
  3
UCSBASE
350
218
  3
UCSORGBACK
350
21E
  3
UCSORGBOTTOM
350
21A
  3
UCSORGFRONT
350
21D
  3
UCSORGLEFT
350
21B
  3
UCSORGRIGHT
350
21C
  3
UCSORGTOP
350
219
  3
UCSORTHOREF
350
216
  3
UCSORTHOVIEW
350
217
  3
VERSIONGUID
350
20B
  0
DICTIONARY
  5
220
102
{ACAD_REACTORS
330
C
102
}
330
C
100
AcDbDictionary
  3
CANNOSCALE
350
229
  3
CMLEADERSTYLE
350
222
  3
CTABLESTYLE
350
221
  3
DIMASSOC
350
225
  3
HIDETEXT
350
226
  3
MSLTSCALE
350
22A
  0
XRECORD
  5
228
102
{ACAD_REACTORS
330
227
102
}
330
227
100
AcDbXrecord
102
VTR_0.000_0.000_1.000_1.000_VISUALSTYLE
340
2F
102
VTR_0.000_0.000_1.000_1.000_GRIDDISPLAY
 70
     3
102
VTR_0.000_0.000_1.000_1.000_GRIDMAJOR
 70
     5
102
VTR_0.000_0.000_1.000_1.000_DEFAULTLIGHTING
280
     1
102
VTR_0.000_0.000_1.000_1.000_DEFAULTLIGHTINGTYPE
 70
     1
102
VTR_0.000_0.000_1.000_1.000_BRIGHTNESS
141
0.0
102
VTR_0.000_0.000_1.000_1.000_CONTRAST
142
0.0
  0
MATERIAL
  5
45
102
{ACAD_REACTORS
330
43
102
}
102
{ACAD_XDICTIONARY
360
22D
102
}
330
43
100
AcDbMaterial
  1
BYBLOCK
  0
MATERIAL
  5
44
102
{ACAD_REACTORS
330
43
102
}
102
{ACAD_XDICTIONARY
360
22B
102
}
330
43
100
AcDbMaterial
  1
BYLAYER
  0
MATERIAL
  5
46
102
{ACAD_REACTORS
330
43
102
}
102
{ACAD_XDICTIONARY
360
22F
102
}
330
43
100
AcDbMaterial
  1
GLOBAL
  0
ACAD_PROXY_OBJECT
  5
6C
102
{ACAD_REACTORS
330
6B
102
}
330
6B
100
AcDbProxyObject
 90
      499
 91
      505
 93
      610
310
40901902A4063FBFFFFFE056BD1B81E855B9FC0AD7A3703D0AD73F4214DD185B99185C9900AD7A3703D0AC73F90141901A02B5E8DC0F42B1CFC02B5E8DC0F42B1CFE5764000000000000300FC0
340
14
340
0
340
11
340
0
 94
        0
1001
ACAD_MLEADERVER
1070
     2
  0
MLINESTYLE
  5
18
102
{ACAD_REACTORS
330
17
102
}
330
17
100
AcDbMlineStyle
  2
Standard
 70
     0
  3

 62
   256
 51
90.0
 52
90.0
 71
     2
 49
0.5
 62
   256
  6
BYLAYER
 49
-0.5
 62
   256
  6
BYLAYER
  0
ACAD_PROXY_OBJECT
  5
48
102
{ACAD_REACTORS
330
47
102
}
330
47
100
AcDbProxyObject
 90
      499
 91
      503
 93
       41
310
903313A31580
  0
ACAD_PROXY_OBJECT
  5
49
102
{ACAD_REACTORS
330
47
102
}
330
47
100
AcDbProxyObject
 90
      499
 91
      503
 93
      105
310
903313A324000000000000004000
  0
ACAD_PROXY_OBJECT
  5
4A
102
{ACAD_REACTORS
330
47
102
}
330
47
100
AcDbProxyObject
 90
      499
 91
      503
 93
      105
310
903313A344000000000000104000
  0
ACAD_PROXY_OBJECT
  5
4B
102
{ACAD_REACTORS
330
47
102
}
330
47
100
AcDbProxyObject
 90
      499
 91
      503
 93
      105
310
903313A354000000000000144000
  0
ACAD_PROXY_OBJECT
  5
4C
102
{ACAD_REACTORS
330
47
102
}
330
47
100
AcDbProxyObject
 90
      499
 91
      503
 93
      105
310
903313A384000000000000204000
  0
ACAD_PROXY_OBJECT
  5
4D
102
{ACAD_REACTORS
330
47
102
}
330
47
100
AcDbProxyObject
 90
      499
 91
      503
 93
      113
310
904313A31304000000000000244000
  0
ACAD_PROXY_OBJECT
  5
4E
102
{ACAD_REACTORS
330
47
102
}
330
47
100
AcDbProxyObject
 90
      499
 91
      503
 93
      113
310
904313A31364000000000000304000
  0
ACAD_PROXY_OBJECT
  5
4F
102
{ACAD_REACTORS
330
47
102
}
330
47
100
AcDbProxyObject
 90
      499
 91
      503
 93
      113
310
904313A32304000000000000344000
  0
ACAD_PROXY_OBJECT
  5
50
102
{ACAD_REACTORS
330
47
102
}
330
47
100
AcDbProxyObject
 90
      499
 91
      503
 93
      113
310
904313A333040000000000003E4000
  0
ACAD_PROXY_OBJECT
  5
51
102
{ACAD_REACTORS
330
47
102
}
330
47
100
AcDbProxyObject
 90
      499
 91
      503
 93
      113
310
904313A34304000000000000444000
  0
ACAD_PROXY_OBJECT
  5
52
102
{ACAD_REACTORS
330
47
102
}
330
47
100
AcDbProxyObject
 90
      499
 91
      503
 93
      113
310
904313A35304000000000000494000
  0
ACAD_PROXY_OBJECT
  5
53
102
{ACAD_REACTORS
330
47
102
}
330
47
100
AcDbProxyObject
 90
      499
 91
      503
 93
      121
310
905313A3130304000000000000594000
  0
ACAD_PROXY_OBJECT
  5
54
102
{ACAD_REACTORS
330
47
102
}
330
47
100
AcDbProxyObject
 90
      499
 91
      503
 93
      105
310
903323A310000000000000010100
  0
ACAD_PROXY_OBJECT
  5
55
102
{ACAD_REACTORS
330
47
102
}
330
47
100
AcDbProxyObject
 90
      499
 91
      503
 93
      105
310
903343A310000000000000410100
  0
ACAD_PROXY_OBJECT
  5
56
102
{ACAD_REACTORS
330
47
102
}
330
47
100
AcDbProxyObject
 90
      499
 91
      503
 93
      105
310
903383A310000000000000810100
  0
ACAD_PROXY_OBJECT
  5
57
102
{ACAD_REACTORS
330
47
102
}
330
47
100
AcDbProxyObject
 90
      499
 91
      503
 93
      113
310
90431303A310000000000000910100
  0
ACAD_PROXY_OBJECT
  5
58
102
{ACAD_REACTORS
330
47
102
}
330
47
100
AcDbProxyObject
 90
      499
 91
      503
 93
      121
310
9053130303A310000000000001650100
  0
ACAD_PROXY_OBJECT
  5
59
102
{ACAD_REACTORS
330
47
102
}
330
47
100
AcDbProxyObject
 90
      499
 91
      503
 93
      257
310
90E312F31323822203D2031272D3022000000000000200FC000000000000284000
  0
ACAD_PROXY_OBJECT
  5
5A
102
{ACAD_REACTORS
330
47
102
}
330
47
100
AcDbProxyObject
 90
      499
 91
      503
 93
      249
310
90D312F363422203D2031272D3022000000000000240FC000000000000284000
  0
ACAD_PROXY_OBJECT
  5
5B
102
{ACAD_REACTORS
330
47
102
}
330
47
100
AcDbProxyObject
 90
      499
 91
      503
 93
      249
310
90D312F333222203D2031272D3022000000000000280FC000000000000284000
  0
ACAD_PROXY_OBJECT
  5
5C
102
{ACAD_REACTORS
330
47
102
}
330
47
100
AcDbProxyObject
 90
      499
 91
      503
 93
      249
310
90D312F313622203D2031272D30220000000000002C0FC000000000000284000
  0
ACAD_PROXY_OBJECT
  5
5D
102
{ACAD_REACTORS
330
47
102
}
330
47
100
AcDbProxyObject
 90
      499
 91
      503
 93
      249
310
90D332F333222203D2031272D30220000000000002E0FC000000000000284000
  0
ACAD_PROXY_OBJECT
  5
5E
102
{ACAD_REACTORS
330
47
102
}
330
47
100
AcDbProxyObject
 90
      499
 91
      503
 93
      241
310
90C312F3822203D2031272D3022000000000000300FC000000000000284000
  0
ACAD_PROXY_OBJECT
  5
5F
102
{ACAD_REACTORS
330
47
102
}
330
47
100
AcDbProxyObject
 90
      499
 91
      503
 93
      249
310
90D332F313622203D2031272D3022000000000000320FC000000000000284000
  0
ACAD_PROXY_OBJECT
  5
60
102
{ACAD_REACTORS
330
47
102
}
330
47
100
AcDbProxyObject
 90
      499
 91
      503
 93
      241
310
90C312F3422203D2031272D3022000000000000340FC000000000000284000
  0
ACAD_PROXY_OBJECT
  5
61
102
{ACAD_REACTORS
330
47
102
}
330
47
100
AcDbProxyObject
 90
      499
 91
      503
 93
      241
310
90C332F3822203D2031272D3022000000000000360FC000000000000284000
  0
ACAD_PROXY_OBJECT
  5
62
102
{ACAD_REACTORS
330
47
102
}
330
47
100
AcDbProxyObject
 90
      499
 91
      503
 93
      241
310
90C312F3222203D2031272D3022000000000000380FC000000000000284000
  0
ACAD_PROXY_OBJECT
  5
63
102
{ACAD_REACTORS
330
47
102
}
330
47
100
AcDbProxyObject
 90
      499
 91
      503
 93
      241
310
90C332F3422203D2031272D30220000000000003A0FC000000000000284000
  0
ACAD_PROXY_OBJECT
  5
64
102
{ACAD_REACTORS
330
47
102
}
330
47
100
AcDbProxyObject
 90
      499
 91
      503
 93
      161
310
90A3122203D2031272D30224000000000000284000
  0
ACAD_PROXY_OBJECT
  5
65
102
{ACAD_REACTORS
330
47
102
}
330
47
100
AcDbProxyObject
 90
      499
 91
      503
 93
      257
310
90E312D312F3222203D2031272D30220000000000003E0FC000000000000284000
  0
ACAD_PROXY_OBJECT
  5
66
102
{ACAD_REACTORS
330
47
102
}
330
47
100
AcDbProxyObject
 90
      499
 91
      503
 93
      225
310
90A3322203D2031272D302200000000000002100000000000000284000
  0
ACAD_PROXY_OBJECT
  5
67
102
{ACAD_REACTORS
330
47
102
}
330
47
100
AcDbProxyObject
 90
      499
 91
      503
 93
      225
310
90A3622203D2031272D302200000000000006100000000000000284000
  0
ACAD_PROXY_OBJECT
  5
68
102
{ACAD_REACTORS
330
47
102
}
330
47
100
AcDbProxyObject
 90
      499
 91
      503
 93
      249
310
90D31272D3022203D2031272D30220000000000000A100000000000000284000
  0
ACAD_PROXY_OBJECT
  5
2F
102
{ACAD_REACTORS
330
2A
102
}
330
2A
100
AcDbProxyObject
 90
      499
 91
      501
 93
      436
310
42CC9915DA5C99599C985B595049028333333333333E33F0000000000000F90107901411070040501600405405064090741402480A0340
1001
ACAD
1000
AcDbSavedByObjectVersion
1070
     0
  0
ACAD_PROXY_OBJECT
  5
32
102
{ACAD_REACTORS
330
2A
102
}
330
2A
100
AcDbProxyObject
 90
      499
 91
      501
 93
      388
310
4150985CDA58D07406404333333333333E33F0000000000000F90107A41107004050150841D405064090741402480A0350
1001
ACAD
1000
AcDbSavedByObjectVersion
1070
     0
  0
ACAD_PROXY_OBJECT
  5
36
102
{ACAD_REACTORS
330
2A
102
}
330
2A
100
AcDbProxyObject
 90
      499
 91
      501
 93
      428
310
42109C9A59DA1D195B90C409028333333333333E33F0000000000000F9010790141107004050150841D405064090741402480A029950
1001
ACAD
1000
AcDbSavedByObjectVersion
1070
     0
  0
ACAD_PROXY_OBJECT
  5
3A
102
{ACAD_REACTORS
330
2A
102
}
330
2A
100
AcDbProxyObject
 90
      499
 91
      501
 93
      452
310
42D0DBDB1BDC90DA185B99D95104090240C333333333333E33F0000000000000F90108901411070040501508421405064090741402480A0350
1001
ACAD
1000
AcDbSavedByObjectVersion
1070
     0
  0
ACAD_PROXY_OBJECT
  5
34
102
{ACAD_REACTORS
330
2A
102
}
330
2A
100
AcDbProxyObject
 90
      499
 91
      501
 93
      500
310
4290DBDB98D95C1D1D585B10940D028333333333333E33F0000000000000F90107902409070040501000000000018199010841D405064090740C02480A0340
1001
ACAD
1000
AcDbSavedByObjectVersion
1070
     0
  0
ACAD_PROXY_OBJECT
  5
35
102
{ACAD_REACTORS
330
2A
102
}
330
2A
100
AcDbProxyObject
 90
      499
 91
      501
 93
      412
310
40D11A5B50B409028333333333333E33F0000000000000F9010790141107004050150841D405064090741402480A02677FFFFFD0
1001
ACAD
1000
AcDbSavedByObjectVersion
1070
     0
  0
ACAD_PROXY_OBJECT
  5
3D
102
{ACAD_REACTORS
330
2A
102
}
330
2A
100
AcDbProxyObject
 90
      499
 91
      501
 93
      452
310
43115919D950DBDB1BDC93D999916409028333333333333E33F0000000000000F9010790141107004050150841D405064090741402480A0350
1001
ACAD
1000
AcDbSavedByObjectVersion
1070
     0
  0
ACAD_PROXY_OBJECT
  5
39
102
{ACAD_REACTORS
330
2A
102
}
330
2A
100
AcDbProxyObject
 90
      499
 91
      501
 93
      444
310
42D19858D95C185D1D195C9B90F409028333333333333E33F0000000000000F9010790141107004050150841D405064090741402480A0350
1001
ACAD
1000
AcDbSavedByObjectVersion
1070
     0
  0
ACAD_PROXY_OBJECT
  5
2B
102
{ACAD_REACTORS
330
2A
102
}
330
2A
100
AcDbProxyObject
 90
      499
 91
      501
 93
      380
310
41119B185D240901404333333333333E33F0000000000000F9010740A907004050150841D405064090741402480A1B50
1001
ACAD
1000
AcDbSavedByObjectVersion
1070
     0
  0
ACAD_PROXY_OBJECT
  5
2C
102
{ACAD_REACTORS
330
2A
102
}
330
2A
100
AcDbProxyObject
 90
      499
 91
      501
 93
      468
310
43519B185D15DA5D1A115919D95CD0140901404333333333333E33F0000000000000F90107409019070040501600405405064090741402480A1B50
1001
ACAD
1000
AcDbSavedByObjectVersion
1070
     0
  0
ACAD_PROXY_OBJECT
  5
2D
102
{ACAD_REACTORS
330
2A
102
}
330
2A
100
AcDbProxyObject
 90
      499
 91
      501
 93
      404
310
41D1DBDD5C985D5910240902404333333333333E33F0000000000000F9010740A9070040501641D405064090741402480A1B50
1001
ACAD
1000
AcDbSavedByObjectVersion
1070
     0
  0
ACAD_PROXY_OBJECT
  5
2E
102
{ACAD_REACTORS
330
2A
102
}
330
2A
100
AcDbProxyObject
 90
      499
 91
      501
 93
      492
310
4411DBDD5C985D5915DA5D1A115919D95CD0340902404333333333333E33F0000000000000F90107409019070040501600405405064090741402480A1B50
1001
ACAD
1000
AcDbSavedByObjectVersion
1070
     0
  0
ACAD_PROXY_OBJECT
  5
31
102
{ACAD_REACTORS
330
2A
102
}
330
2A
100
AcDbProxyObject
 90
      499
 91
      501
 93
      476
310
41921A5919195B90640502408333333333333E33F0000000000000F901079024090700405020000000000001110200405405064090740C02480A0340
1001
ACAD
1000
AcDbSavedByObjectVersion
1070
     0
  0
ACAD_PROXY_OBJECT
  5
3B
102
{ACAD_REACTORS
330
2A
102
}
330
2A
100
AcDbProxyObject
 90
      499
 91
      501
 93
      428
310
42529A5D1D195C93D999914409028333333333333E33F0000000000000F9010790141107004050150A41D405064090741402480A0350
1001
ACAD
1000
AcDbSavedByObjectVersion
1070
     0
  0
ACAD_PROXY_OBJECT
  5
38
102
{ACAD_REACTORS
330
2A
102
}
330
2A
100
AcDbProxyObject
 90
      499
 91
      501
 93
      444
310
42D31A5B995C185D1D195C9B90E409028333333333333E33F0000000000000F9010790141107004050750841D405064090741402483A0350
1001
ACAD
1000
AcDbSavedByObjectVersion
1070
     0
  0
ACAD_PROXY_OBJECT
  5
3C
102
{ACAD_REACTORS
330
2A
102
}
330
2A
100
AcDbProxyObject
 90
      499
 91
      501
 93
      444
310
42D3DD995C9A185B99D3D999915409028333333333333E33F0000000000000F9010790141107004050150941D405064090741402480A0350
1001
ACAD
1000
AcDbSavedByObjectVersion
1070
     0
  0
ACAD_PROXY_OBJECT
  5
33
102
{ACAD_REACTORS
330
2A
102
}
330
2A
100
AcDbProxyObject
 90
      499
 91
      501
 93
      428
310
425499585B1A5CDD1A58D08409038333333333333E33F0000000000000F9010740A907004050150800405405064090740C02480A1B40
1001
ACAD
1000
AcDbSavedByObjectVersion
1070
     0
  0
ACAD_PROXY_OBJECT
  5
42
102
{ACAD_REACTORS
330
2A
102
}
330
2A
100
AcDbProxyObject
 90
      499
 91
      501
 93
      420
310
4194DA1859195911B40902404333333333333E33F0000000000000F9010740A41107004050150800405405064090840C02480A0B40
1001
ACAD
1000
AcDbSavedByObjectVersion
1070
     0
  0
ACAD_PROXY_OBJECT
  5
41
102
{ACAD_REACTORS
330
2A
102
}
330
2A
100
AcDbProxyObject
 90
      499
 91
      501
 93
      516
310
4454DA18591959081DDA5D1A08195919D95CD1A40902404333333333333E33F0000000000000F901074090142907004050250800405405064090740C02480A0B40
1001
ACAD
1000
AcDbSavedByObjectVersion
1070
     0
  0
ACAD_PROXY_OBJECT
  5
3E
102
{ACAD_REACTORS
330
2A
102
}
330
2A
100
AcDbProxyObject
 90
      499
 91
      501
 93
      532
310
4394DA1859195CC81BD98811DC985E5174090240C333333333333E33F0000000000000F901079024090741D01000000000000111010841D405064090740C02480A0340
1001
ACAD
1000
AcDbSavedByObjectVersion
1070
     0
  0
ACAD_PROXY_OBJECT
  5
3F
102
{ACAD_REACTORS
330
2A
102
}
330
2A
100
AcDbProxyObject
 90
      499
 91
      501
 93
      476
310
41D4DAD95D18DA1E51840502408333333333333E33F0000000000000F901079024090741D01000000000000111010B41D405064090741802480A0340
1001
ACAD
1000
AcDbSavedByObjectVersion
1070
     0
  0
ACAD_PROXY_OBJECT
  5
37
102
{ACAD_REACTORS
330
2A
102
}
330
2A
100
AcDbProxyObject
 90
      499
 91
      501
 93
      412
310
41D51A1A58DAD95B90D409028333333333333E33F0000000000000F9010790141107004050150C41D405064090741402480A0350
1001
ACAD
1000
AcDbSavedByObjectVersion
1070
     0
  0
ACAD_PROXY_OBJECT
  5
30
102
{ACAD_REACTORS
330
2A
102
}
330
2A
100
AcDbProxyObject
 90
      499
 91
      501
 93
      420
310
4255DA5C99599C985B595059028333333333333E33F0000000000000F90107901411070040501600405405064090740C02480A0340
1001
ACAD
1000
AcDbSavedByObjectVersion
1070
     0
  0
ACAD_PROXY_OBJECT
  5
40
102
{ACAD_REACTORS
330
2A
102
}
330
2A
100
AcDbProxyObject
 90
      499
 91
      501
 93
      404
310
41560B54985E51940902404000000000000E03F0000000000000F9010740501907004050150841D405064090740C02480A1B40
1001
ACAD
1000
AcDbSavedByObjectVersion
1070
     0
  0
XRECORD
  5
209
102
{ACAD_REACTORS
330
1FF
102
}
330
1FF
100
AcDbXrecord
340
0
  0
XRECORD
  5
208
102
{ACAD_REACTORS
330
1FF
102
}
330
1FF
100
AcDbXrecord
 90
        0
  0
XRECORD
  5
21F
102
{ACAD_REACTORS
330
1FF
102
}
330
1FF
100
AcDbXrecord
1000
DSTYLE
1002
{
1070
   179
 70
     2
1070
   171
 70
     2
1070
   143
 40
25.4
1070
   274
 70
     2
1070
    41
 40
3.0
1070
   141
 40
0.09
1070
    43
 40
0.38
1070
   278
 70
    46
1070
    44
 40
1.5
1070
    42
 40
0.0625
1070
   147
 40
1.5
1070
   272
 70
     4
1070
    73
 70
     1
1070
   172
 70
     0
1070
    74
 70
     1
1070
   283
 70
     1
1070
   340
340
6F
1070
   140
 40
3.0
1070
   284
 70
     0
1070
    78
 70
     0
1002
}
  0
XRECORD
  5
20A
102
{ACAD_REACTORS
330
1FF
102
}
330
1FF
100
AcDbXrecord
  1
{D54A1BDE-D8E4-450D-9050-7A156B31F01D}
  0
XRECORD
  5
202
102
{ACAD_REACTORS
330
1FF
102
}
330
1FF
100
AcDbXrecord
  1

  0
XRECORD
  5
207
102
{ACAD_REACTORS
330
1FF
102
}
330
1FF
100
AcDbXrecord
 90
        4
  0
XRECORD
  5
204
102
{ACAD_REACTORS
330
1FF
102
}
330
1FF
100
AcDbXrecord
340
1A
  0
XRECORD
  5
206
102
{ACAD_REACTORS
330
1FF
102
}
330
1FF
100
AcDbXrecord
 90
    10269
  0
XRECORD
  5
205
102
{ACAD_REACTORS
330
1FF
102
}
330
1FF
100
AcDbXrecord
340
19
  0
XRECORD
  5
20C
102
{ACAD_REACTORS
330
1FF
102
}
330
1FF
100
AcDbXrecord
 40
0.0
  0
XRECORD
  5
20F
102
{ACAD_REACTORS
330
1FF
102
}
330
1FF
100
AcDbXrecord
340
0
  0
XRECORD
  5
215
102
{ACAD_REACTORS
330
1FF
102
}
330
1FF
100
AcDbXrecord
 10
0.0
 20
0.0
 30
0.0
  0
XRECORD
  5
211
102
{ACAD_REACTORS
330
1FF
102
}
330
1FF
100
AcDbXrecord
 10
0.0
 20
0.0
 30
0.0
  0
XRECORD
  5
214
102
{ACAD_REACTORS
330
1FF
102
}
330
1FF
100
AcDbXrecord
 10
0.0
 20
0.0
 30
0.0
  0
XRECORD
  5
212
102
{ACAD_REACTORS
330
1FF
102
}
330
1FF
100
AcDbXrecord
 10
0.0
 20
0.0
 30
0.0
  0
XRECORD
  5
213
102
{ACAD_REACTORS
330
1FF
102
}
330
1FF
100
AcDbXrecord
 10
0.0
 20
0.0
 30
0.0
  0
XRECORD
  5
210
102
{ACAD_REACTORS
330
1FF
102
}
330
1FF
100
AcDbXrecord
 10
0.0
 20
0.0
 30
0.0
  0
XRECORD
  5
20D
102
{ACAD_REACTORS
330
1FF
102
}
330
1FF
100
AcDbXrecord
340
0
  0
XRECORD
  5
20E
102
{ACAD_REACTORS
330
1FF
102
}
330
1FF
100
AcDbXrecord
 70
     0
  0
XRECORD
  5
203
102
{ACAD_REACTORS
330
1FF
102
}
330
1FF
100
AcDbXrecord
  1

  0
XRECORD
  5
200
102
{ACAD_REACTORS
330
1FF
102
}
330
1FF
100
AcDbXrecord
 90
        1
  0
XRECORD
  5
201
102
{ACAD_REACTORS
330
1FF
102
}
330
1FF
100
AcDbXrecord
 90
       70
  0
XRECORD
  5
218
102
{ACAD_REACTORS
330
1FF
102
}
330
1FF
100
AcDbXrecord
340
0
  0
XRECORD
  5
21E
102
{ACAD_REACTORS
330
1FF
102
}
330
1FF
100
AcDbXrecord
 10
0.0
 20
0.0
 30
0.0
  0
XRECORD
  5
21A
102
{ACAD_REACTORS
330
1FF
102
}
330
1FF
100
AcDbXrecord
 10
0.0
 20
0.0
 30
0.0
  0
XRECORD
  5
21D
102
{ACAD_REACTORS
330
1FF
102
}
330
1FF
100
AcDbXrecord
 10
0.0
 20
0.0
 30
0.0
  0
XRECORD
  5
21B
102
{ACAD_REACTORS
330
1FF
102
}
330
1FF
100
AcDbXrecord
 10
0.0
 20
0.0
 30
0.0
  0
XRECORD
  5
21C
102
{ACAD_REACTORS
330
1FF
102
}
330
1FF
100
AcDbXrecord
 10
0.0
 20
0.0
 30
0.0
  0
XRECORD
  5
219
102
{ACAD_REACTORS
330
1FF
102
}
330
1FF
100
AcDbXrecord
 10
0.0
 20
0.0
 30
0.0
  0
XRECORD
  5
216
102
{ACAD_REACTORS
330
1FF
102
}
330
1FF
100
AcDbXrecord
340
0
  0
XRECORD
  5
217
102
{ACAD_REACTORS
330
1FF
102
}
330
1FF
100
AcDbXrecord
 70
     0
  0
XRECORD
  5
20B
102
{ACAD_REACTORS
330
1FF
102
}
330
1FF
100
AcDbXrecord
  1
{FAEB1C32-E019-11D5-929B-00C0DF256EC4}
  0
DICTIONARYVAR
  5
229
102
{ACAD_REACTORS
330
220
102
}
330
220
100
DictionaryVariables
280
     0
  1
1:1
  0
DICTIONARYVAR
  5
222
102
{ACAD_REACTORS
330
220
102
}
330
220
100
DictionaryVariables
280
     0
  1
Standard
  0
DICTIONARYVAR
  5
221
102
{ACAD_REACTORS
330
220
102
}
330
220
100
DictionaryVariables
280
     0
  1
Standard
  0
DICTIONARYVAR
  5
225
102
{ACAD_REACTORS
330
220
102
}
330
220
100
DictionaryVariables
280
     0
  1
2
  0
DICTIONARYVAR
  5
226
102
{ACAD_REACTORS
330
220
102
}
330
220
100
DictionaryVariables
280
     0
  1
1
  0
DICTIONARYVAR
  5
22A
102
{ACAD_REACTORS
330
220
102
}
330
220
100
DictionaryVariables
280
     0
  1
1
  0
DICTIONARY
  5
22D
330
45
100
AcDbDictionary
280
     1
  3
ACAD_XREC_ROUNDTRIP
360
22E
  0
DICTIONARY
  5
22B
330
44
100
AcDbDictionary
280
     1
  3
ACAD_XREC_ROUNDTRIP
360
22C
  0
DICTIONARY
  5
22F
330
46
100
AcDbDictionary
280
     1
  3
ACAD_XREC_ROUNDTRIP
360
230
  0
XRECORD
  5
22E
102
{ACAD_REACTORS
330
22D
102
}
330
22D
100
AcDbXrecord
102
MATERIAL
148
0.0
149
0.0
149
0.0
 93
        0
 94
      127
282
     0
 72
     1
 77
     1
171
     1
175
     1
179
     1
273
     0
  0
XRECORD
  5
22C
102
{ACAD_REACTORS
330
22B
102
}
330
22B
100
AcDbXrecord
102
MATERIAL
148
0.0
149
0.0
149
0.0
 93
        0
 94
      127
282
     0
 72
     1
 77
     1
171
     1
175
     1
179
     1
273
     0
  0
XRECORD
  5
230
102
{ACAD_REACTORS
330
22F
102
}
330
22F
100
AcDbXrecord
102
MATERIAL
148
0.0
149
0.0
149
0.0
 93
        0
 94
      127
282
     0
 72
     1
 77
     1
171
     1
175
     1
179
     1
273
     0
  0
ENDSEC
  0
EOF
