  0
SECTION
  2
HEADER
  9
$ACADVER
  1
AC1014
  9
$ACADMAINTVER
 70
     9
  9
$DWGCODEPAGE
  3
ANSI_932
  9
$INSBASE
 10
0.0
 20
0.0
 30
0.0
  9
$EXTMIN
 10
14.59999999999997
 20
5.942497186444909
 30
0.0
  9
$EXTMAX
 10
282.35
 20
207.6500000000001
 30
0.0
  9
$LIMMIN
 10
0.0
 20
0.0
  9
$LIMMAX
 10
12.0
 20
9.0
  9
$ORTHOMODE
 70
     0
  9
$REGENMODE
 70
     1
  9
$FILLMODE
 70
     1
  9
$QTEXTMODE
 70
     0
  9
$MIRRTEXT
 70
     1
  9
$DRAGMODE
 70
     2
  9
$LTSCALE
 40
1.0
  9
$OSMODE
 70
    37
  9
$ATTMODE
 70
     1
  9
$TEXTSIZE
 40
0.2
  9
$TRACEWID
 40
0.05
  9
$TEXTSTYLE
  7
STANDARD
  9
$CLAYER
  8
0
  9
$CELTYPE
  6
BYLAYER
  9
$CECOLOR
 62
   256
  9
$CELTSCALE
 40
1.0
  9
$DELOBJ
 70
     1
  9
$DISPSILH
 70
     0
  9
$DIMSCALE
 40
1.0
  9
$DIMASZ
 40
3.0
  9
$DIMEXO
 40
0.0625
  9
$DIMDLI
 40
0.38
  9
$DIMRND
 40
0.0
  9
$DIMDLE
 40
0.0
  9
$DIMEXE
 40
1.5
  9
$DIMTP
 40
0.0
  9
$DIMTM
 40
0.0
  9
$DIMTXT
 40
3.0
  9
$DIMCEN
 40
0.09
  9
$DIMTSZ
 40
0.0
  9
$DIMTOL
 70
     0
  9
$DIMLIM
 70
     0
  9
$DIMTIH
 70
     1
  9
$DIMTOH
 70
     1
  9
$DIMSE1
 70
     0
  9
$DIMSE2
 70
     0
  9
$DIMTAD
 70
     1
  9
$DIMZIN
 70
     0
  9
$DIMBLK
  1

  9
$DIMASO
 70
     1
  9
$DIMSHO
 70
     1
  9
$DIMPOST
  1

  9
$DIMAPOST
  1

  9
$DIMALT
 70
     0
  9
$DIMALTD
 70
     2
  9
$DIMALTF
 40
25.4
  9
$DIMLFAC
 40
1.0
  9
$DIMTOFL
 70
     0
  9
$DIMTVP
 40
0.0
  9
$DIMTIX
 70
     0
  9
$DIMSOXD
 70
     0
  9
$DIMSAH
 70
     0
  9
$DIMBLK1
  1

  9
$DIMBLK2
  1

  9
$DIMSTYLE
  2
STANDARD
  9
$DIMCLRD
 70
     0
  9
$DIMCLRE
 70
     0
  9
$DIMCLRT
 70
     0
  9
$DIMTFAC
 40
1.0
  9
$DIMGAP
 40
1.5
  9
$DIMJUST
 70
     0
  9
$DIMSD1
 70
     0
  9
$DIMSD2
 70
     0
  9
$DIMTOLJ
 70
     1
  9
$DIMTZIN
 70
     0
  9
$DIMALTZ
 70
     0
  9
$DIMALTTZ
 70
     0
  9
$DIMFIT
 70
     3
  9
$DIMUPT
 70
     0
  9
$DIMUNIT
 70
     2
  9
$DIMDEC
 70
     2
  9
$DIMTDEC
 70
     4
  9
$DIMALTU
 70
     2
  9
$DIMALTTD
 70
     2
  9
$DIMTXSTY
  7
ＭＳ_ゴシック
  9
$DIMAUNIT
 70
     0
  9
$LUNITS
 70
     2
  9
$LUPREC
 70
     4
  9
$SKETCHINC
 40
0.1
  9
$FILLETRAD
 40
0.5
  9
$AUNITS
 70
     0
  9
$AUPREC
 70
     0
  9
$MENU
  1
.
  9
$ELEVATION
 40
0.0
  9
$PELEVATION
 40
0.0
  9
$THICKNESS
 40
0.0
  9
$LIMCHECK
 70
     0
  9
$CHAMFERA
 40
0.0
  9
$CHAMFERB
 40
0.0
  9
$CHAMFERC
 40
0.0
  9
$CHAMFERD
 40
0.0
  9
$SKPOLY
 70
     0
  9
$TDCREATE
 40
2459277.744793808
  9
$TDUPDATE
 40
2459277.744793993
  9
$TDINDWG
 40
0.0000000116
  9
$TDUSRTIMER
 40
0.0000000116
  9
$USRTIMER
 70
     1
  9
$ANGBASE
 50
0.0
  9
$ANGDIR
 70
     0
  9
$PDMODE
 70
     0
  9
$PDSIZE
 40
0.0
  9
$PLINEWID
 40
0.0
  9
$COORDS
 70
     1
  9
$SPLFRAME
 70
     0
  9
$SPLINETYPE
 70
     6
  9
$SPLINESEGS
 70
     8
  9
$ATTDIA
 70
     0
  9
$ATTREQ
 70
     1
  9
$HANDLING
 70
     1
  9
$HANDSEED
  5
262
  9
$SURFTAB1
 70
     6
  9
$SURFTAB2
 70
     6
  9
$SURFTYPE
 70
     6
  9
$SURFU
 70
     6
  9
$SURFV
 70
     6
  9
$UCSNAME
  2

  9
$UCSORG
 10
0.0
 20
0.0
 30
0.0
  9
$UCSXDIR
 10
1.0
 20
0.0
 30
0.0
  9
$UCSYDIR
 10
0.0
 20
1.0
 30
0.0
  9
$PUCSNAME
  2

  9
$PUCSORG
 10
0.0
 20
0.0
 30
0.0
  9
$PUCSXDIR
 10
1.0
 20
0.0
 30
0.0
  9
$PUCSYDIR
 10
0.0
 20
1.0
 30
0.0
  9
$USERI1
 70
     0
  9
$USERI2
 70
     0
  9
$USERI3
 70
     0
  9
$USERI4
 70
     0
  9
$USERI5
 70
     0
  9
$USERR1
 40
0.0
  9
$USERR2
 40
0.0
  9
$USERR3
 40
0.0
  9
$USERR4
 40
0.0
  9
$USERR5
 40
0.0
  9
$WORLDVIEW
 70
     1
  9
$SHADEDGE
 70
     3
  9
$SHADEDIF
 70
    70
  9
$TILEMODE
 70
     1
  9
$MAXACTVP
 70
    64
  9
$PINSBASE
 10
0.0
 20
0.0
 30
0.0
  9
$PLIMCHECK
 70
     0
  9
$PEXTMIN
 10
1.000000000000000E+20
 20
1.000000000000000E+20
 30
1.000000000000000E+20
  9
$PEXTMAX
 10
-1.000000000000000E+20
 20
-1.000000000000000E+20
 30
-1.000000000000000E+20
  9
$PLIMMIN
 10
0.0
 20
0.0
  9
$PLIMMAX
 10
12.0
 20
9.0
  9
$UNITMODE
 70
     0
  9
$VISRETAIN
 70
     1
  9
$PLINEGEN
 70
     0
  9
$PSLTSCALE
 70
     1
  9
$TREEDEPTH
 70
  3020
  9
$PICKSTYLE
 70
     1
  9
$CMLSTYLE
  2
STANDARD
  9
$CMLJUST
 70
     0
  9
$CMLSCALE
 40
1.0
  9
$PROXYGRAPHICS
 70
     1
  9
$MEASUREMENT
 70
     1
  0
ENDSEC
  0
SECTION
  2
CLASSES
  0
CLASS
  1
ACDBDICTIONARYWDFLT
  2
AcDbDictionaryWithDefault
  3
ObjectDBX Classes
 90
        0
280
     0
281
     0
  0
CLASS
  1
VISUALSTYLE
  2
AcDbVisualStyle
  3
ObjectDBX Classes
 90
     4095
280
     0
281
     0
  0
CLASS
  1
MATERIAL
  2
AcDbMaterial
  3
ObjectDBX Classes
 90
     1153
280
     0
281
     0
  0
CLASS
  1
SCALE
  2
AcDbScale
  3
ObjectDBX Classes
 90
     1153
280
     0
281
     0
  0
CLASS
  1
TABLESTYLE
  2
AcDbTableStyle
  3
ObjectDBX Classes
 90
     4095
280
     0
281
     0
  0
CLASS
  1
MLEADERSTYLE
  2
AcDbMLeaderStyle
  3
ACDB_MLEADERSTYLE_CLASS
 90
     4095
280
     0
281
     0
  0
CLASS
  1
SUN
  2
AcDbSun
  3
SCENEOE
 90
     1153
280
     0
281
     0
  0
CLASS
  1
DICTIONARYVAR
  2
AcDbDictionaryVar
  3
ObjectDBX Classes
 90
        0
280
     0
281
     0
  0
CLASS
  1
XRECORD
  2
AcDbXrecord
  3
ObjectDBX Classes
 90
        0
280
     0
281
     0
  0
CLASS
  1
LWPOLYLINE
  2
AcDbPolyline
  3
ObjectDBX Classes
 90
        0
280
     0
281
     1
  0
CLASS
  1
HATCH
  2
AcDbHatch
  3
ObjectDBX Classes
 90
        0
280
     0
281
     1
  0
CLASS
  1
ACDBPLACEHOLDER
  2
AcDbPlaceHolder
  3
ObjectDBX Classes
 90
        0
280
     0
281
     0
  0
CLASS
  1
LAYOUT
  2
AcDbLayout
  3
ObjectDBX Classes
 90
        0
280
     0
281
     0
  0
ENDSEC
  0
SECTION
  2
TABLES
  0
TABLE
  2
VPORT
  5
8
102
{ACAD_XDICTIONARY
360
257
102
}
330
0
100
AcDbSymbolTable
 70
     1
  0
VPORT
  5
29
330
8
100
AcDbSymbolTableRecord
100
AcDbViewportTableRecord
  2
*ACTIVE
 70
     0
 10
0.0
 20
0.0
 11
1.0
 21
1.0
 12
148.475
 22
106.7962485932225
 13
0.0
 23
0.0
 14
0.5
 24
0.5
 15
0.5
 25
0.5
 16
0.0
 26
0.0
 36
1.0
 17
0.0
 27
0.0
 37
0.0
 40
201.7075028135552
 41
1.6
 42
50.0
 43
0.0
 44
0.0
 50
0.0
 51
0.0
 71
     0
 72
   100
 73
     1
 74
     3
 75
     0
 76
     0
 77
     0
 78
     0
  0
ENDTAB
  0
TABLE
  2
LTYPE
  5
5
330
0
100
AcDbSymbolTable
 70
     2
  0
LTYPE
  5
14
330
5
100
AcDbSymbolTableRecord
100
AcDbLinetypeTableRecord
  2
BYBLOCK
 70
     0
  3

 72
    65
 73
     0
 40
0.0
  0
LTYPE
  5
15
330
5
100
AcDbSymbolTableRecord
100
AcDbLinetypeTableRecord
  2
BYLAYER
 70
     0
  3

 72
    65
 73
     0
 40
0.0
  0
LTYPE
  5
16
330
5
100
AcDbSymbolTableRecord
100
AcDbLinetypeTableRecord
  2
CONTINUOUS
 70
     0
  3
Solid line
 72
    65
 73
     0
 40
0.0
  0
LTYPE
  5
135
330
5
100
AcDbSymbolTableRecord
100
AcDbLinetypeTableRecord
  2
CENTER
 70
     0
  3

 72
    65
 73
     0
 40
0.0
  0
ENDTAB
  0
TABLE
  2
LAYER
  5
2
330
0
100
AcDbSymbolTable
 70
     2
  0
LAYER
  5
10
330
2
100
AcDbSymbolTableRecord
100
AcDbLayerTableRecord
  2
0
 70
     0
 62
     7
  6
CONTINUOUS
  0
LAYER
  5
6E
330
2
100
AcDbSymbolTableRecord
100
AcDbLayerTableRecord
  2
1
 70
     0
 62
     7
  6
CONTINUOUS
  0
ENDTAB
  0
TABLE
  2
STYLE
  5
3
330
0
100
AcDbSymbolTable
 70
     2
  0
STYLE
  5
11
330
3
100
AcDbSymbolTableRecord
100
AcDbTextStyleTableRecord
  2
STANDARD
 70
     0
 40
0.0
 41
1.0
 50
0.0
 71
     0
 42
0.2
  3
txt
  4

  0
STYLE
  5
6F
330
3
100
AcDbSymbolTableRecord
100
AcDbTextStyleTableRecord
  2
ＭＳ_ゴシック
 70
     0
 40
0.0
 41
1.0
 50
0.0
 71
     0
 42
0.2
  3
ＭＳ ゴシック.shx
  4

  0
ENDTAB
  0
TABLE
  2
VIEW
  5
6
330
0
100
AcDbSymbolTable
 70
     0
  0
ENDTAB
  0
TABLE
  2
UCS
  5
7
330
0
100
AcDbSymbolTable
 70
     0
  0
ENDTAB
  0
TABLE
  2
APPID
  5
9
330
0
100
AcDbSymbolTable
 70
     2
  0
APPID
  5
12
330
9
100
AcDbSymbolTableRecord
100
AcDbRegAppTableRecord
  2
ACAD
 70
     0
  0
APPID
  5
261
330
9
100
AcDbSymbolTableRecord
100
AcDbRegAppTableRecord
  2
ACAD_MLEADERVER
 70
     0
  0
ENDTAB
  0
TABLE
  2
DIMSTYLE
  5
A
330
0
100
AcDbSymbolTable
 70
     1
  0
DIMSTYLE
105
27
330
A
100
AcDbSymbolTableRecord
100
AcDbDimStyleTableRecord
  2
STANDARD
 70
     0
  3

  4

  5

  6

  7

 40
1.0
 41
0.18
 42
0.0625
 43
0.38
 44
0.18
 45
0.0
 46
0.0
 47
0.0
 48
0.0
140
0.18
141
0.09
142
0.0
143
25.4
144
1.0
145
0.0
146
1.0
147
0.09
 71
     0
 72
     0
 73
     1
 74
     1
 75
     0
 76
     0
 77
     0
 78
     0
170
     0
171
     2
172
     0
173
     0
174
     0
175
     0
176
     0
177
     0
178
     0
270
     2
271
     4
272
     4
273
     2
274
     2
340
11
275
     0
280
     0
281
     0
282
     0
283
     1
284
     0
285
     0
286
     0
287
     3
288
     0
  0
ENDTAB
  0
TABLE
  2
BLOCK_RECORD
  5
1
330
0
100
AcDbSymbolTable
 70
     0
  0
BLOCK_RECORD
  5
1F
330
1
100
AcDbSymbolTableRecord
100
AcDbBlockTableRecord
  2
*MODEL_SPACE
  0
BLOCK_RECORD
  5
1B
330
1
100
AcDbSymbolTableRecord
100
AcDbBlockTableRecord
  2
*PAPER_SPACE
  0
ENDTAB
  0
ENDSEC
  0
SECTION
  2
BLOCKS
  0
BLOCK
  5
20
330
1F
100
AcDbEntity
  8
0
100
AcDbBlockBegin
  2
*MODEL_SPACE
 70
     0
 10
0.0
 20
0.0
 30
0.0
  3
*MODEL_SPACE
  1

  0
ENDBLK
  5
21
330
1F
100
AcDbEntity
  8
0
100
AcDbBlockEnd
  0
BLOCK
  5
1C
330
1B
100
AcDbEntity
 67
     1
  8
0
100
AcDbBlockBegin
  2
*PAPER_SPACE
 70
     0
 10
0.0
 20
0.0
 30
0.0
  3
*PAPER_SPACE
  1

  0
ENDBLK
  5
1D
330
1B
100
AcDbEntity
 67
     1
  8
0
100
AcDbBlockEnd
  0
ENDSEC
  0
SECTION
  2
ENTITIES
  0
LINE
  5
70
330
1F
100
AcDbEntity
  8
1
  6
CONTINUOUS
 62
     7
100
AcDbLine
 10
140.1425219872988
 20
87.10786015080356
 30
0.0
 11
140.1427239215052
 21
87.10803748674681
 31
0.0
  0
LINE
  5
71
330
1F
100
AcDbEntity
  8
1
  6
CONTINUOUS
 62
     7
100
AcDbLine
 10
139.7492365015114
 20
87.11528349788114
 30
0.0
 11
140.1425219872988
 21
87.10786015080356
 31
0.0
  0
LINE
  5
72
330
1F
100
AcDbEntity
  8
1
  6
CONTINUOUS
 62
     7
100
AcDbLine
 10
23.08867926496395
 20
146.6209120866517
 30
0.0
 11
23.0870633258813
 21
145.6658994922217
 31
0.0
  0
LINE
  5
73
330
1F
100
AcDbEntity
  8
1
  6
CONTINUOUS
 62
     7
100
AcDbLine
 10
23.05786015080353
 20
204.1925219872988
 30
0.0
 11
23.05803748674677
 21
204.1927239215052
 31
0.0
  0
ELLIPSE
  5
74
330
1F
100
AcDbEntity
  8
1
  6
CONTINUOUS
 62
     7
100
AcDbEllipse
 10
-2.002341707748562
 20
196.6679231586474
 30
0.0
 11
25.09108352573867
 21
0.0
 31
0.0
210
0.0
220
0.0
230
1.0
 40
0.1992739769436802
 41
0.0
 42
0.0022329527958011
  0
LINE
  5
75
330
1F
100
AcDbEntity
  8
1
  6
CONTINUOUS
 62
     7
100
AcDbLine
 10
18.02130565597631
 20
141.3606367850435
 30
0.0
 11
17.6
 21
141.15
 31
0.0
  0
LINE
  5
76
330
1F
100
AcDbEntity
  8
1
  6
CONTINUOUS
 62
     7
100
AcDbLine
 10
18.04340932783616
 20
145.664516892273
 30
0.0
 11
18.02978754453522
 21
141.7625596790065
 31
0.0
  0
LINE
  5
77
330
1F
100
AcDbEntity
  8
1
  6
CONTINUOUS
 62
     7
100
AcDbLine
 10
18.02130565597631
 20
201.9393632149566
 30
0.0
 11
17.59999999999999
 21
202.15
 31
0.0
  0
LINE
  5
78
330
1F
100
AcDbEntity
  8
1
  6
CONTINUOUS
 62
     7
100
AcDbLine
 10
18.02978754453522
 20
201.5374403209936
 30
0.0
 11
18.04340932783616
 21
197.635483107727
 31
0.0
  0
LINE
  5
79
330
1F
100
AcDbEntity
  8
1
  6
CONTINUOUS
 62
     7
100
AcDbLine
 10
17.59999999999999
 20
202.15
 30
0.0
 11
17.59999999999999
 21
203.2400057730342
 31
0.0
  0
ELLIPSE
  5
7A
330
1F
100
AcDbEntity
  8
1
  6
CONTINUOUS
 62
     7
100
AcDbEllipse
 10
20.55677203374104
 20
203.692800073927
 30
0.0
 11
2.508862837165349
 21
0.1012416052651244
 31
0.0
210
0.0
220
0.0
230
1.0
 40
0.1951652596982769
 41
6.27598967501581
 42
6.293806580359395
  0
ELLIPSE
  5
7B
330
1F
100
AcDbEntity
  8
1
  6
CONTINUOUS
 62
     7
100
AcDbEllipse
 10
75.55719992607307
 20
84.60677203374105
 30
0.0
 11
0.1012416052651251
 21
-2.50886283716535
 31
0.0
210
0.0
220
0.0
230
-1.0
 40
0.1951652596982769
 41
3.13097138040998
 42
3.148788285753563
  0
LINE
  5
7C
330
1F
100
AcDbEntity
  8
1
  6
CONTINUOUS
 62
     7
100
AcDbLine
 10
139.7405157986444
 20
87.11571209648557
 30
0.0
 11
133.5950804058218
 21
87.13708801149613
 31
0.0
  0
LINE
  5
7D
330
1F
100
AcDbEntity
  8
1
  6
CONTINUOUS
 62
     7
100
AcDbLine
 10
75.05747801270124
 20
87.10786015080352
 30
0.0
 11
75.45076349848864
 21
87.11528349788111
 31
0.0
  0
LINE
  5
7E
330
1F
100
AcDbEntity
  8
1
  6
CONTINUOUS
 62
     7
100
AcDbLine
 10
17.6
 20
140.0599942269658
 30
0.0
 11
17.6
 21
141.15
 31
0.0
  0
ELLIPSE
  5
7F
330
1F
100
AcDbEntity
  8
1
  6
CONTINUOUS
 62
     7
100
AcDbEllipse
 10
82.58207684135269
 20
62.04768738405099
 30
0.0
 11
1.012416052651254
 21
-25.08862837165356
 31
0.0
210
0.0
220
0.0
230
-1.0
 40
0.1951652596982769
 41
3.148788285753563
 42
3.151026944730344
  0
LINE
  5
80
330
1F
100
AcDbEntity
  8
1
  6
CONTINUOUS
 62
     7
100
AcDbLine
 10
132.6290879133483
 20
87.13867926496398
 30
0.0
 11
133.5841005077783
 21
87.1370633258813
 31
0.0
  0
LINE
  5
81
330
1F
100
AcDbEntity
  8
1
  6
CONTINUOUS
 62
     7
100
AcDbLine
 10
18.04510415566955
 20
146.6450975679639
 30
0.0
 11
18.04510415566955
 21
196.6549024320361
 31
0.0
  0
LINE
  5
82
330
1F
100
AcDbEntity
  8
1
  6
CONTINUOUS
 62
     7
100
AcDbLine
 10
138.1
 20
81.65000000000002
 30
0.0
 11
139.1900057730342
 21
81.65000000000002
 31
0.0
  0
LINE
  5
83
330
1F
100
AcDbEntity
  8
1
  6
CONTINUOUS
 62
     7
100
AcDbLine
 10
137.8893632149566
 20
82.07130565597635
 30
0.0
 11
137.4874403209936
 21
82.07978754453525
 31
0.0
  0
LINE
  5
84
330
1F
100
AcDbEntity
  8
1
  6
CONTINUOUS
 62
     7
100
AcDbLine
 10
82.5709120866517
 20
87.13867926496395
 30
0.0
 11
81.6158994922217
 21
87.1370633258813
 31
0.0
  0
ELLIPSE
  5
85
330
1F
100
AcDbEntity
  8
1
  6
CONTINUOUS
 62
     7
100
AcDbEllipse
 10
-2.002312615949003
 20
196.6679231586474
 30
0.0
 11
25.08862837165354
 21
1.012416052651247
 31
0.0
210
0.0
220
0.0
230
1.0
 40
0.1951652596982769
 41
6.273751016039031
 42
6.275989675015806
  0
LINE
  5
86
330
1F
100
AcDbEntity
  8
1
  6
CONTINUOUS
 62
     7
100
AcDbLine
 10
23.08708801149614
 20
145.6549195941782
 30
0.0
 11
23.06571209648557
 21
139.5094842013556
 31
0.0
  0
LINE
  5
87
330
1F
100
AcDbEntity
  8
1
  6
CONTINUOUS
 62
     7
100
AcDbLine
 10
23.06528349788111
 20
203.7992365015114
 30
0.0
 11
23.05786015080353
 21
204.1925219872988
 31
0.0
  0
LINE
  5
88
330
1F
100
AcDbEntity
  8
1
  6
CONTINUOUS
 62
     7
100
AcDbLine
 10
23.05803748674677
 20
139.1072760784949
 30
0.0
 11
23.05786015080352
 21
139.1074780127012
 31
0.0
  0
LINE
  5
89
330
1F
100
AcDbEntity
  8
1
  6
CONTINUOUS
 62
     7
100
AcDbLine
 10
18.02978754453522
 20
141.7625596790065
 30
0.0
 11
18.02130565597631
 21
141.3606367850435
 31
0.0
  0
LINE
  5
8A
330
1F
100
AcDbEntity
  8
1
  6
CONTINUOUS
 62
     7
100
AcDbLine
 10
23.05786015080352
 20
139.1074780127012
 30
0.0
 11
23.06528349788112
 21
139.5007634984887
 31
0.0
  0
LINE
  5
8B
330
1F
100
AcDbEntity
  8
1
  6
CONTINUOUS
 62
     7
100
AcDbLine
 10
18.04510415566955
 20
146.6450975679639
 30
0.0
 11
18.04340932783616
 21
145.664516892273
 31
0.0
  0
ELLIPSE
  5
8C
330
1F
100
AcDbEntity
  8
1
  6
CONTINUOUS
 62
     7
100
AcDbEllipse
 10
139.642800073927
 20
84.60677203374108
 30
0.0
 11
0.1012416052651233
 21
2.508862837165349
 31
0.0
210
0.0
220
0.0
230
-1.0
 40
0.1951652596982769
 41
6.27598967501581
 42
6.293806580359395
  0
LINE
  5
8D
330
1F
100
AcDbEntity
  8
1
  6
CONTINUOUS
 62
     7
100
AcDbLine
 10
18.04340932783616
 20
197.635483107727
 30
0.0
 11
18.04510415566955
 21
196.6549024320361
 31
0.0
  0
LINE
  5
8E
330
1F
100
AcDbEntity
  8
1
  6
CONTINUOUS
 62
     7
100
AcDbLine
 10
18.02130565597631
 20
201.9393632149566
 30
0.0
 11
18.02978754453522
 21
201.5374403209936
 31
0.0
  0
LINE
  5
8F
330
1F
100
AcDbEntity
  8
1
  6
CONTINUOUS
 62
     7
100
AcDbLine
 10
137.8893632149566
 20
82.07130565597633
 30
0.0
 11
138.1
 21
81.65000000000002
 31
0.0
  0
LINE
  5
90
330
1F
100
AcDbEntity
  8
1
  6
CONTINUOUS
 62
     7
100
AcDbLine
 10
23.08874181799009
 20
196.6679231586474
 30
0.0
 11
23.08874181799009
 21
146.6320768413527
 31
0.0
  0
ELLIPSE
  5
91
330
1F
100
AcDbEntity
  8
1
  6
CONTINUOUS
 62
     7
100
AcDbEllipse
 10
-2.002341707748566
 20
146.6320768413527
 30
0.0
 11
-25.09108352573867
 21
0.0
 31
0.0
210
0.0
220
0.0
230
1.0
 40
0.1992739769436802
 41
3.139359700793992
 42
3.141592653589793
  0
LINE
  5
92
330
1F
100
AcDbEntity
  8
1
  6
CONTINUOUS
 62
     7
100
AcDbLine
 10
23.08867926496395
 20
196.6790879133483
 30
0.0
 11
23.08706332588128
 21
197.6341005077783
 31
0.0
  0
ELLIPSE
  5
93
330
1F
100
AcDbEntity
  8
1
  6
CONTINUOUS
 62
     7
100
AcDbEllipse
 10
132.6179231586474
 20
62.04765829225146
 30
0.0
 11
0.0
 21
25.09108352573867
 31
0.0
210
0.0
220
0.0
230
-1.0
 40
0.1992739769436802
 41
0.0
 42
0.0022329527958005
  0
ELLIPSE
  5
94
330
1F
100
AcDbEntity
  8
1
  6
CONTINUOUS
 62
     7
100
AcDbEllipse
 10
132.6179231586474
 20
62.04768738405102
 30
0.0
 11
1.012416052651236
 21
25.08862837165355
 31
0.0
210
0.0
220
0.0
230
-1.0
 40
0.1951652596982769
 41
6.273751016039031
 42
6.275989675015806
  0
ELLIPSE
  5
95
330
1F
100
AcDbEntity
  8
1
  6
CONTINUOUS
 62
     7
100
AcDbEllipse
 10
-2.002312615949003
 20
146.6320768413527
 30
0.0
 11
-25.08862837165355
 21
1.012416052651241
 31
0.0
210
0.0
220
0.0
230
1.0
 40
0.1951652596982768
 41
3.148788285753563
 42
3.151026944730346
  0
ELLIPSE
  5
96
330
1F
100
AcDbEntity
  8
1
  6
CONTINUOUS
 62
     7
100
AcDbEllipse
 10
82.58207684135269
 20
62.04765829225142
 30
0.0
 11
0.0
 21
-25.09108352573867
 31
0.0
210
0.0
220
0.0
230
-1.0
 40
0.1992739769436802
 41
3.13935970079399
 42
3.141592653589786
  0
LINE
  5
97
330
1F
100
AcDbEntity
  8
1
  6
CONTINUOUS
 62
     7
100
AcDbLine
 10
81.60491959417814
 20
87.13708801149613
 30
0.0
 11
75.45948420135562
 21
87.11571209648555
 31
0.0
  0
LINE
  5
98
330
1F
100
AcDbEntity
  8
1
  6
CONTINUOUS
 62
     7
100
AcDbLine
 10
132.6179231586474
 20
87.13874181799012
 30
0.0
 11
82.58207684135266
 21
87.13874181799008
 31
0.0
  0
ELLIPSE
  5
99
330
1F
100
AcDbEntity
  8
1
  6
CONTINUOUS
 62
     7
100
AcDbEllipse
 10
20.55677203374105
 20
139.6071999260731
 30
0.0
 11
-2.50886283716535
 21
0.1012416052651239
 31
0.0
210
0.0
220
0.0
230
1.0
 40
0.1951652596982769
 41
3.13097138040998
 42
3.148788285753563
  0
LINE
  5
9A
330
1F
100
AcDbEntity
  8
1
  6
CONTINUOUS
 62
     7
100
AcDbLine
 10
23.06571209648554
 20
203.7905157986444
 30
0.0
 11
23.08708801149611
 21
197.6450804058219
 31
0.0
  0
LINE
  5
9B
330
1F
100
AcDbEntity
  8
1
  6
CONTINUOUS
 62
     7
100
AcDbLine
 10
75.05727607849488
 20
87.10803748674677
 30
0.0
 11
75.05747801270124
 21
87.10786015080352
 31
0.0
  0
LINE
  5
9C
330
1F
100
AcDbEntity
  8
1
  6
CONTINUOUS
 62
     7
100
AcDbLine
 10
82.59509756796396
 20
82.09510415566955
 30
0.0
 11
81.61451689227303
 21
82.09340932783617
 31
0.0
  0
LINE
  5
9D
330
1F
100
AcDbEntity
  8
1
  6
CONTINUOUS
 62
     7
100
AcDbLine
 10
133.585483107727
 20
82.0934093278362
 30
0.0
 11
132.6049024320361
 21
82.09510415566957
 31
0.0
  0
LINE
  5
9E
330
1F
100
AcDbEntity
  8
1
  6
CONTINUOUS
 62
     7
100
AcDbLine
 10
81.61451689227303
 20
82.09340932783616
 30
0.0
 11
77.71255967900645
 21
82.07978754453521
 31
0.0
  0
ELLIPSE
  5
9F
330
1F
100
AcDbEntity
  8
1
  6
CONTINUOUS
 62
     7
100
AcDbEllipse
 10
130.5984767195609
 20
170.5072334128519
 30
0.0
 11
-9.240444090437013
 21
-3.827517264609325
 31
0.0
210
0.0
220
0.0
230
-1.0
 40
0.9998215707699767
 41
3.115417383942635
 42
3.167767923236947
  0
LINE
  5
A0
330
1F
100
AcDbEntity
  8
1
  6
CONTINUOUS
 62
     7
100
AcDbLine
 10
140.6
 20
86.65076140825185
 30
0.0
 11
139.6802196290899
 21
82.05185955370108
 31
0.0
  0
ARC
  5
A1
330
1F
100
AcDbEntity
  8
1
  6
CONTINUOUS
 62
     7
100
AcDbCircle
 10
-72.6
 20
122.8215728752538
 30
0.0
 40
2.0
210
0.0
220
0.0
230
-1.0
100
AcDbArc
 50
161.3763484893482
 51
179.9999999999998
  0
LINE
  5
A2
330
1F
100
AcDbEntity
  8
1
  6
CONTINUOUS
 62
     7
100
AcDbLine
 10
22.60076140825189
 20
204.65
 30
0.0
 11
23.05803748674675
 21
204.1927239215052
 31
0.0
  0
LINE
  5
A3
330
1F
100
AcDbEntity
  8
1
  6
CONTINUOUS
 62
     7
100
AcDbLine
 10
76.00999422696583
 20
81.64999999999999
 30
0.0
 11
77.10000000000002
 21
81.64999999999999
 31
0.0
  0
ARC
  5
A4
330
1F
100
AcDbEntity
  8
1
  6
CONTINUOUS
 62
     7
100
AcDbCircle
 10
130.6
 20
170.5078643762691
 30
0.0
 40
10.00000000000001
100
AcDbArc
 50
0.0000000000000035
 51
21.00000000000015
  0
LINE
  5
A5
330
1F
100
AcDbEntity
  8
1
  6
CONTINUOUS
 62
     7
100
AcDbLine
 10
74.6
 20
122.8215728752538
 30
0.0
 11
74.6
 21
115.65
 31
0.0
  0
LINE
  5
A6
330
1F
100
AcDbEntity
  8
1
  6
CONTINUOUS
 62
     7
100
AcDbLine
 10
58.77157287525381
 20
138.65
 30
0.0
 11
51.6
 21
138.65
 31
0.0
  0
LINE
  5
A7
330
1F
100
AcDbEntity
  8
1
  6
CONTINUOUS
 62
     7
100
AcDbLine
 10
51.6
 20
204.65
 30
0.0
 11
106.457864376269
 21
204.6500000000001
 31
0.0
  0
ELLIPSE
  5
A8
330
1F
100
AcDbEntity
  8
1
  6
CONTINUOUS
 62
     7
100
AcDbEllipse
 10
18.10007616402195
 20
140.0601465434096
 30
0.0
 11
-0.3536610945847898
 21
-0.3536610945847897
 31
0.0
210
0.0
220
0.0
230
-1.0
 40
0.9996954598819061
 41
5.69532327378076
 42
7.068431177329457
  0
LINE
  5
A9
330
1F
100
AcDbEntity
  8
1
  6
CONTINUOUS
 62
     7
100
AcDbLine
 10
140.6
 20
107.65
 30
0.0
 11
140.6
 21
115.65
 31
0.0
  0
ELLIPSE
  5
AA
330
1F
100
AcDbEntity
  8
1
  6
CONTINUOUS
 62
     7
100
AcDbEllipse
 10
139.1898534565904
 20
82.15007616402194
 30
0.0
 11
0.3536610945847894
 21
-0.3536610945847898
 31
0.0
210
0.0
220
0.0
230
-1.0
 40
0.9996954598819066
 41
5.69532327378074
 42
7.068431177329471
  0
LINE
  5
AB
330
1F
100
AcDbEntity
  8
1
  6
CONTINUOUS
 62
     7
100
AcDbLine
 10
82.59509756796396
 20
82.09510415566955
 30
0.0
 11
132.6049024320361
 21
82.09510415566957
 31
0.0
  0
LINE
  5
AC
330
1F
100
AcDbEntity
  8
1
  6
CONTINUOUS
 62
     7
100
AcDbLine
 10
23.05803748674675
 20
139.1072760784949
 30
0.0
 11
22.60076140825193
 21
138.65
 31
0.0
  0
LINE
  5
AD
330
1F
100
AcDbEntity
  8
1
  6
CONTINUOUS
 62
     7
100
AcDbLine
 10
137.4874403209936
 20
82.07978754453525
 30
0.0
 11
133.585483107727
 21
82.09340932783618
 31
0.0
  0
ARC
  5
AE
330
1F
100
AcDbEntity
  8
1
  6
CONTINUOUS
 62
     7
100
AcDbCircle
 10
58.77157287525381
 20
136.65
 30
0.0
 40
2.000000000000003
100
AcDbArc
 50
45.00000000000071
 51
63.5805782560991
  0
LINE
  5
AF
330
1F
100
AcDbEntity
  8
1
  6
CONTINUOUS
 62
     7
100
AcDbLine
 10
75.05727607849488
 20
87.10803748674674
 30
0.0
 11
74.60000000000002
 21
86.65076140825192
 31
0.0
  0
LINE
  5
B0
330
1F
100
AcDbEntity
  8
1
  6
CONTINUOUS
 62
     7
100
AcDbLine
 10
139.6802196290899
 20
82.0518595537011
 30
0.0
 11
140.6
 21
86.65076140825192
 31
0.0
  0
LINE
  5
B1
330
1F
100
AcDbEntity
  8
1
  6
CONTINUOUS
 62
     7
100
AcDbLine
 10
140.6
 20
86.65076140825192
 30
0.0
 11
140.1427239215052
 21
87.10803748674678
 31
0.0
  0
ARC
  5
B2
330
1F
100
AcDbEntity
  8
1
  6
CONTINUOUS
 62
     7
100
AcDbCircle
 10
130.6
 20
170.5078643762691
 30
0.0
 40
10.00000000000001
100
AcDbArc
 50
24.00000000000018
 51
45.00000000000017
  0
ELLIPSE
  5
B3
330
1F
100
AcDbEntity
  8
1
  6
CONTINUOUS
 62
     7
100
AcDbEllipse
 10
130.5984767195609
 20
170.5072334128519
 30
0.0
 11
-9.240444090437013
 21
-3.827517264609325
 31
0.0
210
0.0
220
0.0
230
-1.0
 40
0.9998215707699767
 41
2.748956657798697
 42
3.115417383942635
  0
LINE
  5
B4
330
1F
100
AcDbEntity
  8
1
  6
CONTINUOUS
 62
     7
100
AcDbLine
 10
138.1
 20
81.64999999999999
 30
0.0
 11
139.1900057730342
 21
81.64999999999999
 31
0.0
  0
ARC
  5
B5
330
1F
100
AcDbEntity
  8
1
  6
CONTINUOUS
 62
     7
100
AcDbCircle
 10
-72.6
 20
122.8215728752538
 30
0.0
 40
2.000000000000003
210
0.0
220
0.0
230
-1.0
100
AcDbArc
 50
135.0000000000007
 51
153.6236515001098
  0
LINE
  5
B6
330
1F
100
AcDbEntity
  8
1
  6
CONTINUOUS
 62
     7
100
AcDbLine
 10
18.00185955370108
 20
203.7302196290899
 30
0.0
 11
22.60076140825189
 21
204.65
 31
0.0
  0
LINE
  5
B7
330
1F
100
AcDbEntity
  8
1
  6
CONTINUOUS
 62
     7
100
AcDbLine
 10
17.59999999999998
 20
202.15
 30
0.0
 11
17.59999999999998
 21
203.2400057730342
 31
0.0
  0
ELLIPSE
  5
B8
330
1F
100
AcDbEntity
  8
1
  6
CONTINUOUS
 62
     7
100
AcDbEllipse
 10
130.5984767195609
 20
170.5072334128519
 30
0.0
 11
-9.240444090437013
 21
-3.827517264609325
 31
0.0
210
0.0
220
0.0
230
-1.0
 40
0.9998215707699767
 41
3.167767923236947
 42
3.534228649380886
  0
ELLIPSE
  5
B9
330
1F
100
AcDbEntity
  8
1
  6
CONTINUOUS
 62
     7
100
AcDbEllipse
 10
18.10007616402194
 20
203.2398534565905
 30
0.0
 11
-0.3536610945847897
 21
0.3536610945847895
 31
0.0
210
0.0
220
0.0
230
1.0
 40
0.9996954598819108
 41
5.695323273780756
 42
7.068431177329454
  0
LINE
  5
BA
330
1F
100
AcDbEntity
  8
1
  6
CONTINUOUS
 62
     7
100
AcDbLine
 10
113.5289321881345
 20
201.7210678118655
 30
0.0
 11
137.6710678118655
 21
177.5789321881346
 31
0.0
  0
ARC
  5
BB
330
1F
100
AcDbEntity
  8
1
  6
CONTINUOUS
 62
     7
100
AcDbCircle
 10
-72.6
 20
122.8215728752538
 30
0.0
 40
2.000000000000012
210
0.0
220
0.0
230
-1.0
100
AcDbArc
 50
153.6236515001098
 51
161.3763484893483
  0
LINE
  5
BC
330
1F
100
AcDbEntity
  8
1
  6
CONTINUOUS
 62
     7
100
AcDbLine
 10
22.60076140825185
 20
204.65
 30
0.0
 11
18.00185955370107
 21
203.7302196290899
 31
0.0
  0
LINE
  5
BD
330
1F
100
AcDbEntity
  8
1
  6
CONTINUOUS
 62
     7
100
AcDbLine
 10
22.60076140825185
 20
204.65
 30
0.0
 11
43.59999999999999
 21
204.65
 31
0.0
  0
LINE
  5
BE
330
1F
100
AcDbEntity
  8
1
  6
CONTINUOUS
 62
     7
100
AcDbLine
 10
74.60000000000001
 20
107.65
 30
0.0
 11
74.60000000000002
 21
86.65076140825192
 31
0.0
  0
ARC
  5
BF
330
1F
100
AcDbEntity
  8
1
  6
CONTINUOUS
 62
     7
100
AcDbCircle
 10
-106.457864376269
 20
194.65
 30
0.0
 40
10.00000000000001
210
0.0
220
0.0
230
-1.0
100
AcDbArc
 50
114.0000000000001
 51
135.0000000000001
  0
ARC
  5
C0
330
1F
100
AcDbEntity
  8
1
  6
CONTINUOUS
 62
     7
100
AcDbCircle
 10
58.77157287525381
 20
136.65
 30
0.0
 40
1.999999999999988
100
AcDbArc
 50
71.419421744887
 51
90.0
  0
LINE
  5
C1
330
1F
100
AcDbEntity
  8
1
  6
CONTINUOUS
 62
     7
100
AcDbLine
 10
140.6
 20
86.65076140825192
 30
0.0
 11
140.6
 21
107.65
 31
0.0
  0
LINE
  5
C2
330
1F
100
AcDbEntity
  8
1
  6
CONTINUOUS
 62
     7
100
AcDbLine
 10
22.60076140825189
 20
204.65
 30
0.0
 11
43.59999999999999
 21
204.65
 31
0.0
  0
ELLIPSE
  5
C3
330
1F
100
AcDbEntity
  8
1
  6
CONTINUOUS
 62
     7
100
AcDbEllipse
 10
76.01014654340958
 20
82.15007616402195
 30
0.0
 11
-0.3536610945847894
 21
-0.3536610945847898
 31
0.0
210
0.0
220
0.0
230
1.0
 40
0.9996954598818865
 41
5.695323273780765
 42
7.068431177329457
  0
LINE
  5
C4
330
1F
100
AcDbEntity
  8
1
  6
CONTINUOUS
 62
     7
100
AcDbLine
 10
140.6
 20
86.65076140825185
 30
0.0
 11
140.6
 21
107.65
 31
0.0
  0
LINE
  5
C5
330
1F
100
AcDbEntity
  8
1
  6
CONTINUOUS
 62
     7
100
AcDbLine
 10
43.59999999999999
 20
204.65
 30
0.0
 11
51.6
 21
204.65
 31
0.0
  0
LINE
  5
C6
330
1F
100
AcDbEntity
  8
1
  6
CONTINUOUS
 62
     7
100
AcDbLine
 10
77.71255967900645
 20
82.07978754453521
 30
0.0
 11
77.31063678504346
 21
82.07130565597632
 31
0.0
  0
LINE
  5
C7
330
1F
100
AcDbEntity
  8
1
  6
CONTINUOUS
 62
     7
100
AcDbLine
 10
74.60000000000002
 20
86.65076140825192
 30
0.0
 11
75.51978037091017
 21
82.05185955370108
 31
0.0
  0
LINE
  5
C8
330
1F
100
AcDbEntity
  8
1
  6
CONTINUOUS
 62
     7
100
AcDbLine
 10
51.6
 20
204.65
 30
0.0
 11
106.457864376269
 21
204.65
 31
0.0
  0
LINE
  5
C9
330
1F
100
AcDbEntity
  8
1
  6
CONTINUOUS
 62
     7
100
AcDbLine
 10
106.457864376269
 20
204.65
 30
0.0
 11
106.4584952435874
 21
204.65
 31
0.0
  0
LINE
  5
CA
330
1F
100
AcDbEntity
  8
1
  6
CONTINUOUS
 62
     7
100
AcDbLine
 10
74.01421356237311
 20
124.2357864376269
 30
0.0
 11
60.18578643762689
 21
138.0642135623731
 31
0.0
  0
LINE
  5
CB
330
1F
100
AcDbEntity
  8
1
  6
CONTINUOUS
 62
     7
100
AcDbLine
 10
77.31063678504346
 20
82.07130565597632
 30
0.0
 11
77.10000000000002
 21
81.64999999999999
 31
0.0
  0
LINE
  5
CC
330
1F
100
AcDbEntity
  8
1
  6
CONTINUOUS
 62
     7
100
AcDbLine
 10
22.60076140825193
 20
138.65
 30
0.0
 11
18.00185955370108
 21
139.5697803709102
 31
0.0
  0
ARC
  5
CD
330
1F
100
AcDbEntity
  8
1
  6
CONTINUOUS
 62
     7
100
AcDbCircle
 10
-106.457864376269
 20
194.65
 30
0.0
 40
10.00000000000001
210
0.0
220
0.0
230
-1.0
100
AcDbArc
 50
90.0
 51
111.0000000000001
  0
ARC
  5
CE
330
1F
100
AcDbEntity
  8
1
  6
CONTINUOUS
 62
     7
100
AcDbCircle
 10
-106.457864376269
 20
194.65
 30
0.0
 40
9.99999999999998
210
0.0
220
0.0
230
-1.0
100
AcDbArc
 50
111.0000000000001
 51
113.9999999999999
  0
ARC
  5
CF
330
1F
100
AcDbEntity
  8
1
  6
CONTINUOUS
 62
     7
100
AcDbCircle
 10
58.77157287525381
 20
136.65
 30
0.0
 40
2.000000000000001
100
AcDbArc
 50
63.58057825609912
 51
71.419421744887
  0
LINE
  5
D0
330
1F
100
AcDbEntity
  8
1
  6
CONTINUOUS
 62
     7
100
AcDbLine
 10
140.6
 20
115.65
 30
0.0
 11
140.6
 21
170.5078643762691
 31
0.0
  0
LINE
  5
D1
330
1F
100
AcDbEntity
  8
1
  6
CONTINUOUS
 62
     7
100
AcDbLine
 10
43.6
 20
138.65
 30
0.0
 11
22.60076140825193
 21
138.65
 31
0.0
  0
ARC
  5
D2
330
1F
100
AcDbEntity
  8
1
  6
CONTINUOUS
 62
     7
100
AcDbCircle
 10
130.6
 20
170.5078643762691
 30
0.0
 40
10.00000000000001
100
AcDbArc
 50
21.00000000000015
 51
24.00000000000031
  0
ELLIPSE
  5
D3
330
1F
100
AcDbEntity
  8
1
  6
CONTINUOUS
 62
     7
100
AcDbEllipse
 10
139.1898534565905
 20
82.15007616402198
 30
0.0
 11
-0.3536610945847898
 21
0.3536610945847897
 31
0.0
210
0.0
220
0.0
230
1.0
 40
0.9996954598818668
 41
2.356346783439936
 42
3.72945468698861
  0
ELLIPSE
  5
D4
330
1F
100
AcDbEntity
  8
1
  6
CONTINUOUS
 62
     7
100
AcDbEllipse
 10
18.10007616402195
 20
203.2398534565905
 30
0.0
 11
0.3536610945847913
 21
-0.3536610945847913
 31
0.0
210
0.0
220
0.0
230
-1.0
 40
0.9996954598818666
 41
2.356346783439936
 42
3.729454686988618
  0
LINE
  5
D5
330
1F
100
AcDbEntity
  8
1
  6
CONTINUOUS
 62
     7
100
AcDbLine
 10
140.6
 20
115.65
 30
0.0
 11
140.6
 21
170.5078643762691
 31
0.0
  0
LINE
  5
D6
330
1F
100
AcDbEntity
  8
1
  6
CONTINUOUS
 62
     7
100
AcDbLine
 10
140.6
 20
170.5078643762691
 30
0.0
 11
140.6
 21
170.5084952435874
 31
0.0
  0
ELLIPSE
  5
D7
330
1F
100
AcDbEntity
  8
1
  6
CONTINUOUS
 62
     7
100
AcDbEllipse
 10
58.77144668257036
 20
136.6496953439122
 30
0.0
 11
-0.7655034529218654
 21
-1.848088818087402
 31
0.0
210
0.0
220
0.0
230
-1.0
 40
0.999821570769976
 41
3.073198001558913
 42
3.20998730560347
  0
LINE
  5
D8
330
1F
100
AcDbEntity
  8
1
  6
CONTINUOUS
 62
     7
100
AcDbLine
 10
193.482704598305
 20
49.45000000000005
 30
0.0
 11
185.2172954016951
 21
49.45000000000005
 31
0.0
  0
ELLIPSE
  5
D9
330
1F
100
AcDbEntity
  8
1
  6
CONTINUOUS
 62
     7
100
AcDbEllipse
 10
72.59969534391217
 20
122.8214466825704
 30
0.0
 11
-1.848088818087403
 21
-0.7655034529218652
 31
0.0
210
0.0
220
0.0
230
1.0
 40
0.9998215707699789
 41
2.748956657798704
 42
3.073949780169325
  0
ELLIPSE
  5
DA
330
1F
100
AcDbEntity
  8
1
  6
CONTINUOUS
 62
     7
100
AcDbEllipse
 10
58.77144668257036
 20
136.6496953439122
 30
0.0
 11
-0.7655034529218654
 21
-1.848088818087402
 31
0.0
210
0.0
220
0.0
230
-1.0
 40
0.999821570769976
 41
2.748956657798705
 42
3.073198001558913
  0
ARC
  5
DB
330
1F
100
AcDbEntity
  8
1
  6
CONTINUOUS
 62
     7
100
AcDbCircle
 10
-193.482704598305
 20
48.45000000000005
 30
0.0
 40
1.0
210
0.0
220
0.0
230
-1.0
100
AcDbArc
 50
89.9999999999992
 51
171.8698976458437
  0
LINE
  5
DC
330
1F
100
AcDbEntity
  8
1
  6
CONTINUOUS
 62
     7
100
AcDbLine
 10
184.2071428571429
 20
48.45000000000006
 30
0.0
 11
184.2273459080339
 21
48.59142135623737
 31
0.0
  0
LINE
  5
DD
330
1F
100
AcDbEntity
  8
1
  6
CONTINUOUS
 62
     7
100
AcDbLine
 10
184.0642857142857
 20
47.45000000000005
 30
0.0
 11
184.2071428571429
 21
48.45000000000006
 31
0.0
  0
LINE
  5
DE
330
1F
100
AcDbEntity
  8
1
  6
CONTINUOUS
 62
     7
100
AcDbLine
 10
183.4928571428572
 20
43.45000000000006
 30
0.0
 11
183.6357142857143
 21
44.45000000000006
 31
0.0
  0
LINE
  5
DF
330
1F
100
AcDbEntity
  8
1
  6
CONTINUOUS
 62
     7
100
AcDbLine
 10
137.6710678118655
 20
177.5789321881346
 30
0.0
 11
137.6715139024244
 21
177.5784860975757
 31
0.0
  0
ELLIPSE
  5
E0
330
1F
100
AcDbEntity
  8
1
  6
CONTINUOUS
 62
     7
100
AcDbEllipse
 10
76.01014654340955
 20
82.15007616402195
 30
0.0
 11
0.3536610945847898
 21
0.3536610945847895
 31
0.0
210
0.0
220
0.0
230
-1.0
 40
0.9996954598818865
 41
2.356346783439923
 42
3.729454686988641
  0
LINE
  5
E1
330
1F
100
AcDbEntity
  8
1
  6
CONTINUOUS
 62
     7
100
AcDbLine
 10
43.6
 20
138.65
 30
0.0
 11
22.60076140825184
 21
138.65
 31
0.0
  0
ARC
  5
E2
330
1F
100
AcDbEntity
  8
1
  6
CONTINUOUS
 62
     7
100
AcDbCircle
 10
-185.2172954016951
 20
48.45000000000005
 30
0.0
 40
1.0
210
0.0
220
0.0
230
-1.0
100
AcDbArc
 50
8.130102354156138
 51
90.0
  0
LINE
  5
E3
330
1F
100
AcDbEntity
  8
1
  6
CONTINUOUS
 62
     7
100
AcDbLine
 10
60.18578643762688
 20
138.0642135623731
 30
0.0
 11
60.18569721951511
 21
138.0643027804849
 31
0.0
  0
LINE
  5
E4
330
1F
100
AcDbEntity
  8
1
  6
CONTINUOUS
 62
     7
100
AcDbLine
 10
194.4726540919661
 20
48.59142135623737
 30
0.0
 11
194.4928571428572
 21
48.45000000000006
 31
0.0
  0
LINE
  5
E5
330
1F
100
AcDbEntity
  8
1
  6
CONTINUOUS
 62
     7
100
AcDbLine
 10
183.9214285714286
 20
46.45000000000006
 30
0.0
 11
184.0642857142857
 21
47.45000000000005
 31
0.0
  0
LINE
  5
E6
330
1F
100
AcDbEntity
  8
1
  6
CONTINUOUS
 62
     7
100
AcDbLine
 10
183.35
 20
42.45000000000006
 30
0.0
 11
183.4928571428572
 21
43.45000000000006
 31
0.0
  0
ELLIPSE
  5
E7
330
1F
100
AcDbEntity
  8
1
  6
CONTINUOUS
 62
     7
100
AcDbEllipse
 10
72.59969534391217
 20
122.8214466825704
 30
0.0
 11
-1.848088818087403
 21
-0.7655034529218652
 31
0.0
210
0.0
220
0.0
230
1.0
 40
0.9998215707699789
 41
3.073949780169325
 42
3.209235527194238
  0
LINE
  5
E8
330
1F
100
AcDbEntity
  8
1
  6
CONTINUOUS
 62
     7
100
AcDbLine
 10
183.7785714285715
 20
45.45000000000006
 30
0.0
 11
183.9214285714286
 21
46.45000000000006
 31
0.0
  0
ELLIPSE
  5
E9
330
1F
100
AcDbEntity
  8
1
  6
CONTINUOUS
 62
     7
100
AcDbEllipse
 10
106.4572334128519
 20
194.648476719561
 30
0.0
 11
-3.827517264609322
 21
-9.240444090437
 31
0.0
210
0.0
220
0.0
230
1.0
 40
0.9998215707699762
 41
2.748956657798698
 42
3.115417383942637
  0
ELLIPSE
  5
EA
330
1F
100
AcDbEntity
  8
1
  6
CONTINUOUS
 62
     7
100
AcDbEllipse
 10
106.4572334128519
 20
194.648476719561
 30
0.0
 11
-3.827517264609322
 21
-9.240444090437
 31
0.0
210
0.0
220
0.0
230
1.0
 40
0.9998215707699762
 41
3.115417383942637
 42
3.167767923236949
  0
LINE
  5
EB
330
1F
100
AcDbEntity
  8
1
  6
CONTINUOUS
 62
     7
100
AcDbLine
 10
195.0642857142857
 20
44.45000000000006
 30
0.0
 11
195.2071428571429
 21
43.45000000000006
 31
0.0
  0
LINE
  5
EC
330
1F
100
AcDbEntity
  8
1
  6
CONTINUOUS
 62
     7
100
AcDbLine
 10
183.6357142857143
 20
44.45000000000006
 30
0.0
 11
183.7785714285714
 21
45.45000000000006
 31
0.0
  0
LINE
  5
ED
330
1F
100
AcDbEntity
  8
1
  6
CONTINUOUS
 62
     7
100
AcDbLine
 10
194.9214285714286
 20
45.45000000000006
 30
0.0
 11
195.0642857142857
 21
44.45000000000006
 31
0.0
  0
LINE
  5
EE
330
1F
100
AcDbEntity
  8
1
  6
CONTINUOUS
 62
     7
100
AcDbLine
 10
74.59999999999997
 20
122.8215728752538
 30
0.0
 11
74.59999999999997
 21
115.65
 31
0.0
  0
LINE
  5
EF
330
1F
100
AcDbEntity
  8
1
  6
CONTINUOUS
 62
     7
100
AcDbLine
 10
183.35
 20
42.45000000000006
 30
0.0
 11
185.35
 21
42.45000000000006
 31
0.0
  0
ELLIPSE
  5
F0
330
1F
100
AcDbEntity
  8
1
  6
CONTINUOUS
 62
     7
100
AcDbEllipse
 10
106.4572334128519
 20
194.648476719561
 30
0.0
 11
-3.827517264609322
 21
-9.240444090437
 31
0.0
210
0.0
220
0.0
230
1.0
 40
0.9998215707699762
 41
3.167767923236949
 42
3.534228649380886
  0
LINE
  5
F1
330
1F
100
AcDbEntity
  8
1
  6
CONTINUOUS
 62
     7
100
AcDbLine
 10
74.59999999999997
 20
107.65
 30
0.0
 11
74.59999999999997
 21
86.65076140825185
 31
0.0
  0
LINE
  5
F2
330
1F
100
AcDbEntity
  8
1
  6
CONTINUOUS
 62
     7
100
AcDbLine
 10
74.01421356237309
 20
124.2357864376269
 30
0.0
 11
60.18578643762688
 21
138.0642135623731
 31
0.0
  0
LINE
  5
F3
330
1F
100
AcDbEntity
  8
1
  6
CONTINUOUS
 62
     7
100
AcDbLine
 10
51.60000000000001
 20
138.65
 30
0.0
 11
43.6
 21
138.65
 31
0.0
  0
LINE
  5
F4
330
1F
100
AcDbEntity
  8
1
  6
CONTINUOUS
 62
     7
100
AcDbLine
 10
74.59999999999997
 20
122.8216990487175
 30
0.0
 11
74.59999999999997
 21
122.8215728752538
 31
0.0
  0
ELLIPSE
  5
F5
330
1F
100
AcDbEntity
  8
1
  6
CONTINUOUS
 62
     7
100
AcDbEllipse
 10
72.59969534391217
 20
122.8214466825704
 30
0.0
 11
-1.848088818087403
 21
-0.7655034529218652
 31
0.0
210
0.0
220
0.0
230
1.0
 40
0.9998215707699789
 41
3.209235527194238
 42
3.534228649380886
  0
ELLIPSE
  5
F6
330
1F
100
AcDbEntity
  8
1
  6
CONTINUOUS
 62
     7
100
AcDbEllipse
 10
58.77144668257036
 20
136.6496953439122
 30
0.0
 11
-0.7655034529218654
 21
-1.848088818087402
 31
0.0
210
0.0
220
0.0
230
-1.0
 40
0.999821570769976
 41
3.20998730560347
 42
3.534228649380888
  0
LINE
  5
F7
330
1F
100
AcDbEntity
  8
1
  6
CONTINUOUS
 62
     7
100
AcDbLine
 10
17.59999999999999
 20
140.0599942269658
 30
0.0
 11
17.59999999999999
 21
141.15
 31
0.0
  0
LINE
  5
F8
330
1F
100
AcDbEntity
  8
1
  6
CONTINUOUS
 62
     7
100
AcDbLine
 10
58.7715728752538
 20
138.65
 30
0.0
 11
51.60000000000001
 21
138.65
 31
0.0
  0
LINE
  5
F9
330
1F
100
AcDbEntity
  8
1
  6
CONTINUOUS
 62
     7
100
AcDbLine
 10
76.0099942269658
 20
81.65
 30
0.0
 11
77.09999999999997
 21
81.65
 31
0.0
  0
LINE
  5
FA
330
1F
100
AcDbEntity
  8
1
  6
CONTINUOUS
 62
     7
100
AcDbLine
 10
18.00185955370107
 20
139.5697803709102
 30
0.0
 11
22.60076140825184
 21
138.65
 31
0.0
  0
ELLIPSE
  5
FB
330
1F
100
AcDbEntity
  8
1
  6
CONTINUOUS
 62
     7
100
AcDbEllipse
 10
18.10007616402195
 20
140.0601465434096
 30
0.0
 11
0.3536610945847896
 21
0.3536610945847896
 31
0.0
210
0.0
220
0.0
230
1.0
 40
0.9996954598818668
 41
2.356346783439923
 42
3.729454686988618
  0
LINE
  5
FC
330
1F
100
AcDbEntity
  8
1
  6
CONTINUOUS
 62
     7
100
AcDbLine
 10
74.01430278048484
 20
124.2356972195151
 30
0.0
 11
74.01421356237309
 21
124.2357864376269
 31
0.0
  0
LINE
  5
FD
330
1F
100
AcDbEntity
  8
1
  6
CONTINUOUS
 62
     7
100
AcDbLine
 10
58.77169904871748
 20
138.65
 30
0.0
 11
58.7715728752538
 21
138.65
 31
0.0
  0
LINE
  5
FE
330
1F
100
AcDbEntity
  8
1
  6
CONTINUOUS
 62
     7
100
AcDbLine
 10
193.35
 20
41.45000000000006
 30
0.0
 11
248.2078643762691
 21
41.45000000000004
 31
0.0
  0
LINE
  5
FF
330
1F
100
AcDbEntity
  8
1
  6
CONTINUOUS
 62
     7
100
AcDbLine
 10
75.51978037091014
 20
82.05185955370109
 30
0.0
 11
74.59999999999997
 21
86.65076140825185
 31
0.0
  0
LINE
  5
100
330
1F
100
AcDbEntity
  8
1
  6
CONTINUOUS
 62
     7
100
AcDbLine
 10
195.35
 20
42.45000000000006
 30
0.0
 11
193.35
 21
42.45000000000006
 31
0.0
  0
LINE
  5
101
330
1F
100
AcDbEntity
  8
1
  6
CONTINUOUS
 62
     7
100
AcDbLine
 10
194.7785714285715
 20
46.45000000000006
 30
0.0
 11
194.9214285714286
 21
45.45000000000006
 31
0.0
  0
LINE
  5
102
330
1F
100
AcDbEntity
  8
1
  6
CONTINUOUS
 62
     7
100
AcDbLine
 10
113.5289321881345
 20
201.7210678118655
 30
0.0
 11
137.6710678118655
 21
177.5789321881346
 31
0.0
  0
LINE
  5
103
330
1F
100
AcDbEntity
  8
1
  6
CONTINUOUS
 62
     7
100
AcDbLine
 10
195.2071428571429
 20
43.45000000000006
 30
0.0
 11
195.35
 21
42.45000000000006
 31
0.0
  0
LINE
  5
104
330
1F
100
AcDbEntity
  8
1
  6
CONTINUOUS
 62
     7
100
AcDbLine
 10
113.5284860975757
 20
201.7215139024244
 30
0.0
 11
113.5289321881345
 21
201.7210678118655
 31
0.0
  0
LINE
  5
105
330
1F
100
AcDbEntity
  8
1
  6
CONTINUOUS
 62
     7
100
AcDbLine
 10
193.35
 20
42.45000000000006
 30
0.0
 11
193.35
 21
41.45000000000006
 31
0.0
  0
LINE
  5
106
330
1F
100
AcDbEntity
  8
1
  6
CONTINUOUS
 62
     7
100
AcDbLine
 10
194.6357142857143
 20
47.45000000000006
 30
0.0
 11
194.7785714285715
 21
46.45000000000006
 31
0.0
  0
LINE
  5
107
330
1F
100
AcDbEntity
  8
1
  6
CONTINUOUS
 62
     7
100
AcDbLine
 10
194.4928571428572
 20
48.45000000000006
 30
0.0
 11
194.6357142857143
 21
47.45000000000006
 31
0.0
  0
LINE
  5
108
330
1F
100
AcDbEntity
  8
1
  6
CONTINUOUS
 62
     7
100
AcDbLine
 10
74.59999999999997
 20
115.65
 30
0.0
 11
74.59999999999997
 21
107.65
 31
0.0
  0
LINE
  5
109
330
1F
100
AcDbEntity
  8
1
  6
CONTINUOUS
 62
     7
100
AcDbLine
 10
164.3507614082519
 20
41.45000000000005
 30
0.0
 11
185.35
 21
41.45000000000006
 31
0.0
  0
LINE
  5
10A
330
1F
100
AcDbEntity
  8
1
  6
CONTINUOUS
 62
     7
100
AcDbLine
 10
164.8152834978811
 20
68.12714274265049
 30
0.0
 11
164.8078601508035
 21
67.65527639918275
 31
0.0
  0
LINE
  5
10B
330
1F
100
AcDbEntity
  8
1
  6
CONTINUOUS
 62
     7
100
AcDbLine
 10
164.8157120964856
 20
68.1289614705491
 30
0.0
 11
164.8152834978812
 21
68.12714274265049
 31
0.0
  0
LINE
  5
10C
330
1F
100
AcDbEntity
  8
1
  6
CONTINUOUS
 62
     7
100
AcDbLine
 10
159.794174150801
 20
66.89672005676431
 30
0.0
 11
159.35
 21
41.45000000000005
 31
0.0
  0
LINE
  5
10D
330
1F
100
AcDbEntity
  8
1
  6
CONTINUOUS
 62
     7
100
AcDbLine
 10
159.35
 20
41.45000000000005
 30
0.0
 11
159.7518595537011
 21
41.45000000000005
 31
0.0
  0
LINE
  5
10E
330
1F
100
AcDbEntity
  8
1
  6
CONTINUOUS
 62
     7
100
AcDbLine
 10
195.2071428571429
 20
43.45000000000006
 30
0.0
 11
183.4928571428572
 21
43.45000000000006
 31
0.0
  0
ELLIPSE
  5
10F
330
1F
100
AcDbEntity
  8
1
  6
CONTINUOUS
 62
     7
100
AcDbEllipse
 10
139.747687384051
 20
64.45000000000003
 30
0.0
 11
25.08873463688786
 21
4.911244953687626
 31
0.0
210
0.0
220
0.0
230
-1.0
 40
0.0373836648344204
 41
0.005759071821422
 42
0.007997730798195
  0
LINE
  5
110
330
1F
100
AcDbEntity
  8
1
  6
CONTINUOUS
 62
     7
100
AcDbLine
 10
159.8127767099844
 20
67.96245995861264
 30
0.0
 11
159.794174150801
 21
66.89672005676431
 31
0.0
  0
LINE
  5
111
330
1F
100
AcDbEntity
  8
1
  6
CONTINUOUS
 62
     7
100
AcDbLine
 10
279.4210678118655
 20
41.45000000000005
 30
0.0
 11
255.2789321881346
 21
41.45000000000004
 31
0.0
  0
LINE
  5
112
330
1F
100
AcDbEntity
  8
1
  6
CONTINUOUS
 62
     7
100
AcDbLine
 10
248.2078643762691
 20
69.45000000000003
 30
0.0
 11
164.8387418179901
 21
69.45000000000003
 31
0.0
  0
LINE
  5
113
330
1F
100
AcDbEntity
  8
1
  6
CONTINUOUS
 62
     7
100
AcDbLine
 10
194.7785714285715
 20
46.45000000000006
 30
0.0
 11
183.9214285714286
 21
46.45000000000006
 31
0.0
  0
LINE
  5
114
330
1F
100
AcDbEntity
  8
1
  6
CONTINUOUS
 62
     7
100
AcDbLine
 10
164.3507614082519
 20
41.45000000000005
 30
0.0
 11
164.8080374867468
 21
67.64732899163504
 31
0.0
  0
ELLIPSE
  5
115
330
1F
100
AcDbEntity
  8
1
  6
CONTINUOUS
 62
     7
100
AcDbEllipse
 10
162.3075043501933
 20
67.63860278841638
 30
0.0
 11
2.500547412028678
 21
0.01090661224006718
 31
0.0
210
0.0
220
0.0
230
-1.0
 40
0.1999086397047871
 41
6.271646856693825
 42
6.287546969359907
  0
LINE
  5
116
330
1F
100
AcDbEntity
  8
1
  6
CONTINUOUS
 62
     7
100
AcDbLine
 10
194.9214285714286
 20
45.45000000000006
 30
0.0
 11
183.7785714285715
 21
45.45000000000006
 31
0.0
  0
LINE
  5
117
330
1F
100
AcDbEntity
  8
1
  6
CONTINUOUS
 62
     7
100
AcDbLine
 10
194.6357142857143
 20
47.45000000000006
 30
0.0
 11
184.0642857142857
 21
47.45000000000005
 31
0.0
  0
LINE
  5
118
330
1F
100
AcDbEntity
  8
1
  6
CONTINUOUS
 62
     7
100
AcDbLine
 10
164.8157120964856
 20
68.1289614705491
 30
0.0
 11
164.8370880114961
 21
69.35358682132731
 31
0.0
  0
LINE
  5
119
330
1F
100
AcDbEntity
  8
1
  6
CONTINUOUS
 62
     7
100
AcDbLine
 10
164.838679264964
 20
69.44998753480974
 30
0.0
 11
164.8370633258813
 21
69.35576205395519
 31
0.0
  0
LINE
  5
11A
330
1F
100
AcDbEntity
  8
1
  6
CONTINUOUS
 62
     7
100
AcDbLine
 10
185.35
 20
42.45000000000006
 30
0.0
 11
185.35
 21
41.45000000000006
 31
0.0
  0
LINE
  5
11B
330
1F
100
AcDbEntity
  8
1
  6
CONTINUOUS
 62
     7
100
AcDbLine
 10
249.634751525662
 20
69.45000000000003
 30
0.0
 11
248.2078643762691
 21
69.45000000000003
 31
0.0
  0
LINE
  5
11C
330
1F
100
AcDbEntity
  8
1
  6
CONTINUOUS
 62
     7
100
AcDbLine
 10
159.7518595537011
 20
41.45000000000005
 30
0.0
 11
164.3507614082519
 21
41.45000000000005
 31
0.0
  0
LINE
  5
11D
330
1F
100
AcDbEntity
  8
1
  6
CONTINUOUS
 62
     7
100
AcDbLine
 10
185.35
 20
43.45000000000006
 30
0.0
 11
185.35
 21
42.45000000000006
 31
0.0
  0
LINE
  5
11E
330
1F
100
AcDbEntity
  8
1
  6
CONTINUOUS
 62
     7
100
AcDbLine
 10
195.0642857142857
 20
44.45000000000006
 30
0.0
 11
183.6357142857143
 21
44.45000000000006
 31
0.0
  0
LINE
  5
11F
330
1F
100
AcDbEntity
  8
1
  6
CONTINUOUS
 62
     7
100
AcDbLine
 10
193.35
 20
43.45000000000006
 30
0.0
 11
193.35
 21
42.45000000000006
 31
0.0
  0
LINE
  5
120
330
1F
100
AcDbEntity
  8
1
  6
CONTINUOUS
 62
     7
100
AcDbLine
 10
194.4928571428572
 20
48.45000000000006
 30
0.0
 11
184.2071428571429
 21
48.45000000000006
 31
0.0
  0
LINE
  5
121
330
1F
100
AcDbEntity
  8
1
  6
CONTINUOUS
 62
     7
100
AcDbLine
 10
164.838679264964
 20
69.44998753480974
 30
0.0
 11
160.2164651639306
 21
68.52890054861166
 31
0.0
  0
MTEXT
  5
122
330
1F
100
AcDbEntity
  8
1
 62
     7
100
AcDbMText
 10
60.12507190196323
 20
14.80613355008127
 30
0.0
 40
10.0
 41
0.0
 71
     1
 72
     1
  1
{\fＭＳ ゴシック;MIDM-60}
  0
LWPOLYLINE
  5
123
330
1F
100
AcDbEntity
  8
1
  6
CONTINUOUS
 62
     7
100
AcDbPolyline
 90
       26
 70
     0
 43
0.0
 10
98.42756594720112
 20
30.8840150621107
 10
98.38936487974462
 20
30.86847816842122
 10
98.35163969669969
 20
30.85124379963905
 10
98.31450622004131
 20
30.83232234602312
 10
98.27808022604373
 20
30.81173356954876
 10
98.24247639902805
 20
30.78950671635173
 10
98.20780726368882
 20
30.76568050430136
 10
98.17418211554462
 20
30.7403029812765
 10
98.13641207610335
 20
30.70881185691224
 10
98.10036325798191
 20
30.67539280827556
 10
98.06618133727343
 20
30.64016620630016
 10
98.03399830743572
 20
30.60326585485823
 10
98.00393089108609
 20
30.56483730447281
 10
97.97607924395824
 20
30.52503596185064
 10
97.95052598057622
 20
30.48402504620818
 10
97.9273355397226
 20
30.44197344759222
 10
97.90655389582523
 20
30.399053544124
 10
97.88820861061262
 20
30.35543903431638
 10
97.87230920841414
 20
30.31130283748705
 10
97.85884784883241
 20
30.26681511011605
 10
97.84780026260428
 20
30.22214141918266
 10
97.83912691056146
 20
30.1774411055435
 10
97.83277432181598
 20
30.13286586178628
 10
97.82867656561648
 20
30.0885585402061
 10
97.82675681159326
 20
30.04465219805062
 10
97.8269289350979
 20
30.00126937934297
  0
LWPOLYLINE
  5
124
330
1F
100
AcDbEntity
  8
1
  6
CONTINUOUS
 62
     7
100
AcDbPolyline
 90
       33
 70
     0
 43
0.0
 10
-108.0613248654052
 20
28.95000000000007
 10
-108.0754894828959
 20
28.94939772810265
 10
-108.0896199765824
 20
28.94759236333616
 10
-108.1036823048677
 20
28.94458825498246
 10
-108.1176425903713
 20
28.94039264020168
 10
-108.1314672015426
 20
28.93501562659734
 10
-108.1451228336824
 20
28.92847016786617
 10
-108.1585765891768
 20
28.92077203259158
 10
-108.1717960567504
 20
28.91193976625571
 10
-108.1847493895479
 20
28.90199464656179
 10
-108.197405381856
 20
28.89096063217424
 10
-108.2097335442807
 20
28.8788643050002
 10
-108.221704177199
 20
28.86573480615134
 10
-108.2332884423076
 20
28.85160376574038
 10
-108.2444584320972
 20
28.83650522668143
 10
-108.255187237084
 20
28.82047556267754
 10
-108.2654490106371
 20
28.80355339059333
 10
-108.2752190312452
 20
28.78577947742357
 10
-108.2844737620729
 20
28.76719664208188
 10
-108.2931909076629
 20
28.74784965224627
 10
-108.3013494676481
 20
28.72778511650986
 10
-108.3089297873428
 20
28.70705137209666
 10
-108.315913605093
 20
28.68569836841305
 10
-108.3222840962699
 20
28.66377754671519
 10
-108.3280259138023
 20
28.64134171618259
 10
-108.3331252251488
 20
28.61844492669616
 10
-108.3375697456219
 20
28.59514233862728
 10
-108.3413487679823
 20
28.57149008995168
 10
-108.3444531882342
 20
28.54754516100811
 10
-108.3468755275573
 20
28.52336523722772
 10
-108.348609950324
 20
28.49900857016482
 10
-108.3496522781579
 20
28.47453383716374
 10
-108.35
 20
28.45000000000004
210
0.0
220
0.0
230
-1.0
  0
LWPOLYLINE
  5
125
330
1F
100
AcDbEntity
  8
1
  6
CONTINUOUS
 62
     7
100
AcDbPolyline
 90
       29
 70
     0
 43
0.0
 10
77.71255967900645
 20
66.07251193580133
 10
77.68878963257772
 20
66.06715242873457
 10
77.66530892276552
 20
66.06064123146075
 10
77.6421733152623
 20
66.0529938077979
 10
77.61943775615704
 20
66.04422832005369
 10
77.59715624144074
 20
66.03436558589067
 10
77.5753816887682
 20
66.02342902888519
 10
77.5541658117808
 20
66.01144462289749
 10
77.53355899728881
 20
65.99844083038472
 10
77.51361018560479
 20
65.98444853480397
 10
77.49436675431257
 20
65.96950096726525
 10
77.47587440574729
 20
65.95363362760911
 10
77.45817705845448
 20
65.93688420009592
 10
77.4413167428852
 20
65.91929246390737
 10
77.42533350157562
 20
65.9009001986727
 10
77.41026529404766
 20
65.88175108524369
 10
77.3961479066567
 20
65.8618906019546
 10
77.38301486760052
 20
65.84136591661299
 10
77.37089736729128
 20
65.82022577447825
 10
77.35982418427953
 20
65.79852038249349
 10
77.34982161690645
 20
65.77630129004645
 10
77.34091342084639
 20
65.75362126654166
 10
77.3331207526881
 20
65.73053417607538
 10
77.3264621196888
 20
65.70709484951075
 10
77.3209533358201
 20
65.68335895425672
 10
77.31660748421068
 20
65.65938286206028
 10
77.31343488607423
 20
65.63522351512607
 10
77.31144307619708
 20
65.61093829088095
 10
77.31063678504346
 20
65.58658486570503
  0
LWPOLYLINE
  5
126
330
1F
100
AcDbEntity
  8
1
  6
CONTINUOUS
 62
     7
100
AcDbPolyline
 90
       33
 70
     0
 43
0.0
 10
126.5905499213976
 20
61.45436326774925
 10
126.5898277209104
 20
61.47875478788742
 10
126.5882650317537
 20
61.50307780263029
 10
126.5858655768776
 20
61.52727436483713
 10
126.5826350727422
 20
61.5512868286277
 10
126.5785812156996
 20
61.57505798671774
 10
126.5737136636569
 20
61.59853120670962
 10
126.5680440130684
 20
61.62165056601329
 10
126.5615857713074
 20
61.64436098507625
 10
126.5543543244864
 20
61.66660835860515
 10
126.5463669008015
 20
61.68833968446603
 10
126.5376425294877
 20
61.70950318995676
 10
126.5282019954838
 20
61.73004845515022
 10
126.5180677899144
 20
61.74992653301472
 10
126.5072640565067
 20
61.76909006602539
 10
126.4958165340709
 20
61.78749339898879
 10
126.4837524951801
 20
61.8050926878117
 10
126.4711006811956
 20
61.82184600395541
 10
126.4578912337941
 20
61.83771343432613
 10
126.4441556231578
 20
61.85265717636401
 10
126.4299265730003
 20
61.86664162810394
 10
126.4152379826048
 20
61.8796334729936
 10
126.4001248460634
 20
61.89160175926687
 10
126.3846231689066
 20
61.90251797368324
 10
126.368769882324
 20
61.91235610945781
 10
126.3526027551791
 20
61.9210927282198
 10
126.3361603040294
 20
61.9287070158521
 10
126.3194817013641
 20
61.93518083207889
 10
126.3026066822794
 20
61.94049875368292
 10
126.2855754498142
 20
61.94464811124988
 10
126.2684285791699
 20
61.94761901935193
 10
126.2512069210445
 20
61.94940440009879
 10
126.2339515043095
 20
61.95000000000006
  0
LWPOLYLINE
  5
127
330
1F
100
AcDbEntity
  8
1
  6
CONTINUOUS
 62
     7
100
AcDbPolyline
 90
       26
 70
     0
 43
0.0
 10
117.3730710649022
 20
30.00126937934296
 10
117.3732431884069
 20
30.04465219805067
 10
117.3713234343836
 20
30.0885585402062
 10
117.3672256781841
 20
30.13286586178643
 10
117.3608730894385
 20
30.1774411055437
 10
117.3521997373958
 20
30.22214141918291
 10
117.3411521511676
 20
30.26681511011635
 10
117.3276907915858
 20
30.31130283748739
 10
117.3117913893873
 20
30.35543903431676
 10
117.2934461041746
 20
30.39905354412441
 10
117.2726644602772
 20
30.44197344759266
 10
117.2494740194236
 20
30.48402504620864
 10
117.2239207560415
 20
30.52503596185112
 10
117.1960691089136
 20
30.5648373044733
 10
117.1660016925639
 20
30.60326585485872
 10
117.1338186627261
 20
30.64016620630065
 10
117.0996367420176
 20
30.67539280827605
 10
117.0635879238961
 20
30.70881185691272
 10
117.0258178844548
 20
30.74030298127696
 10
116.9921927363106
 20
30.7656805043018
 10
116.9575236009713
 20
30.78950671635215
 10
116.9219197739556
 20
30.81173356954915
 10
116.885493779958
 20
30.83232234602348
 10
116.8483603032996
 20
30.85124379963938
 10
116.8106351202546
 20
30.86847816842153
 10
116.7724340527982
 20
30.88401506211096
  0
LWPOLYLINE
  5
128
330
1F
100
AcDbEntity
  8
1
  6
CONTINUOUS
 62
     7
100
AcDbPolyline
 90
       51
 70
     0
 43
0.0
 10
118.8220704096675
 20
61.44049875368291
 10
118.7866295743501
 20
61.44035433367205
 10
118.7555636797961
 20
61.43990573570533
 10
118.7279839768328
 20
61.43913284688723
 10
118.703172688394
 20
61.43800186873352
 10
118.6805873992826
 20
61.43646547085389
 10
118.6598909020828
 20
61.43446300480439
 10
118.6452769936786
 20
61.43261146273297
 10
118.6312109828828
 20
61.43042080159339
 10
118.6175169318406
 20
61.42785134359622
 10
118.6040438965402
 20
61.42485964908789
 10
118.5963939151453
 20
61.42294257575271
 10
118.5887528731005
 20
61.42086305280168
 10
118.5811020776834
 20
61.41861145124611
 10
118.5734236103952
 20
61.41617734231608
 10
118.5653945037561
 20
61.4134427083852
 10
118.5567811492662
 20
61.41029931341732
 10
118.5475934072288
 20
61.4067122173027
 10
118.5390932372631
 20
61.40317990886743
 10
118.5301743994063
 20
61.39925203652047
 10
118.5208501491591
 20
61.39490017015883
 10
118.5111362116427
 20
61.39009454574317
 10
118.5010514726748
 20
61.38480420107281
 10
118.4906164874161
 20
61.37899712354998
 10
118.479854419227
 20
61.37264042050879
 10
118.4687913882803
 20
61.36570050860034
 10
118.4558170408
 20
61.35701133666578
 10
118.4425367430132
 20
61.34746470553976
 10
118.429005203718
 20
61.3370094776039
 10
118.4152832584944
 20
61.32559515024604
 10
118.4014381284668
 20
61.31317246849007
 10
118.3875436527807
 20
61.29969409610151
 10
118.3736804864635
 20
61.28511534624491
 10
118.360209372932
 20
61.26972081439406
 10
118.3469415217308
 20
61.25319502032958
 10
118.333972549378
 20
61.23550790753303
 10
118.3214045967492
 20
61.21663506385017
 10
118.3118816014565
 20
61.20096268978042
 10
118.3027284320759
 20
61.18454168507265
 10
118.2940027407905
 20
61.167369753128
 10
118.2857643598377
 20
61.14944805513755
 10
118.2787498255992
 20
61.13250904678027
 10
118.272236984012
 20
61.11496103009983
 10
118.2662748399831
 20
61.09681359092153
 10
118.2609134218742
 20
61.07807948126487
 10
118.2562036225885
 20
61.05877480886239
 10
118.2521970202873
 20
61.03891922297375
 10
118.2489456779154
 20
61.01853609484051
 10
118.2465019208009
 20
60.99765269099027
 10
118.244918091703
 20
60.97630033746277
 10
118.2442462828053
 20
60.95451457287763
  0
LWPOLYLINE
  5
129
330
1F
100
AcDbEntity
  8
1
  6
CONTINUOUS
 62
     7
100
AcDbPolyline
 90
       33
 70
     0
 43
0.0
 10
-106.85
 20
28.45000000000004
 10
-106.8503477218421
 20
28.47453383716375
 10
-106.851390049676
 20
28.49900857016482
 10
-106.8531244724427
 20
28.52336523722772
 10
-106.8555468117658
 20
28.5475451610081
 10
-106.8586512320177
 20
28.57149008995167
 10
-106.8624302543781
 20
28.59514233862727
 10
-106.8668747748512
 20
28.61844492669615
 10
-106.8719740861977
 20
28.64134171618259
 10
-106.8777159037301
 20
28.66377754671518
 10
-106.884086394907
 20
28.68569836841305
 10
-106.8910702126571
 20
28.70705137209666
 10
-106.8986505323519
 20
28.72778511650985
 10
-106.9068090923371
 20
28.74784965224627
 10
-106.9155262379271
 20
28.76719664208187
 10
-106.9247809687548
 20
28.78577947742356
 10
-106.9345509893629
 20
28.80355339059332
 10
-106.944812762916
 20
28.82047556267753
 10
-106.9555415679028
 20
28.83650522668142
 10
-106.9667115576924
 20
28.85160376574037
 10
-106.978295822801
 20
28.86573480615133
 10
-106.9902664557193
 20
28.87886430500019
 10
-107.002594618144
 20
28.89096063217423
 10
-107.0152506104521
 20
28.90199464656178
 10
-107.0282039432496
 20
28.9119397662557
 10
-107.0414234108232
 20
28.92077203259157
 10
-107.0548771663176
 20
28.92847016786617
 10
-107.0685327984573
 20
28.93501562659733
 10
-107.0823574096287
 20
28.94039264020168
 10
-107.0963176951323
 20
28.94458825498246
 10
-107.1103800234176
 20
28.94759236333616
 10
-107.1245105171041
 20
28.94939772810265
 10
-107.1386751345948
 20
28.95000000000007
210
0.0
220
0.0
230
-1.0
  0
LWPOLYLINE
  5
12A
330
1F
100
AcDbEntity
  8
1
  6
CONTINUOUS
 62
     7
100
AcDbPolyline
 90
       32
 70
     0
 43
0.0
 10
-75.05747801270124
 20
67.65527639918275
 10
-75.05902535991659
 20
67.68126724206645
 10
-75.06192508436564
 20
67.70716652226096
 10
-75.06616638556314
 20
67.73286870004041
 10
-75.07034000170512
 20
67.75247085688957
 10
-75.0753008064489
 20
67.7719092475804
 10
-75.08103620239649
 20
67.79113682301299
 10
-75.08753359215
 20
67.81010653408757
 10
-75.09500587086626
 20
67.82932506279442
 10
-75.10327242998662
 20
67.84823785117868
 10
-75.11231118017281
 20
67.86679642269621
 10
-75.12210003208666
 20
67.88495230080285
 10
-75.13294973400878
 20
67.90319661071902
 10
-75.14457513047131
 20
67.92098095280838
 10
-75.15694335119127
 20
67.93825724036503
 10
-75.17002152588576
 20
67.95497738668304
 10
-75.18344634359558
 20
67.97072709632921
 10
-75.19752264063354
 20
67.98591996333829
 10
-75.21221272285985
 20
68.00051731647505
 10
-75.22747889613468
 20
68.01448048450435
 10
-75.24378076730207
 20
68.02817502375646
 10
-75.26066316700134
 20
68.0411727360548
 10
-75.27807846004245
 20
68.05343926468535
 10
-75.29597901123536
 20
68.06494025293402
 10
-75.31381976612255
 20
68.07536864602862
 10
-75.33208660101894
 20
68.08505658898613
 10
-75.35073130004913
 20
68.09398067773014
 10
-75.36970564733767
 20
68.10211750818429
 10
-75.38955718134807
 20
68.10965909006237
 10
-75.40972120546802
 20
68.11635450028258
 10
-75.43014191331052
 20
68.12218772307021
 10
-75.45076349848864
 20
68.12714274265048
210
0.0
220
0.0
230
-1.0
  0
LWPOLYLINE
  5
12B
330
1F
100
AcDbEntity
  8
1
  6
CONTINUOUS
 62
     7
100
AcDbPolyline
 90
       32
 70
     0
 43
0.0
 10
-139.7492365015114
 20
68.12714274265049
 10
-139.7744691709807
 20
68.12095263724188
 10
-139.7993771989886
 20
68.11345195672746
 10
-139.8238578548531
 20
68.10466939306222
 10
-139.8423640617807
 20
68.0970487806366
 10
-139.8605713944011
 20
68.08868390135481
 10
-139.8784355818516
 20
68.07959532955675
 10
-139.8959123532692
 20
68.06980363958229
 10
-139.9134603031132
 20
68.05900898018238
 10
-139.9305676551475
 20
68.04748766476695
 10
-139.9471904833953
 20
68.03526990966549
 10
-139.9632848618801
 20
68.02238593120755
 10
-139.9792777471953
 20
68.00844179383076
 10
-139.9946809409565
 20
67.99381610790587
 10
-140.009452833319
 20
67.97854965041547
 10
-140.0235518144382
 20
67.96268319834215
 10
-140.0366352120308
 20
67.9466485340113
 10
-140.0490550380396
 20
67.93007127037308
 10
-140.0607798133474
 20
67.91299527159958
 10
-140.0717780588373
 20
67.89546440186291
 10
-140.0823267715078
 20
67.8769604660103
 10
-140.0920861183793
 20
67.85800805558642
 10
-140.1010305874216
 20
67.83866002147003
 10
-140.1091346666042
 20
67.81896921453986
 10
-140.1161937986057
 20
67.79952732926256
 10
-140.1224473042755
 20
67.77979612180607
 10
-140.1278804908456
 20
67.75982702274021
 10
-140.1324786655478
 20
67.73967146263485
 10
-140.1363320044343
 20
67.71875506391399
 10
-140.139294524743
 20
67.69767880597
 10
-140.1413599458917
 20
67.6765001104954
 10
-140.1425219872988
 20
67.65527639918275
210
0.0
220
0.0
230
-1.0
  0
LWPOLYLINE
  5
12C
330
1F
100
AcDbEntity
  8
1
  6
CONTINUOUS
 62
     7
100
AcDbPolyline
 90
       29
 70
     0
 43
0.0
 10
137.8893632149566
 20
65.58658486570503
 10
137.888556923803
 20
65.61093829088095
 10
137.8865651139258
 20
65.63522351512607
 10
137.8833925157894
 20
65.65938286206028
 10
137.8790466641799
 20
65.68335895425672
 10
137.8735378803113
 20
65.70709484951075
 10
137.8668792473119
 20
65.73053417607538
 10
137.8590865791537
 20
65.75362126654166
 10
137.8501783830936
 20
65.77630129004645
 10
137.8401758157205
 20
65.79852038249349
 10
137.8291026327088
 20
65.82022577447825
 10
137.8169851323995
 20
65.84136591661299
 10
137.8038520933433
 20
65.8618906019546
 10
137.7897347059524
 20
65.88175108524369
 10
137.7746664984244
 20
65.9009001986727
 10
137.7586832571149
 20
65.91929246390737
 10
137.7418229415456
 20
65.93688420009592
 10
137.7241255942527
 20
65.95363362760911
 10
137.7056332456875
 20
65.96950096726525
 10
137.6863898143952
 20
65.98444853480396
 10
137.6664410027113
 20
65.99844083038472
 10
137.6458341882192
 20
66.01144462289749
 10
137.6246183112318
 20
66.02342902888519
 10
137.6028437585593
 20
66.03436558589065
 10
137.580562243843
 20
66.04422832005369
 10
137.5578266847378
 20
66.05299380779789
 10
137.5346910772345
 20
66.06064123146074
 10
137.5112103674223
 20
66.06715242873456
 10
137.4874403209936
 20
66.07251193580133
  0
LWPOLYLINE
  5
12D
330
1F
100
AcDbEntity
  8
1
  6
CONTINUOUS
 62
     7
100
AcDbPolyline
 90
       33
 70
     0
 43
0.0
 10
-120.8270292269908
 20
61.45436326774927
 10
-120.8274503957567
 20
61.47875478788744
 10
-120.828712898662
 20
61.5030778026303
 10
-120.8308137279205
 20
61.52727436483715
 10
-120.8337478785171
 20
61.55128682862772
 10
-120.8375083601327
 20
61.57505798671776
 10
-120.8420862137975
 20
61.59853120670963
 10
-120.8474705332346
 20
61.6216505660133
 10
-120.8536484908435
 20
61.64436098507627
 10
-120.8606053682605
 20
61.66660835860516
 10
-120.8683245914236
 20
61.68833968446604
 10
-120.8767877700585
 20
61.70950318995678
 10
-120.8859747414918
 20
61.73004845515023
 10
-120.8958636186864
 20
61.74992653301473
 10
-120.9064308423852
 20
61.76909006602541
 10
-120.9176512372386
 20
61.7874933989888
 10
-120.9294980717823
 20
61.80509268781172
 10
-120.9419431221225
 20
61.82184600395541
 10
-120.954956739176
 20
61.83771343432614
 10
-120.9685079193068
 20
61.85265717636403
 10
-120.9825643781886
 20
61.86664162810396
 10
-120.9970926277194
 20
61.87963347299362
 10
-121.0120580558032
 20
61.89160175926688
 10
-121.0274250088101
 20
61.90251797368325
 10
-121.0431568765173
 20
61.91235610945782
 10
-121.0592161793293
 20
61.92109272821981
 10
-121.0755646575696
 20
61.92870701585212
 10
-121.09216336263
 20
61.93518083207891
 10
-121.108972749762
 20
61.94049875368294
 10
-121.1259527722886
 20
61.94464811124989
 10
-121.1430629770106
 20
61.94761901935194
 10
-121.1602626005832
 20
61.9494044000988
 10
-121.1775106666298
 20
61.95000000000007
210
0.0
220
0.0
230
-1.0
  0
LINE
  5
12E
330
1F
100
AcDbEntity
  8
1
  6
CONTINUOUS
 62
     7
100
AcDbLine
 10
122.3380381485861
 20
61.45000000000005
 30
0.0
 11
124.4189952313073
 21
61.45000000000005
 31
0.0
  0
LINE
  5
12F
330
1F
100
AcDbEntity
  8
1
  6
CONTINUOUS
 62
     7
100
AcDbLine
 10
124.4189952313073
 20
61.45000000000005
 30
0.0
 11
124.7661726440321
 21
61.45000000000005
 31
0.0
  0
LINE
  5
130
330
1F
100
AcDbEntity
  8
1
  6
CONTINUOUS
 62
     7
100
AcDbLine
 10
118.8906669570863
 20
61.45000000000005
 30
0.0
 11
121.9434205189417
 21
61.45000000000005
 31
0.0
  0
LINE
  5
131
330
1F
100
AcDbEntity
  8
1
  6
CONTINUOUS
 62
     7
100
AcDbLine
 10
118.2593537880024
 20
60.95473310741946
 30
0.0
 11
118.2442462828441
 21
60.95451457685475
 31
0.0
  0
LINE
  5
132
330
1F
100
AcDbEntity
  8
1
  6
CONTINUOUS
 62
     7
100
AcDbLine
 10
126.6429332633437
 20
57.20992904467815
 30
0.0
 11
125.2366576872826
 21
61.11924486425773
 31
0.0
  0
LINE
  5
133
330
1F
100
AcDbEntity
  8
1
  6
CONTINUOUS
 62
     7
100
AcDbLine
 10
79.60000000000002
 20
41.45000000000006
 30
0.0
 11
106.4578643762691
 21
41.45000000000005
 31
0.0
  0
LINE
  5
134
330
1F
100
AcDbEntity
  8
1
  6
CENTER
 62
     1
100
AcDbLine
 10
107.6
 20
23.44999999999995
 30
0.0
 11
107.6
 21
72.45000000000005
 31
0.0
  0
LINE
  5
136
330
1F
100
AcDbEntity
  8
1
  6
CONTINUOUS
 62
     7
100
AcDbLine
 10
118.2593533679939
 20
60.95473418452877
 30
0.0
 11
117.9750045147934
 21
28.9500016566154
 31
0.0
  0
LINE
  5
137
330
1F
100
AcDbEntity
  8
1
  6
CENTER
 62
     1
100
AcDbLine
 10
14.59999999999997
 20
171.65
 30
0.0
 11
143.6000000000001
 21
171.65
 31
0.0
  0
LINE
  5
138
330
1F
100
AcDbEntity
  8
1
  6
CONTINUOUS
 62
     7
100
AcDbLine
 10
104.4689805517924
 20
28.95000000000006
 30
0.0
 11
105.4965567874319
 21
28.95000000000006
 31
0.0
  0
LINE
  5
139
330
1F
100
AcDbEntity
  8
1
  6
CONTINUOUS
 62
     7
100
AcDbLine
 10
111.7611652351681
 20
41.45000000000005
 30
0.0
 11
118.0855369158803
 21
41.45000000000006
 31
0.0
  0
ELLIPSE
  5
13A
330
1F
100
AcDbEntity
  8
1
  6
CONTINUOUS
 62
     7
100
AcDbEllipse
 10
118.8906669570863
 20
60.95000000000005
 30
0.0
 11
0.0
 21
-0.5000000000000004
 31
0.0
210
0.0
220
0.0
230
-1.0
 40
0.7071067811865519
 41
2.946333088017267
 42
3.141592653589793
  0
LINE
  5
13B
330
1F
100
AcDbEntity
  8
1
  6
CONTINUOUS
 62
     7
100
AcDbLine
 10
106.4578643762691
 20
41.45000000000005
 30
0.0
 11
106.4579826661433
 21
41.45000000000006
 31
0.0
  0
LINE
  5
13C
330
1F
100
AcDbEntity
  8
1
  6
CONTINUOUS
 62
     7
100
AcDbLine
 10
109.7034432125682
 20
28.95000000000007
 30
0.0
 11
110.7310194482076
 21
28.95000000000007
 31
0.0
  0
ARC
  5
13D
330
1F
100
AcDbEntity
  8
1
  6
CONTINUOUS
 62
     7
100
AcDbCircle
 10
124.7661726440321
 20
60.95000000000005
 30
0.0
 40
0.5000000000000052
100
AcDbArc
 50
19.7848868591139
 51
90.00000000000159
  0
LINE
  5
13E
330
1F
100
AcDbEntity
  8
1
  6
CENTER
 62
     1
100
AcDbLine
 10
107.6
 20
78.64999999999996
 30
0.0
 11
107.6
 21
207.6500000000001
 31
0.0
  0
LINE
  5
13F
330
1F
100
AcDbEntity
  8
1
  6
CONTINUOUS
 62
     7
100
AcDbLine
 10
137.0201364759257
 20
40.53715574274771
 30
0.0
 11
136.0063917059259
 21
28.95000000000006
 31
0.0
  0
LINE
  5
140
330
1F
100
AcDbEntity
  8
1
  6
CONTINUOUS
 62
     7
100
AcDbLine
 10
126.6606601717798
 20
28.95000000000006
 30
0.0
 11
126.6606601717798
 21
41.45000000000005
 31
0.0
  0
LINE
  5
141
330
1F
100
AcDbEntity
  8
1
  6
CONTINUOUS
 62
     7
100
AcDbLine
 10
121.9434205189417
 20
61.45000000000005
 30
0.0
 11
122.3380381485861
 21
61.45000000000005
 31
0.0
  0
LINE
  5
142
330
1F
100
AcDbEntity
  8
1
  6
CONTINUOUS
 62
     7
100
AcDbLine
 10
126.8374368670764
 20
41.45000000000006
 30
0.0
 11
126.6606601717798
 21
41.45000000000006
 31
0.0
  0
ARC
  5
143
330
1F
100
AcDbEntity
  8
1
  6
CONTINUOUS
 62
     7
100
AcDbCircle
 10
138.0163311740174
 20
40.45000000000006
 30
0.0
 40
1.000000000000001
100
AcDbArc
 50
128.1847007335831
 51
175.0
  0
LINE
  5
144
330
1F
100
AcDbEntity
  8
1
  6
CONTINUOUS
 62
     7
100
AcDbLine
 10
17.59999999999999
 20
41.45000000000006
 30
0.0
 11
18.00185955370107
 21
41.45000000000006
 31
0.0
  0
LINE
  5
145
330
1F
100
AcDbEntity
  8
1
  6
CONTINUOUS
 62
     7
100
AcDbLine
 10
107.1386751345948
 20
28.95000000000006
 30
0.0
 11
105.4965567874318
 21
28.95000000000006
 31
0.0
  0
LINE
  5
146
330
1F
100
AcDbEntity
  8
1
  6
CONTINUOUS
 62
     7
100
AcDbLine
 10
74.01421356237311
 20
41.45000000000005
 30
0.0
 11
60.18578643762689
 21
41.45000000000005
 31
0.0
  0
LINE
  5
147
330
1F
100
AcDbEntity
  8
1
  6
CONTINUOUS
 62
     7
100
AcDbLine
 10
58.77169904871748
 20
41.45000000000006
 30
0.0
 11
58.7715728752538
 21
41.45000000000005
 31
0.0
  0
LINE
  5
148
330
1F
100
AcDbEntity
  8
1
  6
CONTINUOUS
 62
     7
100
AcDbLine
 10
58.7715728752538
 20
41.45000000000005
 30
0.0
 11
51.60000000000001
 21
41.45000000000006
 31
0.0
  0
LINE
  5
149
330
1F
100
AcDbEntity
  8
1
  6
CONTINUOUS
 62
     7
100
AcDbLine
 10
43.6
 20
41.45000000000006
 30
0.0
 11
22.60076140825184
 21
41.45000000000006
 31
0.0
  0
LINE
  5
14A
330
1F
100
AcDbEntity
  8
1
  6
CONTINUOUS
 62
     7
100
AcDbLine
 10
18.00185955370107
 20
41.45000000000006
 30
0.0
 11
22.60076140825184
 21
41.45000000000006
 31
0.0
  0
LINE
  5
14B
330
1F
100
AcDbEntity
  8
1
  6
CONTINUOUS
 62
     7
100
AcDbLine
 10
74.01430278048484
 20
41.45000000000006
 30
0.0
 11
74.6
 21
41.45000000000006
 31
0.0
  0
LINE
  5
14C
330
1F
100
AcDbEntity
  8
1
  6
CONTINUOUS
 62
     7
100
AcDbLine
 10
74.86182597392325
 20
26.45000000000006
 30
0.0
 11
74.27612875440809
 21
26.45000000000006
 31
0.0
  0
LINE
  5
14D
330
1F
100
AcDbEntity
  8
1
  6
CONTINUOUS
 62
     7
100
AcDbLine
 10
108.35
 20
26.44999999999995
 30
0.0
 11
109.5986276540021
 21
26.45000000000006
 31
0.0
  0
LINE
  5
14E
330
1F
100
AcDbEntity
  8
1
  6
CONTINUOUS
 62
     7
100
AcDbLine
 10
18.26368552762433
 20
26.45000000000006
 30
0.0
 11
17.86182597392325
 21
26.45000000000006
 31
0.0
  0
LINE
  5
14F
330
1F
100
AcDbEntity
  8
1
  6
CONTINUOUS
 62
     7
100
AcDbLine
 10
108.35
 20
28.45000000000004
 30
0.0
 11
108.35
 21
26.44999999999995
 31
0.0
  0
LINE
  5
150
330
1F
100
AcDbEntity
  8
1
  6
CONTINUOUS
 62
     7
100
AcDbLine
 10
74.2761287544081
 20
26.45000000000006
 30
0.0
 11
60.29414908889569
 21
26.45000000000006
 31
0.0
  0
LINE
  5
151
330
1F
100
AcDbEntity
  8
1
  6
CONTINUOUS
 62
     7
100
AcDbLine
 10
109.7034432125682
 20
28.95000000000006
 30
0.0
 11
108.0613248654052
 21
28.95000000000006
 31
0.0
  0
LINE
  5
152
330
1F
100
AcDbEntity
  8
1
  6
CONTINUOUS
 62
     7
100
AcDbLine
 10
22.60076140825184
 20
41.45000000000006
 30
0.0
 11
22.86258738217511
 21
26.45000000000006
 31
0.0
  0
LINE
  5
153
330
1F
100
AcDbEntity
  8
1
  6
CONTINUOUS
 62
     7
100
AcDbLine
 10
58.88015091809802
 20
26.45000000000006
 30
0.0
 11
22.86258738217511
 21
26.45000000000006
 31
0.0
  0
LINE
  5
154
330
1F
100
AcDbEntity
  8
1
  6
CONTINUOUS
 62
     7
100
AcDbLine
 10
106.85
 20
28.45000000000004
 30
0.0
 11
106.85
 21
26.45000000000006
 31
0.0
  0
LINE
  5
155
330
1F
100
AcDbEntity
  8
1
  6
CONTINUOUS
 62
     7
100
AcDbLine
 10
105.6013723459979
 20
26.45000000000006
 30
0.0
 11
106.85
 21
26.45000000000006
 31
0.0
  0
LINE
  5
156
330
1F
100
AcDbEntity
  8
1
  6
CONTINUOUS
 62
     7
100
AcDbLine
 10
22.86258738217511
 20
26.45000000000006
 30
0.0
 11
18.26368552762433
 21
26.45000000000006
 31
0.0
  0
LINE
  5
157
330
1F
100
AcDbEntity
  8
1
  6
CONTINUOUS
 62
     7
100
AcDbLine
 10
17.86182597392325
 20
26.45000000000006
 30
0.0
 11
17.59999999999999
 21
41.45000000000006
 31
0.0
  0
LINE
  5
158
330
1F
100
AcDbEntity
  8
1
  6
CONTINUOUS
 62
     7
100
AcDbLine
 10
107.6
 20
28.95000000000004
 30
0.0
 11
107.6
 21
26.45000000000001
 31
0.0
  0
LINE
  5
159
330
1F
100
AcDbEntity
  8
1
  6
CONTINUOUS
 62
     7
100
AcDbLine
 10
107.1386751345948
 20
28.95000000000006
 30
0.0
 11
107.6
 21
28.95000000000004
 31
0.0
  0
LINE
  5
15A
330
1F
100
AcDbEntity
  8
1
  6
CONTINUOUS
 62
     7
100
AcDbLine
 10
107.6
 20
28.95000000000004
 30
0.0
 11
108.0613248654052
 21
28.95000000000006
 31
0.0
  0
LINE
  5
15B
330
1F
100
AcDbEntity
  8
1
  6
CONTINUOUS
 62
     7
100
AcDbLine
 10
107.6
 20
26.45000000000001
 30
0.0
 11
108.35
 21
26.44999999999995
 31
0.0
  0
ARC
  5
15C
330
1F
100
AcDbEntity
  8
1
  6
CONTINUOUS
 62
     7
100
AcDbCircle
 10
77.18366882598256
 20
40.45000000000006
 30
0.0
 40
1.0
100
AcDbArc
 50
4.999999999999992
 51
51.81529926641685
  0
LINE
  5
15D
330
1F
100
AcDbEntity
  8
1
  6
CONTINUOUS
 62
     7
100
AcDbLine
 10
58.88015091809802
 20
26.45000000000006
 30
0.0
 11
60.29414908889568
 21
26.45000000000006
 31
0.0
  0
LINE
  5
15E
330
1F
100
AcDbEntity
  8
1
  6
CONTINUOUS
 62
     7
100
AcDbLine
 10
79.19360829407405
 20
28.95000000000006
 30
0.0
 11
78.17986352407432
 21
40.53715574274771
 31
0.0
  0
LINE
  5
15F
330
1F
100
AcDbEntity
  8
1
  6
CONTINUOUS
 62
     7
100
AcDbLine
 10
51.60000000000001
 20
41.45000000000006
 30
0.0
 11
43.6
 21
41.45000000000006
 31
0.0
  0
LINE
  5
160
330
1F
100
AcDbEntity
  8
1
  6
CONTINUOUS
 62
     7
100
AcDbLine
 10
135.6
 20
41.45000000000006
 30
0.0
 11
126.8374368670764
 21
41.45000000000006
 31
0.0
  0
LINE
  5
161
330
1F
100
AcDbEntity
  8
1
  6
CONTINUOUS
 62
     7
100
AcDbLine
 10
106.85
 20
26.45000000000006
 30
0.0
 11
107.6
 21
26.45000000000001
 31
0.0
  0
ARC
  5
162
330
1F
100
AcDbEntity
  8
1
  6
CONTINUOUS
 62
     7
100
AcDbCircle
 10
-82.58207684135269
 20
64.45000000000003
 30
0.0
 40
5.000000000000008
210
0.0
220
0.0
230
-1.0
100
AcDbArc
 50
78.7300712364797
 51
78.85833694761797
  0
LINE
  5
163
330
1F
100
AcDbEntity
  8
1
  6
CONTINUOUS
 62
     7
100
AcDbLine
 10
82.5709120866517
 20
69.44998753480974
 30
0.0
 11
81.6158994922217
 21
69.3557620539552
 31
0.0
  0
ARC
  5
164
330
1F
100
AcDbEntity
  8
1
  6
CONTINUOUS
 62
     7
100
AcDbCircle
 10
-82.58207684135269
 20
64.45000000000003
 30
0.0
 40
5.000000000000005
210
0.0
220
0.0
230
-1.0
100
AcDbArc
 50
89.87206122894844
 51
89.99999999999969
  0
LINE
  5
165
330
1F
100
AcDbEntity
  8
1
  6
CONTINUOUS
 62
     7
100
AcDbLine
 10
132.6179231586474
 20
69.45000000000003
 30
0.0
 11
82.58207684135266
 21
69.45000000000003
 31
0.0
  0
LINE
  5
166
330
1F
100
AcDbEntity
  8
1
  6
CONTINUOUS
 62
     7
100
AcDbLine
 10
135.3814468483391
 20
66.49371063033222
 30
0.0
 11
135.6803633389966
 21
32.24127346450169
 31
0.0
  0
LINE
  5
167
330
1F
100
AcDbEntity
  8
1
  6
CONTINUOUS
 62
     7
100
AcDbLine
 10
77.9
 20
41.14776045254148
 30
0.0
 11
77.9
 21
41.45000000000004
 31
0.0
  0
LINE
  5
168
330
1F
100
AcDbEntity
  8
1
  6
CONTINUOUS
 62
     7
100
AcDbLine
 10
77.9
 20
41.45000000000004
 30
0.0
 11
77.80000000000001
 21
41.45000000000004
 31
0.0
  0
LINE
  5
169
330
1F
100
AcDbEntity
  8
1
  6
CONTINUOUS
 62
     7
100
AcDbLine
 10
139.7405157986444
 20
68.1289614705491
 30
0.0
 11
139.7492365015114
 21
68.12714274265049
 31
0.0
  0
LINE
  5
16A
330
1F
100
AcDbEntity
  8
1
  6
CONTINUOUS
 62
     7
100
AcDbLine
 10
137.3
 20
41.14776045254152
 30
0.0
 11
137.3
 21
41.45000000000005
 31
0.0
  0
LINE
  5
16B
330
1F
100
AcDbEntity
  8
1
  6
CONTINUOUS
 62
     7
100
AcDbLine
 10
137.3
 20
41.45000000000005
 30
0.0
 11
137.4
 21
41.45000000000005
 31
0.0
  0
ARC
  5
16C
330
1F
100
AcDbEntity
  8
1
  6
CONTINUOUS
 62
     7
100
AcDbCircle
 10
132.6049024320361
 20
61.95000000000004
 30
0.0
 40
5.0
100
AcDbArc
 50
78.6900675259797
 51
90.00000000000001
  0
LINE
  5
16D
330
1F
100
AcDbEntity
  8
1
  6
CONTINUOUS
 62
     7
100
AcDbLine
 10
137.4874403209936
 20
66.07251193580133
 30
0.0
 11
133.585483107727
 21
66.85290337845464
 31
0.0
  0
LINE
  5
16E
330
1F
100
AcDbEntity
  8
1
  6
CONTINUOUS
 62
     7
100
AcDbLine
 10
140.6
 20
41.45000000000005
 30
0.0
 11
140.1427239215052
 21
67.64732899163504
 31
0.0
  0
LINE
  5
16F
330
1F
100
AcDbEntity
  8
1
  6
CONTINUOUS
 62
     7
100
AcDbLine
 10
164.3507614082518
 20
41.45000000000006
 30
0.0
 11
159.7518595537011
 21
41.45000000000006
 31
0.0
  0
LINE
  5
170
330
1F
100
AcDbEntity
  8
1
  6
CONTINUOUS
 62
     7
100
AcDbLine
 10
279.1596879285011
 20
26.45000000000006
 30
0.0
 11
255.1700342281952
 21
26.45000000000006
 31
0.0
  0
ARC
  5
171
330
1F
100
AcDbEntity
  8
1
  6
CONTINUOUS
 62
     7
100
AcDbCircle
 10
-132.6179231586474
 20
64.45000000000003
 30
0.0
 40
5.000000000000005
210
0.0
220
0.0
230
-1.0
100
AcDbArc
 50
101.1416630523817
 51
101.2699287635198
  0
LINE
  5
172
330
1F
100
AcDbEntity
  8
1
  6
CONTINUOUS
 62
     7
100
AcDbLine
 10
132.6290879133483
 20
69.44998753480974
 30
0.0
 11
133.5841005077783
 21
69.35576205395519
 31
0.0
  0
LINE
  5
173
330
1F
100
AcDbEntity
  8
1
  6
CONTINUOUS
 62
     7
100
AcDbLine
 10
159.6118259739232
 20
26.45000000000006
 30
0.0
 11
160.0136855276243
 21
26.45000000000006
 31
0.0
  0
LINE
  5
174
330
1F
100
AcDbEntity
  8
1
  6
CONTINUOUS
 62
     7
100
AcDbLine
 10
76.00999422696583
 20
41.45000000000004
 30
0.0
 11
77.10000000000002
 21
41.45000000000004
 31
0.0
  0
ARC
  5
175
330
1F
100
AcDbEntity
  8
1
  6
CONTINUOUS
 62
     7
100
AcDbCircle
 10
-274.3679231586474
 20
64.45000000000005
 30
0.0
 40
4.99999999999999
210
0.0
220
0.0
230
-1.0
100
AcDbArc
 50
90.0
 51
101.26992876352
  0
LINE
  5
176
330
1F
100
AcDbEntity
  8
1
  6
CONTINUOUS
 62
     7
100
AcDbLine
 10
77.31063678504346
 20
65.58658486570503
 30
0.0
 11
77.10000000000002
 21
41.45000000000004
 31
0.0
  0
LINE
  5
177
330
1F
100
AcDbEntity
  8
1
  6
CONTINUOUS
 62
     7
100
AcDbLine
 10
139.1900057730342
 20
41.45000000000005
 30
0.0
 11
139.6802196290899
 21
41.45000000000005
 31
0.0
  0
LINE
  5
178
330
1F
100
AcDbEntity
  8
1
  6
CONTINUOUS
 62
     7
100
AcDbLine
 10
281.4905157986444
 20
68.12896147054911
 30
0.0
 11
275.3450804058219
 21
69.35358682132731
 31
0.0
  0
LINE
  5
179
330
1F
100
AcDbEntity
  8
1
  6
CONTINUOUS
 62
     7
100
AcDbLine
 10
75.05727607849488
 20
67.64732899163504
 30
0.0
 11
75.05747801270124
 21
67.65527639918275
 31
0.0
  0
LINE
  5
17A
330
1F
100
AcDbEntity
  8
1
  6
CONTINUOUS
 62
     7
100
AcDbLine
 10
82.59509756796396
 20
66.95000000000003
 30
0.0
 11
132.6049024320361
 21
66.95000000000003
 31
0.0
  0
LINE
  5
17B
330
1F
100
AcDbEntity
  8
1
  6
CONTINUOUS
 62
     7
100
AcDbLine
 10
139.7405157986444
 20
68.1289614705491
 30
0.0
 11
133.5950804058218
 21
69.35358682132731
 31
0.0
  0
LINE
  5
17C
330
1F
100
AcDbEntity
  8
1
  6
CONTINUOUS
 62
     7
100
AcDbLine
 10
248.2078643762691
 20
41.45000000000005
 30
0.0
 11
248.2084952435875
 21
41.45000000000006
 31
0.0
  0
ARC
  5
17D
330
1F
100
AcDbEntity
  8
1
  6
CONTINUOUS
 62
     7
100
AcDbCircle
 10
-132.6179231586474
 20
64.45000000000003
 30
0.0
 40
5.000000000000005
210
0.0
220
0.0
230
-1.0
100
AcDbArc
 50
89.99999999999982
 51
90.12793877105106
  0
LINE
  5
17E
330
1F
100
AcDbEntity
  8
1
  6
CONTINUOUS
 62
     7
100
AcDbLine
 10
160.0136855276243
 20
26.45000000000006
 30
0.0
 11
164.6125873821751
 21
26.45000000000006
 31
0.0
  0
ARC
  5
17F
330
1F
100
AcDbEntity
  8
1
  6
CONTINUOUS
 62
     7
100
AcDbCircle
 10
-160.314180888648
 20
68.03854186647894
 30
0.0
 40
0.5000000000000057
210
0.0
220
0.0
230
-1.0
100
AcDbArc
 50
1.00000000000023
 51
78.73007123647993
  0
LINE
  5
180
330
1F
100
AcDbEntity
  8
1
  6
CONTINUOUS
 62
     7
100
AcDbLine
 10
164.6125873821751
 20
26.45000000000006
 30
0.0
 11
164.3507614082518
 21
41.45000000000006
 31
0.0
  0
LINE
  5
181
330
1F
100
AcDbEntity
  8
1
  6
CONTINUOUS
 62
     7
100
AcDbLine
 10
255.2784860975757
 20
41.45000000000006
 30
0.0
 11
248.2084952435874
 21
41.45000000000006
 31
0.0
  0
LINE
  5
182
330
1F
100
AcDbEntity
  8
1
  6
CONTINUOUS
 62
     7
100
AcDbLine
 10
137.8893632149566
 20
65.58658486570503
 30
0.0
 11
138.1000000000001
 21
41.45000000000004
 31
0.0
  0
LINE
  5
183
330
1F
100
AcDbEntity
  8
1
  6
CONTINUOUS
 62
     7
100
AcDbLine
 10
193.35
 20
41.45000000000005
 30
0.0
 11
248.2078643762691
 21
41.45000000000005
 31
0.0
  0
LINE
  5
184
330
1F
100
AcDbEntity
  8
1
  6
CONTINUOUS
 62
     7
100
AcDbLine
 10
74.60000000000002
 20
41.45000000000004
 30
0.0
 11
75.51978037091017
 21
41.45000000000004
 31
0.0
  0
LINE
  5
185
330
1F
100
AcDbEntity
  8
1
  6
CONTINUOUS
 62
     7
100
AcDbLine
 10
159.35
 20
41.45000000000006
 30
0.0
 11
159.6118259739233
 21
26.45000000000006
 31
0.0
  0
LINE
  5
186
330
1F
100
AcDbEntity
  8
1
  6
CONTINUOUS
 62
     7
100
AcDbLine
 10
140.1425219872988
 20
67.65527639918275
 30
0.0
 11
140.1427239215052
 21
67.64732899163504
 31
0.0
  0
LINE
  5
187
330
1F
100
AcDbEntity
  8
1
  6
CONTINUOUS
 62
     7
100
AcDbLine
 10
159.8142570410698
 20
68.0472680696976
 30
0.0
 11
159.8127767099844
 21
67.96245995861264
 31
0.0
  0
LINE
  5
188
330
1F
100
AcDbEntity
  8
1
  6
CONTINUOUS
 62
     7
100
AcDbLine
 10
79.51963666100346
 20
32.24127346450167
 30
0.0
 11
79.81855315166095
 21
66.49371063033222
 31
0.0
  0
ARC
  5
189
330
1F
100
AcDbEntity
  8
1
  6
CONTINUOUS
 62
     7
100
AcDbCircle
 10
-281.392800073927
 20
67.63860278841638
 30
0.0
 40
0.5000000000000098
210
0.0
220
0.0
230
-1.0
100
AcDbArc
 50
101.2699287635201
 51
178.9999999999998
  0
LINE
  5
18A
330
1F
100
AcDbEntity
  8
1
  6
CONTINUOUS
 62
     7
100
AcDbLine
 10
279.4215139024244
 20
41.45000000000006
 30
0.0
 11
279.4210678118655
 21
41.45000000000005
 31
0.0
  0
LINE
  5
18B
330
1F
100
AcDbEntity
  8
1
  6
CONTINUOUS
 62
     7
100
AcDbLine
 10
282.35
 20
41.45000000000006
 30
0.0
 11
282.0881740260768
 21
26.45000000000006
 31
0.0
  0
LINE
  5
18C
330
1F
100
AcDbEntity
  8
1
  6
CONTINUOUS
 62
     7
100
AcDbLine
 10
75.51978037091017
 20
41.45000000000004
 30
0.0
 11
76.00999422696582
 21
41.45000000000004
 31
0.0
  0
LINE
  5
18D
330
1F
100
AcDbEntity
  8
1
  6
CONTINUOUS
 62
     7
100
AcDbLine
 10
281.8927239215051
 20
67.64732899163504
 30
0.0
 11
282.35
 21
41.45000000000005
 31
0.0
  0
LINE
  5
18E
330
1F
100
AcDbEntity
  8
1
  6
CONTINUOUS
 62
     7
100
AcDbLine
 10
138.1
 20
41.45000000000005
 30
0.0
 11
139.1900057730342
 21
41.45000000000005
 31
0.0
  0
LINE
  5
18F
330
1F
100
AcDbEntity
  8
1
  6
CONTINUOUS
 62
     7
100
AcDbLine
 10
75.05727607849488
 20
67.64732899163504
 30
0.0
 11
74.60000000000001
 21
41.45000000000005
 31
0.0
  0
LINE
  5
190
330
1F
100
AcDbEntity
  8
1
  6
CONTINUOUS
 62
     7
100
AcDbLine
 10
164.3507614082518
 20
41.45000000000006
 30
0.0
 11
185.35
 21
41.45000000000006
 31
0.0
  0
LINE
  5
191
330
1F
100
AcDbEntity
  8
1
  6
CONTINUOUS
 62
     7
100
AcDbLine
 10
185.35
 20
41.45000000000006
 30
0.0
 11
193.35
 21
41.45000000000005
 31
0.0
  0
LINE
  5
192
330
1F
100
AcDbEntity
  8
1
  6
CONTINUOUS
 62
     7
100
AcDbLine
 10
248.1000433742069
 20
26.45000000000006
 30
0.0
 11
255.1700342281951
 21
26.45000000000006
 31
0.0
  0
LINE
  5
193
330
1F
100
AcDbEntity
  8
1
  6
CONTINUOUS
 62
     7
100
AcDbLine
 10
159.7518595537011
 20
41.45000000000006
 30
0.0
 11
159.35
 21
41.45000000000006
 31
0.0
  0
LINE
  5
194
330
1F
100
AcDbEntity
  8
1
  6
CONTINUOUS
 62
     7
100
AcDbLine
 10
249.634751525662
 20
69.45000000000003
 30
0.0
 11
273.776887149393
 21
69.45000000000003
 31
0.0
  0
LINE
  5
195
330
1F
100
AcDbEntity
  8
1
  6
CONTINUOUS
 62
     7
100
AcDbLine
 10
282.35
 20
41.45000000000005
 30
0.0
 11
279.4210678118655
 21
41.45000000000005
 31
0.0
  0
LINE
  5
196
330
1F
100
AcDbEntity
  8
1
  6
CONTINUOUS
 62
     7
100
AcDbLine
 10
279.4210678118655
 20
41.45000000000005
 30
0.0
 11
255.2789321881346
 21
41.45000000000006
 31
0.0
  0
LINE
  5
197
330
1F
100
AcDbEntity
  8
1
  6
CONTINUOUS
 62
     7
100
AcDbLine
 10
255.2789321881346
 20
41.45000000000006
 30
0.0
 11
255.2784860975757
 21
41.45000000000006
 31
0.0
  0
LINE
  5
198
330
1F
100
AcDbEntity
  8
1
  6
CONTINUOUS
 62
     7
100
AcDbLine
 10
282.0881740260768
 20
26.45000000000006
 30
0.0
 11
279.1596879285011
 21
26.45000000000006
 31
0.0
  0
LINE
  5
199
330
1F
100
AcDbEntity
  8
1
  6
CONTINUOUS
 62
     7
100
AcDbLine
 10
164.6125873821751
 20
26.45000000000006
 30
0.0
 11
248.1000433742069
 21
26.45000000000006
 31
0.0
  0
LINE
  5
19A
330
1F
100
AcDbEntity
  8
1
  6
CONTINUOUS
 62
     7
100
AcDbLine
 10
279.4215139024244
 20
41.45000000000006
 30
0.0
 11
282.35
 21
41.45000000000006
 31
0.0
  0
LINE
  5
19B
330
1F
100
AcDbEntity
  8
1
  6
CONTINUOUS
 62
     7
100
AcDbLine
 10
273.776887149393
 20
69.45000000000003
 30
0.0
 11
274.3679231586474
 21
69.45000000000003
 31
0.0
  0
ARC
  5
19C
330
1F
100
AcDbEntity
  8
1
  6
CONTINUOUS
 62
     7
100
AcDbCircle
 10
82.59509756796396
 20
61.95000000000004
 30
0.0
 40
5.0
100
AcDbArc
 50
90.0
 51
101.3099324740203
  0
LINE
  5
19D
330
1F
100
AcDbEntity
  8
1
  6
CONTINUOUS
 62
     7
100
AcDbLine
 10
81.61451689227303
 20
66.85290337845464
 30
0.0
 11
77.71255967900646
 21
66.07251193580134
 31
0.0
  0
LINE
  5
19E
330
1F
100
AcDbEntity
  8
1
  6
CONTINUOUS
 62
     7
100
AcDbLine
 10
139.6802196290899
 20
41.45000000000005
 30
0.0
 11
140.6
 21
41.45000000000005
 31
0.0
  0
LINE
  5
19F
330
1F
100
AcDbEntity
  8
1
  6
CONTINUOUS
 62
     7
100
AcDbLine
 10
75.45076349848864
 20
68.12714274265049
 30
0.0
 11
75.45948420135562
 21
68.1289614705491
 31
0.0
  0
LINE
  5
1A0
330
1F
100
AcDbEntity
  8
1
  6
CONTINUOUS
 62
     7
100
AcDbLine
 10
81.60491959417814
 20
69.3535868213273
 30
0.0
 11
75.45948420135562
 21
68.1289614705491
 31
0.0
  0
LINE
  5
1A1
330
1F
100
AcDbEntity
  8
1
  6
CONTINUOUS
 62
     7
100
AcDbLine
 10
41.74285714285715
 20
43.45000000000007
 30
0.0
 11
41.59999999999999
 21
42.45000000000006
 31
0.0
  0
LINE
  5
1A2
330
1F
100
AcDbEntity
  8
1
  6
CONTINUOUS
 62
     7
100
AcDbLine
 10
43.6
 20
42.45000000000006
 30
0.0
 11
41.59999999999999
 21
42.45000000000006
 31
0.0
  0
LINE
  5
1A3
330
1F
100
AcDbEntity
  8
1
  6
CONTINUOUS
 62
     7
100
AcDbLine
 10
42.45714285714286
 20
48.45000000000006
 30
0.0
 11
42.31428571428572
 21
47.45000000000007
 31
0.0
  0
LINE
  5
1A4
330
1F
100
AcDbEntity
  8
1
  6
CONTINUOUS
 62
     7
100
AcDbLine
 10
53.02857142857142
 20
46.45000000000006
 30
0.0
 11
42.17142857142856
 21
46.45000000000007
 31
0.0
  0
LINE
  5
1A5
330
1F
100
AcDbEntity
  8
1
  6
CONTINUOUS
 62
     7
100
AcDbLine
 10
18.06277670998435
 20
67.96245995861267
 30
0.0
 11
18.06425704106978
 21
68.04726806969761
 31
0.0
  0
LINE
  5
1A6
330
1F
100
AcDbEntity
  8
1
  6
CONTINUOUS
 62
     7
100
AcDbLine
 10
120.8270292269908
 20
61.45436326774927
 30
0.0
 11
120.8270292269908
 21
61.45000000000006
 31
0.0
  0
LINE
  5
1A7
330
1F
100
AcDbEntity
  8
1
  6
CONTINUOUS
 62
     7
100
AcDbLine
 10
42.02857142857142
 20
45.45000000000007
 30
0.0
 11
41.88571428571429
 21
44.45000000000007
 31
0.0
  0
LINE
  5
1A8
330
1F
100
AcDbEntity
  8
1
  6
CONTINUOUS
 62
     7
100
AcDbLine
 10
52.74285714285714
 20
48.45000000000006
 30
0.0
 11
52.72265409196609
 21
48.59142135623737
 31
0.0
  0
LINE
  5
1A9
330
1F
100
AcDbEntity
  8
1
  6
CONTINUOUS
 62
     7
100
AcDbLine
 10
43.6
 20
41.45000000000006
 30
0.0
 11
22.60076140825193
 21
41.45000000000005
 31
0.0
  0
LINE
  5
1AA
330
1F
100
AcDbEntity
  8
1
  6
CONTINUOUS
 62
     7
100
AcDbLine
 10
74.6
 20
41.45000000000004
 30
0.0
 11
74.01421356237311
 21
41.45000000000004
 31
0.0
  0
LINE
  5
1AB
330
1F
100
AcDbEntity
  8
1
  6
CONTINUOUS
 62
     7
100
AcDbLine
 10
126.2339515043095
 20
61.95000000000006
 30
0.0
 11
121.1775106666298
 21
61.95000000000007
 31
0.0
  0
ARC
  5
1AC
330
1F
100
AcDbEntity
  8
1
  6
CONTINUOUS
 62
     7
100
AcDbCircle
 10
-136.6803252620608
 20
32.25000000000007
 30
0.0
 40
1.000000000000001
210
0.0
220
0.0
230
-1.0
100
AcDbArc
 50
297.5664761033977
 51
359.5000000000001
  0
LINE
  5
1AD
330
1F
100
AcDbEntity
  8
1
  6
CONTINUOUS
 62
     7
100
AcDbLine
 10
53.02857142857142
 20
46.45000000000006
 30
0.0
 11
52.88571428571428
 21
47.45000000000006
 31
0.0
  0
LINE
  5
1AE
330
1F
100
AcDbEntity
  8
1
  6
CONTINUOUS
 62
     7
100
AcDbLine
 10
111.7611652351681
 20
41.45000000000005
 30
0.0
 11
118.0855369158803
 21
41.45000000000005
 31
0.0
  0
LINE
  5
1AF
330
1F
100
AcDbEntity
  8
1
  6
CONTINUOUS
 62
     7
100
AcDbLine
 10
135.6
 20
41.45000000000004
 30
0.0
 11
126.8374368670764
 21
41.45000000000004
 31
0.0
  0
LINE
  5
1B0
330
1F
100
AcDbEntity
  8
1
  6
CONTINUOUS
 62
     7
100
AcDbLine
 10
106.4578643762691
 20
41.45000000000005
 30
0.0
 11
111.7611652351682
 21
41.45000000000005
 31
0.0
  0
LINE
  5
1B1
330
1F
100
AcDbEntity
  8
1
  6
CONTINUOUS
 62
     7
100
AcDbLine
 10
43.6
 20
42.45000000000006
 30
0.0
 11
43.6
 21
43.45000000000006
 31
0.0
  0
LINE
  5
1B2
330
1F
100
AcDbEntity
  8
1
  6
CONTINUOUS
 62
     7
100
AcDbLine
 10
126.5905499213975
 20
61.45436326774925
 30
0.0
 11
126.8374368670764
 21
41.45000000000004
 31
0.0
  0
LINE
  5
1B3
330
1F
100
AcDbEntity
  8
1
  6
CONTINUOUS
 62
     7
100
AcDbLine
 10
79.60000000000001
 20
41.45000000000005
 30
0.0
 11
106.457864376269
 21
41.45000000000005
 31
0.0
  0
LINE
  5
1B4
330
1F
100
AcDbEntity
  8
1
  6
CONTINUOUS
 62
     7
100
AcDbLine
 10
42.4773459080339
 20
48.59142135623737
 30
0.0
 11
42.45714285714286
 21
48.45000000000006
 31
0.0
  0
LINE
  5
1B5
330
1F
100
AcDbEntity
  8
1
  6
CONTINUOUS
 62
     7
100
AcDbLine
 10
42.31428571428572
 20
47.45000000000007
 30
0.0
 11
42.17142857142856
 21
46.45000000000007
 31
0.0
  0
LINE
  5
1B6
330
1F
100
AcDbEntity
  8
1
  6
CONTINUOUS
 62
     7
100
AcDbLine
 10
51.6
 20
42.45000000000006
 30
0.0
 11
51.6
 21
43.45000000000006
 31
0.0
  0
LINE
  5
1B7
330
1F
100
AcDbEntity
  8
1
  6
CONTINUOUS
 62
     7
100
AcDbLine
 10
53.45714285714285
 20
43.45000000000006
 30
0.0
 11
41.74285714285715
 21
43.45000000000007
 31
0.0
  0
LINE
  5
1B8
330
1F
100
AcDbEntity
  8
1
  6
CONTINUOUS
 62
     7
100
AcDbLine
 10
52.88571428571428
 20
47.45000000000006
 30
0.0
 11
42.31428571428572
 21
47.45000000000007
 31
0.0
  0
LINE
  5
1B9
330
1F
100
AcDbEntity
  8
1
  6
CONTINUOUS
 62
     7
100
AcDbLine
 10
53.6
 20
42.45000000000006
 30
0.0
 11
53.45714285714285
 21
43.45000000000006
 31
0.0
  0
LINE
  5
1BA
330
1F
100
AcDbEntity
  8
1
  6
CONTINUOUS
 62
     7
100
AcDbLine
 10
52.74285714285714
 20
48.45000000000006
 30
0.0
 11
42.45714285714286
 21
48.45000000000006
 31
0.0
  0
LINE
  5
1BB
330
1F
100
AcDbEntity
  8
1
  6
CONTINUOUS
 62
     7
100
AcDbLine
 10
41.88571428571429
 20
44.45000000000007
 30
0.0
 11
41.74285714285715
 21
43.45000000000007
 31
0.0
  0
LINE
  5
1BC
330
1F
100
AcDbEntity
  8
1
  6
CONTINUOUS
 62
     7
100
AcDbLine
 10
42.17142857142856
 20
46.45000000000007
 30
0.0
 11
42.02857142857142
 21
45.45000000000007
 31
0.0
  0
LINE
  5
1BD
330
1F
100
AcDbEntity
  8
1
  6
CONTINUOUS
 62
     7
100
AcDbLine
 10
79.65839422484567
 20
69.45000000000003
 30
0.0
 11
82.58207684135266
 21
69.45000000000003
 31
0.0
  0
LINE
  5
1BE
330
1F
100
AcDbEntity
  8
1
  6
CONTINUOUS
 62
     7
100
AcDbLine
 10
17.6
 20
41.45000000000005
 30
0.0
 11
18.044174150801
 21
66.89672005676432
 31
0.0
  0
LINE
  5
1BF
330
1F
100
AcDbEntity
  8
1
  6
CONTINUOUS
 62
     7
100
AcDbLine
 10
23.08867926496395
 20
69.44998753480975
 30
0.0
 11
23.0870633258813
 21
69.35576205395522
 31
0.0
  0
LINE
  5
1C0
330
1F
100
AcDbEntity
  8
1
  6
CONTINUOUS
 62
     7
100
AcDbLine
 10
22.60076140825193
 20
41.45000000000005
 30
0.0
 11
18.00185955370108
 21
41.45000000000005
 31
0.0
  0
LINE
  5
1C1
330
1F
100
AcDbEntity
  8
1
  6
CONTINUOUS
 62
     7
100
AcDbLine
 10
53.31428571428571
 20
44.45000000000006
 30
0.0
 11
53.17142857142857
 21
45.45000000000006
 31
0.0
  0
LINE
  5
1C2
330
1F
100
AcDbEntity
  8
1
  6
CONTINUOUS
 62
     7
100
AcDbLine
 10
43.46729540169507
 20
49.45000000000006
 30
0.0
 11
51.73270459830493
 21
49.45000000000006
 31
0.0
  0
LINE
  5
1C3
330
1F
100
AcDbEntity
  8
1
  6
CONTINUOUS
 62
     7
100
AcDbLine
 10
23.06528349788112
 20
68.12714274265049
 30
0.0
 11
23.06571209648557
 21
68.12896147054911
 31
0.0
  0
ARC
  5
1C4
330
1F
100
AcDbEntity
  8
1
  6
CONTINUOUS
 62
     7
100
AcDbCircle
 10
43.46729540169507
 20
48.45000000000006
 30
0.0
 40
1.0
100
AcDbArc
 50
90.0
 51
171.869897645844
  0
LINE
  5
1C5
330
1F
100
AcDbEntity
  8
1
  6
CONTINUOUS
 62
     7
100
AcDbLine
 10
65.82996710009945
 20
69.45000000000003
 30
0.0
 11
79.65839422484567
 21
69.45000000000003
 31
0.0
  0
LINE
  5
1C6
330
1F
100
AcDbEntity
  8
1
  6
CONTINUOUS
 62
     7
100
AcDbLine
 10
23.08708801149614
 20
69.35358682132731
 30
0.0
 11
23.06571209648557
 21
68.12896147054911
 31
0.0
  0
LINE
  5
1C7
330
1F
100
AcDbEntity
  8
1
  6
CONTINUOUS
 62
     7
100
AcDbLine
 10
65.82996710009945
 20
69.45000000000003
 30
0.0
 11
58.77157287525381
 21
69.45000000000003
 31
0.0
  0
LINE
  5
1C8
330
1F
100
AcDbEntity
  8
1
  6
CONTINUOUS
 62
     7
100
AcDbLine
 10
23.08874181799009
 20
69.45000000000003
 30
0.0
 11
58.77157287525381
 21
69.45000000000003
 31
0.0
  0
LINE
  5
1C9
330
1F
100
AcDbEntity
  8
1
  6
CONTINUOUS
 62
     7
100
AcDbLine
 10
53.6
 20
42.45000000000006
 30
0.0
 11
51.6
 21
42.45000000000006
 31
0.0
  0
ELLIPSE
  5
1CA
330
1F
100
AcDbEntity
  8
1
  6
CONTINUOUS
 62
     7
100
AcDbEllipse
 10
-2.002312615949006
 20
64.45000000000005
 30
0.0
 11
-25.08873463688787
 21
-4.911244953687628
 31
0.0
210
0.0
220
0.0
230
1.0
 40
0.0373836648344204
 41
3.133594922791594
 42
3.135833581768373
  0
ELLIPSE
  5
1CB
330
1F
100
AcDbEntity
  8
1
  6
CONTINUOUS
 62
     7
100
AcDbEllipse
 10
20.55750435019322
 20
67.63860278841638
 30
0.0
 11
-2.5005474120287
 21
-0.01090661224006724
 31
0.0
210
0.0
220
0.0
230
1.0
 40
0.1999086397047851
 41
3.137230991409468
 42
3.153131104075566
  0
ARC
  5
1CC
330
1F
100
AcDbEntity
  8
1
  6
CONTINUOUS
 62
     7
100
AcDbCircle
 10
51.73270459830493
 20
48.45000000000006
 30
0.0
 40
1.0
100
AcDbArc
 50
8.13010235415596
 51
89.99999999999996
  0
LINE
  5
1CD
330
1F
100
AcDbEntity
  8
1
  6
CONTINUOUS
 62
     7
100
AcDbLine
 10
53.17142857142857
 20
45.45000000000006
 30
0.0
 11
53.02857142857142
 21
46.45000000000006
 31
0.0
  0
LINE
  5
1CE
330
1F
100
AcDbEntity
  8
1
  6
CONTINUOUS
 62
     7
100
AcDbLine
 10
43.6
 20
41.45000000000006
 30
0.0
 11
43.6
 21
42.45000000000006
 31
0.0
  0
LINE
  5
1CF
330
1F
100
AcDbEntity
  8
1
  6
CONTINUOUS
 62
     7
100
AcDbLine
 10
53.45714285714285
 20
43.45000000000006
 30
0.0
 11
53.31428571428571
 21
44.45000000000006
 31
0.0
  0
LINE
  5
1D0
330
1F
100
AcDbEntity
  8
1
  6
CONTINUOUS
 62
     7
100
AcDbLine
 10
58.77157287525381
 20
41.45000000000005
 30
0.0
 11
51.6
 21
41.45000000000006
 31
0.0
  0
LINE
  5
1D1
330
1F
100
AcDbEntity
  8
1
  6
CONTINUOUS
 62
     7
100
AcDbLine
 10
52.88571428571428
 20
47.45000000000006
 30
0.0
 11
52.74285714285714
 21
48.45000000000006
 31
0.0
  0
ARC
  5
1D2
330
1F
100
AcDbEntity
  8
1
  6
CONTINUOUS
 62
     7
100
AcDbCircle
 10
-78.51967473793928
 20
32.25000000000007
 30
0.0
 40
1.000000000000003
210
0.0
220
0.0
230
-1.0
100
AcDbArc
 50
180.5000000000008
 51
242.4335238966036
  0
LINE
  5
1D3
330
1F
100
AcDbEntity
  8
1
  6
CONTINUOUS
 62
     7
100
AcDbLine
 10
58.77157287525381
 20
41.45000000000005
 30
0.0
 11
60.18578643762688
 21
41.45000000000005
 31
0.0
  0
LINE
  5
1D4
330
1F
100
AcDbEntity
  8
1
  6
CONTINUOUS
 62
     7
100
AcDbLine
 10
51.6
 20
41.45000000000006
 30
0.0
 11
51.6
 21
42.45000000000006
 31
0.0
  0
LINE
  5
1D5
330
1F
100
AcDbEntity
  8
1
  6
CONTINUOUS
 62
     7
100
AcDbLine
 10
53.31428571428571
 20
44.45000000000006
 30
0.0
 11
41.88571428571429
 21
44.45000000000007
 31
0.0
  0
LINE
  5
1D6
330
1F
100
AcDbEntity
  8
1
  6
CONTINUOUS
 62
     7
100
AcDbLine
 10
74.01421356237311
 20
41.45000000000004
 30
0.0
 11
60.18578643762689
 21
41.45000000000005
 31
0.0
  0
LINE
  5
1D7
330
1F
100
AcDbEntity
  8
1
  6
CONTINUOUS
 62
     7
100
AcDbLine
 10
18.044174150801
 20
66.89672005676434
 30
0.0
 11
18.06277670998435
 21
67.96245995861267
 31
0.0
  0
LINE
  5
1D8
330
1F
100
AcDbEntity
  8
1
  6
CONTINUOUS
 62
     7
100
AcDbLine
 10
18.46646516393052
 20
68.52890054861166
 30
0.0
 11
23.08867926496395
 21
69.44998753480975
 31
0.0
  0
LINE
  5
1D9
330
1F
100
AcDbEntity
  8
1
  6
CONTINUOUS
 62
     7
100
AcDbLine
 10
23.05803748674675
 20
67.64732899163504
 30
0.0
 11
22.60076140825193
 21
41.45000000000005
 31
0.0
  0
LINE
  5
1DA
330
1F
100
AcDbEntity
  8
1
  6
CONTINUOUS
 62
     7
100
AcDbLine
 10
53.17142857142857
 20
45.45000000000006
 30
0.0
 11
42.02857142857142
 21
45.45000000000007
 31
0.0
  0
LINE
  5
1DB
330
1F
100
AcDbEntity
  8
1
  6
CONTINUOUS
 62
     7
100
AcDbLine
 10
23.05786015080353
 20
67.65527639918275
 30
0.0
 11
23.06528349788112
 21
68.12714274265048
 31
0.0
  0
LINE
  5
1DC
330
1F
100
AcDbEntity
  8
1
  6
CONTINUOUS
 62
     7
100
AcDbLine
 10
18.00185955370109
 20
41.45000000000005
 30
0.0
 11
17.6
 21
41.45000000000005
 31
0.0
  0
ARC
  5
1DD
330
1F
100
AcDbEntity
  8
1
  6
CONTINUOUS
 62
     7
100
AcDbCircle
 10
-18.56418088864798
 20
68.03854186647895
 30
0.0
 40
0.4999999999999989
210
0.0
220
0.0
230
-1.0
100
AcDbArc
 50
1.000000000000242
 51
78.73007123647982
  0
LINE
  5
1DE
330
1F
100
AcDbEntity
  8
1
  6
CONTINUOUS
 62
     7
100
AcDbLine
 10
140.3381740260767
 20
26.45000000000006
 30
0.0
 11
140.6
 21
41.45000000000006
 31
0.0
  0
LINE
  5
1DF
330
1F
100
AcDbEntity
  8
1
  6
CONTINUOUS
 62
     7
100
AcDbLine
 10
107.7726497308104
 20
30.95000000000006
 30
0.0
 11
107.6
 21
30.95000000000007
 31
0.0
  0
LINE
  5
1E0
330
1F
100
AcDbEntity
  8
1
  6
CONTINUOUS
 62
     7
100
AcDbLine
 10
117.374194405093
 20
30.00167832672459
 30
0.0
 11
117.413829961266
 21
30.00233595624301
 31
0.0
  0
LINE
  5
1E1
330
1F
100
AcDbEntity
  8
1
  6
CONTINUOUS
 62
     7
100
AcDbLine
 10
116.4152004265114
 20
30.95000000000006
 30
0.0
 11
116.7724352522134
 21
30.88401460336859
 31
0.0
  0
LINE
  5
1E2
330
1F
100
AcDbEntity
  8
1
  6
CONTINUOUS
 62
     7
100
AcDbLine
 10
117.4427766621509
 20
29.45000000000007
 30
0.0
 11
117.4689805517924
 21
28.95000000000007
 31
0.0
  0
LINE
  5
1E3
330
1F
100
AcDbEntity
  8
1
  6
CONTINUOUS
 62
     7
100
AcDbLine
 10
119.6013723459979
 20
26.45000000000006
 30
0.0
 11
119.7323917942055
 21
28.95000000000006
 31
0.0
  0
LINE
  5
1E4
330
1F
100
AcDbEntity
  8
1
  6
CONTINUOUS
 62
     7
100
AcDbLine
 10
119.7323917942055
 20
28.95000000000006
 30
0.0
 11
137.7909331918084
 21
28.95000000000006
 31
0.0
  0
LINE
  5
1E5
330
1F
100
AcDbEntity
  8
1
  6
CONTINUOUS
 62
     7
100
AcDbLine
 10
119.6013723459979
 20
26.45000000000006
 30
0.0
 11
137.9690969831386
 21
26.45000000000006
 31
0.0
  0
LINE
  5
1E6
330
1F
100
AcDbEntity
  8
1
  6
CONTINUOUS
 62
     7
100
AcDbLine
 10
138.0301850576739
 20
49.45000000000006
 30
0.0
 11
137.9654705476236
 21
49.45000000000006
 31
0.0
  0
ARC
  5
1E7
330
1F
100
AcDbEntity
  8
1
  6
CONTINUOUS
 62
     7
100
AcDbCircle
 10
-137.9654705476236
 20
48.95000000000006
 30
0.0
 40
0.5000000000000014
210
0.0
220
0.0
230
-1.0
100
AcDbArc
 50
0.5000000000000673
 51
89.99999999999842
  0
LINE
  5
1E8
330
1F
100
AcDbEntity
  8
1
  6
CONTINUOUS
 62
     7
100
AcDbLine
 10
137.4654895860915
 20
48.95436326774924
 30
0.0
 11
137.2909141526155
 21
28.95000000000006
 31
0.0
  0
LINE
  5
1E9
330
1F
100
AcDbEntity
  8
1
  6
CONTINUOUS
 62
     7
100
AcDbLine
 10
118.7310194482076
 20
28.95000000000006
 30
0.0
 11
118.6
 21
26.45000000000006
 31
0.0
  0
LINE
  5
1EA
330
1F
100
AcDbEntity
  8
1
  6
CONTINUOUS
 62
     7
100
AcDbLine
 10
97.7310194482076
 20
28.95000000000007
 30
0.0
 11
97.75722333784913
 21
29.45000000000007
 31
0.0
  0
LINE
  5
1EB
330
1F
100
AcDbEntity
  8
1
  6
CONTINUOUS
 62
     7
100
AcDbLine
 10
138.1
 20
41.45000000000006
 30
0.0
 11
139.1900057730342
 21
41.45000000000006
 31
0.0
  0
LINE
  5
1EC
330
1F
100
AcDbEntity
  8
1
  6
CONTINUOUS
 62
     7
100
AcDbLine
 10
138.9281797991109
 20
26.45000000000006
 30
0.0
 11
139.4183936551666
 21
26.45000000000006
 31
0.0
  0
LINE
  5
1ED
330
1F
100
AcDbEntity
  8
1
  6
CONTINUOUS
 62
     7
100
AcDbLine
 10
137.9690969831386
 20
26.45000000000006
 30
0.0
 11
138.9281797991109
 21
26.45000000000006
 31
0.0
  0
LINE
  5
1EE
330
1F
100
AcDbEntity
  8
1
  6
CONTINUOUS
 62
     7
100
AcDbLine
 10
106.85
 20
29.95000000000007
 30
0.0
 11
106.85
 21
29.45000000000007
 31
0.0
  0
LINE
  5
1EF
330
1F
100
AcDbEntity
  8
1
  6
CONTINUOUS
 62
     7
100
AcDbLine
 10
104.4427766621509
 20
29.45000000000007
 30
0.0
 11
104.4689805517924
 21
28.95000000000002
 31
0.0
  0
LINE
  5
1F0
330
1F
100
AcDbEntity
  8
1
  6
CONTINUOUS
 62
     7
100
AcDbLine
 10
97.78617003873399
 20
30.00233595624301
 30
0.0
 11
97.75722333784913
 21
29.45000000000006
 31
0.0
  0
LINE
  5
1F1
330
1F
100
AcDbEntity
  8
1
  6
CONTINUOUS
 62
     7
100
AcDbLine
 10
115.4138280805135
 20
30.95000000000006
 30
0.0
 11
107.7726497308104
 21
30.95000000000006
 31
0.0
  0
LINE
  5
1F2
330
1F
100
AcDbEntity
  8
1
  6
CONTINUOUS
 62
     7
100
AcDbLine
 10
106.85
 20
29.45000000000007
 30
0.0
 11
107.6
 21
29.45000000000007
 31
0.0
  0
LINE
  5
1F3
330
1F
100
AcDbEntity
  8
1
  6
CONTINUOUS
 62
     7
100
AcDbLine
 10
108.35
 20
29.45000000000007
 30
0.0
 11
115.440031970155
 21
29.45000000000006
 31
0.0
  0
LINE
  5
1F4
330
1F
100
AcDbEntity
  8
1
  6
CONTINUOUS
 62
     7
100
AcDbLine
 10
74.59999999999997
 20
41.45000000000006
 30
0.0
 11
74.86182597392325
 21
26.45000000000006
 31
0.0
  0
LINE
  5
1F5
330
1F
100
AcDbEntity
  8
1
  6
CONTINUOUS
 62
     7
100
AcDbLine
 10
99.75996802984496
 20
29.45000000000006
 30
0.0
 11
106.85
 21
29.45000000000007
 31
0.0
  0
LINE
  5
1F6
330
1F
100
AcDbEntity
  8
1
  6
CONTINUOUS
 62
     7
100
AcDbLine
 10
75.7816063448334
 20
26.45000000000006
 30
0.0
 11
76.27182020088904
 21
26.45000000000006
 31
0.0
  0
LINE
  5
1F7
330
1F
100
AcDbEntity
  8
1
  6
CONTINUOUS
 62
     7
100
AcDbLine
 10
107.6
 20
30.95000000000007
 30
0.0
 11
107.4273502691896
 21
30.95000000000006
 31
0.0
  0
LINE
  5
1F8
330
1F
100
AcDbEntity
  8
1
  6
CONTINUOUS
 62
     7
100
AcDbLine
 10
117.4427766621509
 20
29.45000000000006
 30
0.0
 11
117.4138299612832
 21
30.00233595591591
 31
0.0
  0
LINE
  5
1F9
330
1F
100
AcDbEntity
  8
1
  6
CONTINUOUS
 62
     7
100
AcDbLine
 10
97.75722333784911
 20
29.45000000000006
 30
0.0
 11
99.75996802984494
 21
29.45000000000006
 31
0.0
  0
LINE
  5
1FA
330
1F
100
AcDbEntity
  8
1
  6
CONTINUOUS
 62
     7
100
AcDbLine
 10
98.42756471130475
 20
30.88401458941531
 30
0.0
 11
98.78479957348856
 21
30.95000000000006
 31
0.0
  0
LINE
  5
1FB
330
1F
100
AcDbEntity
  8
1
  6
CONTINUOUS
 62
     7
100
AcDbLine
 10
99.78617191948649
 20
30.95000000000006
 30
0.0
 11
98.78479957348857
 21
30.95000000000006
 31
0.0
  0
LINE
  5
1FC
330
1F
100
AcDbEntity
  8
1
  6
CONTINUOUS
 62
     7
100
AcDbLine
 10
75.51978037091014
 20
41.45000000000006
 30
0.0
 11
74.59999999999998
 21
41.45000000000006
 31
0.0
  0
LINE
  5
1FD
330
1F
100
AcDbEntity
  8
1
  6
CONTINUOUS
 62
     7
100
AcDbLine
 10
110.7310194482076
 20
28.95000000000002
 30
0.0
 11
110.7572233378491
 21
29.45000000000007
 31
0.0
  0
LINE
  5
1FE
330
1F
100
AcDbEntity
  8
1
  6
CONTINUOUS
 62
     7
100
AcDbLine
 10
97.78617003873399
 20
30.00233595624301
 30
0.0
 11
97.82580559490685
 21
30.00167832672484
 31
0.0
  0
LINE
  5
1FF
330
1F
100
AcDbEntity
  8
1
  6
CONTINUOUS
 62
     7
100
AcDbLine
 10
139.6802196290898
 20
41.45000000000006
 30
0.0
 11
139.1900057730342
 21
41.45000000000006
 31
0.0
  0
LINE
  5
200
330
1F
100
AcDbEntity
  8
1
  6
CONTINUOUS
 62
     7
100
AcDbLine
 10
76.27182020088904
 20
26.45000000000006
 30
0.0
 11
77.23090301686136
 21
26.45000000000006
 31
0.0
  0
LINE
  5
201
330
1F
100
AcDbEntity
  8
1
  6
CONTINUOUS
 62
     7
100
AcDbLine
 10
76.0099942269658
 20
41.45000000000006
 30
0.0
 11
75.51978037091015
 21
41.45000000000006
 31
0.0
  0
LINE
  5
202
330
1F
100
AcDbEntity
  8
1
  6
CONTINUOUS
 62
     7
100
AcDbLine
 10
139.4183936551666
 20
26.45000000000006
 30
0.0
 11
140.3381740260767
 21
26.45000000000006
 31
0.0
  0
LWPOLYLINE
  5
203
330
1F
100
AcDbEntity
  8
1
  6
CONTINUOUS
 62
     7
100
AcDbPolyline
 90
        7
 70
     0
 43
0.0
 10
107.4273502691896
 20
30.95000000000006
 10
107.3023502691896
 20
30.92628120948838
 10
107.2078169193439
 20
30.87487942946518
 10
107.1283382403391
 20
30.80543022044597
 10
107.0584313160276
 20
30.71920945242257
 10
106.99404587379
 20
30.61086451166815
 42
0.1147223956523372
 10
106.85
 20
29.95000000000006
  0
LINE
  5
204
330
1F
100
AcDbEntity
  8
1
  6
CONTINUOUS
 62
     7
100
AcDbLine
 10
107.6
 20
30.95000000000007
 30
0.0
 11
107.6
 21
29.45000000000007
 31
0.0
  0
LINE
  5
205
330
1F
100
AcDbEntity
  8
1
  6
CONTINUOUS
 62
     7
100
AcDbLine
 10
115.440031970155
 20
29.45000000000006
 30
0.0
 11
117.4427766621509
 21
29.45000000000006
 31
0.0
  0
LINE
  5
206
330
1F
100
AcDbEntity
  8
1
  6
CONTINUOUS
 62
     7
100
AcDbLine
 10
107.4273502691896
 20
30.95000000000006
 30
0.0
 11
99.78617191948649
 21
30.95000000000006
 31
0.0
  0
LINE
  5
207
330
1F
100
AcDbEntity
  8
1
  6
CONTINUOUS
 62
     7
100
AcDbLine
 10
138.1
 20
41.45000000000006
 30
0.0
 11
137.9690969831386
 21
26.45000000000007
 31
0.0
  0
LINE
  5
208
330
1F
100
AcDbEntity
  8
1
  6
CONTINUOUS
 62
     7
100
AcDbLine
 10
77.09999999999997
 20
41.45000000000006
 30
0.0
 11
77.23090301686136
 21
26.45000000000007
 31
0.0
  0
LINE
  5
209
330
1F
100
AcDbEntity
  8
1
  6
CONTINUOUS
 62
     7
100
AcDbLine
 10
76.0099942269658
 20
41.45000000000006
 30
0.0
 11
77.09999999999997
 21
41.45000000000006
 31
0.0
  0
LINE
  5
20A
330
1F
100
AcDbEntity
  8
1
  6
CONTINUOUS
 62
     7
100
AcDbLine
 10
107.6
 20
29.45000000000007
 30
0.0
 11
108.35
 21
29.45000000000007
 31
0.0
  0
LINE
  5
20B
330
1F
100
AcDbEntity
  8
1
  6
CONTINUOUS
 62
     7
100
AcDbLine
 10
140.6
 20
41.45000000000006
 30
0.0
 11
139.6802196290899
 21
41.45000000000006
 31
0.0
  0
LINE
  5
20C
330
1F
100
AcDbEntity
  8
1
  6
CONTINUOUS
 62
     7
100
AcDbLine
 10
116.4152004265114
 20
30.95000000000006
 30
0.0
 11
115.4138280805135
 21
30.95000000000006
 31
0.0
  0
LWPOLYLINE
  5
20D
330
1F
100
AcDbEntity
  8
1
  6
CONTINUOUS
 62
     7
100
AcDbPolyline
 90
        8
 70
     0
 43
0.0
 10
108.35
 20
29.95000000000006
 42
0.112278744010251
 10
108.2108166024362
 20
30.60117503233833
 10
108.1503614680803
 20
30.7063078279283
 10
108.0770847636638
 20
30.79968107682511
 10
107.9944120667498
 20
30.87328998644857
 10
107.8999556688545
 20
30.92538689473266
 10
107.7984640437851
 20
30.94899993180032
 10
107.7726497308104
 20
30.95000000000006
  0
LINE
  5
20E
330
1F
100
AcDbEntity
  8
1
  6
CONTINUOUS
 62
     7
100
AcDbLine
 10
108.35
 20
29.95000000000007
 30
0.0
 11
108.35
 21
29.45000000000007
 31
0.0
  0
LINE
  5
20F
330
1F
100
AcDbEntity
  8
1
  6
CONTINUOUS
 62
     7
100
AcDbLine
 10
74.86182597392325
 20
26.45000000000006
 30
0.0
 11
75.78160634483342
 21
26.45000000000006
 31
0.0
  0
LINE
  5
210
330
1F
100
AcDbEntity
  8
1
  6
CONTINUOUS
 62
     7
100
AcDbLine
 10
110.6733708909962
 20
27.85000000000002
 30
0.0
 11
110.7310194482076
 21
28.95000000000002
 31
0.0
  0
LINE
  5
211
330
1F
100
AcDbEntity
  8
1
  6
CONTINUOUS
 62
     7
100
AcDbLine
 10
96.6
 20
26.45000000000006
 30
0.0
 11
96.46898055179238
 21
28.95000000000006
 31
0.0
  0
LINE
  5
212
330
1F
100
AcDbEntity
  8
1
  6
CONTINUOUS
 62
     7
100
AcDbLine
 10
97.67337089099625
 20
27.85000000000006
 30
0.0
 11
97.7310194482076
 21
28.95000000000007
 31
0.0
  0
LINE
  5
213
330
1F
100
AcDbEntity
  8
1
  6
CONTINUOUS
 62
     7
100
AcDbLine
 10
77.90908584738449
 20
28.95000000000006
 30
0.0
 11
77.73451041390852
 21
48.95436326774924
 31
0.0
  0
LINE
  5
214
330
1F
100
AcDbEntity
  8
1
  6
CONTINUOUS
 62
     7
100
AcDbLine
 10
96.4689805517924
 20
28.95000000000006
 30
0.0
 11
95.46760820579449
 21
28.95000000000006
 31
0.0
  0
LINE
  5
215
330
1F
100
AcDbEntity
  8
1
  6
CONTINUOUS
 62
     7
100
AcDbLine
 10
96.96966672479137
 20
28.95000000000006
 30
0.0
 11
97.7310194482076
 21
28.95000000000006
 31
0.0
  0
LINE
  5
216
330
1F
100
AcDbEntity
  8
1
  6
CONTINUOUS
 62
     7
100
AcDbLine
 10
119.7323917942055
 20
28.95000000000006
 30
0.0
 11
118.7310194482076
 21
28.95000000000006
 31
0.0
  0
LINE
  5
217
330
1F
100
AcDbEntity
  8
1
  6
CONTINUOUS
 62
     7
100
AcDbLine
 10
104.4689805517924
 20
28.95000000000002
 30
0.0
 11
104.5266291090037
 21
27.85000000000002
 31
0.0
  0
LINE
  5
218
330
1F
100
AcDbEntity
  8
1
  6
CONTINUOUS
 62
     7
100
AcDbLine
 10
118.6
 20
26.45000000000006
 30
0.0
 11
119.6013723459979
 21
26.45000000000006
 31
0.0
  0
LINE
  5
219
330
1F
100
AcDbEntity
  8
1
  6
CONTINUOUS
 62
     7
100
AcDbLine
 10
97.6
 20
26.45000000000006
 30
0.0
 11
104.6
 21
26.45000000000006
 31
0.0
  0
LINE
  5
21A
330
1F
100
AcDbEntity
  8
1
  6
CONTINUOUS
 62
     7
100
AcDbLine
 10
95.59862765400209
 20
26.45000000000006
 30
0.0
 11
96.60000000000001
 21
26.45000000000006
 31
0.0
  0
LINE
  5
21B
330
1F
100
AcDbEntity
  8
1
  6
CONTINUOUS
 62
     7
100
AcDbLine
 10
77.40906680819161
 20
28.95000000000006
 30
0.0
 11
95.46760820579448
 21
28.95000000000006
 31
0.0
  0
LINE
  5
21C
330
1F
100
AcDbEntity
  8
1
  6
CONTINUOUS
 62
     7
100
AcDbLine
 10
110.6
 20
26.45000000000006
 30
0.0
 11
117.6
 21
26.45000000000006
 31
0.0
  0
ARC
  5
21D
330
1F
100
AcDbEntity
  8
1
  6
CONTINUOUS
 62
     7
100
AcDbCircle
 10
77.23452945237644
 20
48.95000000000005
 30
0.0
 40
0.5000000000000014
100
AcDbArc
 50
0.5000000000000812
 51
90.0
  0
LINE
  5
21E
330
1F
100
AcDbEntity
  8
1
  6
CONTINUOUS
 62
     7
100
AcDbLine
 10
118.2303332752087
 20
28.95000000000006
 30
0.0
 11
118.7310194482076
 21
28.95000000000006
 31
0.0
  0
LINE
  5
21F
330
1F
100
AcDbEntity
  8
1
  6
CONTINUOUS
 62
     7
100
AcDbLine
 10
97.10068617299896
 20
26.45000000000006
 30
0.0
 11
96.60000000000001
 21
26.45000000000006
 31
0.0
  0
LINE
  5
220
330
1F
100
AcDbEntity
  8
1
  6
CONTINUOUS
 62
     7
100
AcDbLine
 10
97.10068617299896
 20
26.45000000000006
 30
0.0
 11
97.60000000000001
 21
26.45000000000006
 31
0.0
  0
LINE
  5
221
330
1F
100
AcDbEntity
  8
1
  6
CONTINUOUS
 62
     7
100
AcDbLine
 10
96.4689805517924
 20
28.95000000000006
 30
0.0
 11
96.96966672479137
 21
28.95000000000006
 31
0.0
  0
LINE
  5
222
330
1F
100
AcDbEntity
  8
1
  6
CONTINUOUS
 62
     7
100
AcDbLine
 10
118.6
 20
26.45000000000006
 30
0.0
 11
118.099313827001
 21
26.45000000000006
 31
0.0
  0
LINE
  5
223
330
1F
100
AcDbEntity
  8
1
  6
CONTINUOUS
 62
     7
100
AcDbLine
 10
104.6
 20
26.45000000000006
 30
0.0
 11
104.5266291090037
 21
27.85000000000002
 31
0.0
  0
LINE
  5
224
330
1F
100
AcDbEntity
  8
1
  6
CONTINUOUS
 62
     7
100
AcDbLine
 10
117.5266291090037
 20
27.85000000000006
 30
0.0
 11
117.4689805517924
 21
28.95000000000007
 31
0.0
  0
LINE
  5
225
330
1F
100
AcDbEntity
  8
1
  6
CONTINUOUS
 62
     7
100
AcDbLine
 10
110.6733708909963
 20
27.85000000000002
 30
0.0
 11
110.6
 21
26.45000000000006
 31
0.0
  0
LINE
  5
226
330
1F
100
AcDbEntity
  8
1
  6
CONTINUOUS
 62
     7
100
AcDbLine
 10
110.6
 20
26.45000000000006
 30
0.0
 11
109.5986276540021
 21
26.45000000000006
 31
0.0
  0
LINE
  5
227
330
1F
100
AcDbEntity
  8
1
  6
CONTINUOUS
 62
     7
100
AcDbLine
 10
105.6013723459979
 20
26.45000000000006
 30
0.0
 11
104.6
 21
26.45000000000006
 31
0.0
  0
LINE
  5
228
330
1F
100
AcDbEntity
  8
1
  6
CONTINUOUS
 62
     7
100
AcDbLine
 10
117.4689805517924
 20
28.95000000000006
 30
0.0
 11
118.2303332752087
 21
28.95000000000006
 31
0.0
  0
LINE
  5
229
330
1F
100
AcDbEntity
  8
1
  6
CONTINUOUS
 62
     7
100
AcDbLine
 10
117.6
 20
26.45000000000006
 30
0.0
 11
118.099313827001
 21
26.45000000000006
 31
0.0
  0
LINE
  5
22A
330
1F
100
AcDbEntity
  8
1
  6
CONTINUOUS
 62
     7
100
AcDbLine
 10
77.23452945237644
 20
49.45000000000006
 30
0.0
 11
77.16981494232608
 21
49.45000000000006
 31
0.0
  0
LINE
  5
22B
330
1F
100
AcDbEntity
  8
1
  6
CONTINUOUS
 62
     7
100
AcDbLine
 10
117.6
 20
26.45000000000006
 30
0.0
 11
117.5266291090037
 21
27.85000000000006
 31
0.0
  0
LINE
  5
22C
330
1F
100
AcDbEntity
  8
1
  6
CONTINUOUS
 62
     7
100
AcDbLine
 10
95.46760820579448
 20
28.95000000000006
 30
0.0
 11
95.59862765400207
 21
26.45000000000006
 31
0.0
  0
LINE
  5
22D
330
1F
100
AcDbEntity
  8
1
  6
CONTINUOUS
 62
     7
100
AcDbLine
 10
77.23090301686136
 20
26.45000000000006
 30
0.0
 11
95.59862765400209
 21
26.45000000000006
 31
0.0
  0
LINE
  5
22E
330
1F
100
AcDbEntity
  8
1
  6
CONTINUOUS
 62
     7
100
AcDbLine
 10
97.67337089099625
 20
27.85000000000006
 30
0.0
 11
97.60000000000001
 21
26.45000000000006
 31
0.0
  0
ENDSEC
  0
SECTION
  2
OBJECTS
  0
DICTIONARY
  5
C
330
0
100
AcDbDictionary
  3
ACAD_GROUP
350
D
  3
ACAD_LAYOUT
350
1A
  3
ACAD_MATERIAL
350
43
  3
ACAD_MLEADERSTYLE
350
6B
  3
ACAD_MLINESTYLE
350
17
  3
ACAD_PLOTSETTINGS
350
19
  3
ACAD_SCALELIST
350
47
  3
ACAD_VISUALSTYLE
350
2A
  3
ACDBHEADERROUNDTRIPXREC
350
22F
  3
ACDBVARIABLEDICTIONARY
350
250
  0
DICTIONARY
  5
257
330
8
100
AcDbDictionary
280
     1
  3
ACAD_XREC_ROUNDTRIP
360
258
  0
DICTIONARY
  5
D
102
{ACAD_REACTORS
330
C
102
}
330
C
100
AcDbDictionary
  0
DICTIONARY
  5
1A
102
{ACAD_REACTORS
330
C
102
}
330
C
100
AcDbDictionary
  0
DICTIONARY
  5
43
102
{ACAD_REACTORS
330
C
102
}
330
C
100
AcDbDictionary
  3
BYBLOCK
350
45
  3
BYLAYER
350
44
  3
GLOBAL
350
46
  0
DICTIONARY
  5
6B
102
{ACAD_REACTORS
330
C
102
}
330
C
100
AcDbDictionary
  3
STANDARD
350
6C
  0
DICTIONARY
  5
17
102
{ACAD_REACTORS
330
C
102
}
330
C
100
AcDbDictionary
  3
STANDARD
350
18
  0
DICTIONARY
  5
19
102
{ACAD_REACTORS
330
C
102
}
330
C
100
AcDbDictionary
  0
DICTIONARY
  5
47
102
{ACAD_REACTORS
330
C
102
}
330
C
100
AcDbDictionary
  3
A0
350
48
  3
A1
350
49
  3
A2
350
4A
  3
A3
350
4B
  3
A4
350
4C
  3
A5
350
4D
  3
A6
350
4E
  3
A7
350
4F
  3
A8
350
50
  3
A9
350
51
  3
B0
350
52
  3
B1
350
53
  3
B2
350
54
  3
B3
350
55
  3
B4
350
56
  3
B5
350
57
  3
B6
350
58
  3
B7
350
59
  3
B8
350
5A
  3
B9
350
5B
  3
C0
350
5C
  3
C1
350
5D
  3
C2
350
5E
  3
C3
350
5F
  3
C4
350
60
  3
C5
350
61
  3
C6
350
62
  3
C7
350
63
  3
C8
350
64
  3
C9
350
65
  3
D0
350
66
  3
D1
350
67
  3
D2
350
68
  0
DICTIONARY
  5
2A
102
{ACAD_REACTORS
330
C
102
}
330
C
100
AcDbDictionary
  3
2DWIREFRAME
350
2F
  3
BASIC
350
32
  3
BRIGHTEN
350
36
  3
COLORCHANGE
350
3A
  3
CONCEPTUAL
350
34
  3
DIM
350
35
  3
EDGECOLOROFF
350
3D
  3
FACEPATTERN
350
39
  3
FLAT
350
2B
  3
FLATWITHEDGES
350
2C
  3
GOURAUD
350
2D
  3
GOURAUDWITHEDGES
350
2E
  3
HIDDEN
350
31
  3
JITTEROFF
350
3B
  3
LINEPATTERN
350
38
  3
OVERHANGOFF
350
3C
  3
REALISTIC
350
33
  3
SHADED
350
42
  3
SHADED_WITH_EDGES
350
41
  3
SHADES_OF_GRAY
350
3E
  3
SKETCHY
350
3F
  3
THICKEN
350
37
  3
WIREFRAME
350
30
  3
X-RAY
350
40
  0
DICTIONARY
  5
22F
102
{ACAD_REACTORS
330
C
102
}
330
C
100
AcDbDictionary
  3
CEPSNID
350
239
  3
CEPSNTYPE
350
238
  3
DIMSTYLEDATA
350
24F
  3
FINGERPRINTGUID
350
23A
  3
HYPERLINKBASE
350
232
  3
INSUNITS
350
237
  3
LAYOUTDICT
350
234
  3
LWETCUNION
350
236
  3
PLOTSETDICT
350
235
  3
PSVPSCALE
350
23C
  3
PUCSBASE
350
23F
  3
PUCSORGBACK
350
245
  3
PUCSORGBOTTOM
350
241
  3
PUCSORGFRONT
350
244
  3
PUCSORGLEFT
350
242
  3
PUCSORGRIGHT
350
243
  3
PUCSORGTOP
350
240
  3
PUCSORTHOREF
350
23D
  3
PUCSORTHOVIEW
350
23E
  3
STYLESHEET
350
233
  3
TSTACKALIGN
350
230
  3
TSTACKSIZE
350
231
  3
UCSBASE
350
248
  3
UCSORGBACK
350
24E
  3
UCSORGBOTTOM
350
24A
  3
UCSORGFRONT
350
24D
  3
UCSORGLEFT
350
24B
  3
UCSORGRIGHT
350
24C
  3
UCSORGTOP
350
249
  3
UCSORTHOREF
350
246
  3
UCSORTHOVIEW
350
247
  3
VERSIONGUID
350
23B
  0
DICTIONARY
  5
250
102
{ACAD_REACTORS
330
C
102
}
330
C
100
AcDbDictionary
  3
CANNOSCALE
350
259
  3
CMLEADERSTYLE
350
252
  3
CTABLESTYLE
350
251
  3
DIMASSOC
350
255
  3
HIDETEXT
350
256
  3
MSLTSCALE
350
25A
  0
XRECORD
  5
258
102
{ACAD_REACTORS
330
257
102
}
330
257
100
AcDbXrecord
102
VTR_0.000_0.000_1.000_1.000_VISUALSTYLE
340
2F
102
VTR_0.000_0.000_1.000_1.000_GRIDDISPLAY
 70
     3
102
VTR_0.000_0.000_1.000_1.000_GRIDMAJOR
 70
     5
102
VTR_0.000_0.000_1.000_1.000_DEFAULTLIGHTING
280
     1
102
VTR_0.000_0.000_1.000_1.000_DEFAULTLIGHTINGTYPE
 70
     1
102
VTR_0.000_0.000_1.000_1.000_BRIGHTNESS
141
0.0
102
VTR_0.000_0.000_1.000_1.000_CONTRAST
142
0.0
  0
MATERIAL
  5
45
102
{ACAD_REACTORS
330
43
102
}
102
{ACAD_XDICTIONARY
360
25D
102
}
330
43
100
AcDbMaterial
  1
BYBLOCK
  0
MATERIAL
  5
44
102
{ACAD_REACTORS
330
43
102
}
102
{ACAD_XDICTIONARY
360
25B
102
}
330
43
100
AcDbMaterial
  1
BYLAYER
  0
MATERIAL
  5
46
102
{ACAD_REACTORS
330
43
102
}
102
{ACAD_XDICTIONARY
360
25F
102
}
330
43
100
AcDbMaterial
  1
GLOBAL
  0
ACAD_PROXY_OBJECT
  5
6C
102
{ACAD_REACTORS
330
6B
102
}
330
6B
100
AcDbProxyObject
 90
      499
 91
      505
 93
      610
310
40901902A4063FBFFFFFE056BD1B81E855B9FC0AD7A3703D0AD73F4214DD185B99185C9900AD7A3703D0AC73F90141901A02B5E8DC0F42B1CFC02B5E8DC0F42B1CFE5764000000000000300FC0
340
14
340
0
340
11
340
0
 94
        0
1001
ACAD_MLEADERVER
1070
     2
  0
MLINESTYLE
  5
18
102
{ACAD_REACTORS
330
17
102
}
330
17
100
AcDbMlineStyle
  2
Standard
 70
     0
  3

 62
   256
 51
90.0
 52
90.0
 71
     2
 49
0.5
 62
   256
  6
BYLAYER
 49
-0.5
 62
   256
  6
BYLAYER
  0
ACAD_PROXY_OBJECT
  5
48
102
{ACAD_REACTORS
330
47
102
}
330
47
100
AcDbProxyObject
 90
      499
 91
      503
 93
       41
310
903313A31580
  0
ACAD_PROXY_OBJECT
  5
49
102
{ACAD_REACTORS
330
47
102
}
330
47
100
AcDbProxyObject
 90
      499
 91
      503
 93
      105
310
903313A324000000000000004000
  0
ACAD_PROXY_OBJECT
  5
4A
102
{ACAD_REACTORS
330
47
102
}
330
47
100
AcDbProxyObject
 90
      499
 91
      503
 93
      105
310
903313A344000000000000104000
  0
ACAD_PROXY_OBJECT
  5
4B
102
{ACAD_REACTORS
330
47
102
}
330
47
100
AcDbProxyObject
 90
      499
 91
      503
 93
      105
310
903313A354000000000000144000
  0
ACAD_PROXY_OBJECT
  5
4C
102
{ACAD_REACTORS
330
47
102
}
330
47
100
AcDbProxyObject
 90
      499
 91
      503
 93
      105
310
903313A384000000000000204000
  0
ACAD_PROXY_OBJECT
  5
4D
102
{ACAD_REACTORS
330
47
102
}
330
47
100
AcDbProxyObject
 90
      499
 91
      503
 93
      113
310
904313A31304000000000000244000
  0
ACAD_PROXY_OBJECT
  5
4E
102
{ACAD_REACTORS
330
47
102
}
330
47
100
AcDbProxyObject
 90
      499
 91
      503
 93
      113
310
904313A31364000000000000304000
  0
ACAD_PROXY_OBJECT
  5
4F
102
{ACAD_REACTORS
330
47
102
}
330
47
100
AcDbProxyObject
 90
      499
 91
      503
 93
      113
310
904313A32304000000000000344000
  0
ACAD_PROXY_OBJECT
  5
50
102
{ACAD_REACTORS
330
47
102
}
330
47
100
AcDbProxyObject
 90
      499
 91
      503
 93
      113
310
904313A333040000000000003E4000
  0
ACAD_PROXY_OBJECT
  5
51
102
{ACAD_REACTORS
330
47
102
}
330
47
100
AcDbProxyObject
 90
      499
 91
      503
 93
      113
310
904313A34304000000000000444000
  0
ACAD_PROXY_OBJECT
  5
52
102
{ACAD_REACTORS
330
47
102
}
330
47
100
AcDbProxyObject
 90
      499
 91
      503
 93
      113
310
904313A35304000000000000494000
  0
ACAD_PROXY_OBJECT
  5
53
102
{ACAD_REACTORS
330
47
102
}
330
47
100
AcDbProxyObject
 90
      499
 91
      503
 93
      121
310
905313A3130304000000000000594000
  0
ACAD_PROXY_OBJECT
  5
54
102
{ACAD_REACTORS
330
47
102
}
330
47
100
AcDbProxyObject
 90
      499
 91
      503
 93
      105
310
903323A310000000000000010100
  0
ACAD_PROXY_OBJECT
  5
55
102
{ACAD_REACTORS
330
47
102
}
330
47
100
AcDbProxyObject
 90
      499
 91
      503
 93
      105
310
903343A310000000000000410100
  0
ACAD_PROXY_OBJECT
  5
56
102
{ACAD_REACTORS
330
47
102
}
330
47
100
AcDbProxyObject
 90
      499
 91
      503
 93
      105
310
903383A310000000000000810100
  0
ACAD_PROXY_OBJECT
  5
57
102
{ACAD_REACTORS
330
47
102
}
330
47
100
AcDbProxyObject
 90
      499
 91
      503
 93
      113
310
90431303A310000000000000910100
  0
ACAD_PROXY_OBJECT
  5
58
102
{ACAD_REACTORS
330
47
102
}
330
47
100
AcDbProxyObject
 90
      499
 91
      503
 93
      121
310
9053130303A310000000000001650100
  0
ACAD_PROXY_OBJECT
  5
59
102
{ACAD_REACTORS
330
47
102
}
330
47
100
AcDbProxyObject
 90
      499
 91
      503
 93
      257
310
90E312F31323822203D2031272D3022000000000000200FC000000000000284000
  0
ACAD_PROXY_OBJECT
  5
5A
102
{ACAD_REACTORS
330
47
102
}
330
47
100
AcDbProxyObject
 90
      499
 91
      503
 93
      249
310
90D312F363422203D2031272D3022000000000000240FC000000000000284000
  0
ACAD_PROXY_OBJECT
  5
5B
102
{ACAD_REACTORS
330
47
102
}
330
47
100
AcDbProxyObject
 90
      499
 91
      503
 93
      249
310
90D312F333222203D2031272D3022000000000000280FC000000000000284000
  0
ACAD_PROXY_OBJECT
  5
5C
102
{ACAD_REACTORS
330
47
102
}
330
47
100
AcDbProxyObject
 90
      499
 91
      503
 93
      249
310
90D312F313622203D2031272D30220000000000002C0FC000000000000284000
  0
ACAD_PROXY_OBJECT
  5
5D
102
{ACAD_REACTORS
330
47
102
}
330
47
100
AcDbProxyObject
 90
      499
 91
      503
 93
      249
310
90D332F333222203D2031272D30220000000000002E0FC000000000000284000
  0
ACAD_PROXY_OBJECT
  5
5E
102
{ACAD_REACTORS
330
47
102
}
330
47
100
AcDbProxyObject
 90
      499
 91
      503
 93
      241
310
90C312F3822203D2031272D3022000000000000300FC000000000000284000
  0
ACAD_PROXY_OBJECT
  5
5F
102
{ACAD_REACTORS
330
47
102
}
330
47
100
AcDbProxyObject
 90
      499
 91
      503
 93
      249
310
90D332F313622203D2031272D3022000000000000320FC000000000000284000
  0
ACAD_PROXY_OBJECT
  5
60
102
{ACAD_REACTORS
330
47
102
}
330
47
100
AcDbProxyObject
 90
      499
 91
      503
 93
      241
310
90C312F3422203D2031272D3022000000000000340FC000000000000284000
  0
ACAD_PROXY_OBJECT
  5
61
102
{ACAD_REACTORS
330
47
102
}
330
47
100
AcDbProxyObject
 90
      499
 91
      503
 93
      241
310
90C332F3822203D2031272D3022000000000000360FC000000000000284000
  0
ACAD_PROXY_OBJECT
  5
62
102
{ACAD_REACTORS
330
47
102
}
330
47
100
AcDbProxyObject
 90
      499
 91
      503
 93
      241
310
90C312F3222203D2031272D3022000000000000380FC000000000000284000
  0
ACAD_PROXY_OBJECT
  5
63
102
{ACAD_REACTORS
330
47
102
}
330
47
100
AcDbProxyObject
 90
      499
 91
      503
 93
      241
310
90C332F3422203D2031272D30220000000000003A0FC000000000000284000
  0
ACAD_PROXY_OBJECT
  5
64
102
{ACAD_REACTORS
330
47
102
}
330
47
100
AcDbProxyObject
 90
      499
 91
      503
 93
      161
310
90A3122203D2031272D30224000000000000284000
  0
ACAD_PROXY_OBJECT
  5
65
102
{ACAD_REACTORS
330
47
102
}
330
47
100
AcDbProxyObject
 90
      499
 91
      503
 93
      257
310
90E312D312F3222203D2031272D30220000000000003E0FC000000000000284000
  0
ACAD_PROXY_OBJECT
  5
66
102
{ACAD_REACTORS
330
47
102
}
330
47
100
AcDbProxyObject
 90
      499
 91
      503
 93
      225
310
90A3322203D2031272D302200000000000002100000000000000284000
  0
ACAD_PROXY_OBJECT
  5
67
102
{ACAD_REACTORS
330
47
102
}
330
47
100
AcDbProxyObject
 90
      499
 91
      503
 93
      225
310
90A3622203D2031272D302200000000000006100000000000000284000
  0
ACAD_PROXY_OBJECT
  5
68
102
{ACAD_REACTORS
330
47
102
}
330
47
100
AcDbProxyObject
 90
      499
 91
      503
 93
      249
310
90D31272D3022203D2031272D30220000000000000A100000000000000284000
  0
ACAD_PROXY_OBJECT
  5
2F
102
{ACAD_REACTORS
330
2A
102
}
330
2A
100
AcDbProxyObject
 90
      499
 91
      501
 93
      436
310
42CC9915DA5C99599C985B595049028333333333333E33F0000000000000F90107901411070040501600405405064090741402480A0340
1001
ACAD
1000
AcDbSavedByObjectVersion
1070
     0
  0
ACAD_PROXY_OBJECT
  5
32
102
{ACAD_REACTORS
330
2A
102
}
330
2A
100
AcDbProxyObject
 90
      499
 91
      501
 93
      388
310
4150985CDA58D07406404333333333333E33F0000000000000F90107A41107004050150841D405064090741402480A0350
1001
ACAD
1000
AcDbSavedByObjectVersion
1070
     0
  0
ACAD_PROXY_OBJECT
  5
36
102
{ACAD_REACTORS
330
2A
102
}
330
2A
100
AcDbProxyObject
 90
      499
 91
      501
 93
      428
310
42109C9A59DA1D195B90C409028333333333333E33F0000000000000F9010790141107004050150841D405064090741402480A029950
1001
ACAD
1000
AcDbSavedByObjectVersion
1070
     0
  0
ACAD_PROXY_OBJECT
  5
3A
102
{ACAD_REACTORS
330
2A
102
}
330
2A
100
AcDbProxyObject
 90
      499
 91
      501
 93
      452
310
42D0DBDB1BDC90DA185B99D95104090240C333333333333E33F0000000000000F90108901411070040501508421405064090741402480A0350
1001
ACAD
1000
AcDbSavedByObjectVersion
1070
     0
  0
ACAD_PROXY_OBJECT
  5
34
102
{ACAD_REACTORS
330
2A
102
}
330
2A
100
AcDbProxyObject
 90
      499
 91
      501
 93
      500
310
4290DBDB98D95C1D1D585B10940D028333333333333E33F0000000000000F90107902409070040501000000000018199010841D405064090740C02480A0340
1001
ACAD
1000
AcDbSavedByObjectVersion
1070
     0
  0
ACAD_PROXY_OBJECT
  5
35
102
{ACAD_REACTORS
330
2A
102
}
330
2A
100
AcDbProxyObject
 90
      499
 91
      501
 93
      412
310
40D11A5B50B409028333333333333E33F0000000000000F9010790141107004050150841D405064090741402480A02677FFFFFD0
1001
ACAD
1000
AcDbSavedByObjectVersion
1070
     0
  0
ACAD_PROXY_OBJECT
  5
3D
102
{ACAD_REACTORS
330
2A
102
}
330
2A
100
AcDbProxyObject
 90
      499
 91
      501
 93
      452
310
43115919D950DBDB1BDC93D999916409028333333333333E33F0000000000000F9010790141107004050150841D405064090741402480A0350
1001
ACAD
1000
AcDbSavedByObjectVersion
1070
     0
  0
ACAD_PROXY_OBJECT
  5
39
102
{ACAD_REACTORS
330
2A
102
}
330
2A
100
AcDbProxyObject
 90
      499
 91
      501
 93
      444
310
42D19858D95C185D1D195C9B90F409028333333333333E33F0000000000000F9010790141107004050150841D405064090741402480A0350
1001
ACAD
1000
AcDbSavedByObjectVersion
1070
     0
  0
ACAD_PROXY_OBJECT
  5
2B
102
{ACAD_REACTORS
330
2A
102
}
330
2A
100
AcDbProxyObject
 90
      499
 91
      501
 93
      380
310
41119B185D240901404333333333333E33F0000000000000F9010740A907004050150841D405064090741402480A1B50
1001
ACAD
1000
AcDbSavedByObjectVersion
1070
     0
  0
ACAD_PROXY_OBJECT
  5
2C
102
{ACAD_REACTORS
330
2A
102
}
330
2A
100
AcDbProxyObject
 90
      499
 91
      501
 93
      468
310
43519B185D15DA5D1A115919D95CD0140901404333333333333E33F0000000000000F90107409019070040501600405405064090741402480A1B50
1001
ACAD
1000
AcDbSavedByObjectVersion
1070
     0
  0
ACAD_PROXY_OBJECT
  5
2D
102
{ACAD_REACTORS
330
2A
102
}
330
2A
100
AcDbProxyObject
 90
      499
 91
      501
 93
      404
310
41D1DBDD5C985D5910240902404333333333333E33F0000000000000F9010740A9070040501641D405064090741402480A1B50
1001
ACAD
1000
AcDbSavedByObjectVersion
1070
     0
  0
ACAD_PROXY_OBJECT
  5
2E
102
{ACAD_REACTORS
330
2A
102
}
330
2A
100
AcDbProxyObject
 90
      499
 91
      501
 93
      492
310
4411DBDD5C985D5915DA5D1A115919D95CD0340902404333333333333E33F0000000000000F90107409019070040501600405405064090741402480A1B50
1001
ACAD
1000
AcDbSavedByObjectVersion
1070
     0
  0
ACAD_PROXY_OBJECT
  5
31
102
{ACAD_REACTORS
330
2A
102
}
330
2A
100
AcDbProxyObject
 90
      499
 91
      501
 93
      476
310
41921A5919195B90640502408333333333333E33F0000000000000F901079024090700405020000000000001110200405405064090740C02480A0340
1001
ACAD
1000
AcDbSavedByObjectVersion
1070
     0
  0
ACAD_PROXY_OBJECT
  5
3B
102
{ACAD_REACTORS
330
2A
102
}
330
2A
100
AcDbProxyObject
 90
      499
 91
      501
 93
      428
310
42529A5D1D195C93D999914409028333333333333E33F0000000000000F9010790141107004050150A41D405064090741402480A0350
1001
ACAD
1000
AcDbSavedByObjectVersion
1070
     0
  0
ACAD_PROXY_OBJECT
  5
38
102
{ACAD_REACTORS
330
2A
102
}
330
2A
100
AcDbProxyObject
 90
      499
 91
      501
 93
      444
310
42D31A5B995C185D1D195C9B90E409028333333333333E33F0000000000000F9010790141107004050750841D405064090741402483A0350
1001
ACAD
1000
AcDbSavedByObjectVersion
1070
     0
  0
ACAD_PROXY_OBJECT
  5
3C
102
{ACAD_REACTORS
330
2A
102
}
330
2A
100
AcDbProxyObject
 90
      499
 91
      501
 93
      444
310
42D3DD995C9A185B99D3D999915409028333333333333E33F0000000000000F9010790141107004050150941D405064090741402480A0350
1001
ACAD
1000
AcDbSavedByObjectVersion
1070
     0
  0
ACAD_PROXY_OBJECT
  5
33
102
{ACAD_REACTORS
330
2A
102
}
330
2A
100
AcDbProxyObject
 90
      499
 91
      501
 93
      428
310
425499585B1A5CDD1A58D08409038333333333333E33F0000000000000F9010740A907004050150800405405064090740C02480A1B40
1001
ACAD
1000
AcDbSavedByObjectVersion
1070
     0
  0
ACAD_PROXY_OBJECT
  5
42
102
{ACAD_REACTORS
330
2A
102
}
330
2A
100
AcDbProxyObject
 90
      499
 91
      501
 93
      420
310
4194DA1859195911B40902404333333333333E33F0000000000000F9010740A41107004050150800405405064090840C02480A0B40
1001
ACAD
1000
AcDbSavedByObjectVersion
1070
     0
  0
ACAD_PROXY_OBJECT
  5
41
102
{ACAD_REACTORS
330
2A
102
}
330
2A
100
AcDbProxyObject
 90
      499
 91
      501
 93
      516
310
4454DA18591959081DDA5D1A08195919D95CD1A40902404333333333333E33F0000000000000F901074090142907004050250800405405064090740C02480A0B40
1001
ACAD
1000
AcDbSavedByObjectVersion
1070
     0
  0
ACAD_PROXY_OBJECT
  5
3E
102
{ACAD_REACTORS
330
2A
102
}
330
2A
100
AcDbProxyObject
 90
      499
 91
      501
 93
      532
310
4394DA1859195CC81BD98811DC985E5174090240C333333333333E33F0000000000000F901079024090741D01000000000000111010841D405064090740C02480A0340
1001
ACAD
1000
AcDbSavedByObjectVersion
1070
     0
  0
ACAD_PROXY_OBJECT
  5
3F
102
{ACAD_REACTORS
330
2A
102
}
330
2A
100
AcDbProxyObject
 90
      499
 91
      501
 93
      476
310
41D4DAD95D18DA1E51840502408333333333333E33F0000000000000F901079024090741D01000000000000111010B41D405064090741802480A0340
1001
ACAD
1000
AcDbSavedByObjectVersion
1070
     0
  0
ACAD_PROXY_OBJECT
  5
37
102
{ACAD_REACTORS
330
2A
102
}
330
2A
100
AcDbProxyObject
 90
      499
 91
      501
 93
      412
310
41D51A1A58DAD95B90D409028333333333333E33F0000000000000F9010790141107004050150C41D405064090741402480A0350
1001
ACAD
1000
AcDbSavedByObjectVersion
1070
     0
  0
ACAD_PROXY_OBJECT
  5
30
102
{ACAD_REACTORS
330
2A
102
}
330
2A
100
AcDbProxyObject
 90
      499
 91
      501
 93
      420
310
4255DA5C99599C985B595059028333333333333E33F0000000000000F90107901411070040501600405405064090740C02480A0340
1001
ACAD
1000
AcDbSavedByObjectVersion
1070
     0
  0
ACAD_PROXY_OBJECT
  5
40
102
{ACAD_REACTORS
330
2A
102
}
330
2A
100
AcDbProxyObject
 90
      499
 91
      501
 93
      404
310
41560B54985E51940902404000000000000E03F0000000000000F9010740501907004050150841D405064090740C02480A1B40
1001
ACAD
1000
AcDbSavedByObjectVersion
1070
     0
  0
XRECORD
  5
239
102
{ACAD_REACTORS
330
22F
102
}
330
22F
100
AcDbXrecord
340
0
  0
XRECORD
  5
238
102
{ACAD_REACTORS
330
22F
102
}
330
22F
100
AcDbXrecord
 90
        0
  0
XRECORD
  5
24F
102
{ACAD_REACTORS
330
22F
102
}
330
22F
100
AcDbXrecord
1000
DSTYLE
1002
{
1070
   179
 70
     2
1070
   171
 70
     2
1070
   143
 40
25.4
1070
   274
 70
     2
1070
    41
 40
3.0
1070
   141
 40
0.09
1070
    43
 40
0.38
1070
   278
 70
    46
1070
    44
 40
1.5
1070
    42
 40
0.0625
1070
   147
 40
1.5
1070
   272
 70
     4
1070
    73
 70
     1
1070
   172
 70
     0
1070
    74
 70
     1
1070
   283
 70
     1
1070
   340
340
6F
1070
   140
 40
3.0
1070
   284
 70
     0
1070
    78
 70
     0
1002
}
  0
XRECORD
  5
23A
102
{ACAD_REACTORS
330
22F
102
}
330
22F
100
AcDbXrecord
  1
{F548A854-6276-4D78-B118-09FF2E850AE3}
  0
XRECORD
  5
232
102
{ACAD_REACTORS
330
22F
102
}
330
22F
100
AcDbXrecord
  1

  0
XRECORD
  5
237
102
{ACAD_REACTORS
330
22F
102
}
330
22F
100
AcDbXrecord
 90
        4
  0
XRECORD
  5
234
102
{ACAD_REACTORS
330
22F
102
}
330
22F
100
AcDbXrecord
340
1A
  0
XRECORD
  5
236
102
{ACAD_REACTORS
330
22F
102
}
330
22F
100
AcDbXrecord
 90
    10269
  0
XRECORD
  5
235
102
{ACAD_REACTORS
330
22F
102
}
330
22F
100
AcDbXrecord
340
19
  0
XRECORD
  5
23C
102
{ACAD_REACTORS
330
22F
102
}
330
22F
100
AcDbXrecord
 40
0.0
  0
XRECORD
  5
23F
102
{ACAD_REACTORS
330
22F
102
}
330
22F
100
AcDbXrecord
340
0
  0
XRECORD
  5
245
102
{ACAD_REACTORS
330
22F
102
}
330
22F
100
AcDbXrecord
 10
0.0
 20
0.0
 30
0.0
  0
XRECORD
  5
241
102
{ACAD_REACTORS
330
22F
102
}
330
22F
100
AcDbXrecord
 10
0.0
 20
0.0
 30
0.0
  0
XRECORD
  5
244
102
{ACAD_REACTORS
330
22F
102
}
330
22F
100
AcDbXrecord
 10
0.0
 20
0.0
 30
0.0
  0
XRECORD
  5
242
102
{ACAD_REACTORS
330
22F
102
}
330
22F
100
AcDbXrecord
 10
0.0
 20
0.0
 30
0.0
  0
XRECORD
  5
243
102
{ACAD_REACTORS
330
22F
102
}
330
22F
100
AcDbXrecord
 10
0.0
 20
0.0
 30
0.0
  0
XRECORD
  5
240
102
{ACAD_REACTORS
330
22F
102
}
330
22F
100
AcDbXrecord
 10
0.0
 20
0.0
 30
0.0
  0
XRECORD
  5
23D
102
{ACAD_REACTORS
330
22F
102
}
330
22F
100
AcDbXrecord
340
0
  0
XRECORD
  5
23E
102
{ACAD_REACTORS
330
22F
102
}
330
22F
100
AcDbXrecord
 70
     0
  0
XRECORD
  5
233
102
{ACAD_REACTORS
330
22F
102
}
330
22F
100
AcDbXrecord
  1

  0
XRECORD
  5
230
102
{ACAD_REACTORS
330
22F
102
}
330
22F
100
AcDbXrecord
 90
        1
  0
XRECORD
  5
231
102
{ACAD_REACTORS
330
22F
102
}
330
22F
100
AcDbXrecord
 90
       70
  0
XRECORD
  5
248
102
{ACAD_REACTORS
330
22F
102
}
330
22F
100
AcDbXrecord
340
0
  0
XRECORD
  5
24E
102
{ACAD_REACTORS
330
22F
102
}
330
22F
100
AcDbXrecord
 10
0.0
 20
0.0
 30
0.0
  0
XRECORD
  5
24A
102
{ACAD_REACTORS
330
22F
102
}
330
22F
100
AcDbXrecord
 10
0.0
 20
0.0
 30
0.0
  0
XRECORD
  5
24D
102
{ACAD_REACTORS
330
22F
102
}
330
22F
100
AcDbXrecord
 10
0.0
 20
0.0
 30
0.0
  0
XRECORD
  5
24B
102
{ACAD_REACTORS
330
22F
102
}
330
22F
100
AcDbXrecord
 10
0.0
 20
0.0
 30
0.0
  0
XRECORD
  5
24C
102
{ACAD_REACTORS
330
22F
102
}
330
22F
100
AcDbXrecord
 10
0.0
 20
0.0
 30
0.0
  0
XRECORD
  5
249
102
{ACAD_REACTORS
330
22F
102
}
330
22F
100
AcDbXrecord
 10
0.0
 20
0.0
 30
0.0
  0
XRECORD
  5
246
102
{ACAD_REACTORS
330
22F
102
}
330
22F
100
AcDbXrecord
340
0
  0
XRECORD
  5
247
102
{ACAD_REACTORS
330
22F
102
}
330
22F
100
AcDbXrecord
 70
     0
  0
XRECORD
  5
23B
102
{ACAD_REACTORS
330
22F
102
}
330
22F
100
AcDbXrecord
  1
{FAEB1C32-E019-11D5-929B-00C0DF256EC4}
  0
DICTIONARYVAR
  5
259
102
{ACAD_REACTORS
330
250
102
}
330
250
100
DictionaryVariables
280
     0
  1
1:1
  0
DICTIONARYVAR
  5
252
102
{ACAD_REACTORS
330
250
102
}
330
250
100
DictionaryVariables
280
     0
  1
Standard
  0
DICTIONARYVAR
  5
251
102
{ACAD_REACTORS
330
250
102
}
330
250
100
DictionaryVariables
280
     0
  1
Standard
  0
DICTIONARYVAR
  5
255
102
{ACAD_REACTORS
330
250
102
}
330
250
100
DictionaryVariables
280
     0
  1
2
  0
DICTIONARYVAR
  5
256
102
{ACAD_REACTORS
330
250
102
}
330
250
100
DictionaryVariables
280
     0
  1
1
  0
DICTIONARYVAR
  5
25A
102
{ACAD_REACTORS
330
250
102
}
330
250
100
DictionaryVariables
280
     0
  1
1
  0
DICTIONARY
  5
25D
330
45
100
AcDbDictionary
280
     1
  3
ACAD_XREC_ROUNDTRIP
360
25E
  0
DICTIONARY
  5
25B
330
44
100
AcDbDictionary
280
     1
  3
ACAD_XREC_ROUNDTRIP
360
25C
  0
DICTIONARY
  5
25F
330
46
100
AcDbDictionary
280
     1
  3
ACAD_XREC_ROUNDTRIP
360
260
  0
XRECORD
  5
25E
102
{ACAD_REACTORS
330
25D
102
}
330
25D
100
AcDbXrecord
102
MATERIAL
148
0.0
149
0.0
149
0.0
 93
        0
 94
      127
282
     0
 72
     1
 77
     1
171
     1
175
     1
179
     1
273
     0
  0
XRECORD
  5
25C
102
{ACAD_REACTORS
330
25B
102
}
330
25B
100
AcDbXrecord
102
MATERIAL
148
0.0
149
0.0
149
0.0
 93
        0
 94
      127
282
     0
 72
     1
 77
     1
171
     1
175
     1
179
     1
273
     0
  0
XRECORD
  5
260
102
{ACAD_REACTORS
330
25F
102
}
330
25F
100
AcDbXrecord
102
MATERIAL
148
0.0
149
0.0
149
0.0
 93
        0
 94
      127
282
     0
 72
     1
 77
     1
171
     1
175
     1
179
     1
273
     0
  0
ENDSEC
  0
EOF
