  0
SECTION
  2
HEADER
  9
$ACADVER
  1
AC1004
  9
$INSBASE
 10
0.0
 20
0.0
  9
$EXTMIN
 10
0.0
 20
-10.00000000000002
  9
$EXTMAX
 10
709.0
 20
300.0000000000001
  9
$LIMMIN
 10
0.0
 20
0.0
  9
$LIMMAX
 10
12.0
 20
9.0
  9
$ORTHOMODE
 70
     0
  9
$REGENMODE
 70
     1
  9
$FILLMODE
 70
     1
  9
$QTEXTMODE
 70
     0
  9
$DRAGMODE
 70
     2
  9
$LTSCALE
 40
1.0
  9
$OSMODE
 70
    37
  9
$ATTMODE
 70
     1
  9
$TEXTSIZE
 40
0.2
  9
$TRACEWID
 40
0.05
  9
$TEXTSTYLE
  7
STANDARD
  9
$CLAYER
  8
0
  9
$CELTYPE
  6
BYLAYER
  9
$CECOLOR
 62
   256
  9
$DIMSCALE
 40
1.0
  9
$DIMASZ
 40
3.0
  9
$DIMEXO
 40
0.0625
  9
$DIMDLI
 40
0.38
  9
$DIMRND
 40
0.0
  9
$DIMDLE
 40
0.0
  9
$DIMEXE
 40
1.5
  9
$DIMTP
 40
0.0
  9
$DIMTM
 40
0.0
  9
$DIMTXT
 40
3.0
  9
$DIMCEN
 40
0.09
  9
$DIMTSZ
 40
0.0
  9
$DIMTOL
 70
     0
  9
$DIMLIM
 70
     0
  9
$DIMTIH
 70
     1
  9
$DIMTOH
 70
     1
  9
$DIMSE1
 70
     0
  9
$DIMSE2
 70
     0
  9
$DIMTAD
 70
     1
  9
$DIMZIN
 70
     0
  9
$DIMBLK
  1

  9
$DIMASO
 70
     1
  9
$DIMSHO
 70
     1
  9
$DIMPOST
  1

  9
$DIMAPOST
  1

  9
$DIMALT
 70
     0
  9
$DIMALTD
 70
     2
  9
$DIMALTF
 40
25.4
  9
$DIMLFAC
 40
1.0
  9
$DIMTOFL
 70
     0
  9
$DIMTVP
 40
0.0
  9
$DIMTIX
 70
     0
  9
$DIMSOXD
 70
     0
  9
$DIMSAH
 70
     0
  9
$DIMBLK1
  1

  9
$DIMBLK2
  1

  9
$LUNITS
 70
     2
  9
$LUPREC
 70
     4
  9
$SKETCHINC
 40
0.1
  9
$FILLETRAD
 40
0.5
  9
$AUNITS
 70
     0
  9
$AUPREC
 70
     0
  9
$MENU
  1
.
  9
$ELEVATION
 40
0.0
  9
$THICKNESS
 40
0.0
  9
$LIMCHECK
 70
     0
  9
$CHAMFERA
 40
0.0
  9
$CHAMFERB
 40
0.0
  9
$SKPOLY
 70
     0
  9
$TDCREATE
 40
2460255.678983148
  9
$TDUPDATE
 40
2460255.678983415
  9
$TDINDWG
 40
0.0000000116
  9
$TDUSRTIMER
 40
0.0000000116
  9
$USRTIMER
 70
     1
  9
$ANGBASE
 50
0.0
  9
$ANGDIR
 70
     0
  9
$PDMODE
 70
     0
  9
$PDSIZE
 40
0.0
  9
$PLINEWID
 40
0.0
  9
$COORDS
 70
     1
  9
$SPLFRAME
 70
     0
  9
$SPLINETYPE
 70
     6
  9
$SPLINESEGS
 70
     8
  9
$ATTDIA
 70
     0
  9
$ATTREQ
 70
     1
  9
$SURFTAB1
 70
     6
  9
$SURFTAB2
 70
     6
  9
$SURFTYPE
 70
     6
  9
$SURFU
 70
     6
  9
$SURFV
 70
     6
  9
$UCSNAME
  2

  9
$UCSORG
 10
0.0
 20
0.0
 30
0.0
  9
$UCSXDIR
 10
1.0
 20
0.0
 30
0.0
  9
$UCSYDIR
 10
0.0
 20
1.0
 30
0.0
  9
$USERI1
 70
     0
  9
$USERI2
 70
     0
  9
$USERI3
 70
     0
  9
$USERI4
 70
     0
  9
$USERI5
 70
     0
  9
$USERR1
 40
0.0
  9
$USERR2
 40
0.0
  9
$USERR3
 40
0.0
  9
$USERR4
 40
0.0
  9
$USERR5
 40
0.0
  9
$WORLDVIEW
 70
     1
  0
ENDSEC
  0
SECTION
  2
TABLES
  0
TABLE
  2
LTYPE
 70
     2
  0
LTYPE
  2
CONTINUOUS
 70
     0
  3
Solid line
 72
    65
 73
     0
 40
0.0
  0
LTYPE
  2
CENTER
 70
     0
  3

 72
    65
 73
     0
 40
0.0
  0
ENDTAB
  0
TABLE
  2
LAYER
 70
     1
  0
LAYER
  2
0
 70
     0
 62
     7
  6
CONTINUOUS
  0
ENDTAB
  0
TABLE
  2
STYLE
 70
     2
  0
STYLE
  2
STANDARD
 70
     0
 40
0.0
 41
1.0
 50
0.0
 71
     0
 42
0.2
  3
txt
  4

  0
STYLE
  2
ＭＳ_ゴシック
 70
     0
 40
0.0
 41
1.0
 50
0.0
 71
     0
 42
0.2
  3
ＭＳ ゴシック.shx
  4

  0
ENDTAB
  0
TABLE
  2
VIEW
 70
     0
  0
ENDTAB
  0
ENDSEC
  0
SECTION
  2
BLOCKS
  0
BLOCK
  8
0
  2
D_FRAME_VIEW_1967
 70
     0
 10
0.0
 20
0.0
  0
LINE
  8
0
  6
CONTINUOUS
 62
     7
 10
476.2
 20
31.25000000000005
 11
477.8836473663588
 21
31.25000000000005
  0
LINE
  8
0
  6
CONTINUOUS
 62
     7
 10
475.9306520006098
 20
62.11422366515656
 11
476.2
 21
31.25000000000005
  0
POLYLINE
  8
0
  6
CONTINUOUS
 62
     7
 66
     1
  0
VERTEX
  8
0
  6
CONTINUOUS
 62
     7
 10
475.9306520006098
 20
62.11422366515656
  0
VERTEX
  8
0
  6
CONTINUOUS
 62
     7
 10
475.9298689813064
 20
62.13816966222787
  0
VERTEX
  8
0
  6
CONTINUOUS
 62
     7
 10
475.9279397558142
 20
62.16205065852136
  0
VERTEX
  8
0
  6
CONTINUOUS
 62
     7
 10
475.9248687538197
 20
62.18581182098699
  0
VERTEX
  8
0
  6
CONTINUOUS
 62
     7
 10
475.9206630266367
 20
62.20939859172466
  0
VERTEX
  8
0
  6
CONTINUOUS
 62
     7
 10
475.9153322310169
 20
62.23275681325433
  0
VERTEX
  8
0
  6
CONTINUOUS
 62
     7
 10
475.9088886069766
 20
62.25583285286678
  0
VERTEX
  8
0
  6
CONTINUOUS
 62
     7
 10
475.9013469496924
 20
62.27857372576948
  0
VERTEX
  8
0
  6
CONTINUOUS
 62
     7
 10
475.8927245755303
 20
62.30092721674465
  0
VERTEX
  8
0
  6
CONTINUOUS
 62
     7
 10
475.8830412822854
 20
62.32284200004048
  0
VERTEX
  8
0
  6
CONTINUOUS
 62
     7
 10
475.8723193037247
 20
62.34426775721992
  0
VERTEX
  8
0
  6
CONTINUOUS
 62
     7
 10
475.8605832585357
 20
62.36515529269659
  0
VERTEX
  8
0
  6
CONTINUOUS
 62
     7
 10
475.8478600937997
 20
62.38545664669263
  0
VERTEX
  8
0
  6
CONTINUOUS
 62
     7
 10
475.8341790231194
 20
62.40512520535886
  0
VERTEX
  8
0
  6
CONTINUOUS
 62
     7
 10
475.8195714595403
 20
62.42411580780465
  0
VERTEX
  8
0
  6
CONTINUOUS
 62
     7
 10
475.8040709434249
 20
62.44238484979169
  0
VERTEX
  8
0
  6
CONTINUOUS
 62
     7
 10
475.7877130654396
 20
62.45989038385339
  0
VERTEX
  8
0
  6
CONTINUOUS
 62
     7
 10
475.7705353848357
 20
62.4765922156104
  0
VERTEX
  8
0
  6
CONTINUOUS
 62
     7
 10
475.7525773432097
 20
62.49245199606063
  0
VERTEX
  8
0
  6
CONTINUOUS
 62
     7
 10
475.7338801739417
 20
62.50743330963229
  0
VERTEX
  8
0
  6
CONTINUOUS
 62
     7
 10
475.7144868075194
 20
62.52150175779752
  0
VERTEX
  8
0
  6
CONTINUOUS
 62
     7
 10
475.6944417729657
 20
62.53462503805466
  0
VERTEX
  8
0
  6
CONTINUOUS
 62
     7
 10
475.6737910955957
 20
62.54677301809794
  0
VERTEX
  8
0
  6
CONTINUOUS
 62
     7
 10
475.6525821913386
 20
62.55791780500402
  0
VERTEX
  8
0
  6
CONTINUOUS
 62
     7
 10
475.6308637578657
 20
62.56803380927703
  0
VERTEX
  8
0
  6
CONTINUOUS
 62
     7
 10
475.608685662776
 20
62.57709780360421
  0
VERTEX
  8
0
  6
CONTINUOUS
 62
     7
 10
475.5860988290958
 20
62.58508897618827
  0
VERTEX
  8
0
  6
CONTINUOUS
 62
     7
 10
475.5631551183538
 20
62.59198897853316
  0
VERTEX
  8
0
  6
CONTINUOUS
 62
     7
 10
475.5399072115031
 20
62.59778196757399
  0
SEQEND
  8
0
  6
CONTINUOUS
 62
     7
  0
LINE
  8
0
  6
CONTINUOUS
 62
     7
 10
475.5399072115031
 20
62.59778196757399
 11
470.0395031992245
 21
63.82921570166622
  0
ARC
  8
0
  6
CONTINUOUS
 62
     7
 10
468.9471414749709
 20
58.95000000000005
 40
5.0
 50
77.38067770656897
 51
90.0
  0
LINE
  8
0
  6
CONTINUOUS
 62
     7
 10
401.9528585250292
 20
63.95000000000006
 11
468.9471414749709
 21
63.95000000000006
  0
ARC
  8
0
  6
CONTINUOUS
 62
     7
 10
401.9528585250292
 20
58.95000000000005
 40
5.0
 50
90.0
 51
102.619322293431
  0
LINE
  8
0
  6
CONTINUOUS
 62
     7
 10
400.8604968007755
 20
63.82921570166622
 11
395.360092788497
 21
62.59778196757399
  0
POLYLINE
  8
0
  6
CONTINUOUS
 62
     7
 66
     1
  0
VERTEX
  8
0
  6
CONTINUOUS
 62
     7
 10
395.360092788497
 20
62.59778196757399
  0
VERTEX
  8
0
  6
CONTINUOUS
 62
     7
 10
395.3368448816462
 20
62.59198897853316
  0
VERTEX
  8
0
  6
CONTINUOUS
 62
     7
 10
395.3139011709043
 20
62.58508897618827
  0
VERTEX
  8
0
  6
CONTINUOUS
 62
     7
 10
395.291314337224
 20
62.57709780360421
  0
VERTEX
  8
0
  6
CONTINUOUS
 62
     7
 10
395.2691362421343
 20
62.56803380927703
  0
VERTEX
  8
0
  6
CONTINUOUS
 62
     7
 10
395.2474178086614
 20
62.55791780500402
  0
VERTEX
  8
0
  6
CONTINUOUS
 62
     7
 10
395.2262089044044
 20
62.54677301809792
  0
VERTEX
  8
0
  6
CONTINUOUS
 62
     7
 10
395.2055582270344
 20
62.53462503805466
  0
VERTEX
  8
0
  6
CONTINUOUS
 62
     7
 10
395.1855131924806
 20
62.52150175779752
  0
VERTEX
  8
0
  6
CONTINUOUS
 62
     7
 10
395.1661198260583
 20
62.50743330963229
  0
VERTEX
  8
0
  6
CONTINUOUS
 62
     7
 10
395.1474226567902
 20
62.49245199606062
  0
VERTEX
  8
0
  6
CONTINUOUS
 62
     7
 10
395.1294646151644
 20
62.4765922156104
  0
VERTEX
  8
0
  6
CONTINUOUS
 62
     7
 10
395.1122869345605
 20
62.45989038385339
  0
VERTEX
  8
0
  6
CONTINUOUS
 62
     7
 10
395.0959290565751
 20
62.44238484979169
  0
VERTEX
  8
0
  6
CONTINUOUS
 62
     7
 10
395.0804285404596
 20
62.42411580780465
  0
VERTEX
  8
0
  6
CONTINUOUS
 62
     7
 10
395.0658209768806
 20
62.40512520535886
  0
VERTEX
  8
0
  6
CONTINUOUS
 62
     7
 10
395.0521399062002
 20
62.38545664669263
  0
VERTEX
  8
0
  6
CONTINUOUS
 62
     7
 10
395.0394167414644
 20
62.36515529269659
  0
VERTEX
  8
0
  6
CONTINUOUS
 62
     7
 10
395.0276806962753
 20
62.34426775721991
  0
VERTEX
  8
0
  6
CONTINUOUS
 62
     7
 10
395.0169587177146
 20
62.32284200004048
  0
VERTEX
  8
0
  6
CONTINUOUS
 62
     7
 10
395.0072754244698
 20
62.30092721674465
  0
VERTEX
  8
0
  6
CONTINUOUS
 62
     7
 10
394.9986530503076
 20
62.27857372576948
  0
VERTEX
  8
0
  6
CONTINUOUS
 62
     7
 10
394.9911113930235
 20
62.25583285286678
  0
VERTEX
  8
0
  6
CONTINUOUS
 62
     7
 10
394.9846677689831
 20
62.23275681325433
  0
VERTEX
  8
0
  6
CONTINUOUS
 62
     7
 10
394.9793369733633
 20
62.20939859172466
  0
VERTEX
  8
0
  6
CONTINUOUS
 62
     7
 10
394.9751312461803
 20
62.18581182098699
  0
VERTEX
  8
0
  6
CONTINUOUS
 62
     7
 10
394.9720602441857
 20
62.16205065852136
  0
VERTEX
  8
0
  6
CONTINUOUS
 62
     7
 10
394.9701310186937
 20
62.13816966222787
  0
VERTEX
  8
0
  6
CONTINUOUS
 62
     7
 10
394.9693479993903
 20
62.11422366515656
  0
SEQEND
  8
0
  6
CONTINUOUS
 62
     7
  0
LINE
  8
0
  6
CONTINUOUS
 62
     7
 10
394.9693479993903
 20
62.11422366515656
 11
394.7
 21
31.25000000000005
  0
LINE
  8
0
  6
CONTINUOUS
 62
     7
 10
393.0163526336412
 20
31.25000000000005
 11
394.7
 21
31.25000000000005
  0
LINE
  8
0
  6
CONTINUOUS
 62
     7
 10
392.5247025457344
 20
31.25000000000005
 11
393.0163526336412
 21
31.25000000000005
  0
LINE
  8
0
  6
CONTINUOUS
 62
     7
 10
477.8836473663588
 20
31.25000000000005
 11
478.3752974542656
 21
31.25000000000005
  0
LINE
  8
0
  6
CONTINUOUS
 62
     7
 10
392.4779551560282
 20
64.36102871315691
 11
391.9
 21
31.25000000000005
  0
LINE
  8
0
  6
CONTINUOUS
 62
     7
 10
392.4779551560282
 20
64.36102871315691
 11
392.4781119482759
 21
64.36756325717447
  0
LINE
  8
0
  6
CONTINUOUS
 62
     7
 10
391.9
 20
31.25000000000005
 11
392.5247025457344
 21
31.25000000000005
  0
LINE
  8
0
  6
CONTINUOUS
 62
     7
 10
478.4218880517241
 20
64.36756325717447
 11
478.4220448439718
 21
64.3610287131569
  0
LINE
  8
0
  6
CONTINUOUS
 62
     7
 10
479.0
 20
31.25000000000005
 11
478.4220448439718
 21
64.36102871315691
  0
LINE
  8
0
  6
CONTINUOUS
 62
     7
 10
478.3752974542656
 20
31.25000000000005
 11
479.0
 21
31.25000000000005
  0
POLYLINE
  8
0
  6
CONTINUOUS
 62
     7
 66
     1
  0
VERTEX
  8
0
  6
CONTINUOUS
 62
     7
 10
392.4781119482759
 20
64.36756325717447
  0
VERTEX
  8
0
  6
CONTINUOUS
 62
     7
 10
392.4794249276601
 20
64.39148416429722
  0
VERTEX
  8
0
  6
CONTINUOUS
 62
     7
 10
392.4818944550603
 20
64.41537361389635
  0
VERTEX
  8
0
  6
CONTINUOUS
 62
     7
 10
392.4855066831209
 20
64.43914978332201
  0
VERTEX
  8
0
  6
CONTINUOUS
 62
     7
 10
392.4902477644862
 20
64.46273084992427
  0
VERTEX
  8
0
  6
CONTINUOUS
 62
     7
 10
392.4961038518009
 20
64.48603499105329
  0
VERTEX
  8
0
  6
CONTINUOUS
 62
     7
 10
392.5030610977089
 20
64.5089803840592
  0
VERTEX
  8
0
  6
CONTINUOUS
 62
     7
 10
392.5099350650233
 20
64.52844677324447
  0
VERTEX
  8
0
  6
CONTINUOUS
 62
     7
 10
392.51761420806
 20
64.54763133558517
  0
VERTEX
  8
0
  6
CONTINUOUS
 62
     7
 10
392.5260779012514
 20
64.56648489797864
  0
VERTEX
  8
0
  6
CONTINUOUS
 62
     7
 10
392.5353055190303
 20
64.58495828732238
  0
VERTEX
  8
0
  6
CONTINUOUS
 62
     7
 10
392.5455925580966
 20
64.60355247917998
  0
VERTEX
  8
0
  6
CONTINUOUS
 62
     7
 10
392.5566709091771
 20
64.62170999677164
  0
VERTEX
  8
0
  6
CONTINUOUS
 62
     7
 10
392.5685091929249
 20
64.63938172576027
  0
VERTEX
  8
0
  6
CONTINUOUS
 62
     7
 10
392.5810760299928
 20
64.65651855180882
  0
VERTEX
  8
0
  6
CONTINUOUS
 62
     7
 10
392.5940121934575
 20
64.67268442861338
  0
VERTEX
  8
0
  6
CONTINUOUS
 62
     7
 10
392.6076175705177
 20
64.68831359684631
  0
VERTEX
  8
0
  6
CONTINUOUS
 62
     7
 10
392.6218557585401
 20
64.7033662512406
  0
VERTEX
  8
0
  6
CONTINUOUS
 62
     7
 10
392.6366903548913
 20
64.71780258652917
  0
VERTEX
  8
0
  6
CONTINUOUS
 62
     7
 10
392.6525690769107
 20
64.73200180073978
  0
VERTEX
  8
0
  6
CONTINUOUS
 62
     7
 10
392.6690507176446
 20
64.74552218087673
  0
VERTEX
  8
0
  6
CONTINUOUS
 62
     7
 10
392.6860888141402
 20
64.75832785953229
  0
VERTEX
  8
0
  6
CONTINUOUS
 62
     7
 10
392.7036369034448
 20
64.7703829692986
  0
VERTEX
  8
0
  6
CONTINUOUS
 62
     7
 10
392.7211603318872
 20
64.78136409127532
  0
VERTEX
  8
0
  6
CONTINUOUS
 62
     7
 10
392.7391339328603
 20
64.79161765550523
  0
VERTEX
  8
0
  6
CONTINUOUS
 62
     7
 10
392.7575102641534
 20
64.80111865803511
  0
VERTEX
  8
0
  6
CONTINUOUS
 62
     7
 10
392.7762418835558
 20
64.80984209491176
  0
VERTEX
  8
0
  6
CONTINUOUS
 62
     7
 10
392.7958709902369
 20
64.81799683962812
  0
VERTEX
  8
0
  6
CONTINUOUS
 62
     7
 10
392.8158402385083
 20
64.82531424733689
  0
VERTEX
  8
0
  6
CONTINUOUS
 62
     7
 10
392.836094287132
 20
64.83177640753887
  0
VERTEX
  8
0
  6
CONTINUOUS
 62
     7
 10
392.8565777948704
 20
64.83736540973494
  0
SEQEND
  8
0
  6
CONTINUOUS
 62
     7
  0
POLYLINE
  8
0
  6
CONTINUOUS
 62
     7
 66
     1
  0
VERTEX
  8
0
  6
CONTINUOUS
 62
     7
 10
478.0434222051297
 20
64.83736540973494
  0
VERTEX
  8
0
  6
CONTINUOUS
 62
     7
 10
478.0605912972417
 20
64.8327459233915
  0
VERTEX
  8
0
  6
CONTINUOUS
 62
     7
 10
478.0775909365738
 20
64.82751730105949
  0
VERTEX
  8
0
  6
CONTINUOUS
 62
     7
 10
478.1001822240912
 20
64.81952071124837
  0
VERTEX
  8
0
  6
CONTINUOUS
 62
     7
 10
478.1223862702578
 20
64.81044273849473
  0
VERTEX
  8
0
  6
CONTINUOUS
 62
     7
 10
478.1441252275932
 20
64.80031380592249
  0
VERTEX
  8
0
  6
CONTINUOUS
 62
     7
 10
478.1602721121492
 20
64.79194319729548
  0
VERTEX
  8
0
  6
CONTINUOUS
 62
     7
 10
478.1761076883836
 20
64.78298889269487
  0
VERTEX
  8
0
  6
CONTINUOUS
 62
     7
 10
478.192216196221
 20
64.77307329965484
  0
VERTEX
  8
0
  6
CONTINUOUS
 62
     7
 10
478.2079472816264
 20
64.76254976370038
  0
VERTEX
  8
0
  6
CONTINUOUS
 62
     7
 10
478.2232665161794
 20
64.75144080165293
  0
VERTEX
  8
0
  6
CONTINUOUS
 62
     7
 10
478.2370121137399
 20
64.7406878895135
  0
VERTEX
  8
0
  6
CONTINUOUS
 62
     7
 10
478.2503802436991
 20
64.72945696829498
  0
VERTEX
  8
0
  6
CONTINUOUS
 62
     7
 10
478.2633460040304
 20
64.71776864265546
  0
VERTEX
  8
0
  6
CONTINUOUS
 62
     7
 10
478.2773233698198
 20
64.7041983495461
  0
VERTEX
  8
0
  6
CONTINUOUS
 62
     7
 10
478.2907682951992
 20
64.69008731888428
  0
VERTEX
  8
0
  6
CONTINUOUS
 62
     7
 10
478.3036496208687
 20
64.67546796091672
  0
VERTEX
  8
0
  6
CONTINUOUS
 62
     7
 10
478.3156438265645
 20
64.6607490183034
  0
VERTEX
  8
0
  6
CONTINUOUS
 62
     7
 10
478.3270754567384
 20
64.64557942933219
  0
VERTEX
  8
0
  6
CONTINUOUS
 62
     7
 10
478.337919427516
 20
64.62999238133466
  0
VERTEX
  8
0
  6
CONTINUOUS
 62
     7
 10
478.3505650621973
 20
64.61005309509315
  0
VERTEX
  8
0
  6
CONTINUOUS
 62
     7
 10
478.3622555161419
 20
64.58953995328534
  0
VERTEX
  8
0
  6
CONTINUOUS
 62
     7
 10
478.3719470637299
 20
64.57060573950717
  0
VERTEX
  8
0
  6
CONTINUOUS
 62
     7
 10
478.3808243419768
 20
64.5512779877006
  0
VERTEX
  8
0
  6
CONTINUOUS
 62
     7
 10
478.3889160454774
 20
64.53147388642135
  0
VERTEX
  8
0
  6
CONTINUOUS
 62
     7
 10
478.3953795260808
 20
64.51362776228292
  0
VERTEX
  8
0
  6
CONTINUOUS
 62
     7
 10
478.4011629212368
 20
64.49554463764953
  0
VERTEX
  8
0
  6
CONTINUOUS
 62
     7
 10
478.4062538706716
 20
64.47726394416226
  0
VERTEX
  8
0
  6
CONTINUOUS
 62
     7
 10
478.4116090177936
 20
64.45428860849802
  0
VERTEX
  8
0
  6
CONTINUOUS
 62
     7
 10
478.4158744731462
 20
64.43109022595162
  0
VERTEX
  8
0
  6
CONTINUOUS
 62
     7
 10
478.4187754766318
 20
64.4100443747244
  0
VERTEX
  8
0
  6
CONTINUOUS
 62
     7
 10
478.4207799916898
 20
64.38889767915845
  0
VERTEX
  8
0
  6
CONTINUOUS
 62
     7
 10
478.4218880517241
 20
64.36756325717447
  0
SEQEND
  8
0
  6
CONTINUOUS
 62
     7
  0
LINE
  8
0
  6
CONTINUOUS
 62
     7
 10
392.8565777948704
 20
64.83736540973494
 11
392.8638197264302
 21
64.839119191339
  0
LINE
  8
0
  6
CONTINUOUS
 62
     7
 10
400.456977259624
 20
66.61816681400751
 11
392.8638197264302
 21
64.839119191339
  0
ARC
  8
0
  6
CONTINUOUS
 62
     7
 10
401.5975700313863
 20
61.75000000000005
 40
5.000000000000006
 50
103.0568577187553
 51
103.1863284423272
  0
ARC
  8
0
  6
CONTINUOUS
 62
     7
 10
469.3024299686137
 20
61.75000000000005
 40
5.000000000000007
 50
76.81367155767276
 51
76.94314228124597
  0
LINE
  8
0
  6
CONTINUOUS
 62
     7
 10
478.0361802735699
 20
64.839119191339
 11
470.443022740376
 21
66.61816681400751
  0
LINE
  8
0
  6
CONTINUOUS
 62
     7
 10
478.0361802735699
 20
64.839119191339
 11
478.0434222051297
 21
64.83736540973494
  0
LINE
  8
0
  6
CONTINUOUS
 62
     7
 10
401.5862740623471
 20
66.74998724009212
 11
400.4679807121789
 21
66.62073176945036
  0
LINE
  8
0
  6
CONTINUOUS
 62
     7
 10
469.3137259376529
 20
66.74998724009212
 11
470.4320192878211
 21
66.62073176945036
  0
ARC
  8
0
  6
CONTINUOUS
 62
     7
 10
401.5975700313863
 20
61.75000000000005
 40
5.000000000000006
 50
90.0
 51
90.12944238040289
  0
LINE
  8
0
  6
CONTINUOUS
 62
     7
 10
469.3024299686136
 20
66.75000000000006
 11
401.5975700313863
 21
66.75000000000006
  0
ARC
  8
0
  6
CONTINUOUS
 62
     7
 10
469.3024299686137
 20
61.75000000000005
 40
5.000000000000006
 50
89.87055761959772
 51
90.00000000000063
  0
LINE
  8
0
  6
CONTINUOUS
 62
     7
 10
396.7
 20
31.25000000000005
 11
396.9767264894902
 21
62.95971488570681
  0
LINE
  8
0
  6
CONTINUOUS
 62
     7
 10
396.2000190384679
 20
31.25000000000005
 11
396.7
 21
31.25000000000005
  0
LINE
  8
0
  6
CONTINUOUS
 62
     7
 10
473.9232735105098
 20
62.95971488570681
 11
474.2
 21
31.25000000000005
  0
LINE
  8
0
  6
CONTINUOUS
 62
     7
 10
474.2
 20
31.25000000000005
 11
474.6999809615321
 21
31.25000000000005
  0
LINE
  8
0
  6
CONTINUOUS
 62
     7
 10
396.2000190384679
 20
31.25000000000005
 11
394.7836688259825
 21
31.25000000000005
  0
LINE
  8
0
  6
CONTINUOUS
 62
     7
 10
476.1163311740174
 20
31.25000000000005
 11
474.6999809615321
 21
31.25000000000005
  0
LINE
  8
0
  6
CONTINUOUS
 62
     7
 10
398.1934560576312
 20
19.04127346450169
 11
398.5798586512275
 21
63.31862507117039
  0
LINE
  8
0
  6
CONTINUOUS
 62
     7
 10
472.3201413487725
 20
63.31862507117039
 11
472.7065439423688
 21
19.04127346450168
  0
ARC
  8
0
  6
CONTINUOUS
 62
     7
 10
397.193494134567
 20
19.05000000000007
 40
1.000000000000001
 50
270.0
 51
359.4999999999995
  0
LINE
  8
0
  6
CONTINUOUS
 62
     7
 10
396.8548503585422
 20
18.05000000000006
 11
397.193494134567
 21
18.05000000000006
  0
LINE
  8
0
  6
CONTINUOUS
 62
     7
 10
473.706505865433
 20
18.05000000000006
 11
474.0451496414578
 21
18.05000000000006
  0
ARC
  8
0
  6
CONTINUOUS
 62
     7
 10
473.706505865433
 20
19.05000000000006
 40
1.000000000000003
 50
180.5000000000001
 51
270.0
  0
LINE
  8
0
  6
CONTINUOUS
 62
     7
 10
398.1714310925978
 20
66.75000000000006
 11
401.5975700313863
 21
66.75000000000006
  0
LINE
  8
0
  6
CONTINUOUS
 62
     7
 10
391.9
 20
31.25000000000005
 11
391.3142135623731
 21
31.25000000000005
  0
LINE
  8
0
  6
CONTINUOUS
 62
     9
 10
371.8944624476762
 20
64.36102871315694
 11
371.4857864376269
 21
31.25000000000005
  0
LINE
  8
0
  6
CONTINUOUS
 62
     7
 10
391.3142135623731
 20
31.25000000000005
 11
371.4857864376269
 21
31.25000000000005
  0
POLYLINE
  8
0
  6
CONTINUOUS
 62
     9
 66
     1
  0
VERTEX
  8
0
  6
CONTINUOUS
 62
     9
 10
372.1673099020271
 20
64.83911919133904
  0
VERTEX
  8
0
  6
CONTINUOUS
 62
     9
 10
372.1040638741052
 20
64.80901540034937
  0
VERTEX
  8
0
  6
CONTINUOUS
 62
     9
 10
372.0459442789281
 20
64.76264101474011
  0
VERTEX
  8
0
  6
CONTINUOUS
 62
     9
 10
371.9950216522578
 20
64.7016481420931
  0
VERTEX
  8
0
  6
CONTINUOUS
 62
     9
 10
371.9531101347347
 20
64.6282096799253
  0
VERTEX
  8
0
  6
CONTINUOUS
 62
     9
 10
371.9217028423315
 20
64.54494190527312
  0
VERTEX
  8
0
  6
CONTINUOUS
 62
     9
 10
371.9019186734489
 20
64.45481126868937
  0
VERTEX
  8
0
  6
CONTINUOUS
 62
     9
 10
371.8944624476762
 20
64.36102871315694
  0
SEQEND
  8
0
  6
CONTINUOUS
 62
     9
  0
LINE
  8
0
  6
CONTINUOUS
 62
     9
 10
377.5364830843661
 20
66.61816681400751
 11
372.1673099020271
 21
64.839119191339
  0
LINE
  8
0
  6
CONTINUOUS
 62
     9
 10
378.3430039678516
 20
66.75000000000006
 11
377.5364830843661
 21
66.61816681400751
  0
LINE
  8
0
  6
CONTINUOUS
 62
     7
 10
378.3430039678516
 20
66.75000000000006
 11
398.1714310925978
 21
66.75000000000006
  0
LINE
  8
0
  6
CONTINUOUS
 62
     7
 10
370.0715728752538
 20
31.25000000000005
 11
371.4857864376269
 21
31.25000000000005
  0
LINE
  8
0
  6
CONTINUOUS
 62
     7
 10
352.5
 20
32.25000000000006
 11
350.5
 21
32.25000000000006
  0
LINE
  8
0
  6
CONTINUOUS
 62
     7
 10
352.5
 20
32.25000000000006
 11
352.3571428571429
 21
33.25000000000006
  0
LINE
  8
0
  6
CONTINUOUS
 62
     7
 10
352.3571428571429
 20
33.25000000000006
 11
352.2142857142857
 21
34.25000000000006
  0
LINE
  8
0
  6
CONTINUOUS
 62
     7
 10
352.2142857142857
 20
34.25000000000006
 11
352.0714285714286
 21
35.25000000000006
  0
LINE
  8
0
  6
CONTINUOUS
 62
     7
 10
352.0714285714286
 20
35.25000000000006
 11
351.9285714285714
 21
36.25000000000006
  0
LINE
  8
0
  6
CONTINUOUS
 62
     7
 10
351.9285714285714
 20
36.25000000000006
 11
351.7857142857143
 21
37.25000000000006
  0
LINE
  8
0
  6
CONTINUOUS
 62
     7
 10
351.7857142857143
 20
37.25000000000006
 11
351.6428571428571
 21
38.25000000000007
  0
LINE
  8
0
  6
CONTINUOUS
 62
     7
 10
351.6428571428571
 20
38.25000000000007
 11
351.6226540919661
 21
38.39142135623737
  0
ARC
  8
0
  6
CONTINUOUS
 62
     7
 10
350.6327045983049
 20
38.25000000000007
 40
1.0
 50
8.130102354155916
 51
90.00000000000006
  0
LINE
  8
0
  6
CONTINUOUS
 62
     7
 10
342.3672954016951
 20
39.25000000000007
 11
350.6327045983049
 21
39.25000000000007
  0
ARC
  8
0
  6
CONTINUOUS
 62
     7
 10
342.3672954016951
 20
38.25000000000007
 40
1.0
 50
90.0
 51
171.8698976458438
  0
LINE
  8
0
  6
CONTINUOUS
 62
     7
 10
341.3773459080339
 20
38.39142135623737
 11
341.3571428571428
 21
38.25000000000006
  0
LINE
  8
0
  6
CONTINUOUS
 62
     7
 10
341.3571428571428
 20
38.25000000000006
 11
341.2142857142857
 21
37.25000000000006
  0
LINE
  8
0
  6
CONTINUOUS
 62
     7
 10
341.2142857142857
 20
37.25000000000006
 11
341.0714285714286
 21
36.25000000000006
  0
LINE
  8
0
  6
CONTINUOUS
 62
     7
 10
341.0714285714286
 20
36.25000000000006
 11
340.9285714285714
 21
35.25000000000006
  0
LINE
  8
0
  6
CONTINUOUS
 62
     7
 10
340.9285714285714
 20
35.25000000000006
 11
340.7857142857143
 21
34.25000000000007
  0
LINE
  8
0
  6
CONTINUOUS
 62
     7
 10
340.7857142857143
 20
34.25000000000007
 11
340.6428571428571
 21
33.25000000000007
  0
LINE
  8
0
  6
CONTINUOUS
 62
     7
 10
340.6428571428571
 20
33.25000000000007
 11
340.5
 21
32.25000000000006
  0
LINE
  8
0
  6
CONTINUOUS
 62
     7
 10
342.5
 20
32.25000000000006
 11
340.5
 21
32.25000000000006
  0
LINE
  8
0
  6
CONTINUOUS
 62
     7
 10
342.5
 20
31.25000000000007
 11
342.5
 21
32.25000000000006
  0
LINE
  8
0
  6
CONTINUOUS
 62
     7
 10
325.3785338262996
 20
64.36102871315691
 11
324.8005786702715
 21
31.25000000000005
  0
LINE
  8
0
  6
CONTINUOUS
 62
     7
 10
350.5
 20
31.25000000000007
 11
350.5
 21
32.25000000000006
  0
LINE
  8
0
  6
CONTINUOUS
 62
     7
 10
342.5
 20
31.25000000000007
 11
324.8005786702715
 21
31.25000000000005
  0
LINE
  8
0
  6
CONTINUOUS
 62
     7
 10
370.0715728752538
 20
31.25000000000005
 11
350.5
 21
31.25000000000007
  0
LINE
  8
0
  6
CONTINUOUS
 62
     7
 10
325.3785338262996
 20
64.3610287131569
 11
325.3784159169632
 21
64.36756325717445
  0
LINE
  8
0
  6
CONTINUOUS
 62
     7
 10
324.8005786702715
 20
31.25000000000005
 11
321.4093362791417
 21
31.25000000000005
  0
LINE
  8
0
  6
CONTINUOUS
 62
     7
 10
350.5
 20
32.25000000000006
 11
350.5
 21
33.25000000000006
  0
LINE
  8
0
  6
CONTINUOUS
 62
     7
 10
342.5
 20
32.25000000000006
 11
342.5
 21
33.25000000000006
  0
LINE
  8
0
  6
CONTINUOUS
 62
     7
 10
352.3571428571429
 20
33.25000000000006
 11
340.6428571428571
 21
33.25000000000007
  0
LINE
  8
0
  6
CONTINUOUS
 62
     7
 10
352.2142857142857
 20
34.25000000000006
 11
340.7857142857143
 21
34.25000000000007
  0
LINE
  8
0
  6
CONTINUOUS
 62
     7
 10
352.0714285714286
 20
35.25000000000006
 11
340.9285714285714
 21
35.25000000000006
  0
LINE
  8
0
  6
CONTINUOUS
 62
     7
 10
351.9285714285714
 20
36.25000000000006
 11
341.0714285714286
 21
36.25000000000006
  0
LINE
  8
0
  6
CONTINUOUS
 62
     7
 10
351.7857142857143
 20
37.25000000000006
 11
341.2142857142857
 21
37.25000000000006
  0
LINE
  8
0
  6
CONTINUOUS
 62
     7
 10
351.6428571428571
 20
38.25000000000007
 11
341.3571428571428
 21
38.25000000000006
  0
LINE
  8
0
  6
CONTINUOUS
 62
     7
 10
325.3784159169633
 20
64.36756325717447
 11
325.3859983208529
 21
64.83736540973494
  0
LINE
  8
0
  6
CONTINUOUS
 62
     7
 10
325.3859983208529
 20
64.83736540973494
 11
325.3863303806023
 21
64.83911919133901
  0
LINE
  8
0
  6
CONTINUOUS
 62
     7
 10
321.0
 20
31.25000000000005
 11
321.5693662607916
 21
63.86897123460216
  0
LINE
  8
0
  6
CONTINUOUS
 62
     7
 10
321.4093362791417
 20
31.25000000000005
 11
321.0
 21
31.25000000000005
  0
LINE
  8
0
  6
CONTINUOUS
 62
     7
 10
325.4173837723663
 20
66.61816681400751
 11
325.4173592348647
 21
66.62073176945034
  0
LINE
  8
0
  6
CONTINUOUS
 62
     7
 10
325.4173837723663
 20
66.61816681400751
 11
325.3863303806023
 21
64.839119191339
  0
LINE
  8
0
  6
CONTINUOUS
 62
     7
 10
321.5693662607916
 20
63.86897123460216
 11
321.5982655804702
 21
65.52461215014146
  0
LINE
  8
0
  6
CONTINUOUS
 62
     7
 10
378.3430039678516
 20
66.75000000000006
 11
370.0715728752538
 21
66.75000000000006
  0
LINE
  8
0
  6
CONTINUOUS
 62
     7
 10
325.4195853036036
 20
66.74998724009212
 11
325.4173592348647
 21
66.62073176945036
  0
POLYLINE
  8
0
  6
CONTINUOUS
 62
     7
 10
0.0
 20
0.0
 30
0.0
 66
     1
 70
     8
  0
VERTEX
  8
0
  6
CONTINUOUS
 62
     7
 10
325.4195853036036
 20
66.74998724009212
 30
0.0
 70
    32
  0
VERTEX
  8
0
  6
CONTINUOUS
 62
     7
 10
325.4196548049518
 20
66.75000000000006
 30
0.0
 70
    32
  0
SEQEND
  8
0
  6
CONTINUOUS
 62
     7
  0
LINE
  8
0
  6
CONTINUOUS
 62
     7
 10
325.4196548049517
 20
66.75000000000006
 11
370.0715728752538
 21
66.75000000000006
  0
LINE
  8
0
  6
CONTINUOUS
 62
     7
 10
322.0099329467097
 20
66.124001538669
 11
325.4195853036036
 21
66.74998724009212
  0
ARC
  8
0
  6
CONTINUOUS
 62
     7
 10
322.1002200614919
 20
65.63222085899129
 40
0.4999999999999916
 50
100.4032088313055
 51
179.0000000000005
  0
LINE
  8
0
  6
CONTINUOUS
 62
     7
 10
321.5982655804702
 20
65.52461215014146
 11
321.6002962139138
 21
65.64094706220993
  0
POLYLINE
  8
0
  6
CONTINUOUS
 62
     7
 66
     1
  0
VERTEX
  8
0
  6
CONTINUOUS
 62
     7
 10
454.0148971926349
 20
59.45436326774926
  0
VERTEX
  8
0
  6
CONTINUOUS
 62
     7
 10
454.0153183614007
 20
59.47875478788744
  0
VERTEX
  8
0
  6
CONTINUOUS
 62
     7
 10
454.0165808643061
 20
59.5030778026303
  0
VERTEX
  8
0
  6
CONTINUOUS
 62
     7
 10
454.0186816935645
 20
59.52727436483714
  0
VERTEX
  8
0
  6
CONTINUOUS
 62
     7
 10
454.0216158441611
 20
59.55128682862771
  0
VERTEX
  8
0
  6
CONTINUOUS
 62
     7
 10
454.0253763257768
 20
59.57505798671775
  0
VERTEX
  8
0
  6
CONTINUOUS
 62
     7
 10
454.0299541794415
 20
59.59853120670963
  0
VERTEX
  8
0
  6
CONTINUOUS
 62
     7
 10
454.0353384988786
 20
59.62165056601329
  0
VERTEX
  8
0
  6
CONTINUOUS
 62
     7
 10
454.0415164564876
 20
59.64436098507627
  0
VERTEX
  8
0
  6
CONTINUOUS
 62
     7
 10
454.0484733339045
 20
59.66660835860516
  0
VERTEX
  8
0
  6
CONTINUOUS
 62
     7
 10
454.0561925570676
 20
59.68833968446604
  0
VERTEX
  8
0
  6
CONTINUOUS
 62
     7
 10
454.0646557357025
 20
59.70950318995678
  0
VERTEX
  8
0
  6
CONTINUOUS
 62
     7
 10
454.0738427071359
 20
59.73004845515023
  0
VERTEX
  8
0
  6
CONTINUOUS
 62
     7
 10
454.0837315843305
 20
59.74992653301472
  0
VERTEX
  8
0
  6
CONTINUOUS
 62
     7
 10
454.0942988080293
 20
59.76909006602541
  0
VERTEX
  8
0
  6
CONTINUOUS
 62
     7
 10
454.1055192028826
 20
59.7874933989888
  0
VERTEX
  8
0
  6
CONTINUOUS
 62
     7
 10
454.1173660374264
 20
59.80509268781172
  0
VERTEX
  8
0
  6
CONTINUOUS
 62
     7
 10
454.1298110877665
 20
59.82184600395541
  0
VERTEX
  8
0
  6
CONTINUOUS
 62
     7
 10
454.14282470482
 20
59.83771343432614
  0
VERTEX
  8
0
  6
CONTINUOUS
 62
     7
 10
454.1563758849508
 20
59.85265717636403
  0
VERTEX
  8
0
  6
CONTINUOUS
 62
     7
 10
454.1704323438327
 20
59.86664162810395
  0
VERTEX
  8
0
  6
CONTINUOUS
 62
     7
 10
454.1849605933634
 20
59.87963347299362
  0
VERTEX
  8
0
  6
CONTINUOUS
 62
     7
 10
454.1999260214473
 20
59.89160175926688
  0
VERTEX
  8
0
  6
CONTINUOUS
 62
     7
 10
454.2152929744541
 20
59.90251797368325
  0
VERTEX
  8
0
  6
CONTINUOUS
 62
     7
 10
454.2310248421613
 20
59.91235610945782
  0
VERTEX
  8
0
  6
CONTINUOUS
 62
     7
 10
454.2470841449734
 20
59.92109272821981
  0
VERTEX
  8
0
  6
CONTINUOUS
 62
     7
 10
454.2634326232136
 20
59.92870701585211
  0
VERTEX
  8
0
  6
CONTINUOUS
 62
     7
 10
454.280031328274
 20
59.93518083207889
  0
VERTEX
  8
0
  6
CONTINUOUS
 62
     7
 10
454.2968407154061
 20
59.94049875368293
  0
VERTEX
  8
0
  6
CONTINUOUS
 62
     7
 10
454.3138207379326
 20
59.94464811124988
  0
VERTEX
  8
0
  6
CONTINUOUS
 62
     7
 10
454.3309309426546
 20
59.94761901935193
  0
VERTEX
  8
0
  6
CONTINUOUS
 62
     7
 10
454.3481305662272
 20
59.94940440009879
  0
VERTEX
  8
0
  6
CONTINUOUS
 62
     7
 10
454.3653786322739
 20
59.95000000000007
  0
SEQEND
  8
0
  6
CONTINUOUS
 62
     7
  0
LINE
  8
0
  6
CONTINUOUS
 62
     7
 10
454.0148971926349
 20
59.45436326774926
 11
454.0148971926349
 21
58.25000000000007
  0
LINE
  8
0
  6
CONTINUOUS
 62
     7
 10
459.6772163177905
 20
59.45436326774924
 11
460.0253048327205
 21
31.25000000000005
  0
POLYLINE
  8
0
  6
CONTINUOUS
 62
     7
 66
     1
  0
VERTEX
  8
0
  6
CONTINUOUS
 62
     7
 10
459.6772163177905
 20
59.45436326774924
  0
VERTEX
  8
0
  6
CONTINUOUS
 62
     7
 10
459.6764941173033
 20
59.47875478788742
  0
VERTEX
  8
0
  6
CONTINUOUS
 62
     7
 10
459.6749314281466
 20
59.50307780263029
  0
VERTEX
  8
0
  6
CONTINUOUS
 62
     7
 10
459.6725319732704
 20
59.52727436483713
  0
VERTEX
  8
0
  6
CONTINUOUS
 62
     7
 10
459.6693014691351
 20
59.5512868286277
  0
VERTEX
  8
0
  6
CONTINUOUS
 62
     7
 10
459.6652476120924
 20
59.57505798671774
  0
VERTEX
  8
0
  6
CONTINUOUS
 62
     7
 10
459.6603800600498
 20
59.59853120670962
  0
VERTEX
  8
0
  6
CONTINUOUS
 62
     7
 10
459.6547104094612
 20
59.62165056601328
  0
VERTEX
  8
0
  6
CONTINUOUS
 62
     7
 10
459.6482521677002
 20
59.64436098507625
  0
VERTEX
  8
0
  6
CONTINUOUS
 62
     7
 10
459.6410207208792
 20
59.66660835860514
  0
VERTEX
  8
0
  6
CONTINUOUS
 62
     7
 10
459.6330332971943
 20
59.68833968446602
  0
VERTEX
  8
0
  6
CONTINUOUS
 62
     7
 10
459.6243089258805
 20
59.70950318995676
  0
VERTEX
  8
0
  6
CONTINUOUS
 62
     7
 10
459.6148683918767
 20
59.73004845515022
  0
VERTEX
  8
0
  6
CONTINUOUS
 62
     7
 10
459.6047341863073
 20
59.74992653301471
  0
VERTEX
  8
0
  6
CONTINUOUS
 62
     7
 10
459.5939304528995
 20
59.7690900660254
  0
VERTEX
  8
0
  6
CONTINUOUS
 62
     7
 10
459.5824829304638
 20
59.78749339898879
  0
VERTEX
  8
0
  6
CONTINUOUS
 62
     7
 10
459.5704188915729
 20
59.80509268781171
  0
VERTEX
  8
0
  6
CONTINUOUS
 62
     7
 10
459.5577670775884
 20
59.8218460039554
  0
VERTEX
  8
0
  6
CONTINUOUS
 62
     7
 10
459.5445576301869
 20
59.83771343432613
  0
VERTEX
  8
0
  6
CONTINUOUS
 62
     7
 10
459.5308220195507
 20
59.85265717636401
  0
VERTEX
  8
0
  6
CONTINUOUS
 62
     7
 10
459.5165929693931
 20
59.86664162810393
  0
VERTEX
  8
0
  6
CONTINUOUS
 62
     7
 10
459.5019043789976
 20
59.8796334729936
  0
VERTEX
  8
0
  6
CONTINUOUS
 62
     7
 10
459.4867912424563
 20
59.89160175926687
  0
VERTEX
  8
0
  6
CONTINUOUS
 62
     7
 10
459.4712895652995
 20
59.90251797368324
  0
VERTEX
  8
0
  6
CONTINUOUS
 62
     7
 10
459.4554362787168
 20
59.91235610945781
  0
VERTEX
  8
0
  6
CONTINUOUS
 62
     7
 10
459.439269151572
 20
59.92109272821979
  0
VERTEX
  8
0
  6
CONTINUOUS
 62
     7
 10
459.4228267004223
 20
59.9287070158521
  0
VERTEX
  8
0
  6
CONTINUOUS
 62
     7
 10
459.4061480977569
 20
59.93518083207888
  0
VERTEX
  8
0
  6
CONTINUOUS
 62
     7
 10
459.3892730786721
 20
59.94049875368292
  0
VERTEX
  8
0
  6
CONTINUOUS
 62
     7
 10
459.372241846207
 20
59.94464811124987
  0
VERTEX
  8
0
  6
CONTINUOUS
 62
     7
 10
459.3550949755627
 20
59.94761901935192
  0
VERTEX
  8
0
  6
CONTINUOUS
 62
     7
 10
459.3378733174374
 20
59.94940440009878
  0
VERTEX
  8
0
  6
CONTINUOUS
 62
     7
 10
459.3206179007023
 20
59.95000000000005
  0
SEQEND
  8
0
  6
CONTINUOUS
 62
     7
  0
LINE
  8
0
  6
CONTINUOUS
 62
     7
 10
459.3206179007023
 20
59.95000000000005
 11
454.3653786322739
 21
59.95000000000007
  0
LINE
  8
0
  6
CONTINUOUS
 62
     7
 10
440.0369011664562
 20
31.25000000000005
 11
451.4854909539637
 21
31.25000000000005
  0
LINE
  8
0
  6
CONTINUOUS
 62
     7
 10
472.6
 20
31.25000000000004
 11
460.0253048327205
 21
31.25000000000005
  0
LINE
  8
0
  6
CONTINUOUS
 62
     7
 10
434.7336003075571
 20
31.25000000000005
 11
440.0369011664563
 21
31.25000000000005
  0
LINE
  8
0
  6
CONTINUOUS
 62
     7
 10
398.3
 20
31.25000000000005
 11
434.7336003075571
 21
31.25000000000005
  0
LINE
  8
0
  6
CONTINUOUS
 62
     7
 10
475.9556477018587
 20
3.250000000000065
 11
477.3949055483687
 21
3.250000000000065
  0
LINE
  8
0
  6
CONTINUOUS
 62
     7
 10
476.1999999999999
 20
31.25000000000006
 11
475.9556477018587
 21
3.250000000000069
  0
LINE
  8
0
  6
CONTINUOUS
 62
     7
 10
476.1999999999999
 20
31.25000000000006
 11
477.8836473663588
 21
31.25000000000006
  0
LINE
  8
0
  6
CONTINUOUS
 62
     7
 10
477.3949055483687
 20
3.250000000000065
 11
477.8865556362754
 21
3.250000000000065
  0
LINE
  8
0
  6
CONTINUOUS
 62
     7
 10
478.3752974542655
 20
31.25000000000006
 11
477.8836473663588
 21
31.25000000000006
  0
LINE
  8
0
  6
CONTINUOUS
 62
     7
 10
393.0163526336411
 20
31.25000000000006
 11
394.7
 21
31.25000000000006
  0
LINE
  8
0
  6
CONTINUOUS
 62
     7
 10
393.5050944516313
 20
3.250000000000065
 11
394.9443522981412
 21
3.250000000000065
  0
LINE
  8
0
  6
CONTINUOUS
 62
     7
 10
394.7
 20
31.25000000000006
 11
394.9443522981412
 21
3.250000000000069
  0
LINE
  8
0
  6
CONTINUOUS
 62
     7
 10
393.0134443637245
 20
3.250000000000065
 11
393.5050944516313
 21
3.250000000000065
  0
LINE
  8
0
  6
CONTINUOUS
 62
     7
 10
393.0163526336411
 20
31.25000000000006
 11
392.5247025457344
 21
31.25000000000006
  0
LINE
  8
0
  6
CONTINUOUS
 62
     7
 10
478.5112581820099
 20
3.250000000000065
 11
478.9999999999999
 21
31.25000000000006
  0
LINE
  8
0
  6
CONTINUOUS
 62
     7
 10
477.8865556362754
 20
3.250000000000065
 11
478.5112581820099
 21
3.250000000000065
  0
LINE
  8
0
  6
CONTINUOUS
 62
     7
 10
478.9999999999999
 20
31.25000000000006
 11
478.3752974542655
 21
31.25000000000006
  0
LINE
  8
0
  6
CONTINUOUS
 62
     7
 10
392.38874181799
 20
3.250000000000065
 11
393.0134443637244
 21
3.250000000000065
  0
LINE
  8
0
  6
CONTINUOUS
 62
     7
 10
391.9
 20
31.25000000000006
 11
392.38874181799
 21
3.250000000000065
  0
LINE
  8
0
  6
CONTINUOUS
 62
     7
 10
392.5247025457343
 20
31.25000000000006
 11
391.9
 21
31.25000000000006
  0
POLYLINE
  8
0
  6
CONTINUOUS
 62
     7
 66
     1
  0
VERTEX
  8
0
  6
CONTINUOUS
 62
     7
 10
435.2773502691896
 20
8.050000000000065
  0
VERTEX
  8
0
  6
CONTINUOUS
 62
     7
 10
435.1523502691896
 20
8.026281209488374
  0
VERTEX
  8
0
  6
CONTINUOUS
 62
     7
 10
435.0580391714269
 20
7.9750448244245
  0
VERTEX
  8
0
  6
CONTINUOUS
 62
     7
 10
434.9785319548697
 20
7.905641773805609
  0
VERTEX
  8
0
  6
CONTINUOUS
 62
     7
 10
434.908559020602
 20
7.819401744796403
  0
VERTEX
  8
0
  6
CONTINUOUS
 62
     7
 10
434.854246727741
 20
7.73040434474691
  0
VERTEX
  8
0
  6
CONTINUOUS
 62
     7
 10
434.796278292859
 20
7.602908662090536
  0
SEQEND
  8
0
  6
CONTINUOUS
 62
     7
  0
ARC
  8
0
  6
CONTINUOUS
 62
     7
 10
436.2635140466326
 20
7.062581256817392
 40
1.563564665129275
 50
159.7831569256093
 51
180.4610367013858
  0
LINE
  8
0
  6
CONTINUOUS
 62
     7
 10
435.2773502691896
 20
8.050000000000066
 11
423.1518942532714
 21
8.050000000000065
  0
LINE
  8
0
  6
CONTINUOUS
 62
     7
 10
434.6999999999999
 20
7.050000000000063
 11
434.6999999999999
 21
6.550000000000063
  0
LINE
  8
0
  6
CONTINUOUS
 62
     7
 10
435.4499999999999
 20
8.050000000000065
 11
435.2773502691896
 21
8.050000000000065
  0
LINE
  8
0
  6
CONTINUOUS
 62
     7
 10
434.6999999999999
 20
6.550000000000063
 11
435.4499999999999
 21
6.550000000000063
  0
ARC
  8
0
  6
CONTINUOUS
 62
     7
 10
434.6956287287919
 20
7.068914984625319
 40
1.50449017885784
 50
359.2796381417833
 51
24.8502902003496
  0
POLYLINE
  8
0
  6
CONTINUOUS
 62
     7
 66
     1
  0
VERTEX
  8
0
  6
CONTINUOUS
 62
     7
 10
436.0608166024362
 20
7.701175032338331
  0
VERTEX
  8
0
  6
CONTINUOUS
 62
     7
 10
436.0003614680803
 20
7.806307827928317
  0
VERTEX
  8
0
  6
CONTINUOUS
 62
     7
 10
435.9269579890355
 20
7.89981704838261
  0
VERTEX
  8
0
  6
CONTINUOUS
 62
     7
 10
435.8444120667497
 20
7.973289986448561
  0
VERTEX
  8
0
  6
CONTINUOUS
 62
     7
 10
435.7497849550562
 20
8.025453436889697
  0
VERTEX
  8
0
  6
CONTINUOUS
 62
     7
 10
435.6484640437851
 20
8.048999931800326
  0
VERTEX
  8
0
  6
CONTINUOUS
 62
     7
 10
435.6226497308103
 20
8.050000000000065
  0
SEQEND
  8
0
  6
CONTINUOUS
 62
     7
  0
LINE
  8
0
  6
CONTINUOUS
 62
     7
 10
447.7481057467286
 20
8.050000000000066
 11
435.6226497308103
 21
8.050000000000066
  0
LINE
  8
0
  6
CONTINUOUS
 62
     7
 10
423.1256903636298
 20
6.550000000000065
 11
434.6999999999999
 21
6.550000000000063
  0
LINE
  8
0
  6
CONTINUOUS
 62
     7
 10
421.1518923725189
 20
7.102335956243009
 11
421.1915279286918
 21
7.101678326724752
  0
LINE
  8
0
  6
CONTINUOUS
 62
     7
 10
421.122945671634
 20
6.550000000000065
 11
423.1256903636298
 21
6.550000000000065
  0
LINE
  8
0
  6
CONTINUOUS
 62
     7
 10
421.1518923725189
 20
7.102335956243009
 11
421.122945671634
 21
6.550000000000065
  0
LINE
  8
0
  6
CONTINUOUS
 62
     7
 10
449.7770543283659
 20
6.550000000000066
 11
449.7481076274811
 21
7.102335956243013
  0
LINE
  8
0
  6
CONTINUOUS
 62
     7
 10
447.7743096363701
 20
6.550000000000066
 11
449.7770543283659
 21
6.550000000000066
  0
LINE
  8
0
  6
CONTINUOUS
 62
     7
 10
436.2
 20
6.550000000000063
 11
447.7743096363701
 21
6.550000000000066
  0
LINE
  8
0
  6
CONTINUOUS
 62
     7
 10
436.2
 20
7.050000000000063
 11
436.2
 21
6.550000000000063
  0
LINE
  8
0
  6
CONTINUOUS
 62
     7
 10
435.6226497308103
 20
8.050000000000065
 11
435.4499999999999
 21
8.050000000000065
  0
LINE
  8
0
  6
CONTINUOUS
 62
     7
 10
435.4499999999999
 20
6.550000000000063
 11
436.2
 21
6.550000000000063
  0
LINE
  8
0
  6
CONTINUOUS
 62
     7
 10
421.7932870450787
 20
7.984014589411128
 11
422.1505219072734
 21
8.050000000000065
  0
LINE
  8
0
  6
CONTINUOUS
 62
     7
 10
423.1518942532714
 20
8.050000000000065
 11
422.1505219072734
 21
8.050000000000065
  0
LINE
  8
0
  6
CONTINUOUS
 62
     7
 10
449.7084720713082
 20
7.10167832672454
 11
449.7481076274811
 21
7.102335956243011
  0
LINE
  8
0
  6
CONTINUOUS
 62
     7
 10
448.7494780927265
 20
8.050000000000066
 11
447.7481057467285
 21
8.050000000000066
  0
LINE
  8
0
  6
CONTINUOUS
 62
     7
 10
448.7494780927265
 20
8.050000000000065
 11
449.1067129184171
 21
7.984014603372943
  0
LINE
  8
0
  6
CONTINUOUS
 62
     7
 10
432.3032582180074
 20
6.050000000000065
 11
432.2770543283659
 21
6.550000000000066
  0
LINE
  8
0
  6
CONTINUOUS
 62
     7
 10
421.122945671634
 20
6.550000000000065
 11
421.0967417819925
 21
6.050000000000064
  0
LINE
  8
0
  6
CONTINUOUS
 62
     7
 10
438.622945671634
 20
6.550000000000066
 11
438.5967417819925
 21
6.050000000000066
  0
LINE
  8
0
  6
CONTINUOUS
 62
     7
 10
449.8032582180075
 20
6.050000000000066
 11
449.7770543283659
 21
6.550000000000067
  0
LINE
  8
0
  6
CONTINUOUS
 62
     7
 10
451.951372241562
 20
3.250000000000065
 11
452.0981140235546
 21
6.050000000000064
  0
LINE
  8
0
  6
CONTINUOUS
 62
     7
 10
452.0981140235546
 20
6.050000000000065
 11
473.4968138614544
 21
6.050000000000066
  0
LINE
  8
0
  6
CONTINUOUS
 62
     7
 10
451.951372241562
 20
3.250000000000065
 11
475.9556477018587
 21
3.250000000000065
  0
LINE
  8
0
  6
CONTINUOUS
 62
     7
 10
418.8018859764454
 20
6.050000000000065
 11
418.9486277584379
 21
3.250000000000065
  0
LINE
  8
0
  6
CONTINUOUS
 62
     7
 10
397.4031861385455
 20
6.050000000000066
 11
418.8018859764454
 21
6.050000000000065
  0
LINE
  8
0
  6
CONTINUOUS
 62
     7
 10
394.9443522981412
 20
3.250000000000065
 11
418.9486277584379
 21
3.250000000000065
  0
LINE
  8
0
  6
CONTINUOUS
 62
     7
 10
419.9499999999999
 20
3.250000000000065
 11
419.8032582180074
 21
6.050000000000065
  0
LINE
  8
0
  6
CONTINUOUS
 62
     7
 10
419.8032582180074
 20
6.050000000000065
 11
418.8018859764454
 21
6.050000000000065
  0
LINE
  8
0
  6
CONTINUOUS
 62
     7
 10
418.9486277584379
 20
3.250000000000065
 11
419.9499999999999
 21
3.250000000000065
  0
LINE
  8
0
  6
CONTINUOUS
 62
     7
 10
451.0967417819925
 20
6.050000000000065
 11
450.9499999999999
 21
3.250000000000066
  0
LINE
  8
0
  6
CONTINUOUS
 62
     7
 10
452.0981140235546
 20
6.050000000000065
 11
451.0967417819925
 21
6.050000000000065
  0
LINE
  8
0
  6
CONTINUOUS
 62
     7
 10
450.9499999999999
 20
3.250000000000065
 11
451.951372241562
 21
3.250000000000065
  0
LINE
  8
0
  6
CONTINUOUS
 62
     7
 10
475.1201364759257
 20
30.33715574274772
 11
472.9952856791467
 21
6.050000000000069
  0
LINE
  8
0
  6
CONTINUOUS
 62
     7
 10
397.9047143208532
 20
6.050000000000066
 11
395.7798635240743
 21
30.33715574274771
  0
ARC
  8
0
  6
CONTINUOUS
 62
     7
 10
476.1163311740174
 20
30.25000000000006
 40
1.0
 50
90.0
 51
175.0000000000001
  0
ARC
  8
0
  6
CONTINUOUS
 62
     7
 10
394.7836688259825
 20
30.25000000000006
 40
1.000000000000001
 50
4.999999999999918
 51
90.00000000000004
  0
LINE
  8
0
  6
CONTINUOUS
 62
     7
 10
476.1999999999999
 20
31.25000000000006
 11
476.1163311740174
 21
31.25000000000006
  0
LINE
  8
0
  6
CONTINUOUS
 62
     7
 10
394.7836688259825
 20
31.25000000000006
 11
394.6999999999999
 21
31.25000000000006
  0
LINE
  8
0
  6
CONTINUOUS
 62
     7
 10
420.9499999999999
 20
3.250000000000065
 11
432.4499999999999
 21
3.250000000000066
  0
LINE
  8
0
  6
CONTINUOUS
 62
     7
 10
432.4499999999999
 20
3.250000000000066
 11
432.3766291090037
 21
4.650000000000065
  0
LINE
  8
0
  6
CONTINUOUS
 62
     7
 10
421.0233708909962
 20
4.650000000000065
 11
420.95
 21
3.250000000000064
  0
LINE
  8
0
  6
CONTINUOUS
 62
     7
 10
438.4499999999999
 20
3.250000000000066
 11
449.9499999999999
 21
3.250000000000066
  0
LINE
  8
0
  6
CONTINUOUS
 62
     7
 10
438.5233708909963
 20
4.650000000000065
 11
438.45
 21
3.250000000000064
  0
LINE
  8
0
  6
CONTINUOUS
 62
     7
 10
449.9499999999999
 20
3.250000000000066
 11
449.8766291090037
 21
4.650000000000066
  0
LINE
  8
0
  6
CONTINUOUS
 62
     7
 10
438.5233708909963
 20
4.650000000000065
 11
438.5967417819925
 21
6.050000000000066
  0
LINE
  8
0
  6
CONTINUOUS
 62
     7
 10
449.8766291090037
 20
4.650000000000065
 11
449.8032582180075
 21
6.050000000000065
  0
LINE
  8
0
  6
CONTINUOUS
 62
     7
 10
432.3032582180074
 20
6.050000000000065
 11
432.3766291090037
 21
4.650000000000065
  0
LINE
  8
0
  6
CONTINUOUS
 62
     7
 10
421.0233708909962
 20
4.650000000000065
 11
421.0967417819925
 21
6.050000000000064
  0
LINE
  8
0
  6
CONTINUOUS
 62
     7
 10
450.5960556089935
 20
6.050000000000062
 11
451.0967417819924
 21
6.050000000000062
  0
LINE
  8
0
  6
CONTINUOUS
 62
     7
 10
450.9499999999999
 20
3.250000000000065
 11
450.449313827001
 21
3.250000000000065
  0
LINE
  8
0
  6
CONTINUOUS
 62
     7
 10
419.8032582180074
 20
6.050000000000065
 11
420.3039443910064
 21
6.050000000000065
  0
LINE
  8
0
  6
CONTINUOUS
 62
     7
 10
420.4506861729989
 20
3.250000000000065
 11
419.9499999999999
 21
3.250000000000065
  0
LINE
  8
0
  6
CONTINUOUS
 62
     7
 10
433.4513723459979
 20
3.250000000000065
 11
432.4499999999999
 21
3.250000000000065
  0
LINE
  8
0
  6
CONTINUOUS
 62
     7
 10
420.3039443910064
 20
6.050000000000065
 11
421.0967417819925
 21
6.050000000000065
  0
LINE
  8
0
  6
CONTINUOUS
 62
     7
 10
420.4506861729989
 20
3.250000000000065
 11
420.9499999999999
 21
3.250000000000065
  0
LINE
  8
0
  6
CONTINUOUS
 62
     7
 10
438.45
 20
3.250000000000065
 11
437.4486276540021
 21
3.250000000000065
  0
LINE
  8
0
  6
CONTINUOUS
 62
     7
 10
449.8032582180074
 20
6.050000000000065
 11
450.5960556089935
 21
6.050000000000065
  0
LINE
  8
0
  6
CONTINUOUS
 62
     7
 10
449.9499999999999
 20
3.250000000000065
 11
450.449313827001
 21
3.250000000000065
  0
LINE
  8
0
  6
CONTINUOUS
 62
     7
 10
434.7
 20
5.550000000000006
 11
434.7
 21
3.250000000000066
  0
LINE
  8
0
  6
CONTINUOUS
 62
     7
 10
433.4513723459979
 20
3.250000000000065
 11
434.7
 21
3.250000000000065
  0
POLYLINE
  8
0
  6
CONTINUOUS
 62
     7
 66
     1
  0
VERTEX
  8
0
  6
CONTINUOUS
 62
     7
 10
434.7
 20
5.550000000000006
  0
VERTEX
  8
0
  6
CONTINUOUS
 62
     7
 10
434.700347721842
 20
5.574533837163715
  0
VERTEX
  8
0
  6
CONTINUOUS
 62
     7
 10
434.701390049676
 20
5.599008570164786
  0
VERTEX
  8
0
  6
CONTINUOUS
 62
     7
 10
434.7031244724427
 20
5.623365237227687
  0
VERTEX
  8
0
  6
CONTINUOUS
 62
     7
 10
434.7055468117658
 20
5.647545161008072
  0
VERTEX
  8
0
  6
CONTINUOUS
 62
     7
 10
434.7086512320177
 20
5.671490089951639
  0
VERTEX
  8
0
  6
CONTINUOUS
 62
     7
 10
434.712430254378
 20
5.695142338627239
  0
VERTEX
  8
0
  6
CONTINUOUS
 62
     7
 10
434.7168747748511
 20
5.718444926696119
  0
VERTEX
  8
0
  6
CONTINUOUS
 62
     7
 10
434.7219740861977
 20
5.741341716182555
  0
VERTEX
  8
0
  6
CONTINUOUS
 62
     7
 10
434.7277159037301
 20
5.763777546715152
  0
VERTEX
  8
0
  6
CONTINUOUS
 62
     7
 10
434.734086394907
 20
5.785698368413011
  0
VERTEX
  8
0
  6
CONTINUOUS
 62
     7
 10
434.7410702126571
 20
5.807051372096625
  0
VERTEX
  8
0
  6
CONTINUOUS
 62
     7
 10
434.7486505323519
 20
5.827785116509816
  0
VERTEX
  8
0
  6
CONTINUOUS
 62
     7
 10
434.7568090923371
 20
5.847849652246234
  0
VERTEX
  8
0
  6
CONTINUOUS
 62
     7
 10
434.7655262379271
 20
5.867196642081842
  0
VERTEX
  8
0
  6
CONTINUOUS
 62
     7
 10
434.7747809687548
 20
5.88577947742353
  0
VERTEX
  8
0
  6
CONTINUOUS
 62
     7
 10
434.7845509893629
 20
5.903553390593296
  0
VERTEX
  8
0
  6
CONTINUOUS
 62
     7
 10
434.7948127629159
 20
5.920475562677504
  0
VERTEX
  8
0
  6
CONTINUOUS
 62
     7
 10
434.8055415679027
 20
5.936505226681395
  0
VERTEX
  8
0
  6
CONTINUOUS
 62
     7
 10
434.8167115576924
 20
5.951603765740351
  0
VERTEX
  8
0
  6
CONTINUOUS
 62
     7
 10
434.828295822801
 20
5.965734806151304
  0
VERTEX
  8
0
  6
CONTINUOUS
 62
     7
 10
434.8402664557192
 20
5.97886430500017
  0
VERTEX
  8
0
  6
CONTINUOUS
 62
     7
 10
434.8525946181439
 20
5.990960632174213
  0
VERTEX
  8
0
  6
CONTINUOUS
 62
     7
 10
434.8652506104521
 20
6.00199464656176
  0
VERTEX
  8
0
  6
CONTINUOUS
 62
     7
 10
434.8782039432496
 20
6.011939766255685
  0
VERTEX
  8
0
  6
CONTINUOUS
 62
     7
 10
434.8914234108231
 20
6.020772032591553
  0
VERTEX
  8
0
  6
CONTINUOUS
 62
     7
 10
434.9048771663175
 20
6.028470167866151
  0
VERTEX
  8
0
  6
CONTINUOUS
 62
     7
 10
434.9185327984573
 20
6.03501562659732
  0
VERTEX
  8
0
  6
CONTINUOUS
 62
     7
 10
434.9323574096286
 20
6.040392640201667
  0
VERTEX
  8
0
  6
CONTINUOUS
 62
     7
 10
434.9463176951322
 20
6.044588254982445
  0
VERTEX
  8
0
  6
CONTINUOUS
 62
     7
 10
434.9603800234175
 20
6.047592363336156
  0
VERTEX
  8
0
  6
CONTINUOUS
 62
     7
 10
434.974510517104
 20
6.049397728102646
  0
VERTEX
  8
0
  6
CONTINUOUS
 62
     7
 10
434.9886751345948
 20
6.050000000000062
  0
SEQEND
  8
0
  6
CONTINUOUS
 62
     7
  0
LINE
  8
0
  6
CONTINUOUS
 62
     7
 10
434.9886751345947
 20
6.050000000000065
 11
433.3308344536469
 21
6.050000000000065
  0
POLYLINE
  8
0
  6
CONTINUOUS
 62
     7
 66
     1
  0
VERTEX
  8
0
  6
CONTINUOUS
 62
     7
 10
435.9113248654052
 20
6.050000000000062
  0
VERTEX
  8
0
  6
CONTINUOUS
 62
     7
 10
435.9254894828959
 20
6.049397728102647
  0
VERTEX
  8
0
  6
CONTINUOUS
 62
     7
 10
435.9396199765824
 20
6.04759236333616
  0
VERTEX
  8
0
  6
CONTINUOUS
 62
     7
 10
435.9536823048678
 20
6.044588254982452
  0
VERTEX
  8
0
  6
CONTINUOUS
 62
     7
 10
435.9676425903713
 20
6.040392640201675
  0
VERTEX
  8
0
  6
CONTINUOUS
 62
     7
 10
435.9814672015426
 20
6.035015626597332
  0
VERTEX
  8
0
  6
CONTINUOUS
 62
     7
 10
435.9951228336824
 20
6.028470167866163
  0
VERTEX
  8
0
  6
CONTINUOUS
 62
     7
 10
436.0085765891768
 20
6.020772032591568
  0
VERTEX
  8
0
  6
CONTINUOUS
 62
     7
 10
436.0217960567504
 20
6.011939766255701
  0
VERTEX
  8
0
  6
CONTINUOUS
 62
     7
 10
436.0347493895479
 20
6.001994646561776
  0
VERTEX
  8
0
  6
CONTINUOUS
 62
     7
 10
436.047405381856
 20
5.990960632174231
  0
VERTEX
  8
0
  6
CONTINUOUS
 62
     7
 10
436.0597335442807
 20
5.978864305000188
  0
VERTEX
  8
0
  6
CONTINUOUS
 62
     7
 10
436.071704177199
 20
5.965734806151323
  0
VERTEX
  8
0
  6
CONTINUOUS
 62
     7
 10
436.0832884423076
 20
5.95160376574037
  0
VERTEX
  8
0
  6
CONTINUOUS
 62
     7
 10
436.0944584320972
 20
5.936505226681414
  0
VERTEX
  8
0
  6
CONTINUOUS
 62
     7
 10
436.105187237084
 20
5.920475562677524
  0
VERTEX
  8
0
  6
CONTINUOUS
 62
     7
 10
436.1154490106371
 20
5.903553390593316
  0
VERTEX
  8
0
  6
CONTINUOUS
 62
     7
 10
436.1252190312452
 20
5.885779477423549
  0
VERTEX
  8
0
  6
CONTINUOUS
 62
     7
 10
436.1344737620728
 20
5.86719664208186
  0
VERTEX
  8
0
  6
CONTINUOUS
 62
     7
 10
436.1431909076629
 20
5.847849652246252
  0
VERTEX
  8
0
  6
CONTINUOUS
 62
     7
 10
436.1513494676481
 20
5.827785116509834
  0
VERTEX
  8
0
  6
CONTINUOUS
 62
     7
 10
436.1589297873428
 20
5.807051372096641
  0
VERTEX
  8
0
  6
CONTINUOUS
 62
     7
 10
436.165913605093
 20
5.785698368413026
  0
VERTEX
  8
0
  6
CONTINUOUS
 62
     7
 10
436.1722840962698
 20
5.763777546715167
  0
VERTEX
  8
0
  6
CONTINUOUS
 62
     7
 10
436.1780259138023
 20
5.741341716182568
  0
VERTEX
  8
0
  6
CONTINUOUS
 62
     7
 10
436.1831252251488
 20
5.71844492669613
  0
VERTEX
  8
0
  6
CONTINUOUS
 62
     7
 10
436.1875697456219
 20
5.69514233862725
  0
VERTEX
  8
0
  6
CONTINUOUS
 62
     7
 10
436.1913487679823
 20
5.671490089951648
  0
VERTEX
  8
0
  6
CONTINUOUS
 62
     7
 10
436.1944531882342
 20
5.647545161008078
  0
VERTEX
  8
0
  6
CONTINUOUS
 62
     7
 10
436.1968755275573
 20
5.623365237227692
  0
VERTEX
  8
0
  6
CONTINUOUS
 62
     7
 10
436.198609950324
 20
5.59900857016479
  0
VERTEX
  8
0
  6
CONTINUOUS
 62
     7
 10
436.1996522781579
 20
5.574533837163716
  0
VERTEX
  8
0
  6
CONTINUOUS
 62
     7
 10
436.2
 20
5.550000000000006
  0
SEQEND
  8
0
  6
CONTINUOUS
 62
     7
  0
LINE
  8
0
  6
CONTINUOUS
 62
     7
 10
436.2
 20
5.550000000000006
 11
436.2
 21
3.249999999999954
  0
LINE
  8
0
  6
CONTINUOUS
 62
     7
 10
435.45
 20
6.050000000000007
 11
435.9113248654052
 21
6.050000000000065
  0
LINE
  8
0
  6
CONTINUOUS
 62
     7
 10
435.45
 20
3.25000000000001
 11
436.2
 21
3.249999999999954
  0
LINE
  8
0
  6
CONTINUOUS
 62
     7
 10
434.9886751345947
 20
6.050000000000065
 11
435.45
 21
6.050000000000007
  0
LINE
  8
0
  6
CONTINUOUS
 62
     7
 10
434.7
 20
3.250000000000065
 11
435.45
 21
3.25000000000001
  0
LINE
  8
0
  6
CONTINUOUS
 62
     7
 10
436.2
 20
3.249999999999954
 11
437.4486276540021
 21
3.250000000000065
  0
LINE
  8
0
  6
CONTINUOUS
 62
     7
 10
437.569165546353
 20
6.050000000000065
 11
435.9113248654052
 21
6.050000000000065
  0
LINE
  8
0
  6
CONTINUOUS
 62
     7
 10
392.38874181799
 20
3.250000000000065
 11
391.8030445984749
 21
3.250000000000065
  0
LINE
  8
0
  6
CONTINUOUS
 62
     7
 10
391.3143027804849
 20
31.25000000000006
 11
391.9
 21
31.25000000000006
  0
LINE
  8
0
  6
CONTINUOUS
 62
     9
 10
371.4856972195152
 20
31.25000000000007
 11
371.6881407090256
 21
3.250000000000065
  0
LINE
  8
0
  6
CONTINUOUS
 62
     7
 10
391.8030445984749
 20
3.250000000000065
 11
371.6881407090256
 21
3.250000000000065
  0
LINE
  8
0
  6
CONTINUOUS
 62
     7
 10
391.3142135623731
 20
31.25000000000005
 11
371.4857864376269
 21
31.25000000000005
  0
LINE
  8
0
  6
CONTINUOUS
 62
     7
 10
370.2741425382279
 20
3.250000000000065
 11
371.6881407090256
 21
3.250000000000065
  0
LINE
  8
0
  6
CONTINUOUS
 62
     7
 10
324.8005786702714
 20
31.25000000000007
 11
325.2893204882615
 21
3.250000000000069
  0
LINE
  8
0
  6
CONTINUOUS
 62
     7
 10
370.2741425382279
 20
3.250000000000065
 11
325.2893204882615
 21
3.250000000000065
  0
LINE
  8
0
  6
CONTINUOUS
 62
     7
 10
370.0716990487175
 20
31.25000000000007
 11
370.0715728752538
 21
31.25000000000005
  0
LINE
  8
0
  6
CONTINUOUS
 62
     7
 10
370.0715728752538
 20
31.25000000000005
 11
350.5
 21
31.25000000000007
  0
LINE
  8
0
  6
CONTINUOUS
 62
     7
 10
350.5
 20
31.25000000000007
 11
342.5
 21
31.25000000000007
  0
LINE
  8
0
  6
CONTINUOUS
 62
     7
 10
342.5
 20
31.25000000000007
 11
324.8005786702714
 21
31.25000000000007
  0
LINE
  8
0
  6
CONTINUOUS
 62
     7
 10
325.2893204882615
 20
3.250000000000065
 11
321.8980780971318
 21
3.250000000000065
  0
LINE
  8
0
  6
CONTINUOUS
 62
     7
 10
321.4093362791417
 20
31.25000000000007
 11
324.8005786702714
 21
31.25000000000007
  0
LINE
  8
0
  6
CONTINUOUS
 62
     7
 10
321.4887418179901
 20
3.250000000000065
 11
321.0
 21
31.25000000000007
  0
LINE
  8
0
  6
CONTINUOUS
 62
     7
 10
321.8980780971318
 20
3.250000000000065
 11
321.4887418179901
 21
3.250000000000065
  0
LINE
  8
0
  6
CONTINUOUS
 62
     7
 10
321.0
 20
31.25000000000007
 11
321.4093362791417
 21
31.25000000000007
  0
LINE
  8
0
  6
CONTINUOUS
 62
     9
 10
469.1277555920683
 20
6.050000000000065
 11
469.1845235201886
 21
21.75436326774925
  0
ARC
  8
0
  6
CONTINUOUS
 62
     7
 10
467.3368518621671
 20
19.06108575370427
 40
3.266134461946769
 50
55.54867275561956
 51
75.73229866822258
  0
POLYLINE
  8
0
  6
CONTINUOUS
 62
     7
 66
     1
  0
VERTEX
  8
0
  6
CONTINUOUS
 62
     7
 10
468.141799590062
 20
22.22647569474994
  0
VERTEX
  8
0
  6
CONTINUOUS
 62
     7
 10
467.9927862341542
 20
22.247193235236
  0
VERTEX
  8
0
  6
CONTINUOUS
 62
     7
 10
467.9179782650984
 20
22.25000000000006
  0
SEQEND
  8
0
  6
CONTINUOUS
 62
     7
  0
LINE
  8
0
  6
CONTINUOUS
 62
     7
 10
459.8485281374238
 20
6.050000000000065
 11
459.8485281374238
 21
16.25000000000006
  0
LINE
  8
0
  6
CONTINUOUS
 62
     7
 10
459.8485281374238
 20
22.25000000000006
 11
459.8485281374238
 21
31.25000000000006
  0
LINE
  8
0
  6
CONTINUOUS
 62
     7
 10
472.6
 20
31.25000000000006
 11
460.0253048327205
 21
31.25000000000006
  0
LINE
  8
0
  6
CONTINUOUS
 62
     7
 10
460.0253048327205
 20
31.25000000000006
 11
459.8485281374238
 21
31.25000000000006
  0
LINE
  8
0
  6
CONTINUOUS
 62
     9
 10
467.0632839500075
 20
21.75436326774925
 11
467.0065160218873
 21
6.050000000000066
  0
LINE
  8
0
  6
CONTINUOUS
 62
     9
 10
467.0632839500075
 20
22.25000000000006
 11
467.0632839500075
 21
21.75436326774925
  0
LINE
  8
0
  6
CONTINUOUS
 62
     7
 10
467.0632839500075
 20
22.25000000000006
 11
467.9179782650984
 21
22.25000000000006
  0
LINE
  8
0
  6
CONTINUOUS
 62
     7
 10
462.5757821372737
 20
22.25000000000006
 11
461.5133565012241
 21
22.25000000000006
  0
LINE
  8
0
  6
CONTINUOUS
 62
     7
 10
467.0632839500075
 20
22.25000000000006
 11
462.5757821372737
 21
22.25000000000006
  0
LINE
  8
0
  6
CONTINUOUS
 62
     7
 10
460.4759275423464
 20
16.25000000000006
 11
456.3398885730254
 21
16.25000000000006
  0
LINE
  8
0
  6
CONTINUOUS
 62
     7
 10
456.3398885730254
 20
16.25000000000006
 11
455.9620420558163
 21
6.050000000000062
  0
ARC
  8
0
  6
CONTINUOUS
 62
     7
 10
433.8793648205271
 20
9.440227899687926
 40
21.34925844322163
 50
350.8628425463361
 51
356.2498188960429
  0
POLYLINE
  8
0
  6
CONTINUOUS
 62
     7
 66
     1
  0
VERTEX
  8
0
  6
CONTINUOUS
 62
     7
 10
455.1829084489809
 20
8.043852253225081
  0
VERTEX
  8
0
  6
CONTINUOUS
 62
     7
 10
455.4215343592111
 20
11.41641349967674
  0
VERTEX
  8
0
  6
CONTINUOUS
 62
     7
 10
455.6096455008085
 20
14.79448084260987
  0
SEQEND
  8
0
  6
CONTINUOUS
 62
     7
  0
LINE
  8
0
  6
CONTINUOUS
 62
     7
 10
455.6096455008085
 20
14.79448084260987
 11
455.9528096130966
 21
21.77180969368288
  0
LINE
  8
0
  6
CONTINUOUS
 62
     7
 10
460.4759275423464
 20
16.25000000000006
 11
460.223965903962
 21
6.050000000000066
  0
POLYLINE
  8
0
  6
CONTINUOUS
 62
     7
 66
     1
  0
VERTEX
  8
0
  6
CONTINUOUS
 62
     7
 10
456.5400112398905
 20
22.25000000000006
  0
VERTEX
  8
0
  6
CONTINUOUS
 62
     7
 10
456.5098036762118
 20
22.24926416880686
  0
VERTEX
  8
0
  6
CONTINUOUS
 62
     7
 10
456.4795361966127
 20
22.24706241256131
  0
VERTEX
  8
0
  6
CONTINUOUS
 62
     7
 10
456.4490323895153
 20
22.24336797167516
  0
VERTEX
  8
0
  6
CONTINUOUS
 62
     7
 10
456.4186053937999
 20
22.23820131815839
  0
VERTEX
  8
0
  6
CONTINUOUS
 62
     7
 10
456.387904203355
 20
22.23146787707523
  0
VERTEX
  8
0
  6
CONTINUOUS
 62
     7
 10
456.3574246582446
 20
22.22323618597714
  0
VERTEX
  8
0
  6
CONTINUOUS
 62
     7
 10
456.3269978309012
 20
22.21342720903525
  0
VERTEX
  8
0
  6
CONTINUOUS
 62
     7
 10
456.2969486003191
 20
22.20210535703366
  0
VERTEX
  8
0
  6
CONTINUOUS
 62
     7
 10
456.2718341748256
 20
22.19132582412266
  0
VERTEX
  8
0
  6
CONTINUOUS
 62
     7
 10
456.247108493522
 20
22.17946509855493
  0
VERTEX
  8
0
  6
CONTINUOUS
 62
     7
 10
456.2226596806147
 20
22.16643050462645
  0
VERTEX
  8
0
  6
CONTINUOUS
 62
     7
 10
456.1987179438781
 20
22.15229956854308
  0
VERTEX
  8
0
  6
CONTINUOUS
 62
     7
 10
456.1750648933544
 20
22.13687911209024
  0
VERTEX
  8
0
  6
CONTINUOUS
 62
     7
 10
456.1520640150231
 20
22.12033257610668
  0
VERTEX
  8
0
  6
CONTINUOUS
 62
     7
 10
456.1296308319426
 20
22.10252576736938
  0
VERTEX
  8
0
  6
CONTINUOUS
 62
     7
 10
456.1080180029833
 20
22.08357427292364
  0
VERTEX
  8
0
  6
CONTINUOUS
 62
     7
 10
456.096884481037
 20
22.07302541297044
  0
VERTEX
  8
0
  6
CONTINUOUS
 62
     7
 10
456.0860301739456
 20
22.06216066934945
  0
VERTEX
  8
0
  6
CONTINUOUS
 62
     7
 10
456.0685135542943
 20
22.04325703977698
  0
VERTEX
  8
0
  6
CONTINUOUS
 62
     7
 10
456.0518803836
 20
22.02346350957955
  0
VERTEX
  8
0
  6
CONTINUOUS
 62
     7
 10
456.0391398519613
 20
22.00682687156484
  0
VERTEX
  8
0
  6
CONTINUOUS
 62
     7
 10
456.0270776983054
 20
21.98963197200293
  0
VERTEX
  8
0
  6
CONTINUOUS
 62
     7
 10
456.0156750078624
 20
21.97178426875377
  0
VERTEX
  8
0
  6
CONTINUOUS
 62
     7
 10
456.0050536489389
 20
21.95339942584215
  0
VERTEX
  8
0
  6
CONTINUOUS
 62
     7
 10
455.9969660677775
 20
21.93794466350554
  0
VERTEX
  8
0
  6
CONTINUOUS
 62
     7
 10
455.9894668537821
 20
21.9221602468216
  0
VERTEX
  8
0
  6
CONTINUOUS
 62
     7
 10
455.9825347590531
 20
21.90594103650403
  0
VERTEX
  8
0
  6
CONTINUOUS
 62
     7
 10
455.9762646771113
 20
21.88944919935054
  0
VERTEX
  8
0
  6
CONTINUOUS
 62
     7
 10
455.9706446300798
 20
21.87259008298317
  0
VERTEX
  8
0
  6
CONTINUOUS
 62
     7
 10
455.9657425804398
 20
21.85550408427854
  0
VERTEX
  8
0
  6
CONTINUOUS
 62
     7
 10
455.9615417744497
 20
21.83804460125168
  0
VERTEX
  8
0
  6
CONTINUOUS
 62
     7
 10
455.9581077022891
 20
21.82037884341491
  0
VERTEX
  8
0
  6
CONTINUOUS
 62
     7
 10
455.956230636368
 20
21.80833324337997
  0
VERTEX
  8
0
  6
CONTINUOUS
 62
     7
 10
455.9547195546083
 20
21.7962235933025
  0
VERTEX
  8
0
  6
CONTINUOUS
 62
     7
 10
455.9535769533347
 20
21.78403764693332
  0
VERTEX
  8
0
  6
CONTINUOUS
 62
     7
 10
455.9528096130966
 20
21.77180969368275
  0
SEQEND
  8
0
  6
CONTINUOUS
 62
     7
  0
LINE
  8
0
  6
CONTINUOUS
 62
     7
 10
461.5133565012241
 20
22.25000000000006
 11
456.5400112398905
 21
22.25000000000006
  0
LINE
  8
0
  6
CONTINUOUS
 62
     7
 10
458.5706933225355
 20
16.25000000000006
 11
458.9485398397447
 21
6.050000000000066
  0
LINE
  8
0
  6
CONTINUOUS
 62
     7
 10
455.7661592882739
 20
58.25000000000006
 11
455.3664725804006
 21
58.25000000000006
  0
LINE
  8
0
  6
CONTINUOUS
 62
     7
 10
457.7757994395537
 20
58.25000000000006
 11
455.7661592882739
 21
58.25000000000006
  0
LINE
  8
0
  6
CONTINUOUS
 62
     7
 10
452.3540064791342
 20
58.25000000000006
 11
455.3664725804006
 21
58.25000000000006
  0
LINE
  8
0
  6
CONTINUOUS
 62
     7
 10
458.1229768522785
 20
58.25000000000006
 11
457.7757994395537
 21
58.25000000000006
  0
LINE
  8
0
  6
CONTINUOUS
 62
     7
 10
451.4353915672916
 20
6.050000000000066
 11
451.3034564179115
 21
10.75205577281408
  0
LINE
  8
0
  6
CONTINUOUS
 62
     7
 10
450.683034323533
 20
16.25000000000006
 11
450.4310726851486
 21
6.050000000000064
  0
LINE
  8
0
  6
CONTINUOUS
 62
     7
 10
446.546995354212
 20
16.25000000000006
 11
450.683034323533
 21
16.25000000000006
  0
LINE
  8
0
  6
CONTINUOUS
 62
     7
 10
446.546995354212
 20
16.25000000000006
 11
446.2432363893968
 21
8.050000000000066
  0
LINE
  8
0
  6
CONTINUOUS
 62
     7
 10
451.7222230364048
 20
57.75474633976523
 11
451.707585971702
 21
57.75453369108351
  0
LINE
  8
0
  6
CONTINUOUS
 62
     7
 10
452.3540064791342
 20
58.25000000000006
 11
452.2854096350407
 21
58.24049867070245
  0
LINE
  8
0
  6
CONTINUOUS
 62
     7
 10
446.5569492635
 20
22.25000000000006
 11
451.4058856896055
 21
22.25000000000006
  0
LINE
  8
0
  6
CONTINUOUS
 62
     7
 10
448.7619656574511
 20
16.25000000000006
 11
449.1226556532095
 21
7.98884090148505
  0
LINE
  8
0
  6
CONTINUOUS
 62
     7
 10
449.1226556532095
 20
7.98884090148505
 11
449.1231584059383
 21
7.977325970854756
  0
ARC
  8
0
  6
CONTINUOUS
 62
     7
 10
446.6009066959454
 20
19.01843146569899
 40
3.309672387145544
 50
104.2354029802024
 51
124.2441388269792
  0
POLYLINE
  8
0
  6
CONTINUOUS
 62
     7
 66
     1
  0
VERTEX
  8
0
  6
CONTINUOUS
 62
     7
 10
445.7870372133583
 20
22.22647569474994
  0
VERTEX
  8
0
  6
CONTINUOUS
 62
     7
 10
445.9363062579989
 20
22.247193235236
  0
VERTEX
  8
0
  6
CONTINUOUS
 62
     7
 10
446.0111488671764
 20
22.25000000000006
  0
SEQEND
  8
0
  6
CONTINUOUS
 62
     7
  0
LINE
  8
0
  6
CONTINUOUS
 62
     9
 10
444.618890468243
 20
8.050000000000068
 11
444.7384866346371
 21
21.75436326774925
  0
LINE
  8
0
  6
CONTINUOUS
 62
     7
 10
440.0369011664562
 20
31.25000000000005
 11
451.4854909539637
 21
31.25000000000007
  0
LINE
  8
0
  6
CONTINUOUS
 62
     7
 10
445.4975366672545
 20
8.050000000000061
 11
445.6171328336486
 21
21.75436326774925
  0
ARC
  8
0
  6
CONTINUOUS
 62
     7
 10
446.1171137951807
 20
21.75000000000006
 40
0.5000000000000004
 50
90.0
 51
179.5
  0
LINE
  8
0
  6
CONTINUOUS
 62
     7
 10
446.1171137951807
 20
22.25000000000006
 11
446.5569492635
 21
22.25000000000006
  0
LINE
  8
0
  6
CONTINUOUS
 62
     7
 10
446.1171137951807
 20
22.25000000000006
 11
446.0111488671764
 21
22.25000000000006
  0
LINE
  8
0
  6
CONTINUOUS
 62
     7
 10
437.569165546353
 20
6.050000000000066
 11
438.5967417819925
 21
6.050000000000066
  0
LINE
  8
0
  6
CONTINUOUS
 62
     7
 10
432.3032582180074
 20
6.050000000000066
 11
433.3308344536469
 21
6.050000000000066
  0
LINE
  8
0
  6
CONTINUOUS
 62
     7
 10
398.3
 20
31.25000000000007
 11
434.7336003075571
 21
31.25000000000005
  0
POLYLINE
  8
0
  6
CONTINUOUS
 62
     7
 66
     1
  0
VERTEX
  8
0
  6
CONTINUOUS
 62
     7
 10
421.7932882809752
 20
7.984015062106568
  0
VERTEX
  8
0
  6
CONTINUOUS
 62
     7
 10
421.7550872135192
 20
7.968478168416779
  0
VERTEX
  8
0
  6
CONTINUOUS
 62
     7
 10
421.7173620304748
 20
7.951243799634327
  0
VERTEX
  8
0
  6
CONTINUOUS
 62
     7
 10
421.680228553817
 20
7.93232234601815
  0
VERTEX
  8
0
  6
CONTINUOUS
 62
     7
 10
421.6438025598199
 20
7.911733569543594
  0
VERTEX
  8
0
  6
CONTINUOUS
 62
     7
 10
421.6081987328047
 20
7.8895067163464
  0
VERTEX
  8
0
  6
CONTINUOUS
 62
     7
 10
421.5735295974661
 20
7.865680504295912
  0
VERTEX
  8
0
  6
CONTINUOUS
 62
     7
 10
421.5399044493224
 20
7.840302981270981
  0
VERTEX
  8
0
  6
CONTINUOUS
 62
     7
 10
421.5021344098819
 20
7.808811856906685
  0
VERTEX
  8
0
  6
CONTINUOUS
 62
     7
 10
421.466085591761
 20
7.775392808270038
  0
VERTEX
  8
0
  6
CONTINUOUS
 62
     7
 10
421.4319036710532
 20
7.740166206294715
  0
VERTEX
  8
0
  6
CONTINUOUS
 62
     7
 10
421.3997206412161
 20
7.703265854852929
  0
VERTEX
  8
0
  6
CONTINUOUS
 62
     7
 10
421.369653224867
 20
7.664837304467705
  0
VERTEX
  8
0
  6
CONTINUOUS
 62
     7
 10
421.3418015777397
 20
7.625035961845782
  0
VERTEX
  8
0
  6
CONTINUOUS
 62
     7
 10
421.3162483143582
 20
7.584025046203607
  0
VERTEX
  8
0
  6
CONTINUOUS
 62
     7
 10
421.2930578735051
 20
7.541973447587978
  0
VERTEX
  8
0
  6
CONTINUOUS
 62
     7
 10
421.2722762296082
 20
7.499053544120123
  0
VERTEX
  8
0
  6
CONTINUOUS
 62
     7
 10
421.253930944396
 20
7.455439034312898
  0
VERTEX
  8
0
  6
CONTINUOUS
 62
     7
 10
421.2380315421979
 20
7.411302837483994
  0
VERTEX
  8
0
  6
CONTINUOUS
 62
     7
 10
421.2245701826164
 20
7.366815110113437
  0
VERTEX
  8
0
  6
CONTINUOUS
 62
     7
 10
421.2135225963885
 20
7.322141419180499
  0
VERTEX
  8
0
  6
CONTINUOUS
 62
     7
 10
421.2048492443458
 20
7.277441105541801
  0
VERTEX
  8
0
  6
CONTINUOUS
 62
     7
 10
421.1984966556005
 20
7.232865861785057
  0
VERTEX
  8
0
  6
CONTINUOUS
 62
     7
 10
421.1943988994012
 20
7.188558540205347
  0
VERTEX
  8
0
  6
CONTINUOUS
 62
     7
 10
421.1924791453781
 20
7.144652198050329
  0
VERTEX
  8
0
  6
CONTINUOUS
 62
     7
 10
421.1926512688827
 20
7.101269379343131
  0
SEQEND
  8
0
  6
CONTINUOUS
 62
     7
  0
POLYLINE
  8
0
  6
CONTINUOUS
 62
     7
 66
     1
  0
VERTEX
  8
0
  6
CONTINUOUS
 62
     7
 10
449.7073487311173
 20
7.101269379342732
  0
VERTEX
  8
0
  6
CONTINUOUS
 62
     7
 10
449.7075208546219
 20
7.14465219805095
  0
VERTEX
  8
0
  6
CONTINUOUS
 62
     7
 10
449.7056011005986
 20
7.188558540207003
  0
VERTEX
  8
0
  6
CONTINUOUS
 62
     7
 10
449.7015033443989
 20
7.232865861787761
  0
VERTEX
  8
0
  6
CONTINUOUS
 62
     7
 10
449.6951507556532
 20
7.277441105545551
  0
VERTEX
  8
0
  6
CONTINUOUS
 62
     7
 10
449.6864774036102
 20
7.322141419185284
  0
VERTEX
  8
0
  6
CONTINUOUS
 62
     7
 10
449.6754298173818
 20
7.366815110119233
  0
VERTEX
  8
0
  6
CONTINUOUS
 62
     7
 10
449.6619684577996
 20
7.411302837490767
  0
VERTEX
  8
0
  6
CONTINUOUS
 62
     7
 10
449.6460690556008
 20
7.455439034320603
  0
VERTEX
  8
0
  6
CONTINUOUS
 62
     7
 10
449.6277237703877
 20
7.499053544128699
  0
VERTEX
  8
0
  6
CONTINUOUS
 62
     7
 10
449.6069421264897
 20
7.541973447597354
  0
VERTEX
  8
0
  6
CONTINUOUS
 62
     7
 10
449.5837516856357
 20
7.584025046213705
  0
VERTEX
  8
0
  6
CONTINUOUS
 62
     7
 10
449.558198422253
 20
7.625035961856509
  0
VERTEX
  8
0
  6
CONTINUOUS
 62
     7
 10
449.5303467751245
 20
7.664837304478955
  0
VERTEX
  8
0
  6
CONTINUOUS
 62
     7
 10
449.5002793587741
 20
7.703265854864592
  0
VERTEX
  8
0
  6
CONTINUOUS
 62
     7
 10
449.4680963289357
 20
7.740166206306672
  0
VERTEX
  8
0
  6
CONTINUOUS
 62
     7
 10
449.4339144082264
 20
7.775392808282166
  0
VERTEX
  8
0
  6
CONTINUOUS
 62
     7
 10
449.3978655901042
 20
7.808811856918853
  0
VERTEX
  8
0
  6
CONTINUOUS
 62
     7
 10
449.3600955506622
 20
7.840302981283062
  0
VERTEX
  8
0
  6
CONTINUOUS
 62
     7
 10
449.3264704025174
 20
7.865680504307814
  0
VERTEX
  8
0
  6
CONTINUOUS
 62
     7
 10
449.2918012671774
 20
7.889506716358026
  0
VERTEX
  8
0
  6
CONTINUOUS
 62
     7
 10
449.2561974401611
 20
7.911733569554854
  0
VERTEX
  8
0
  6
CONTINUOUS
 62
     7
 10
449.2197714461628
 20
7.932322346028952
  0
VERTEX
  8
0
  6
CONTINUOUS
 62
     7
 10
449.182637969504
 20
7.951243799644587
  0
VERTEX
  8
0
  6
CONTINUOUS
 62
     7
 10
449.1449127864584
 20
7.968478168426409
  0
VERTEX
  8
0
  6
CONTINUOUS
 62
     7
 10
449.1067117190013
 20
7.984015062115497
  0
SEQEND
  8
0
  6
CONTINUOUS
 62
     7
  0
LINE
  8
0
  6
CONTINUOUS
 62
     7
 10
432.3435868610239
 20
5.280483622083249
 11
432.3322434067447
 21
5.495455978587591
  0
ARC
  8
0
  6
CONTINUOUS
 62
     7
 10
458.1229768522785
 20
57.75000000000006
 40
0.50000000000001
 50
19.78488685911488
 51
90.00000000000001
  0
LINE
  8
0
  6
CONTINUOUS
 62
     7
 10
459.7353384708705
 20
54.74493377190869
 11
458.5934618955289
 21
57.91924486425773
  0
LINE
  8
0
  6
CONTINUOUS
 62
     7
 10
451.7222228377689
 20
57.75474739291661
 11
451.304686387483
 21
10.75245766390642
  0
POLYLINE
  8
0
  6
CONTINUOUS
 62
     7
 66
     1
  0
VERTEX
  8
0
  6
CONTINUOUS
 62
     7
 10
452.2854099317154
 20
58.24049875368292
  0
VERTEX
  8
0
  6
CONTINUOUS
 62
     7
 10
452.249923080991
 20
58.24035446643012
  0
VERTEX
  8
0
  6
CONTINUOUS
 62
     7
 10
452.2188265137647
 20
58.23990614622211
  0
VERTEX
  8
0
  6
CONTINUOUS
 62
     7
 10
452.1912286523622
 20
58.23913370478512
  0
VERTEX
  8
0
  6
CONTINUOUS
 62
     7
 10
452.1664094891393
 20
58.23800338048398
  0
VERTEX
  8
0
  6
CONTINUOUS
 62
     7
 10
452.1438260035401
 20
58.23646789197349
  0
VERTEX
  8
0
  6
CONTINUOUS
 62
     7
 10
452.123138507674
 20
58.23446665182447
  0
VERTEX
  8
0
  6
CONTINUOUS
 62
     7
 10
452.1085343201037
 20
58.23261628082138
  0
VERTEX
  8
0
  6
CONTINUOUS
 62
     7
 10
452.0944798823515
 20
58.23042704545919
  0
VERTEX
  8
0
  6
CONTINUOUS
 62
     7
 10
452.0807987116963
 20
58.22785930685701
  0
VERTEX
  8
0
  6
CONTINUOUS
 62
     7
 10
452.0673393851101
 20
58.22486966753206
  0
VERTEX
  8
0
  6
CONTINUOUS
 62
     7
 10
452.0596974472955
 20
58.22295393660811
  0
VERTEX
  8
0
  6
CONTINUOUS
 62
     7
 10
452.0520645160627
 20
58.2208758892201
  0
VERTEX
  8
0
  6
CONTINUOUS
 62
     7
 10
452.0444218396684
 20
58.21862590544558
  0
VERTEX
  8
0
  6
CONTINUOUS
 62
     7
 10
452.0367518727795
 20
58.21619370678315
  0
VERTEX
  8
0
  6
CONTINUOUS
 62
     7
 10
452.0287366235763
 20
58.21346310798674
  0
VERTEX
  8
0
  6
CONTINUOUS
 62
     7
 10
452.0201359077769
 20
58.2103238266558
  0
VERTEX
  8
0
  6
CONTINUOUS
 62
     7
 10
452.0109596012036
 20
58.20674092487522
  0
VERTEX
  8
0
  6
CONTINUOUS
 62
     7
 10
452.002468461334
 20
58.2032123492184
  0
VERTEX
  8
0
  6
CONTINUOUS
 62
     7
 10
451.9935577520059
 20
58.19928826063329
  0
VERTEX
  8
0
  6
CONTINUOUS
 62
     7
 10
451.9842407374152
 20
58.19494021767063
  0
VERTEX
  8
0
  6
CONTINUOUS
 62
     7
 10
451.9745331777897
 20
58.1901384410513
  0
VERTEX
  8
0
  6
CONTINUOUS
 62
     7
 10
451.9644539735731
 20
58.18485194939811
  0
VERTEX
  8
0
  6
CONTINUOUS
 62
     7
 10
451.9540236608951
 20
58.17904870705205
  0
VERTEX
  8
0
  6
CONTINUOUS
 62
     7
 10
451.9432654120943
 20
58.17269579461501
  0
VERTEX
  8
0
  6
CONTINUOUS
 62
     7
 10
451.9322053585956
 20
58.16575959841208
  0
VERTEX
  8
0
  6
CONTINUOUS
 62
     7
 10
451.919233400974
 20
58.15707453783158
  0
VERTEX
  8
0
  6
CONTINUOUS
 62
     7
 10
451.9059544374732
 20
58.14753182051222
  0
VERTEX
  8
0
  6
CONTINUOUS
 62
     7
 10
451.8924232088291
 20
58.13708024829714
  0
VERTEX
  8
0
  6
CONTINUOUS
 62
     7
 10
451.878700589544
 20
58.12566925361506
  0
VERTEX
  8
0
  6
CONTINUOUS
 62
     7
 10
451.8648538474871
 20
58.11324951282109
  0
VERTEX
  8
0
  6
CONTINUOUS
 62
     7
 10
451.8509568771855
 20
58.0997736181428
  0
VERTEX
  8
0
  6
CONTINUOUS
 62
     7
 10
451.8370903984492
 20
58.08519680931548
  0
VERTEX
  8
0
  6
CONTINUOUS
 62
     7
 10
451.8236153174271
 20
58.06980358747908
  0
VERTEX
  8
0
  6
CONTINUOUS
 62
     7
 10
451.810342865638
 20
58.0532784473696
  0
VERTEX
  8
0
  6
CONTINUOUS
 62
     7
 10
451.7973687503481
 20
58.03559126486046
  0
VERTEX
  8
0
  6
CONTINUOUS
 62
     7
 10
451.7847952137979
 20
58.01671756338655
  0
VERTEX
  8
0
  6
CONTINUOUS
 62
     7
 10
451.7752675944473
 20
58.00104392341502
  0
VERTEX
  8
0
  6
CONTINUOUS
 62
     7
 10
451.766109656843
 20
57.98462110313402
  0
VERTEX
  8
0
  6
CONTINUOUS
 62
     7
 10
451.7573791162689
 20
57.96744678274787
  0
VERTEX
  8
0
  6
CONTINUOUS
 62
     7
 10
451.7491358719935
 20
57.94952210383395
  0
VERTEX
  8
0
  6
CONTINUOUS
 62
     7
 10
451.742116963874
 20
57.93257985833283
  0
VERTEX
  8
0
  6
CONTINUOUS
 62
     7
 10
451.7355998509951
 20
57.91502809386595
  0
VERTEX
  8
0
  6
CONTINUOUS
 62
     7
 10
451.729633596216
 20
57.89687639175251
  0
VERTEX
  8
0
  6
CONTINUOUS
 62
     7
 10
451.7242682878547
 20
57.87813750357491
  0
VERTEX
  8
0
  6
CONTINUOUS
 62
     7
 10
451.7195548805097
 20
57.85882754110045
  0
VERTEX
  8
0
  6
CONTINUOUS
 62
     7
 10
451.7155450154677
 20
57.83896616249774
  0
VERTEX
  8
0
  6
CONTINUOUS
 62
     7
 10
451.7122908198755
 20
57.81857675318955
  0
VERTEX
  8
0
  6
CONTINUOUS
 62
     7
 10
451.7098446839391
 20
57.79768659954622
  0
VERTEX
  8
0
  6
CONTINUOUS
 62
     7
 10
451.7082590155236
 20
57.77632705348701
  0
VERTEX
  8
0
  6
CONTINUOUS
 62
     7
 10
451.7075859716501
 20
57.7545336859046
  0
SEQEND
  8
0
  6
CONTINUOUS
 62
     7
  0
ENDBLK
  8
0
  0
BLOCK
  8
0
  2
D_FRAME_VIEW_2048
 70
     0
 10
0.0
 20
0.0
  0
LINE
  8
0
  6
CONTINUOUS
 62
     7
 10
555.3785338262996
 20
64.36102871315688
 11
555.3784159169631
 21
64.36756325717444
  0
LINE
  8
0
  6
CONTINUOUS
 62
     7
 10
554.8005786702714
 20
31.25000000000005
 11
555.3785338262996
 21
64.36102871315691
  0
LINE
  8
0
  6
CONTINUOUS
 62
     7
 10
551.4093362791417
 20
31.25000000000005
 11
554.8005786702714
 21
31.25000000000005
  0
LINE
  8
0
  6
CONTINUOUS
 62
     7
 10
580.5
 20
32.25000000000006
 11
580.5
 21
31.25000000000006
  0
LINE
  8
0
  6
CONTINUOUS
 62
     7
 10
582.5
 20
32.25000000000006
 11
580.5
 21
32.25000000000006
  0
LINE
  8
0
  6
CONTINUOUS
 62
     7
 10
582.3571428571429
 20
33.25000000000006
 11
582.5
 21
32.25000000000006
  0
LINE
  8
0
  6
CONTINUOUS
 62
     7
 10
582.2142857142857
 20
34.25000000000006
 11
582.3571428571429
 21
33.25000000000006
  0
LINE
  8
0
  6
CONTINUOUS
 62
     7
 10
582.0714285714286
 20
35.25000000000006
 11
582.2142857142857
 21
34.25000000000006
  0
LINE
  8
0
  6
CONTINUOUS
 62
     7
 10
581.9285714285714
 20
36.25000000000006
 11
582.0714285714286
 21
35.25000000000006
  0
LINE
  8
0
  6
CONTINUOUS
 62
     7
 10
581.7857142857143
 20
37.25000000000006
 11
581.9285714285714
 21
36.25000000000006
  0
LINE
  8
0
  6
CONTINUOUS
 62
     7
 10
581.6428571428571
 20
38.25000000000006
 11
581.7857142857143
 21
37.25000000000006
  0
LINE
  8
0
  6
CONTINUOUS
 62
     7
 10
581.6226540919661
 20
38.39142135623737
 11
581.6428571428571
 21
38.25000000000006
  0
POLYLINE
  8
0
  6
CONTINUOUS
 62
     7
 66
     1
  0
VERTEX
  8
0
  6
CONTINUOUS
 62
     7
 10
580.6327045983049
 20
39.25000000000006
  0
VERTEX
  8
0
  6
CONTINUOUS
 62
     7
 10
580.6773428630735
 20
39.24900321586998
  0
VERTEX
  8
0
  6
CONTINUOUS
 62
     7
 10
580.7218921384143
 20
39.24601485063696
  0
VERTEX
  8
0
  6
CONTINUOUS
 62
     7
 10
580.7662636123059
 20
39.24104086181107
  0
VERTEX
  8
0
  6
CONTINUOUS
 62
     7
 10
580.8103688271863
 20
39.23409116537856
  0
VERTEX
  8
0
  6
CONTINUOUS
 62
     7
 10
580.854119856299
 20
39.22517961603364
  0
VERTEX
  8
0
  6
CONTINUOUS
 62
     7
 10
580.8974294789812
 20
39.21432397955827
  0
VERTEX
  8
0
  6
CONTINUOUS
 62
     7
 10
580.9402113545434
 20
39.20154589740474
  0
VERTEX
  8
0
  6
CONTINUOUS
 62
     7
 10
580.9823801943967
 20
39.18687084355206
  0
VERTEX
  8
0
  6
CONTINUOUS
 62
     7
 10
581.0238519320802
 20
39.17032807372183
  0
VERTEX
  8
0
  6
CONTINUOUS
 62
     7
 10
581.0645438908542
 20
39.1519505670549
  0
VERTEX
  8
0
  6
CONTINUOUS
 62
     7
 10
581.104374948521
 20
39.13177496036526
  0
VERTEX
  8
0
  6
CONTINUOUS
 62
     7
 10
581.1432656991484
 20
39.10984147510202
  0
VERTEX
  8
0
  6
CONTINUOUS
 62
     7
 10
581.1811386113702
 20
39.08619383716528
  0
VERTEX
  8
0
  6
CONTINUOUS
 62
     7
 10
581.2179181829508
 20
39.06087918973542
  0
VERTEX
  8
0
  6
CONTINUOUS
 62
     7
 10
581.2535310913037
 20
39.03394799929009
  0
VERTEX
  8
0
  6
CONTINUOUS
 62
     7
 10
581.287906339665
 20
39.00545395499577
  0
VERTEX
  8
0
  6
CONTINUOUS
 62
     7
 10
581.3209753986308
 20
38.97545386167476
  0
VERTEX
  8
0
  6
CONTINUOUS
 62
     7
 10
581.3526723427748
 20
38.94400752656091
  0
VERTEX
  8
0
  6
CONTINUOUS
 62
     7
 10
581.3829339820749
 20
38.9111776400698
  0
VERTEX
  8
0
  6
CONTINUOUS
 62
     7
 10
581.4116999878877
 20
38.87702965082114
  0
VERTEX
  8
0
  6
CONTINUOUS
 62
     7
 10
581.4389130132171
 20
38.84163163516241
  0
VERTEX
  8
0
  6
CONTINUOUS
 62
     7
 10
581.4645188070394
 20
38.80505416145412
  0
VERTEX
  8
0
  6
CONTINUOUS
 62
     7
 10
581.4884663224568
 20
38.7673701493869
  0
VERTEX
  8
0
  6
CONTINUOUS
 62
     7
 10
581.5107078184628
 20
38.72865472461111
  0
VERTEX
  8
0
  6
CONTINUOUS
 62
     7
 10
581.5311989551167
 20
38.68898506896876
  0
VERTEX
  8
0
  6
CONTINUOUS
 62
     7
 10
581.5498988819389
 20
38.64844026662624
  0
VERTEX
  8
0
  6
CONTINUOUS
 62
     7
 10
581.5667703193488
 20
38.60710114641461
  0
VERTEX
  8
0
  6
CONTINUOUS
 62
     7
 10
581.5817796329845
 20
38.56505012069182
  0
VERTEX
  8
0
  6
CONTINUOUS
 62
     7
 10
581.5948969007545
 20
38.52237102104806
  0
VERTEX
  8
0
  6
CONTINUOUS
 62
     7
 10
581.6060959724903
 20
38.47914893118175
  0
VERTEX
  8
0
  6
CONTINUOUS
 62
     7
 10
581.6153545220776
 20
38.4354700172794
  0
VERTEX
  8
0
  6
CONTINUOUS
 62
     7
 10
581.6226540919661
 20
38.39142135623738
  0
SEQEND
  8
0
  6
CONTINUOUS
 62
     7
  0
LINE
  8
0
  6
CONTINUOUS
 62
     7
 10
580.6327045983049
 20
39.25000000000006
 11
572.3672954016951
 21
39.25000000000006
  0
POLYLINE
  8
0
  6
CONTINUOUS
 62
     7
 66
     1
  0
VERTEX
  8
0
  6
CONTINUOUS
 62
     7
 10
571.3773459080339
 20
38.39142135623738
  0
VERTEX
  8
0
  6
CONTINUOUS
 62
     7
 10
571.3846454779224
 20
38.43547001727939
  0
VERTEX
  8
0
  6
CONTINUOUS
 62
     7
 10
571.3939040275097
 20
38.47914893118175
  0
VERTEX
  8
0
  6
CONTINUOUS
 62
     7
 10
571.4051030992455
 20
38.52237102104806
  0
VERTEX
  8
0
  6
CONTINUOUS
 62
     7
 10
571.4182203670155
 20
38.56505012069182
  0
VERTEX
  8
0
  6
CONTINUOUS
 62
     7
 10
571.4332296806512
 20
38.60710114641461
  0
VERTEX
  8
0
  6
CONTINUOUS
 62
     7
 10
571.4501011180611
 20
38.64844026662625
  0
VERTEX
  8
0
  6
CONTINUOUS
 62
     7
 10
571.4688010448834
 20
38.68898506896877
  0
VERTEX
  8
0
  6
CONTINUOUS
 62
     7
 10
571.4892921815372
 20
38.72865472461111
  0
VERTEX
  8
0
  6
CONTINUOUS
 62
     7
 10
571.5115336775432
 20
38.76737014938691
  0
VERTEX
  8
0
  6
CONTINUOUS
 62
     7
 10
571.5354811929606
 20
38.80505416145413
  0
VERTEX
  8
0
  6
CONTINUOUS
 62
     7
 10
571.5610869867829
 20
38.84163163516241
  0
VERTEX
  8
0
  6
CONTINUOUS
 62
     7
 10
571.5883000121123
 20
38.87702965082114
  0
VERTEX
  8
0
  6
CONTINUOUS
 62
     7
 10
571.6170660179251
 20
38.91117764006981
  0
VERTEX
  8
0
  6
CONTINUOUS
 62
     7
 10
571.6473276572253
 20
38.94400752656092
  0
VERTEX
  8
0
  6
CONTINUOUS
 62
     7
 10
571.6790246013692
 20
38.97545386167476
  0
VERTEX
  8
0
  6
CONTINUOUS
 62
     7
 10
571.712093660335
 20
39.00545395499577
  0
VERTEX
  8
0
  6
CONTINUOUS
 62
     7
 10
571.7464689086963
 20
39.03394799929009
  0
VERTEX
  8
0
  6
CONTINUOUS
 62
     7
 10
571.7820818170492
 20
39.06087918973542
  0
VERTEX
  8
0
  6
CONTINUOUS
 62
     7
 10
571.8188613886298
 20
39.08619383716528
  0
VERTEX
  8
0
  6
CONTINUOUS
 62
     7
 10
571.8567343008516
 20
39.10984147510202
  0
VERTEX
  8
0
  6
CONTINUOUS
 62
     7
 10
571.895625051479
 20
39.13177496036526
  0
VERTEX
  8
0
  6
CONTINUOUS
 62
     7
 10
571.9354561091458
 20
39.1519505670549
  0
VERTEX
  8
0
  6
CONTINUOUS
 62
     7
 10
571.9761480679198
 20
39.17032807372183
  0
VERTEX
  8
0
  6
CONTINUOUS
 62
     7
 10
572.0176198056033
 20
39.18687084355207
  0
VERTEX
  8
0
  6
CONTINUOUS
 62
     7
 10
572.0597886454566
 20
39.20154589740474
  0
VERTEX
  8
0
  6
CONTINUOUS
 62
     7
 10
572.1025705210188
 20
39.21432397955827
  0
VERTEX
  8
0
  6
CONTINUOUS
 62
     7
 10
572.145880143701
 20
39.22517961603365
  0
VERTEX
  8
0
  6
CONTINUOUS
 62
     7
 10
572.1896311728137
 20
39.23409116537856
  0
VERTEX
  8
0
  6
CONTINUOUS
 62
     7
 10
572.2337363876941
 20
39.24104086181107
  0
VERTEX
  8
0
  6
CONTINUOUS
 62
     7
 10
572.2781078615857
 20
39.24601485063696
  0
VERTEX
  8
0
  6
CONTINUOUS
 62
     7
 10
572.3226571369265
 20
39.24900321586998
  0
VERTEX
  8
0
  6
CONTINUOUS
 62
     7
 10
572.3672954016951
 20
39.25000000000006
  0
SEQEND
  8
0
  6
CONTINUOUS
 62
     7
  0
LINE
  8
0
  6
CONTINUOUS
 62
     7
 10
571.3571428571429
 20
38.25000000000006
 11
571.3773459080339
 21
38.39142135623737
  0
LINE
  8
0
  6
CONTINUOUS
 62
     7
 10
571.2142857142857
 20
37.25000000000005
 11
571.3571428571429
 21
38.25000000000006
  0
LINE
  8
0
  6
CONTINUOUS
 62
     7
 10
571.0714285714286
 20
36.25000000000006
 11
571.2142857142857
 21
37.25000000000005
  0
LINE
  8
0
  6
CONTINUOUS
 62
     7
 10
570.9285714285714
 20
35.25000000000006
 11
571.0714285714286
 21
36.25000000000006
  0
LINE
  8
0
  6
CONTINUOUS
 62
     7
 10
570.7857142857143
 20
34.25000000000006
 11
570.9285714285714
 21
35.25000000000006
  0
LINE
  8
0
  6
CONTINUOUS
 62
     7
 10
570.6428571428571
 20
33.25000000000006
 11
570.7857142857143
 21
34.25000000000006
  0
LINE
  8
0
  6
CONTINUOUS
 62
     7
 10
570.5
 20
32.25000000000006
 11
570.6428571428571
 21
33.25000000000006
  0
LINE
  8
0
  6
CONTINUOUS
 62
     7
 10
570.5
 20
32.25000000000006
 11
572.5
 21
32.25000000000006
  0
LINE
  8
0
  6
CONTINUOUS
 62
     7
 10
572.5
 20
32.25000000000006
 11
572.5
 21
31.25000000000007
  0
LINE
  8
0
  6
CONTINUOUS
 62
     7
 10
554.8005786702714
 20
31.25000000000005
 11
572.5
 21
31.25000000000007
  0
LINE
  8
0
  6
CONTINUOUS
 62
     7
 10
580.5
 20
31.25000000000006
 11
664.857864376269
 21
31.25000000000005
  0
LINE
  8
0
  6
CONTINUOUS
 62
     7
 10
572.5
 20
33.25000000000006
 11
572.5
 21
32.25000000000006
  0
LINE
  8
0
  6
CONTINUOUS
 62
     7
 10
580.5
 20
33.25000000000006
 11
580.5
 21
32.25000000000006
  0
LINE
  8
0
  6
CONTINUOUS
 62
     7
 10
582.3571428571429
 20
33.25000000000006
 11
570.6428571428571
 21
33.25000000000006
  0
LINE
  8
0
  6
CONTINUOUS
 62
     7
 10
582.2142857142857
 20
34.25000000000006
 11
570.7857142857143
 21
34.25000000000006
  0
LINE
  8
0
  6
CONTINUOUS
 62
     7
 10
582.0714285714286
 20
35.25000000000006
 11
570.9285714285714
 21
35.25000000000006
  0
LINE
  8
0
  6
CONTINUOUS
 62
     7
 10
581.9285714285714
 20
36.25000000000006
 11
571.0714285714286
 21
36.25000000000006
  0
LINE
  8
0
  6
CONTINUOUS
 62
     7
 10
581.7857142857143
 20
37.25000000000006
 11
571.2142857142857
 21
37.25000000000005
  0
LINE
  8
0
  6
CONTINUOUS
 62
     7
 10
581.6428571428571
 20
38.25000000000006
 11
571.3571428571429
 21
38.25000000000006
  0
LINE
  8
0
  6
CONTINUOUS
 62
     7
 10
555.3859983208529
 20
64.83736540973494
 11
555.3784159169633
 21
64.36756325717447
  0
LINE
  8
0
  6
CONTINUOUS
 62
     7
 10
555.3863303806022
 20
64.839119191339
 11
555.3859983208529
 21
64.83736540973494
  0
LINE
  8
0
  6
CONTINUOUS
 62
     7
 10
551.5693662607916
 20
63.86897123460214
 11
551.0
 21
31.25000000000005
  0
LINE
  8
0
  6
CONTINUOUS
 62
     7
 10
551.0
 20
31.25000000000005
 11
551.4093362791417
 21
31.25000000000005
  0
LINE
  8
0
  6
CONTINUOUS
 62
     7
 10
555.4173837723663
 20
66.61816681400748
 11
555.4173592348646
 21
66.62073176945036
  0
LINE
  8
0
  6
CONTINUOUS
 62
     7
 10
555.3863303806022
 20
64.839119191339
 11
555.4173837723664
 21
66.61816681400751
  0
LINE
  8
0
  6
CONTINUOUS
 62
     7
 10
551.5982655804702
 20
65.52461215014144
 11
551.5693662607916
 21
63.86897123460214
  0
LINE
  8
0
  6
CONTINUOUS
 62
     7
 10
706.0710678118654
 20
31.25000000000005
 11
671.9289321881347
 21
31.25000000000005
  0
LINE
  8
0
  6
CONTINUOUS
 62
     7
 10
555.4195853036035
 20
66.74998724009212
 11
555.4173592348646
 21
66.62073176945036
  0
POLYLINE
  8
0
  6
CONTINUOUS
 62
     7
 10
0.0
 20
0.0
 30
0.0
 66
     1
 70
     8
  0
VERTEX
  8
0
  6
CONTINUOUS
 62
     7
 10
555.4196548049518
 20
66.75000000000006
 30
0.0
 70
    32
  0
VERTEX
  8
0
  6
CONTINUOUS
 62
     7
 10
555.4195853036035
 20
66.74998724009212
 30
0.0
 70
    32
  0
SEQEND
  8
0
  6
CONTINUOUS
 62
     7
  0
LINE
  8
0
  6
CONTINUOUS
 62
     7
 10
664.8578643762692
 20
66.75000000000003
 11
555.4196548049517
 21
66.75000000000006
  0
LINE
  8
0
  6
CONTINUOUS
 62
     7
 10
665.0717146579098
 20
66.75000000000003
 11
664.8578643762692
 21
66.75000000000003
  0
LINE
  8
0
  6
CONTINUOUS
 62
     7
 10
555.4195853036035
 20
66.74998724009212
 11
552.0099329467097
 21
66.124001538669
  0
ARC
  8
0
  6
CONTINUOUS
 62
     7
 10
552.100220061492
 20
65.63222085899126
 40
0.4999999999999366
 50
100.4032088313052
 51
178.999999999999
  0
LINE
  8
0
  6
CONTINUOUS
 62
     7
 10
551.6002962139138
 20
65.6409470622099
 11
551.5982655804702
 21
65.52461215014144
  0
LINE
  8
0
  6
CONTINUOUS
 62
     7
 10
665.0717146579098
 20
66.75000000000003
 11
699.2138502816407
 21
66.75000000000006
  0
LINE
  8
0
  6
CONTINUOUS
 62
     7
 10
708.4220448439718
 20
64.36102871315691
 11
709.0
 21
31.25000000000005
  0
LINE
  8
0
  6
CONTINUOUS
 62
     7
 10
709.0
 20
31.25000000000005
 11
706.0710678118654
 21
31.25000000000005
  0
ARC
  8
0
  6
CONTINUOUS
 62
     7
 10
707.9221209963936
 20
64.35230250993826
 40
0.4999999999999951
 50
0.9999999999994884
 51
76.81367155767254
  0
LINE
  8
0
  6
CONTINUOUS
 62
     7
 10
708.0361802735698
 20
64.839119191339
 11
700.4430227403759
 21
66.61816681400751
  0
ARC
  8
0
  6
CONTINUOUS
 62
     7
 10
699.3024299686136
 20
61.75000000000006
 40
4.999999999999997
 50
76.81367155767242
 51
90.0
  0
LINE
  8
0
  6
CONTINUOUS
 62
     7
 10
699.2138502816407
 20
66.75000000000006
 11
699.3024299686136
 21
66.75000000000006
  0
LINE
  8
0
  6
CONTINUOUS
 62
     7
 10
555.2893204882615
 20
3.250000000000065
 11
664.656051754077
 21
3.250000000000065
  0
LINE
  8
0
  6
CONTINUOUS
 62
     7
 10
555.2893204882615
 20
3.250000000000065
 11
554.8005786702714
 21
31.25000000000006
  0
LINE
  8
0
  6
CONTINUOUS
 62
     7
 10
554.8005786702714
 20
31.25000000000006
 11
572.5
 21
31.25000000000006
  0
LINE
  8
0
  6
CONTINUOUS
 62
     7
 10
572.5
 20
31.25000000000006
 11
580.5
 21
31.25000000000006
  0
LINE
  8
0
  6
CONTINUOUS
 62
     7
 10
580.5
 20
31.25000000000006
 11
664.857864376269
 21
31.25000000000005
  0
LINE
  8
0
  6
CONTINUOUS
 62
     7
 10
664.857864376269
 20
31.25000000000005
 11
664.8584952435874
 21
31.25000000000006
  0
LINE
  8
0
  6
CONTINUOUS
 62
     7
 10
664.656051754077
 20
3.250000000000065
 11
671.7260426080653
 21
3.250000000000065
  0
LINE
  8
0
  6
CONTINUOUS
 62
     7
 10
671.9284860975757
 20
31.25000000000006
 11
664.8584952435874
 21
31.25000000000006
  0
LINE
  8
0
  6
CONTINUOUS
 62
     7
 10
551.8980780971317
 20
3.250000000000065
 11
555.2893204882615
 21
3.250000000000065
  0
LINE
  8
0
  6
CONTINUOUS
 62
     7
 10
554.8005786702714
 20
31.25000000000006
 11
551.4093362791417
 21
31.25000000000006
  0
LINE
  8
0
  6
CONTINUOUS
 62
     7
 10
550.9999999999999
 20
31.25000000000006
 11
551.4887418179901
 21
3.250000000000065
  0
LINE
  8
0
  6
CONTINUOUS
 62
     7
 10
551.48874181799
 20
3.250000000000065
 11
551.8980780971317
 21
3.250000000000065
  0
LINE
  8
0
  6
CONTINUOUS
 62
     7
 10
551.4093362791417
 20
31.25000000000006
 11
550.9999999999999
 21
31.25000000000006
  0
LINE
  8
0
  6
CONTINUOUS
 62
     7
 10
705.5827720844342
 20
3.250000000000065
 11
671.7260426080653
 21
3.250000000000065
  0
LINE
  8
0
  6
CONTINUOUS
 62
     7
 10
706.0715139024243
 20
31.25000000000007
 11
706.0710678118654
 21
31.25000000000005
  0
LINE
  8
0
  6
CONTINUOUS
 62
     7
 10
706.0710678118654
 20
31.25000000000005
 11
671.9289321881347
 21
31.25000000000006
  0
LINE
  8
0
  6
CONTINUOUS
 62
     7
 10
671.9289321881347
 20
31.25000000000006
 11
671.9284860975757
 21
31.25000000000006
  0
LINE
  8
0
  6
CONTINUOUS
 62
     7
 10
709.0
 20
31.25000000000007
 11
708.5112581820099
 21
3.250000000000069
  0
LINE
  8
0
  6
CONTINUOUS
 62
     7
 10
708.5112581820099
 20
3.250000000000065
 11
705.5827720844342
 21
3.250000000000065
  0
LINE
  8
0
  6
CONTINUOUS
 62
     7
 10
706.0715139024243
 20
31.25000000000007
 11
709.0
 21
31.25000000000007
  0
ENDBLK
  8
0
  0
BLOCK
  8
0
  2
D_FRAME_DRAWING_17
 70
     0
 10
0.0
 20
0.0
  0
LINE
  8
0
  6
CONTINUOUS
 62
     7
 10
0.0
 20
0.0
 11
210.0
 21
0.0
  0
LINE
  8
0
  6
CONTINUOUS
 62
     7
 10
210.0
 20
0.0
 11
210.0
 21
297.0
  0
LINE
  8
0
  6
CONTINUOUS
 62
     7
 10
210.0
 20
297.0
 11
0.0
 21
297.0
  0
LINE
  8
0
  6
CONTINUOUS
 62
     7
 10
0.0
 20
297.0
 11
0.0
 21
0.0
  0
ENDBLK
  8
0
  0
BLOCK
  8
0
  2
D_FRAME_VIEW_1288
 70
     0
 10
0.0
 20
0.0
  0
LINE
  8
0
  6
CONTINUOUS
 62
     7
 10
401.5862740623471
 20
130.4195853036036
 11
400.4679807121789
 21
130.4173592348647
  0
LINE
  8
0
  6
CONTINUOUS
 62
     7
 10
469.3137259376529
 20
130.4195853036036
 11
470.4320192878211
 21
130.4173592348647
  0
LINE
  8
0
  6
CONTINUOUS
 62
     7
 10
401.5975700313863
 20
130.4196548049518
 11
401.5862740623472
 21
130.4195853036036
  0
LINE
  8
0
  6
CONTINUOUS
 62
     7
 10
469.3024299686136
 20
130.4196548049518
 11
401.5975700313863
 21
130.4196548049517
  0
LINE
  8
0
  6
CONTINUOUS
 62
     7
 10
469.3137259376529
 20
130.4195853036036
 11
469.3024299686137
 21
130.4196548049518
  0
LINE
  8
0
  6
CONTINUOUS
 62
     7
 10
325.4196548049517
 20
274.3024299686137
 11
325.4195853036036
 21
274.3137259376529
  0
LINE
  8
0
  6
CONTINUOUS
 62
     7
 10
325.4196548049517
 20
274.3024299686136
 11
325.4196548049517
 21
206.5975700313864
  0
LINE
  8
0
  6
CONTINUOUS
 62
     7
 10
325.4195853036036
 20
206.5862740623472
 11
325.4196548049517
 21
206.5975700313864
  0
LINE
  8
0
  6
CONTINUOUS
 62
     7
 10
325.4195853036036
 20
274.3137259376529
 11
325.4173592348647
 21
275.4320192878211
  0
LINE
  8
0
  6
CONTINUOUS
 62
     7
 10
325.4173592348647
 20
275.4320192878212
 11
325.4173837723663
 21
275.443022740376
  0
LINE
  8
0
  6
CONTINUOUS
 62
     7
 10
400.4679807121789
 20
130.4173592348648
 11
400.456977259624
 21
130.4173837723664
  0
LINE
  8
0
  6
CONTINUOUS
 62
     7
 10
325.4195853036036
 20
206.5862740623472
 11
325.4173592348647
 21
205.4679807121789
  0
LINE
  8
0
  6
CONTINUOUS
 62
     7
 10
470.443022740376
 20
130.4173837723664
 11
470.4320192878212
 21
130.4173592348648
  0
LINE
  8
0
  6
CONTINUOUS
 62
     7
 10
325.4173837723663
 20
205.456977259624
 11
325.4173592348647
 21
205.4679807121789
  0
LINE
  8
0
  6
CONTINUOUS
 62
     7
 10
392.8638197264302
 20
130.3863303806023
 11
392.8565777948704
 21
130.3859983208529
  0
LINE
  8
0
  6
CONTINUOUS
 62
     7
 10
400.456977259624
 20
130.4173837723663
 11
392.8638197264302
 21
130.3863303806023
  0
LINE
  8
0
  6
CONTINUOUS
 62
     7
 10
325.4173837723663
 20
205.456977259624
 11
325.3863303806023
 21
197.8638197264302
  0
LINE
  8
0
  6
CONTINUOUS
 62
     7
 10
325.3859983208528
 20
197.8565777948704
 11
325.3863303806023
 21
197.8638197264302
  0
LINE
  8
0
  6
CONTINUOUS
 62
     7
 10
478.0361802735699
 20
130.3863303806023
 11
470.443022740376
 21
130.4173837723664
  0
LINE
  8
0
  6
CONTINUOUS
 62
     7
 10
478.0434222051297
 20
130.385998320853
 11
478.0361802735698
 21
130.3863303806023
  0
LINE
  8
0
  6
CONTINUOUS
 62
     7
 10
325.3863303806023
 20
283.0361802735698
 11
325.3859983208529
 21
283.0434222051297
  0
LINE
  8
0
  6
CONTINUOUS
 62
     7
 10
325.3863303806023
 20
283.0361802735699
 11
325.4173837723663
 21
275.443022740376
  0
LINE
  8
0
  6
CONTINUOUS
 62
     7
 10
321.0
 20
198.0163526336412
 11
321.0
 21
199.7
  0
LINE
  8
0
  6
CONTINUOUS
 62
     7
 10
321.5387370280343
 20
199.9693479993903
 11
321.0
 21
199.7
  0
LINE
  8
0
  6
CONTINUOUS
 62
     7
 10
321.5471775695996
 20
200.360092788497
 11
321.5387370280343
 21
199.9693479993903
  0
LINE
  8
0
  6
CONTINUOUS
 62
     7
 10
321.568672325383
 20
205.8604968007756
 11
321.5471775695996
 21
200.360092788497
  0
LINE
  8
0
  6
CONTINUOUS
 62
     7
 10
321.5707806231528
 20
206.9528585250292
 11
321.568672325383
 21
205.8604968007756
  0
LINE
  8
0
  6
CONTINUOUS
 62
     7
 10
321.5707806231528
 20
206.9528585250292
 11
321.5707806231527
 21
273.9471414749709
  0
LINE
  8
0
  6
CONTINUOUS
 62
     7
 10
321.568672325383
 20
275.0395031992245
 11
321.5707806231527
 21
273.9471414749709
  0
LINE
  8
0
  6
CONTINUOUS
 62
     7
 10
321.5471775695996
 20
280.5399072115031
 11
321.568672325383
 21
275.0395031992245
  0
LINE
  8
0
  6
CONTINUOUS
 62
     7
 10
321.5387370280343
 20
280.9306520006098
 11
321.5471775695996
 21
280.5399072115031
  0
LINE
  8
0
  6
CONTINUOUS
 62
     7
 10
321.5387370280343
 20
280.9306520006098
 11
321.0
 21
281.2
  0
LINE
  8
0
  6
CONTINUOUS
 62
     7
 10
321.0
 20
281.2
 11
321.0
 21
282.8836473663588
  0
LINE
  8
0
  6
CONTINUOUS
 62
     7
 10
476.2
 20
126.0000000000001
 11
477.8836473663588
 21
126.0000000000001
  0
LINE
  8
0
  6
CONTINUOUS
 62
     7
 10
475.9306520006098
 20
126.5387370280344
 11
476.2
 21
126.0000000000001
  0
LINE
  8
0
  6
CONTINUOUS
 62
     7
 10
475.9306520006098
 20
126.5387370280344
 11
475.5399072115031
 21
126.5471775695997
  0
LINE
  8
0
  6
CONTINUOUS
 62
     7
 10
475.5399072115031
 20
126.5471775695997
 11
470.0395031992245
 21
126.568672325383
  0
LINE
  8
0
  6
CONTINUOUS
 62
     7
 10
470.0395031992245
 20
126.568672325383
 11
468.9471414749709
 21
126.5707806231528
  0
LINE
  8
0
  6
CONTINUOUS
 62
     7
 10
401.9528585250292
 20
126.5707806231527
 11
468.9471414749709
 21
126.5707806231528
  0
LINE
  8
0
  6
CONTINUOUS
 62
     7
 10
401.9528585250292
 20
126.5707806231527
 11
400.8604968007755
 21
126.568672325383
  0
LINE
  8
0
  6
CONTINUOUS
 62
     7
 10
400.8604968007755
 20
126.568672325383
 11
395.360092788497
 21
126.5471775695996
  0
LINE
  8
0
  6
CONTINUOUS
 62
     7
 10
395.360092788497
 20
126.5471775695996
 11
394.9693479993903
 21
126.5387370280344
  0
LINE
  8
0
  6
CONTINUOUS
 62
     7
 10
394.9693479993903
 20
126.5387370280344
 11
394.7
 21
126.0
  0
LINE
  8
0
  6
CONTINUOUS
 62
     7
 10
393.0163526336412
 20
126.0
 11
394.7
 21
126.0
  0
LINE
  8
0
  6
CONTINUOUS
 62
     7
 10
392.4781119482759
 20
130.3784159169633
 11
392.8565777948704
 21
130.3859983208529
  0
LINE
  8
0
  6
CONTINUOUS
 62
     7
 10
392.4779551560282
 20
130.3785338262996
 11
392.4781119482759
 21
130.3784159169633
  0
LINE
  8
0
  6
CONTINUOUS
 62
     7
 10
325.3785338262996
 20
197.4779551560283
 11
325.3784159169633
 21
197.4781119482759
  0
LINE
  8
0
  6
CONTINUOUS
 62
     7
 10
325.3784159169633
 20
197.4781119482759
 11
325.3859983208529
 21
197.8565777948704
  0
LINE
  8
0
  6
CONTINUOUS
 62
     7
 10
325.3859983208529
 20
283.0434222051297
 11
325.3784159169633
 21
283.4218880517242
  0
LINE
  8
0
  6
CONTINUOUS
 62
     7
 10
325.3784159169633
 20
283.4218880517242
 11
325.3785338262996
 21
283.4220448439718
  0
LINE
  8
0
  6
CONTINUOUS
 62
     7
 10
478.4218880517241
 20
130.3784159169633
 11
478.4220448439718
 21
130.3785338262997
  0
LINE
  8
0
  6
CONTINUOUS
 62
     7
 10
478.0434222051297
 20
130.385998320853
 11
478.4218880517241
 21
130.3784159169633
  0
LINE
  8
0
  6
CONTINUOUS
 62
     7
 10
391.9
 20
129.8005786702714
 11
392.5247025457344
 21
126.4093362791417
  0
LINE
  8
0
  6
CONTINUOUS
 62
     7
 10
392.4779551560282
 20
130.3785338262996
 11
391.9
 21
129.8005786702714
  0
LINE
  8
0
  6
CONTINUOUS
 62
     7
 10
324.8005786702715
 20
284.0
 11
325.3785338262996
 21
283.4220448439718
  0
LINE
  8
0
  6
CONTINUOUS
 62
     7
 10
321.4093362791417
 20
283.3752974542656
 11
324.8005786702715
 21
284.0
  0
LINE
  8
0
  6
CONTINUOUS
 62
     7
 10
325.3785338262996
 20
197.4779551560283
 11
324.8005786702715
 21
196.9
  0
LINE
  8
0
  6
CONTINUOUS
 62
     7
 10
324.8005786702715
 20
196.9
 11
321.4093362791417
 21
197.5247025457344
  0
LINE
  8
0
  6
CONTINUOUS
 62
     7
 10
479.0
 20
129.8005786702715
 11
478.4220448439718
 21
130.3785338262997
  0
LINE
  8
0
  6
CONTINUOUS
 62
     7
 10
478.3752974542656
 20
126.4093362791418
 11
479.0
 21
129.8005786702715
  0
LINE
  8
0
  6
CONTINUOUS
 62
     7
 10
391.3142135623731
 20
176.4857864376269
 11
371.4857864376269
 21
196.3142135623731
  0
ARC
  8
0
  6
CONTINUOUS
 62
     7
 10
370.0715728752538
 20
194.9
 40
2.000000000000012
 50
45.00000000000057
 51
90.0
  0
LINE
  8
0
  6
CONTINUOUS
 62
     7
 10
441.9289321881345
 20
281.0710678118655
 11
476.0710678118655
 21
246.9289321881346
  0
ARC
  8
0
  6
CONTINUOUS
 62
     7
 10
434.857864376269
 20
274.0
 40
10.00000000000001
 50
68.99999999999994
 51
90.0
  0
ARC
  8
0
  6
CONTINUOUS
 62
     7
 10
434.857864376269
 20
274.0
 40
10.00000000000003
 50
66.00000000000024
 51
68.99999999999989
  0
ARC
  8
0
  6
CONTINUOUS
 62
     7
 10
434.857864376269
 20
274.0
 40
9.999999999999996
 50
44.99999999999983
 51
65.99999999999983
  0
ARC
  8
0
  6
CONTINUOUS
 62
     7
 10
389.9
 20
175.0715728752538
 40
1.999999999999973
 50
31.82295221452637
 51
44.99999999999944
  0
ARC
  8
0
  6
CONTINUOUS
 62
     7
 10
389.9
 20
175.0715728752538
 40
1.999999999999955
 50
13.17704779931461
 51
31.82295221452637
  0
ARC
  8
0
  6
CONTINUOUS
 62
     7
 10
389.9
 20
175.0715728752538
 40
2.000000000000005
 50
0.0
 51
13.17704779931455
  0
LINE
  8
0
  6
CONTINUOUS
 62
     7
 10
370.0715728752538
 20
196.9
 11
350.5
 21
196.9
  0
LINE
  8
0
  6
CONTINUOUS
 62
     7
 10
342.5
 20
196.9
 11
324.8005786702715
 21
196.9
  0
ARC
  8
0
  6
CONTINUOUS
 62
     7
 10
468.9999999999999
 20
239.8578643762691
 40
10.00000000000001
 50
0.0000000000000035
 51
21.00000000000011
  0
ARC
  8
0
  6
CONTINUOUS
 62
     7
 10
468.9999999999999
 20
239.8578643762691
 40
10.00000000000003
 50
21.00000000000011
 51
24.00000000000016
  0
ARC
  8
0
  6
CONTINUOUS
 62
     7
 10
468.9999999999999
 20
239.8578643762691
 40
10.00000000000006
 50
24.00000000000015
 51
45.00000000000025
  0
LINE
  8
0
  6
CONTINUOUS
 62
     7
 10
324.8005786702715
 20
284.0
 11
342.5
 21
284.0
  0
LINE
  8
0
  6
CONTINUOUS
 62
     7
 10
350.4999999999999
 20
284.0
 11
434.857864376269
 21
284.0
  0
LINE
  8
0
  6
CONTINUOUS
 62
     7
 10
478.9999999999999
 20
155.5000000000001
 11
478.9999999999999
 21
239.8578643762691
  0
LINE
  8
0
  6
CONTINUOUS
 62
     7
 10
479.0
 20
129.8005786702715
 11
478.9999999999999
 21
147.5000000000001
  0
LINE
  8
0
  6
CONTINUOUS
 62
     7
 10
391.9
 20
147.5
 11
391.9
 21
129.8005786702714
  0
LINE
  8
0
  6
CONTINUOUS
 62
     7
 10
391.9
 20
175.0715728752538
 11
391.9
 21
155.5
  0
POLYLINE
  8
0
  6
CONTINUOUS
 62
     7
 66
     1
  0
VERTEX
  8
0
  6
CONTINUOUS
 62
     7
 10
392.5247025457344
 20
126.4093362791417
  0
VERTEX
  8
0
  6
CONTINUOUS
 62
     7
 10
392.5521931537426
 20
126.3142179608492
  0
VERTEX
  8
0
  6
CONTINUOUS
 62
     7
 10
392.5978881929572
 20
126.226386648617
  0
VERTEX
  8
0
  6
CONTINUOUS
 62
     7
 10
392.6599960823665
 20
126.1492859747066
  0
VERTEX
  8
0
  6
CONTINUOUS
 62
     7
 10
392.7360817367346
 20
126.0859388515774
  0
VERTEX
  8
0
  6
CONTINUOUS
 62
     7
 10
392.8231620398201
 20
126.0388289515251
  0
VERTEX
  8
0
  6
CONTINUOUS
 62
     7
 10
392.9178228044337
 20
126.0098033284935
  0
VERTEX
  8
0
  6
CONTINUOUS
 62
     7
 10
393.0163526336412
 20
126.0
  0
SEQEND
  8
0
  6
CONTINUOUS
 62
     7
  0
POLYLINE
  8
0
  6
CONTINUOUS
 62
     7
 66
     1
  0
VERTEX
  8
0
  6
CONTINUOUS
 62
     7
 10
321.0000000000001
 20
198.0163526336412
  0
VERTEX
  8
0
  6
CONTINUOUS
 62
     7
 10
321.0098033284935
 20
197.9178228044337
  0
VERTEX
  8
0
  6
CONTINUOUS
 62
     7
 10
321.0388289515251
 20
197.8231620398201
  0
VERTEX
  8
0
  6
CONTINUOUS
 62
     7
 10
321.0859388515775
 20
197.7360817367346
  0
VERTEX
  8
0
  6
CONTINUOUS
 62
     7
 10
321.1492859747066
 20
197.6599960823665
  0
VERTEX
  8
0
  6
CONTINUOUS
 62
     7
 10
321.2263866486171
 20
197.5978881929572
  0
VERTEX
  8
0
  6
CONTINUOUS
 62
     7
 10
321.3142179608492
 20
197.5521931537426
  0
VERTEX
  8
0
  6
CONTINUOUS
 62
     7
 10
321.4093362791418
 20
197.5247025457344
  0
SEQEND
  8
0
  6
CONTINUOUS
 62
     7
  0
POLYLINE
  8
0
  6
CONTINUOUS
 62
     7
 66
     1
  0
VERTEX
  8
0
  6
CONTINUOUS
 62
     7
 10
477.8836473663588
 20
126.0
  0
VERTEX
  8
0
  6
CONTINUOUS
 62
     7
 10
477.9821771955664
 20
126.0098033284936
  0
VERTEX
  8
0
  6
CONTINUOUS
 62
     7
 10
478.0768379601799
 20
126.0388289515251
  0
VERTEX
  8
0
  6
CONTINUOUS
 62
     7
 10
478.1639182632654
 20
126.0859388515775
  0
VERTEX
  8
0
  6
CONTINUOUS
 62
     7
 10
478.2400039176335
 20
126.1492859747067
  0
VERTEX
  8
0
  6
CONTINUOUS
 62
     7
 10
478.3021118070428
 20
126.226386648617
  0
VERTEX
  8
0
  6
CONTINUOUS
 62
     7
 10
478.3478068462574
 20
126.3142179608492
  0
VERTEX
  8
0
  6
CONTINUOUS
 62
     7
 10
478.3752974542656
 20
126.4093362791418
  0
SEQEND
  8
0
  6
CONTINUOUS
 62
     7
  0
POLYLINE
  8
0
  6
CONTINUOUS
 62
     7
 66
     1
  0
VERTEX
  8
0
  6
CONTINUOUS
 62
     7
 10
321.4093362791418
 20
283.3752974542656
  0
VERTEX
  8
0
  6
CONTINUOUS
 62
     7
 10
321.3142179608492
 20
283.3478068462574
  0
VERTEX
  8
0
  6
CONTINUOUS
 62
     7
 10
321.2263866486171
 20
283.3021118070428
  0
VERTEX
  8
0
  6
CONTINUOUS
 62
     7
 10
321.1492859747066
 20
283.2400039176335
  0
VERTEX
  8
0
  6
CONTINUOUS
 62
     7
 10
321.0859388515775
 20
283.1639182632654
  0
VERTEX
  8
0
  6
CONTINUOUS
 62
     7
 10
321.0388289515251
 20
283.0768379601799
  0
VERTEX
  8
0
  6
CONTINUOUS
 62
     7
 10
321.0098033284935
 20
282.9821771955664
  0
VERTEX
  8
0
  6
CONTINUOUS
 62
     7
 10
321.0000000000001
 20
282.8836473663588
  0
SEQEND
  8
0
  6
CONTINUOUS
 62
     7
  0
LINE
  8
0
  6
CONTINUOUS
 62
     7
 10
393.0163526336411
 20
126.0
 11
394.7
 21
126.0
  0
POLYLINE
  8
0
  6
CONTINUOUS
 62
     7
 66
     1
  0
VERTEX
  8
0
  6
CONTINUOUS
 62
     7
 10
392.5247025457344
 20
126.4093362791417
  0
VERTEX
  8
0
  6
CONTINUOUS
 62
     7
 10
392.5521931537426
 20
126.3142179608492
  0
VERTEX
  8
0
  6
CONTINUOUS
 62
     7
 10
392.5978881929572
 20
126.226386648617
  0
VERTEX
  8
0
  6
CONTINUOUS
 62
     7
 10
392.6599960823664
 20
126.1492859747066
  0
VERTEX
  8
0
  6
CONTINUOUS
 62
     7
 10
392.7360817367345
 20
126.0859388515774
  0
VERTEX
  8
0
  6
CONTINUOUS
 62
     7
 10
392.82316203982
 20
126.0388289515251
  0
VERTEX
  8
0
  6
CONTINUOUS
 62
     7
 10
392.9178228044336
 20
126.0098033284936
  0
VERTEX
  8
0
  6
CONTINUOUS
 62
     7
 10
393.0163526336412
 20
126.0
  0
SEQEND
  8
0
  6
CONTINUOUS
 62
     7
  0
LINE
  8
0
  6
CONTINUOUS
 62
     7
 10
392.5247025457343
 20
126.4093362791417
 11
391.9
 21
129.8005786702714
  0
LINE
  8
0
  6
CONTINUOUS
 62
     7
 10
391.9
 20
175.0716990487176
 11
391.9
 21
175.0715728752538
  0
LINE
  8
0
  6
CONTINUOUS
 62
     7
 10
391.9
 20
175.0715728752538
 11
391.9
 21
155.5
  0
LINE
  8
0
  6
CONTINUOUS
 62
     7
 10
391.9
 20
155.5
 11
391.9
 21
147.5
  0
LINE
  8
0
  6
CONTINUOUS
 62
     7
 10
391.9
 20
147.5
 11
391.9
 21
129.8005786702714
  0
LINE
  8
0
  6
CONTINUOUS
 62
     7
 10
391.9
 20
175.0716990487176
 11
391.8473565904957
 21
175.527523450327
  0
POLYLINE
  8
0
  6
CONTINUOUS
 62
     7
 66
     1
  0
VERTEX
  8
0
  6
CONTINUOUS
 62
     7
 10
391.8473565904957
 20
175.527523450327
  0
VERTEX
  8
0
  6
CONTINUOUS
 62
     7
 10
391.7477841619071
 20
175.8369501357155
  0
VERTEX
  8
0
  6
CONTINUOUS
 62
     7
 10
391.5993947937932
 20
176.1261561826721
  0
SEQEND
  8
0
  6
CONTINUOUS
 62
     7
  0
LINE
  8
0
  6
CONTINUOUS
 62
     7
 10
391.5993947937932
 20
176.1261561826721
 11
391.3143027804849
 21
176.4856972195152
  0
LINE
  8
0
  6
CONTINUOUS
 62
     7
 10
391.3143027804849
 20
176.4856972195152
 11
391.3142135623731
 21
176.485786437627
  0
LINE
  8
0
  6
CONTINUOUS
 62
     7
 10
391.3142135623731
 20
176.485786437627
 11
371.4857864376269
 21
196.3142135623731
  0
LINE
  8
0
  6
CONTINUOUS
 62
     7
 10
371.4857864376269
 20
196.3142135623731
 11
371.4856972195152
 21
196.3143027804849
  0
POLYLINE
  8
0
  6
CONTINUOUS
 62
     7
 66
     1
  0
VERTEX
  8
0
  6
CONTINUOUS
 62
     7
 10
371.4856972195151
 20
196.3143027804849
  0
VERTEX
  8
0
  6
CONTINUOUS
 62
     7
 10
371.18266865857
 20
196.5629930353236
  0
VERTEX
  8
0
  6
CONTINUOUS
 62
     7
 10
370.8369501354923
 20
196.7477841619996
  0
VERTEX
  8
0
  6
CONTINUOUS
 62
     7
 10
370.4618231646665
 20
196.861577015274
  0
VERTEX
  8
0
  6
CONTINUOUS
 62
     7
 10
370.0716990487175
 20
196.9
  0
SEQEND
  8
0
  6
CONTINUOUS
 62
     7
  0
LINE
  8
0
  6
CONTINUOUS
 62
     7
 10
370.0716990487175
 20
196.9
 11
370.0715728752538
 21
196.9
  0
LINE
  8
0
  6
CONTINUOUS
 62
     7
 10
370.0715728752538
 20
196.9
 11
350.5
 21
196.9
  0
LINE
  8
0
  6
CONTINUOUS
 62
     7
 10
350.5
 20
196.9
 11
342.5
 21
196.9
  0
LINE
  8
0
  6
CONTINUOUS
 62
     7
 10
342.5
 20
196.9
 11
324.8005786702714
 21
196.9
  0
LINE
  8
0
  6
CONTINUOUS
 62
     7
 10
321.4093362791417
 20
197.5247025457344
 11
324.8005786702714
 21
196.9
  0
POLYLINE
  8
0
  6
CONTINUOUS
 62
     7
 66
     1
  0
VERTEX
  8
0
  6
CONTINUOUS
 62
     7
 10
321.0
 20
198.0163526336412
  0
VERTEX
  8
0
  6
CONTINUOUS
 62
     7
 10
321.0098033284935
 20
197.9178228044337
  0
VERTEX
  8
0
  6
CONTINUOUS
 62
     7
 10
321.038828951525
 20
197.8231620398201
  0
VERTEX
  8
0
  6
CONTINUOUS
 62
     7
 10
321.0859388515774
 20
197.7360817367346
  0
VERTEX
  8
0
  6
CONTINUOUS
 62
     7
 10
321.1492859747066
 20
197.6599960823665
  0
VERTEX
  8
0
  6
CONTINUOUS
 62
     7
 10
321.226386648617
 20
197.5978881929572
  0
VERTEX
  8
0
  6
CONTINUOUS
 62
     7
 10
321.3142179608492
 20
197.5521931537426
  0
VERTEX
  8
0
  6
CONTINUOUS
 62
     7
 10
321.4093362791417
 20
197.5247025457344
  0
SEQEND
  8
0
  6
CONTINUOUS
 62
     7
  0
LINE
  8
0
  6
CONTINUOUS
 62
     7
 10
321.0
 20
198.0163526336412
 11
321.0
 21
199.7
  0
LINE
  8
0
  6
CONTINUOUS
 62
     7
 10
320.9999999999999
 20
281.2
 11
320.9999999999999
 21
282.8836473663588
  0
POLYLINE
  8
0
  6
CONTINUOUS
 62
     7
 66
     1
  0
VERTEX
  8
0
  6
CONTINUOUS
 62
     7
 10
321.4093362791417
 20
283.3752974542656
  0
VERTEX
  8
0
  6
CONTINUOUS
 62
     7
 10
321.3142179608492
 20
283.3478068462574
  0
VERTEX
  8
0
  6
CONTINUOUS
 62
     7
 10
321.226386648617
 20
283.3021118070428
  0
VERTEX
  8
0
  6
CONTINUOUS
 62
     7
 10
321.1492859747066
 20
283.2400039176335
  0
VERTEX
  8
0
  6
CONTINUOUS
 62
     7
 10
321.0859388515774
 20
283.1639182632654
  0
VERTEX
  8
0
  6
CONTINUOUS
 62
     7
 10
321.038828951525
 20
283.0768379601799
  0
VERTEX
  8
0
  6
CONTINUOUS
 62
     7
 10
321.0098033284935
 20
282.9821771955664
  0
VERTEX
  8
0
  6
CONTINUOUS
 62
     7
 10
321.0
 20
282.8836473663588
  0
SEQEND
  8
0
  6
CONTINUOUS
 62
     7
  0
LINE
  8
0
  6
CONTINUOUS
 62
     7
 10
324.8005786702714
 20
284.0
 11
321.4093362791417
 21
283.3752974542656
  0
LINE
  8
0
  6
CONTINUOUS
 62
     7
 10
324.8005786702714
 20
284.0
 11
342.5
 21
284.0
  0
LINE
  8
0
  6
CONTINUOUS
 62
     7
 10
342.5
 20
284.0
 11
350.5
 21
284.0
  0
LINE
  8
0
  6
CONTINUOUS
 62
     7
 10
350.5
 20
284.0
 11
434.857864376269
 21
284.0
  0
LINE
  8
0
  6
CONTINUOUS
 62
     7
 10
434.857864376269
 20
284.0
 11
434.8584952435874
 21
284.0
  0
POLYLINE
  8
0
  6
CONTINUOUS
 62
     7
 66
     1
  0
VERTEX
  8
0
  6
CONTINUOUS
 62
     7
 10
441.9284860975757
 20
281.0715139024243
  0
VERTEX
  8
0
  6
CONTINUOUS
 62
     7
 10
440.5216846072039
 20
282.2415432328973
  0
VERTEX
  8
0
  6
CONTINUOUS
 62
     7
 10
438.9252398959304
 20
283.1355984874962
  0
SEQEND
  8
0
  6
CONTINUOUS
 62
     7
  0
LINE
  8
0
  6
CONTINUOUS
 62
     7
 10
438.9252398959304
 20
283.1355984874962
 11
438.4416392053905
 21
283.3359124522908
  0
POLYLINE
  8
0
  6
CONTINUOUS
 62
     7
 66
     1
  0
VERTEX
  8
0
  6
CONTINUOUS
 62
     7
 10
438.4416392053905
 20
283.3359124522908
  0
VERTEX
  8
0
  6
CONTINUOUS
 62
     7
 10
436.6805897909773
 20
283.8325768001393
  0
VERTEX
  8
0
  6
CONTINUOUS
 62
     7
 10
434.8584952435875
 20
284.0000000000001
  0
SEQEND
  8
0
  6
CONTINUOUS
 62
     7
  0
LINE
  8
0
  6
CONTINUOUS
 62
     7
 10
441.9284860975757
 20
281.0715139024243
 11
441.9289321881345
 21
281.0710678118655
  0
LINE
  8
0
  6
CONTINUOUS
 62
     7
 10
441.9289321881345
 20
281.0710678118655
 11
476.0710678118655
 21
246.9289321881346
  0
LINE
  8
0
  6
CONTINUOUS
 62
     7
 10
476.0710678118655
 20
246.9289321881346
 11
476.0715139024243
 21
246.9284860975757
  0
POLYLINE
  8
0
  6
CONTINUOUS
 62
     7
 66
     1
  0
VERTEX
  8
0
  6
CONTINUOUS
 62
     7
 10
478.1355984874962
 20
243.9252398959304
  0
VERTEX
  8
0
  6
CONTINUOUS
 62
     7
 10
477.2415432328974
 20
245.5216846072039
  0
VERTEX
  8
0
  6
CONTINUOUS
 62
     7
 10
476.0715139024244
 20
246.9284860975757
  0
SEQEND
  8
0
  6
CONTINUOUS
 62
     7
  0
LINE
  8
0
  6
CONTINUOUS
 62
     7
 10
478.3359124522908
 20
243.4416392053904
 11
478.1355984874962
 21
243.9252398959304
  0
POLYLINE
  8
0
  6
CONTINUOUS
 62
     7
 66
     1
  0
VERTEX
  8
0
  6
CONTINUOUS
 62
     7
 10
479.0000000000001
 20
239.8584952435874
  0
VERTEX
  8
0
  6
CONTINUOUS
 62
     7
 10
478.8325768001394
 20
241.6805897909773
  0
VERTEX
  8
0
  6
CONTINUOUS
 62
     7
 10
478.3359124522908
 20
243.4416392053904
  0
SEQEND
  8
0
  6
CONTINUOUS
 62
     7
  0
LINE
  8
0
  6
CONTINUOUS
 62
     7
 10
478.9999999999999
 20
129.8005786702714
 11
478.9999999999999
 21
147.5000000000001
  0
LINE
  8
0
  6
CONTINUOUS
 62
     7
 10
478.9999999999999
 20
147.5000000000001
 11
478.9999999999999
 21
155.5000000000001
  0
LINE
  8
0
  6
CONTINUOUS
 62
     7
 10
478.9999999999999
 20
155.5000000000001
 11
479.0
 21
239.8578643762691
  0
LINE
  8
0
  6
CONTINUOUS
 62
     7
 10
479.0
 20
239.8578643762691
 11
478.9999999999999
 21
239.8584952435875
  0
LINE
  8
0
  6
CONTINUOUS
 62
     7
 10
478.9999999999999
 20
129.8005786702714
 11
478.3752974542655
 21
126.4093362791417
  0
POLYLINE
  8
0
  6
CONTINUOUS
 62
     7
 66
     1
  0
VERTEX
  8
0
  6
CONTINUOUS
 62
     7
 10
477.8836473663587
 20
126.0
  0
VERTEX
  8
0
  6
CONTINUOUS
 62
     7
 10
477.9821771955663
 20
126.0098033284935
  0
VERTEX
  8
0
  6
CONTINUOUS
 62
     7
 10
478.0768379601798
 20
126.0388289515251
  0
VERTEX
  8
0
  6
CONTINUOUS
 62
     7
 10
478.1639182632654
 20
126.0859388515774
  0
VERTEX
  8
0
  6
CONTINUOUS
 62
     7
 10
478.2400039176335
 20
126.1492859747066
  0
VERTEX
  8
0
  6
CONTINUOUS
 62
     7
 10
478.3021118070428
 20
126.226386648617
  0
VERTEX
  8
0
  6
CONTINUOUS
 62
     7
 10
478.3478068462574
 20
126.3142179608492
  0
VERTEX
  8
0
  6
CONTINUOUS
 62
     7
 10
478.3752974542655
 20
126.4093362791417
  0
SEQEND
  8
0
  6
CONTINUOUS
 62
     7
  0
LINE
  8
0
  6
CONTINUOUS
 62
     7
 10
476.1999999999999
 20
126.0
 11
477.8836473663588
 21
126.0
  0
ENDBLK
  8
0
  0
ENDSEC
  0
SECTION
  2
ENTITIES
  0
INSERT
  8
0
  6
CENTER
 62
     7
  2
D_FRAME_VIEW_1967
 10
0.0
 20
0.0
 30
0.0
  0
INSERT
  8
0
  6
CENTER
 62
     7
  2
D_FRAME_VIEW_2048
 10
0.0
 20
0.0
 30
0.0
  0
INSERT
  8
0
 62
     7
  2
D_FRAME_DRAWING_17
 10
0.0
 20
0.0
 30
0.0
  0
INSERT
  8
0
  6
CENTER
 62
     7
  2
D_FRAME_VIEW_1288
 10
0.0
 20
0.0
 30
0.0
  0
LINE
  8
0
  6
CENTER
 62
     1
 10
435.45
 20
300.0
 11
435.45
 21
115.0
  0
LINE
  8
0
  6
CENTER
 62
     1
 10
305.0000000000001
 20
240.45
 11
494.9999999999999
 21
240.45
  0
LINE
  8
0
  6
CENTER
 62
     1
 10
435.45
 20
79.99999999999997
 11
435.4500000000001
 21
-10.00000000000002
  0
TEXT
  8
0
  6
CONTINUOUS
 62
     7
 10
583.846392397149
 20
175.5424534200325
 40
8.0
  1
MIDM-80
  0
ENDSEC
  0
EOF
