  0
SECTION
  2
HEADER
  9
$ACADVER
  1
AC1014
  9
$ACADMAINTVER
 70
     9
  9
$DWGCODEPAGE
  3
ANSI_932
  9
$INSBASE
 10
0.0
 20
0.0
 30
0.0
  9
$EXTMIN
 10
262.5
 20
219.6166812554708
 30
0.0
  9
$EXTMAX
 10
393.3333333333334
 20
348.3333333333334
 30
0.0
  9
$LIMMIN
 10
0.0
 20
0.0
  9
$LIMMAX
 10
12.0
 20
9.0
  9
$ORTHOMODE
 70
     0
  9
$REGENMODE
 70
     1
  9
$FILLMODE
 70
     1
  9
$QTEXTMODE
 70
     0
  9
$MIRRTEXT
 70
     1
  9
$DRAGMODE
 70
     2
  9
$LTSCALE
 40
1.0
  9
$OSMODE
 70
    37
  9
$ATTMODE
 70
     1
  9
$TEXTSIZE
 40
0.2
  9
$TRACEWID
 40
0.05
  9
$TEXTSTYLE
  7
STANDARD
  9
$CLAYER
  8
0
  9
$CELTYPE
  6
BYLAYER
  9
$CECOLOR
 62
   256
  9
$CELTSCALE
 40
1.0
  9
$DELOBJ
 70
     1
  9
$DISPSILH
 70
     0
  9
$DIMSCALE
 40
1.0
  9
$DIMASZ
 40
3.0
  9
$DIMEXO
 40
0.0625
  9
$DIMDLI
 40
0.38
  9
$DIMRND
 40
0.0
  9
$DIMDLE
 40
0.0
  9
$DIMEXE
 40
1.5
  9
$DIMTP
 40
0.0
  9
$DIMTM
 40
0.0
  9
$DIMTXT
 40
3.0
  9
$DIMCEN
 40
0.09
  9
$DIMTSZ
 40
0.0
  9
$DIMTOL
 70
     0
  9
$DIMLIM
 70
     0
  9
$DIMTIH
 70
     1
  9
$DIMTOH
 70
     1
  9
$DIMSE1
 70
     0
  9
$DIMSE2
 70
     0
  9
$DIMTAD
 70
     1
  9
$DIMZIN
 70
     0
  9
$DIMBLK
  1

  9
$DIMASO
 70
     1
  9
$DIMSHO
 70
     1
  9
$DIMPOST
  1

  9
$DIMAPOST
  1

  9
$DIMALT
 70
     0
  9
$DIMALTD
 70
     2
  9
$DIMALTF
 40
25.4
  9
$DIMLFAC
 40
1.0
  9
$DIMTOFL
 70
     0
  9
$DIMTVP
 40
0.0
  9
$DIMTIX
 70
     0
  9
$DIMSOXD
 70
     0
  9
$DIMSAH
 70
     0
  9
$DIMBLK1
  1

  9
$DIMBLK2
  1

  9
$DIMSTYLE
  2
STANDARD
  9
$DIMCLRD
 70
     0
  9
$DIMCLRE
 70
     0
  9
$DIMCLRT
 70
     0
  9
$DIMTFAC
 40
1.0
  9
$DIMGAP
 40
1.5
  9
$DIMJUST
 70
     0
  9
$DIMSD1
 70
     0
  9
$DIMSD2
 70
     0
  9
$DIMTOLJ
 70
     1
  9
$DIMTZIN
 70
     0
  9
$DIMALTZ
 70
     0
  9
$DIMALTTZ
 70
     0
  9
$DIMFIT
 70
     3
  9
$DIMUPT
 70
     0
  9
$DIMUNIT
 70
     2
  9
$DIMDEC
 70
     2
  9
$DIMTDEC
 70
     4
  9
$DIMALTU
 70
     2
  9
$DIMALTTD
 70
     2
  9
$DIMTXSTY
  7
ＭＳ_ゴシック
  9
$DIMAUNIT
 70
     0
  9
$LUNITS
 70
     2
  9
$LUPREC
 70
     4
  9
$SKETCHINC
 40
0.1
  9
$FILLETRAD
 40
0.5
  9
$AUNITS
 70
     0
  9
$AUPREC
 70
     0
  9
$MENU
  1
.
  9
$ELEVATION
 40
0.0
  9
$PELEVATION
 40
0.0
  9
$THICKNESS
 40
0.0
  9
$LIMCHECK
 70
     0
  9
$CHAMFERA
 40
0.0
  9
$CHAMFERB
 40
0.0
  9
$CHAMFERC
 40
0.0
  9
$CHAMFERD
 40
0.0
  9
$SKPOLY
 70
     0
  9
$TDCREATE
 40
2459233.468693021
  9
$TDUPDATE
 40
2459233.468693206
  9
$TDINDWG
 40
0.0000000116
  9
$TDUSRTIMER
 40
0.0000000116
  9
$USRTIMER
 70
     1
  9
$ANGBASE
 50
0.0
  9
$ANGDIR
 70
     0
  9
$PDMODE
 70
     0
  9
$PDSIZE
 40
0.0
  9
$PLINEWID
 40
0.0
  9
$COORDS
 70
     1
  9
$SPLFRAME
 70
     0
  9
$SPLINETYPE
 70
     6
  9
$SPLINESEGS
 70
     8
  9
$ATTDIA
 70
     0
  9
$ATTREQ
 70
     1
  9
$HANDLING
 70
     1
  9
$HANDSEED
  5
398
  9
$SURFTAB1
 70
     6
  9
$SURFTAB2
 70
     6
  9
$SURFTYPE
 70
     6
  9
$SURFU
 70
     6
  9
$SURFV
 70
     6
  9
$UCSNAME
  2

  9
$UCSORG
 10
0.0
 20
0.0
 30
0.0
  9
$UCSXDIR
 10
1.0
 20
0.0
 30
0.0
  9
$UCSYDIR
 10
0.0
 20
1.0
 30
0.0
  9
$PUCSNAME
  2

  9
$PUCSORG
 10
0.0
 20
0.0
 30
0.0
  9
$PUCSXDIR
 10
1.0
 20
0.0
 30
0.0
  9
$PUCSYDIR
 10
0.0
 20
1.0
 30
0.0
  9
$USERI1
 70
     0
  9
$USERI2
 70
     0
  9
$USERI3
 70
     0
  9
$USERI4
 70
     0
  9
$USERI5
 70
     0
  9
$USERR1
 40
0.0
  9
$USERR2
 40
0.0
  9
$USERR3
 40
0.0
  9
$USERR4
 40
0.0
  9
$USERR5
 40
0.0
  9
$WORLDVIEW
 70
     1
  9
$SHADEDGE
 70
     3
  9
$SHADEDIF
 70
    70
  9
$TILEMODE
 70
     1
  9
$MAXACTVP
 70
    64
  9
$PINSBASE
 10
0.0
 20
0.0
 30
0.0
  9
$PLIMCHECK
 70
     0
  9
$PEXTMIN
 10
1.000000000000000E+20
 20
1.000000000000000E+20
 30
1.000000000000000E+20
  9
$PEXTMAX
 10
-1.000000000000000E+20
 20
-1.000000000000000E+20
 30
-1.000000000000000E+20
  9
$PLIMMIN
 10
0.0
 20
0.0
  9
$PLIMMAX
 10
12.0
 20
9.0
  9
$UNITMODE
 70
     0
  9
$VISRETAIN
 70
     1
  9
$PLINEGEN
 70
     0
  9
$PSLTSCALE
 70
     1
  9
$TREEDEPTH
 70
  3020
  9
$PICKSTYLE
 70
     1
  9
$CMLSTYLE
  2
STANDARD
  9
$CMLJUST
 70
     0
  9
$CMLSCALE
 40
1.0
  9
$PROXYGRAPHICS
 70
     1
  9
$MEASUREMENT
 70
     1
  0
ENDSEC
  0
SECTION
  2
CLASSES
  0
CLASS
  1
ACDBDICTIONARYWDFLT
  2
AcDbDictionaryWithDefault
  3
ObjectDBX Classes
 90
        0
280
     0
281
     0
  0
CLASS
  1
VISUALSTYLE
  2
AcDbVisualStyle
  3
ObjectDBX Classes
 90
     4095
280
     0
281
     0
  0
CLASS
  1
MATERIAL
  2
AcDbMaterial
  3
ObjectDBX Classes
 90
     1153
280
     0
281
     0
  0
CLASS
  1
SCALE
  2
AcDbScale
  3
ObjectDBX Classes
 90
     1153
280
     0
281
     0
  0
CLASS
  1
TABLESTYLE
  2
AcDbTableStyle
  3
ObjectDBX Classes
 90
     4095
280
     0
281
     0
  0
CLASS
  1
MLEADERSTYLE
  2
AcDbMLeaderStyle
  3
ACDB_MLEADERSTYLE_CLASS
 90
     4095
280
     0
281
     0
  0
CLASS
  1
SUN
  2
AcDbSun
  3
SCENEOE
 90
     1153
280
     0
281
     0
  0
CLASS
  1
DICTIONARYVAR
  2
AcDbDictionaryVar
  3
ObjectDBX Classes
 90
        0
280
     0
281
     0
  0
CLASS
  1
XRECORD
  2
AcDbXrecord
  3
ObjectDBX Classes
 90
        0
280
     0
281
     0
  0
CLASS
  1
LWPOLYLINE
  2
AcDbPolyline
  3
ObjectDBX Classes
 90
        0
280
     0
281
     1
  0
CLASS
  1
HATCH
  2
AcDbHatch
  3
ObjectDBX Classes
 90
        0
280
     0
281
     1
  0
CLASS
  1
ACDBPLACEHOLDER
  2
AcDbPlaceHolder
  3
ObjectDBX Classes
 90
        0
280
     0
281
     0
  0
CLASS
  1
LAYOUT
  2
AcDbLayout
  3
ObjectDBX Classes
 90
        0
280
     0
281
     0
  0
ENDSEC
  0
SECTION
  2
TABLES
  0
TABLE
  2
VPORT
  5
8
102
{ACAD_XDICTIONARY
360
38D
102
}
330
0
100
AcDbSymbolTable
 70
     1
  0
VPORT
  5
29
330
8
100
AcDbSymbolTableRecord
100
AcDbViewportTableRecord
  2
*ACTIVE
 70
     0
 10
0.0
 20
0.0
 11
1.0
 21
1.0
 12
327.9166666666667
 22
283.9750072944021
 13
0.0
 23
0.0
 14
0.5
 24
0.5
 15
0.5
 25
0.5
 16
0.0
 26
0.0
 36
1.0
 17
0.0
 27
0.0
 37
0.0
 40
128.7166520778626
 41
1.6
 42
50.0
 43
0.0
 44
0.0
 50
0.0
 51
0.0
 71
     0
 72
   100
 73
     1
 74
     3
 75
     0
 76
     0
 77
     0
 78
     0
  0
ENDTAB
  0
TABLE
  2
LTYPE
  5
5
330
0
100
AcDbSymbolTable
 70
     2
  0
LTYPE
  5
14
330
5
100
AcDbSymbolTableRecord
100
AcDbLinetypeTableRecord
  2
BYBLOCK
 70
     0
  3

 72
    65
 73
     0
 40
0.0
  0
LTYPE
  5
15
330
5
100
AcDbSymbolTableRecord
100
AcDbLinetypeTableRecord
  2
BYLAYER
 70
     0
  3

 72
    65
 73
     0
 40
0.0
  0
LTYPE
  5
16
330
5
100
AcDbSymbolTableRecord
100
AcDbLinetypeTableRecord
  2
CONTINUOUS
 70
     0
  3
Solid line
 72
    65
 73
     0
 40
0.0
  0
LTYPE
  5
2E4
330
5
100
AcDbSymbolTableRecord
100
AcDbLinetypeTableRecord
  2
CENTER
 70
     0
  3

 72
    65
 73
     0
 40
0.0
  0
ENDTAB
  0
TABLE
  2
LAYER
  5
2
330
0
100
AcDbSymbolTable
 70
     2
  0
LAYER
  5
10
330
2
100
AcDbSymbolTableRecord
100
AcDbLayerTableRecord
  2
0
 70
     0
 62
     7
  6
CONTINUOUS
  0
LAYER
  5
6E
330
2
100
AcDbSymbolTableRecord
100
AcDbLayerTableRecord
  2
1
 70
     0
 62
     7
  6
CONTINUOUS
  0
ENDTAB
  0
TABLE
  2
STYLE
  5
3
330
0
100
AcDbSymbolTable
 70
     2
  0
STYLE
  5
11
330
3
100
AcDbSymbolTableRecord
100
AcDbTextStyleTableRecord
  2
STANDARD
 70
     0
 40
0.0
 41
1.0
 50
0.0
 71
     0
 42
0.2
  3
txt
  4

  0
STYLE
  5
6F
330
3
100
AcDbSymbolTableRecord
100
AcDbTextStyleTableRecord
  2
ＭＳ_ゴシック
 70
     0
 40
0.0
 41
1.0
 50
0.0
 71
     0
 42
0.2
  3
ＭＳ ゴシック.shx
  4

  0
ENDTAB
  0
TABLE
  2
VIEW
  5
6
330
0
100
AcDbSymbolTable
 70
     0
  0
ENDTAB
  0
TABLE
  2
UCS
  5
7
330
0
100
AcDbSymbolTable
 70
     0
  0
ENDTAB
  0
TABLE
  2
APPID
  5
9
330
0
100
AcDbSymbolTable
 70
     2
  0
APPID
  5
12
330
9
100
AcDbSymbolTableRecord
100
AcDbRegAppTableRecord
  2
ACAD
 70
     0
  0
APPID
  5
397
330
9
100
AcDbSymbolTableRecord
100
AcDbRegAppTableRecord
  2
ACAD_MLEADERVER
 70
     0
  0
ENDTAB
  0
TABLE
  2
DIMSTYLE
  5
A
330
0
100
AcDbSymbolTable
 70
     1
  0
DIMSTYLE
105
27
330
A
100
AcDbSymbolTableRecord
100
AcDbDimStyleTableRecord
  2
STANDARD
 70
     0
  3

  4

  5

  6

  7

 40
1.0
 41
0.18
 42
0.0625
 43
0.38
 44
0.18
 45
0.0
 46
0.0
 47
0.0
 48
0.0
140
0.18
141
0.09
142
0.0
143
25.4
144
1.0
145
0.0
146
1.0
147
0.09
 71
     0
 72
     0
 73
     1
 74
     1
 75
     0
 76
     0
 77
     0
 78
     0
170
     0
171
     2
172
     0
173
     0
174
     0
175
     0
176
     0
177
     0
178
     0
270
     2
271
     4
272
     4
273
     2
274
     2
340
11
275
     0
280
     0
281
     0
282
     0
283
     1
284
     0
285
     0
286
     0
287
     3
288
     0
  0
ENDTAB
  0
TABLE
  2
BLOCK_RECORD
  5
1
330
0
100
AcDbSymbolTable
 70
     0
  0
BLOCK_RECORD
  5
1F
330
1
100
AcDbSymbolTableRecord
100
AcDbBlockTableRecord
  2
*MODEL_SPACE
  0
BLOCK_RECORD
  5
1B
330
1
100
AcDbSymbolTableRecord
100
AcDbBlockTableRecord
  2
*PAPER_SPACE
  0
ENDTAB
  0
ENDSEC
  0
SECTION
  2
BLOCKS
  0
BLOCK
  5
20
330
1F
100
AcDbEntity
  8
0
100
AcDbBlockBegin
  2
*MODEL_SPACE
 70
     0
 10
0.0
 20
0.0
 30
0.0
  3
*MODEL_SPACE
  1

  0
ENDBLK
  5
21
330
1F
100
AcDbEntity
  8
0
100
AcDbBlockEnd
  0
BLOCK
  5
1C
330
1B
100
AcDbEntity
 67
     1
  8
0
100
AcDbBlockBegin
  2
*PAPER_SPACE
 70
     0
 10
0.0
 20
0.0
 30
0.0
  3
*PAPER_SPACE
  1

  0
ENDBLK
  5
1D
330
1B
100
AcDbEntity
 67
     1
  8
0
100
AcDbBlockEnd
  0
ENDSEC
  0
SECTION
  2
ENTITIES
  0
LWPOLYLINE
  5
70
330
1F
100
AcDbEntity
  8
1
  6
CONTINUOUS
 62
     7
100
AcDbPolyline
 90
        8
 70
     0
 43
0.0
 10
309.4722956800593
 20
342.9196060349648
 10
309.4454230558518
 20
343.015559734322
 10
309.4000561996847
 20
343.1042739820659
 10
309.3379966833572
 20
343.1822258299379
 10
309.2617089640512
 20
343.2463197173745
 10
309.174222517806
 20
343.2940103998985
 10
309.0790115354229
 20
343.3234040238029
 10
308.9798569582176
 20
343.3333333333334
  0
LWPOLYLINE
  5
71
330
1F
100
AcDbEntity
  8
1
  6
CONTINUOUS
 62
     7
100
AcDbPolyline
 90
        6
 70
     0
 43
0.0
 10
265.0570716579356
 20
326.0677688962587
 10
265.0563089040284
 20
326.483592277894
 10
265.0540539783124
 20
326.88124218241
 10
265.050405431862
 20
327.2433394008432
 10
265.0455227236646
 20
327.5540585472131
 10
265.0396192514983
 20
327.7998197038272
  0
LWPOLYLINE
  5
72
330
1F
100
AcDbEntity
  8
1
  6
CONTINUOUS
 62
     7
100
AcDbPolyline
 90
        3
 70
     0
 43
0.0
 10
265.0396192514983
 20
327.7998197038271
 10
265.0332784104962
 20
327.9637227361783
 10
265.0264962542618
 20
328.0523246496862
  0
LWPOLYLINE
  5
73
330
1F
100
AcDbEntity
  8
1
  6
CONTINUOUS
 62
     7
100
AcDbPolyline
 90
        8
 70
     0
 43
0.0
 10
266.0201430417825
 20
343.3333333333334
 10
265.9209884645772
 20
343.3234040238028
 10
265.8257774821941
 20
343.2940103998985
 10
265.7382910359489
 20
343.2463197173745
 10
265.6620033166429
 20
343.1822258299379
 10
265.5999438003154
 20
343.1042739820659
 10
265.5545769441483
 20
343.015559734322
 10
265.5277043199408
 20
342.9196060349648
  0
LWPOLYLINE
  5
74
330
1F
100
AcDbEntity
  8
1
  6
CONTINUOUS
 62
     7
100
AcDbPolyline
 90
        6
 70
     0
 43
0.0
 10
265.0396192514983
 20
318.8668469628395
 10
265.0455227236646
 20
319.1126081194537
 10
265.050405431862
 20
319.4233272658234
 10
265.0540539783124
 20
319.7854244842567
 10
265.0563089040283
 20
320.1830743887726
 10
265.0570716579356
 20
320.598897770408
  0
LWPOLYLINE
  5
75
330
1F
100
AcDbEntity
  8
1
  6
CONTINUOUS
 62
     7
100
AcDbPolyline
 90
        8
 70
     0
 43
0.0
 10
265.5277043199408
 20
303.7470606317019
 10
265.5545769441483
 20
303.6511069323447
 10
265.5999438003154
 20
303.5623926846008
 10
265.6620033166429
 20
303.4844408367289
 10
265.7382910359489
 20
303.4203469492922
 10
265.8257774821941
 20
303.3726562667683
 10
265.9209884645772
 20
303.3432626428639
 10
266.0201430417825
 20
303.3333333333334
  0
LWPOLYLINE
  5
76
330
1F
100
AcDbEntity
  8
1
  6
CONTINUOUS
 62
     7
100
AcDbPolyline
 90
        8
 70
     0
 43
0.0
 10
308.9798569582176
 20
303.3333333333334
 10
309.0790115354229
 20
303.3432626428639
 10
309.174222517806
 20
303.3726562667682
 10
309.2617089640512
 20
303.4203469492922
 10
309.3379966833572
 20
303.4844408367289
 10
309.4000561996847
 20
303.5623926846008
 10
309.4454230558518
 20
303.6511069323447
 10
309.4722956800593
 20
303.7470606317019
  0
LWPOLYLINE
  5
77
330
1F
100
AcDbEntity
  8
1
  6
CONTINUOUS
 62
     7
100
AcDbPolyline
 90
        8
 70
     0
 43
0.0
 10
266.0201430417825
 20
343.3333333333334
 10
265.9209884645772
 20
343.3234040238029
 10
265.8257774821941
 20
343.2940103998985
 10
265.7382910359489
 20
343.2463197173745
 10
265.6620033166429
 20
343.1822258299379
 10
265.5999438003154
 20
343.1042739820659
 10
265.5545769441483
 20
343.015559734322
 10
265.5277043199408
 20
342.9196060349648
  0
LWPOLYLINE
  5
78
330
1F
100
AcDbEntity
  8
1
  6
CONTINUOUS
 62
     7
100
AcDbPolyline
 90
        8
 70
     0
 43
0.0
 10
309.4722956800593
 20
342.9196060349648
 10
309.4454230558518
 20
343.015559734322
 10
309.4000561996847
 20
343.1042739820659
 10
309.3379966833572
 20
343.1822258299379
 10
309.2617089640512
 20
343.2463197173745
 10
309.174222517806
 20
343.2940103998985
 10
309.0790115354229
 20
343.3234040238029
 10
308.9798569582176
 20
343.3333333333334
  0
LWPOLYLINE
  5
79
330
1F
100
AcDbEntity
  8
1
  6
CONTINUOUS
 62
     7
100
AcDbPolyline
 90
        8
 70
     0
 43
0.0
 10
265.5277043199408
 20
303.7470606317019
 10
265.5545769441483
 20
303.6511069323447
 10
265.5999438003154
 20
303.5623926846008
 10
265.6620033166429
 20
303.4844408367289
 10
265.7382910359489
 20
303.4203469492922
 10
265.8257774821941
 20
303.3726562667683
 10
265.9209884645772
 20
303.3432626428639
 10
266.0201430417825
 20
303.3333333333334
  0
LWPOLYLINE
  5
7A
330
1F
100
AcDbEntity
  8
1
  6
CONTINUOUS
 62
     7
100
AcDbPolyline
 90
        8
 70
     0
 43
0.0
 10
308.9798569582176
 20
303.3333333333334
 10
309.0790115354229
 20
303.3432626428639
 10
309.174222517806
 20
303.3726562667682
 10
309.2617089640512
 20
303.4203469492922
 10
309.3379966833572
 20
303.4844408367289
 10
309.4000561996847
 20
303.5623926846008
 10
309.4454230558518
 20
303.6511069323447
 10
309.4722956800593
 20
303.7470606317019
  0
MTEXT
  5
7B
330
1F
100
AcDbEntity
  8
0
 62
     7
100
AcDbMText
 10
335.3413780167563
 20
223.1621358009253
 30
0.0
 40
4.0
 41
0.0
 71
     1
 72
     1
  1
{\fＭＳ ゴシック;MIDR-40}
  0
LINE
  5
7C
330
1F
100
AcDbEntity
  8
1
  6
CONTINUOUS
 62
     7
100
AcDbLine
 10
267.8450217118954
 20
246.9991351383128
 30
0.0
 11
267.8680669263355
 21
246.9662154119754
 31
0.0
  0
LINE
  5
7D
330
1F
100
AcDbEntity
  8
1
  6
CONTINUOUS
 62
     7
100
AcDbLine
 10
267.7674051084973
 20
247.0912734405715
 30
0.0
 11
267.7946405838674
 21
247.0617265427295
 31
0.0
  0
LINE
  5
7E
330
1F
100
AcDbEntity
  8
1
  6
CONTINUOUS
 62
     7
100
AcDbLine
 10
267.8896196902112
 20
246.9322998011149
 30
0.0
 11
267.9096370366165
 21
246.8974559188166
 31
0.0
  0
LINE
  5
7F
330
1F
100
AcDbEntity
  8
1
  6
CONTINUOUS
 62
     7
100
AcDbLine
 10
267.6461263646558
 20
247.1964579374285
 30
0.0
 11
267.6781779821733
 21
247.1722198660277
 31
0.0
  0
LINE
  5
80
330
1F
100
AcDbEntity
  8
1
  6
CONTINUOUS
 62
     7
100
AcDbLine
 10
267.8680669263355
 20
246.9662154119754
 30
0.0
 11
267.8896196902112
 21
246.9322998011149
 31
0.0
  0
LINE
  5
81
330
1F
100
AcDbEntity
  8
1
  6
CONTINUOUS
 62
     7
100
AcDbLine
 10
267.9954863752412
 20
246.6729007047302
 30
0.0
 11
268.0038190698698
 21
246.6335896822181
 31
0.0
  0
LINE
  5
82
330
1F
100
AcDbEntity
  8
1
  6
CONTINUOUS
 62
     7
100
AcDbLine
 10
306.9961809301302
 20
246.6335896822181
 30
0.0
 11
307.0045136247588
 21
246.6729007047302
 31
0.0
  0
LINE
  5
83
330
1F
100
AcDbEntity
  8
1
  6
CONTINUOUS
 62
     7
100
AcDbLine
 10
267.9736016696862
 20
246.7502117752893
 30
0.0
 11
267.9854072106791
 21
246.7118005856099
 31
0.0
  0
LINE
  5
84
330
1F
100
AcDbEntity
  8
1
  6
CONTINUOUS
 62
     7
100
AcDbLine
 10
267.5439374536689
 20
247.2602641309954
 30
0.0
 11
267.5789391292336
 21
247.2405239942585
 31
0.0
  0
LINE
  5
85
330
1F
100
AcDbEntity
  8
1
  6
CONTINUOUS
 62
     7
100
AcDbLine
 10
267.7946405838674
 20
247.0617265427295
 30
0.0
 11
267.8205299890989
 21
247.0309933524057
 31
0.0
  0
LINE
  5
86
330
1F
100
AcDbEntity
  8
1
  6
CONTINUOUS
 62
     7
100
AcDbLine
 10
267.928079059605
 20
246.8617532287385
 30
0.0
 11
267.9449089937451
 21
246.8252629066303
 31
0.0
  0
LINE
  5
87
330
1F
100
AcDbEntity
  8
1
  6
CONTINUOUS
 62
     7
100
AcDbLine
 10
268.0038190698698
 20
246.6335896822181
 30
0.0
 11
268.0103886827695
 21
246.5939458872803
 31
0.0
  0
LINE
  5
88
330
1F
100
AcDbEntity
  8
1
  6
CONTINUOUS
 62
     7
100
AcDbLine
 10
306.9896113172306
 20
246.5939458872803
 30
0.0
 11
306.9961809301302
 21
246.6335896822181
 31
0.0
  0
LINE
  5
89
330
1F
100
AcDbEntity
  8
1
  6
CONTINUOUS
 62
     7
100
AcDbLine
 10
267.6781779821733
 20
247.1722198660277
 30
0.0
 11
267.7091157056986
 21
247.1465752261628
 31
0.0
  0
LINE
  5
8A
330
1F
100
AcDbEntity
  8
1
  6
CONTINUOUS
 62
     7
100
AcDbLine
 10
267.7091157056986
 20
247.1465752261628
 30
0.0
 11
267.7388778587678
 21
247.1195751421739
 31
0.0
  0
LINE
  5
8B
330
1F
100
AcDbEntity
  8
1
  6
CONTINUOUS
 62
     7
100
AcDbLine
 10
267.9096370366165
 20
246.8974559188166
 30
0.0
 11
267.928079059605
 21
246.8617532287385
 31
0.0
  0
LINE
  5
8C
330
1F
100
AcDbEntity
  8
1
  6
CONTINUOUS
 62
     7
100
AcDbLine
 10
267.9449089937451
 20
246.8252629066303
 30
0.0
 11
267.9600932874141
 21
246.7880576984398
 31
0.0
  0
LINE
  5
8D
330
1F
100
AcDbEntity
  8
1
  6
CONTINUOUS
 62
     7
100
AcDbLine
 10
267.9600932874141
 20
246.7880576984398
 30
0.0
 11
267.9736016696862
 21
246.7502117752893
 31
0.0
  0
LINE
  5
8E
330
1F
100
AcDbEntity
  8
1
  6
CONTINUOUS
 62
     7
100
AcDbLine
 10
307.0045136247588
 20
246.6729007047302
 30
0.0
 11
307.0145927893209
 21
246.7118005856099
 31
0.0
  0
LINE
  5
8F
330
1F
100
AcDbEntity
  8
1
  6
CONTINUOUS
 62
     7
100
AcDbLine
 10
307.0145927893209
 20
246.7118005856099
 30
0.0
 11
307.0263983303139
 21
246.7502117752893
 31
0.0
  0
LINE
  5
90
330
1F
100
AcDbEntity
  8
1
  6
CONTINUOUS
 62
     7
100
AcDbLine
 10
267.9854072106791
 20
246.7118005856099
 30
0.0
 11
267.9954863752412
 21
246.6729007047302
 31
0.0
  0
LINE
  5
91
330
1F
100
AcDbEntity
  8
1
  6
CONTINUOUS
 62
     7
100
AcDbLine
 10
267.6130247502333
 20
247.2192411201154
 30
0.0
 11
267.6461263646558
 21
247.1964579374285
 31
0.0
  0
LINE
  5
92
330
1F
100
AcDbEntity
  8
1
  6
CONTINUOUS
 62
     7
100
AcDbLine
 10
267.5789391292336
 20
247.2405239942585
 30
0.0
 11
267.6130247502333
 21
247.2192411201154
 31
0.0
  0
LINE
  5
93
330
1F
100
AcDbEntity
  8
1
  6
CONTINUOUS
 62
     7
100
AcDbLine
 10
267.7388778587678
 20
247.1195751421739
 30
0.0
 11
267.7674051084973
 21
247.0912734405715
 31
0.0
  0
LINE
  5
94
330
1F
100
AcDbEntity
  8
1
  6
CONTINUOUS
 62
     7
100
AcDbLine
 10
267.8205299890989
 20
247.0309933524057
 30
0.0
 11
267.8450217118954
 21
246.9991351383128
 31
0.0
  0
LINE
  5
95
330
1F
100
AcDbEntity
  8
1
  6
CONTINUOUS
 62
     7
100
AcDbLine
 10
307.0263983303139
 20
246.7502117752893
 30
0.0
 11
307.039906712586
 21
246.7880576984398
 31
0.0
  0
LINE
  5
96
330
1F
100
AcDbEntity
  8
1
  6
CONTINUOUS
 62
     7
100
AcDbLine
 10
307.039906712586
 20
246.7880576984398
 30
0.0
 11
307.055091006255
 21
246.8252629066303
 31
0.0
  0
LINE
  5
97
330
1F
100
AcDbEntity
  8
1
  6
CONTINUOUS
 62
     7
100
AcDbLine
 10
307.3394867782724
 20
265.1699191022481
 30
0.0
 11
307.3636003577938
 21
265.1648598524197
 31
0.0
  0
LINE
  5
98
330
1F
100
AcDbEntity
  8
1
  6
CONTINUOUS
 62
     7
100
AcDbLine
 10
307.3636003577938
 20
265.1648598524197
 30
0.0
 11
307.3874354304948
 21
265.1586188560651
 31
0.0
  0
LINE
  5
99
330
1F
100
AcDbEntity
  8
1
  6
CONTINUOUS
 62
     7
100
AcDbLine
 10
307.3874354304948
 20
265.1586188560651
 30
0.0
 11
307.4109341190293
 21
265.1512112678396
 31
0.0
  0
LINE
  5
9A
330
1F
100
AcDbEntity
  8
1
  6
CONTINUOUS
 62
     7
100
AcDbLine
 10
307.4340393628735
 20
265.1426550751666
 30
0.0
 11
307.4566950568832
 21
265.1329710545602
 31
0.0
  0
LINE
  5
9B
330
1F
100
AcDbEntity
  8
1
  6
CONTINUOUS
 62
     7
100
AcDbLine
 10
307.4566950568832
 20
265.1329710545602
 30
0.0
 11
307.4788461875298
 21
265.122182721175
 31
0.0
  0
LINE
  5
9C
330
1F
100
AcDbEntity
  8
1
  6
CONTINUOUS
 62
     7
100
AcDbLine
 10
307.4788461875298
 20
265.122182721175
 30
0.0
 11
307.5004389664879
 21
265.1103162717047
 31
0.0
  0
LINE
  5
9D
330
1F
100
AcDbEntity
  8
1
  6
CONTINUOUS
 62
     7
100
AcDbLine
 10
307.4109341190293
 20
265.1512112678396
 30
0.0
 11
307.4340393628735
 21
265.1426550751666
 31
0.0
  0
LINE
  5
9E
330
1F
100
AcDbEntity
  8
1
  6
CONTINUOUS
 62
     7
100
AcDbLine
 10
307.5004389664879
 20
265.1103162717047
 30
0.0
 11
307.5214209612449
 21
265.0974005207711
 31
0.0
  0
LINE
  5
9F
330
1F
100
AcDbEntity
  8
1
  6
CONTINUOUS
 62
     7
100
AcDbLine
 10
307.541741222421
 20
265.0834668309549
 30
0.0
 11
307.5613504074861
 21
265.0685490366395
 31
0.0
  0
LINE
  5
A0
330
1F
100
AcDbEntity
  8
1
  6
CONTINUOUS
 62
     7
100
AcDbLine
 10
307.5982469281142
 20
265.0359083323075
 30
0.0
 11
307.6154446699626
 21
265.0182646818498
 31
0.0
  0
LINE
  5
A1
330
1F
100
AcDbEntity
  8
1
  6
CONTINUOUS
 62
     7
100
AcDbLine
 10
307.6154446699626
 20
265.0182646818498
 30
0.0
 11
307.6317523658266
 21
264.9997952535487
 31
0.0
  0
LINE
  5
A2
330
1F
100
AcDbEntity
  8
1
  6
CONTINUOUS
 62
     7
100
AcDbLine
 10
307.5214209612449
 20
265.0974005207711
 30
0.0
 11
307.541741222421
 21
265.0834668309549
 31
0.0
  0
LINE
  5
A3
330
1F
100
AcDbEntity
  8
1
  6
CONTINUOUS
 62
     7
100
AcDbLine
 10
307.5802009005759
 20
265.0526833618529
 30
0.0
 11
307.5982469281142
 21
265.0359083323075
 31
0.0
  0
LINE
  5
A4
330
1F
100
AcDbEntity
  8
1
  6
CONTINUOUS
 62
     7
100
AcDbLine
 10
307.6317523658266
 20
264.9997952535487
 30
0.0
 11
307.6471304166593
 21
264.9805448956625
 31
0.0
  0
LINE
  5
A5
330
1F
100
AcDbEntity
  8
1
  6
CONTINUOUS
 62
     7
100
AcDbLine
 10
307.6471304166593
 20
264.9805448956625
 30
0.0
 11
307.661541480818
 21
264.9605603527362
 31
0.0
  0
LINE
  5
A6
330
1F
100
AcDbEntity
  8
1
  6
CONTINUOUS
 62
     7
100
AcDbLine
 10
307.661541480818
 20
264.9605603527362
 30
0.0
 11
307.6749505647383
 21
264.9398901520942
 31
0.0
  0
LINE
  5
A7
330
1F
100
AcDbEntity
  8
1
  6
CONTINUOUS
 62
     7
100
AcDbLine
 10
307.6749505647383
 20
264.9398901520942
 30
0.0
 11
307.6873251079074
 21
264.9185844860048
 31
0.0
  0
LINE
  5
A8
330
1F
100
AcDbEntity
  8
1
  6
CONTINUOUS
 62
     7
100
AcDbLine
 10
307.6873251079074
 20
264.9185844860048
 30
0.0
 11
307.6986350619286
 21
264.8966950898002
 31
0.0
  0
LINE
  5
A9
330
1F
100
AcDbEntity
  8
1
  6
CONTINUOUS
 62
     7
100
AcDbLine
 10
307.6986350619286
 20
264.8966950898002
 30
0.0
 11
307.7088529634864
 21
264.8742751162517
 31
0.0
  0
LINE
  5
AA
330
1F
100
AcDbEntity
  8
1
  6
CONTINUOUS
 62
     7
100
AcDbLine
 10
307.9
 20
247.3666666666667
 30
0.0
 11
307.748886525066
 21
264.6825557757028
 31
0.0
  0
LINE
  5
AB
330
1F
100
AcDbEntity
  8
1
  6
CONTINUOUS
 62
     7
100
AcDbLine
 10
307.5613504074861
 20
265.0685490366395
 30
0.0
 11
307.5802009005759
 21
265.0526833618529
 31
0.0
  0
LINE
  5
AC
330
1F
100
AcDbEntity
  8
1
  6
CONTINUOUS
 62
     7
100
AcDbLine
 10
267.4386495925139
 20
265.0685490366395
 30
0.0
 11
267.4582587775791
 21
265.0834668309549
 31
0.0
  0
LINE
  5
AD
330
1F
100
AcDbEntity
  8
1
  6
CONTINUOUS
 62
     7
100
AcDbLine
 10
267.4197990994242
 20
265.0526833618529
 30
0.0
 11
267.4386495925139
 21
265.0685490366395
 31
0.0
  0
LINE
  5
AE
330
1F
100
AcDbEntity
  8
1
  6
CONTINUOUS
 62
     7
100
AcDbLine
 10
303.6433155909119
 20
265.7666666666667
 30
0.0
 11
271.3566844090881
 21
265.7666666666667
 31
0.0
  0
LINE
  5
AF
330
1F
100
AcDbEntity
  8
1
  6
CONTINUOUS
 62
     7
100
AcDbLine
 10
267.3845553300375
 20
265.0182646818498
 30
0.0
 11
267.4017530718858
 21
265.0359083323075
 31
0.0
  0
LINE
  5
B0
330
1F
100
AcDbEntity
  8
1
  6
CONTINUOUS
 62
     7
100
AcDbLine
 10
267.3682476341735
 20
264.9997952535487
 30
0.0
 11
267.3845553300375
 21
265.0182646818498
 31
0.0
  0
LINE
  5
B1
330
1F
100
AcDbEntity
  8
1
  6
CONTINUOUS
 62
     7
100
AcDbLine
 10
267.251113474934
 20
264.6825557757028
 30
0.0
 11
267.2519354569114
 21
264.7071806629469
 31
0.0
  0
LINE
  5
B2
330
1F
100
AcDbEntity
  8
1
  6
CONTINUOUS
 62
     7
100
AcDbLine
 10
267.2672801483424
 20
264.804381788827
 30
0.0
 11
267.2740839249594
 21
264.8280623578638
 31
0.0
  0
LINE
  5
B3
330
1F
100
AcDbEntity
  8
1
  6
CONTINUOUS
 62
     7
100
AcDbLine
 10
266.0201430417825
 20
247.3666666666667
 30
0.0
 11
265.5277043199408
 21
247.3666666666667
 31
0.0
  0
LINE
  5
B4
330
1F
100
AcDbEntity
  8
1
  6
CONTINUOUS
 62
     7
100
AcDbLine
 10
307.7088529634864
 20
264.8742751162517
 30
0.0
 11
307.7179540010337
 21
264.8513790065009
 31
0.0
  0
LINE
  5
B5
330
1F
100
AcDbEntity
  8
1
  6
CONTINUOUS
 62
     7
100
AcDbLine
 10
307.7427892805774
 20
264.7561596423072
 30
0.0
 11
307.7460304818608
 21
264.7317351599094
 31
0.0
  0
LINE
  5
B6
330
1F
100
AcDbEntity
  8
1
  6
CONTINUOUS
 62
     7
100
AcDbLine
 10
267.2740839249594
 20
264.8280623578638
 30
0.0
 11
267.2820459989664
 21
264.8513790065009
 31
0.0
  0
LINE
  5
B7
330
1F
100
AcDbEntity
  8
1
  6
CONTINUOUS
 62
     7
100
AcDbLine
 10
267.3250494352617
 20
264.9398901520942
 30
0.0
 11
267.3384585191821
 21
264.9605603527362
 31
0.0
  0
LINE
  5
B8
330
1F
100
AcDbEntity
  8
1
  6
CONTINUOUS
 62
     7
100
AcDbLine
 10
267.3384585191821
 20
264.9605603527362
 30
0.0
 11
267.3528695833407
 21
264.9805448956625
 31
0.0
  0
LINE
  5
B9
330
1F
100
AcDbEntity
  8
1
  6
CONTINUOUS
 62
     7
100
AcDbLine
 10
307.7480645430886
 20
264.7071806629469
 30
0.0
 11
307.748886525066
 21
264.6825557757028
 31
0.0
  0
LINE
  5
BA
330
1F
100
AcDbEntity
  8
1
  6
CONTINUOUS
 62
     7
100
AcDbLine
 10
309.4722956800593
 20
247.3666666666667
 30
0.0
 11
308.9798569582176
 21
247.3666666666667
 31
0.0
  0
LINE
  5
BB
330
1F
100
AcDbEntity
  8
1
  6
CONTINUOUS
 62
     7
100
AcDbLine
 10
267.4017530718858
 20
265.0359083323075
 30
0.0
 11
267.4197990994242
 21
265.0526833618529
 31
0.0
  0
LINE
  5
BC
330
1F
100
AcDbEntity
  8
1
  6
CONTINUOUS
 62
     7
100
AcDbLine
 10
307.7179540010337
 20
264.8513790065009
 30
0.0
 11
307.7259160750407
 21
264.8280623578638
 31
0.0
  0
LINE
  5
BD
330
1F
100
AcDbEntity
  8
1
  6
CONTINUOUS
 62
     7
100
AcDbLine
 10
267.251113474934
 20
264.6825557757028
 30
0.0
 11
267.1
 21
247.3666666666667
 31
0.0
  0
LINE
  5
BE
330
1F
100
AcDbEntity
  8
1
  6
CONTINUOUS
 62
     7
100
AcDbLine
 10
267.4995610335122
 20
265.1103162717047
 30
0.0
 11
267.5211538124702
 21
265.1221827211749
 31
0.0
  0
LINE
  5
BF
330
1F
100
AcDbEntity
  8
1
  6
CONTINUOUS
 62
     7
100
AcDbLine
 10
267.6605132217276
 20
265.1699191022481
 30
0.0
 11
270.4508722617034
 21
265.6839326096121
 31
0.0
  0
LINE
  5
C0
330
1F
100
AcDbEntity
  8
1
  6
CONTINUOUS
 62
     7
100
AcDbLine
 10
267.2616511903377
 20
264.7803948015642
 30
0.0
 11
267.2672801483424
 21
264.804381788827
 31
0.0
  0
LINE
  5
C1
330
1F
100
AcDbEntity
  8
1
  6
CONTINUOUS
 62
     7
100
AcDbLine
 10
267.2820459989664
 20
264.8513790065009
 30
0.0
 11
267.2911470365137
 21
264.8742751162517
 31
0.0
  0
LINE
  5
C2
330
1F
100
AcDbEntity
  8
1
  6
CONTINUOUS
 62
     7
100
AcDbLine
 10
267.6125645695053
 20
265.1586188560651
 30
0.0
 11
267.6363996422062
 21
265.1648598524197
 31
0.0
  0
LINE
  5
C3
330
1F
100
AcDbEntity
  8
1
  6
CONTINUOUS
 62
     7
100
AcDbLine
 10
267.4785790387552
 20
265.0974005207711
 30
0.0
 11
267.4995610335122
 21
265.1103162717047
 31
0.0
  0
LINE
  5
C4
330
1F
100
AcDbEntity
  8
1
  6
CONTINUOUS
 62
     7
100
AcDbLine
 10
267.5211538124702
 20
265.1221827211749
 30
0.0
 11
267.5433049431169
 21
265.1329710545602
 31
0.0
  0
LINE
  5
C5
330
1F
100
AcDbEntity
  8
1
  6
CONTINUOUS
 62
     7
100
AcDbLine
 10
267.2539695181392
 20
264.7317351599094
 30
0.0
 11
267.2572107194226
 21
264.7561596423072
 31
0.0
  0
LINE
  5
C6
330
1F
100
AcDbEntity
  8
1
  6
CONTINUOUS
 62
     7
100
AcDbLine
 10
267.2519354569114
 20
264.7071806629469
 30
0.0
 11
267.2539695181392
 21
264.7317351599094
 31
0.0
  0
LINE
  5
C7
330
1F
100
AcDbEntity
  8
1
  6
CONTINUOUS
 62
     7
100
AcDbLine
 10
267.2572107194226
 20
264.7561596423072
 30
0.0
 11
267.2616511903377
 21
264.7803948015642
 31
0.0
  0
LINE
  5
C8
330
1F
100
AcDbEntity
  8
1
  6
CONTINUOUS
 62
     7
100
AcDbLine
 10
267.3013649380715
 20
264.8966950898002
 30
0.0
 11
267.3126748920926
 21
264.9185844860048
 31
0.0
  0
LINE
  5
C9
330
1F
100
AcDbEntity
  8
1
  6
CONTINUOUS
 62
     7
100
AcDbLine
 10
307.7460304818608
 20
264.7317351599094
 30
0.0
 11
307.7480645430886
 21
264.7071806629469
 31
0.0
  0
LINE
  5
CA
330
1F
100
AcDbEntity
  8
1
  6
CONTINUOUS
 62
     7
100
AcDbLine
 10
267.2911470365137
 20
264.8742751162517
 30
0.0
 11
267.3013649380715
 21
264.8966950898002
 31
0.0
  0
LINE
  5
CB
330
1F
100
AcDbEntity
  8
1
  6
CONTINUOUS
 62
     7
100
AcDbLine
 10
267.3126748920926
 20
264.9185844860048
 30
0.0
 11
267.3250494352617
 21
264.9398901520942
 31
0.0
  0
LINE
  5
CC
330
1F
100
AcDbEntity
  8
1
  6
CONTINUOUS
 62
     7
100
AcDbLine
 10
267.4582587775791
 20
265.0834668309549
 30
0.0
 11
267.4785790387552
 21
265.0974005207711
 31
0.0
  0
LINE
  5
CD
330
1F
100
AcDbEntity
  8
1
  6
CONTINUOUS
 62
     7
100
AcDbLine
 10
267.5433049431169
 20
265.1329710545602
 30
0.0
 11
267.5659606371265
 21
265.1426550751665
 31
0.0
  0
LINE
  5
CE
330
1F
100
AcDbEntity
  8
1
  6
CONTINUOUS
 62
     7
100
AcDbLine
 10
266.0201430417825
 20
247.3666666666667
 30
0.0
 11
267.1000000000001
 21
247.3666666666667
 31
0.0
  0
LINE
  5
CF
330
1F
100
AcDbEntity
  8
1
  6
CONTINUOUS
 62
     7
100
AcDbLine
 10
267.5659606371265
 20
265.1426550751665
 30
0.0
 11
267.5890658809707
 21
265.1512112678396
 31
0.0
  0
ARC
  5
D0
330
1F
100
AcDbEntity
  8
1
  6
CONTINUOUS
 62
     7
100
AcDbCircle
 10
303.6433155909119
 20
260.7666666666667
 30
0.0
 40
5.0
100
AcDbArc
 50
79.56252464888178
 51
90.00000000000006
  0
ARC
  5
D1
330
1F
100
AcDbEntity
  8
1
  6
CONTINUOUS
 62
     7
100
AcDbCircle
 10
271.3566844090881
 20
260.7666666666667
 30
0.0
 40
5.0
100
AcDbArc
 50
90.0
 51
100.4374753511182
  0
LINE
  5
D2
330
1F
100
AcDbEntity
  8
1
  6
CONTINUOUS
 62
     7
100
AcDbLine
 10
307.7259160750407
 20
264.8280623578638
 30
0.0
 11
307.7327198516577
 21
264.804381788827
 31
0.0
  0
LINE
  5
D3
330
1F
100
AcDbEntity
  8
1
  6
CONTINUOUS
 62
     7
100
AcDbLine
 10
304.5491277382966
 20
265.6839326096121
 30
0.0
 11
307.3394867782724
 21
265.1699191022481
 31
0.0
  0
LINE
  5
D4
330
1F
100
AcDbEntity
  8
1
  6
CONTINUOUS
 62
     7
100
AcDbLine
 10
267.3528695833407
 20
264.9805448956625
 30
0.0
 11
267.3682476341735
 21
264.9997952535487
 31
0.0
  0
LINE
  5
D5
330
1F
100
AcDbEntity
  8
1
  6
CONTINUOUS
 62
     7
100
AcDbLine
 10
267.6363996422062
 20
265.1648598524197
 30
0.0
 11
267.6605132217276
 21
265.1699191022481
 31
0.0
  0
LINE
  5
D6
330
1F
100
AcDbEntity
  8
1
  6
CONTINUOUS
 62
     7
100
AcDbLine
 10
307.7383488096623
 20
264.7803948015642
 30
0.0
 11
307.7427892805774
 21
264.7561596423072
 31
0.0
  0
LINE
  5
D7
330
1F
100
AcDbEntity
  8
1
  6
CONTINUOUS
 62
     7
100
AcDbLine
 10
267.5890658809707
 20
265.1512112678396
 30
0.0
 11
267.6125645695053
 21
265.1586188560651
 31
0.0
  0
LINE
  5
D8
330
1F
100
AcDbEntity
  8
1
  6
CONTINUOUS
 62
     7
100
AcDbLine
 10
307.7327198516577
 20
264.804381788827
 30
0.0
 11
307.7383488096623
 21
264.7803948015642
 31
0.0
  0
LINE
  5
D9
330
1F
100
AcDbEntity
  8
1
  6
CONTINUOUS
 62
     7
100
AcDbLine
 10
307.9
 20
247.3666666666667
 30
0.0
 11
308.9798569582176
 21
247.3666666666667
 31
0.0
  0
LINE
  5
DA
330
1F
100
AcDbEntity
  8
1
  6
CONTINUOUS
 62
     7
100
AcDbLine
 10
264.9
 20
247.3666666666667
 30
0.0
 11
265.2388192664279
 21
266.7776094400854
 31
0.0
  0
LINE
  5
DB
330
1F
100
AcDbEntity
  8
1
  6
CONTINUOUS
 62
     7
100
AcDbLine
 10
309.7503097482077
 20
266.8524915464373
 30
0.0
 11
309.7461418489769
 21
266.8662827381691
 31
0.0
  0
LINE
  5
DC
330
1F
100
AcDbEntity
  8
1
  6
CONTINUOUS
 62
     7
100
AcDbLine
 10
265.2702775837839
 20
266.906156024342
 30
0.0
 11
265.2770356255687
 21
266.9189194873562
 31
0.0
  0
LINE
  5
DD
330
1F
100
AcDbEntity
  8
1
  6
CONTINUOUS
 62
     7
100
AcDbLine
 10
265.3098507824392
 20
266.9662663561209
 30
0.0
 11
265.319380576767
 21
266.976976684303
 31
0.0
  0
LINE
  5
DE
330
1F
100
AcDbEntity
  8
1
  6
CONTINUOUS
 62
     7
100
AcDbLine
 10
310.1
 20
247.3666666666667
 30
0.0
 11
309.4722956800593
 21
247.3666666666667
 31
0.0
  0
LINE
  5
DF
330
1F
100
AcDbEntity
  8
1
  6
CONTINUOUS
 62
     7
100
AcDbLine
 10
309.6705559222563
 20
266.9872436340113
 30
0.0
 11
309.6599969628433
 21
266.9970353628305
 31
0.0
  0
LINE
  5
E0
330
1F
100
AcDbEntity
  8
1
  6
CONTINUOUS
 62
     7
100
AcDbLine
 10
309.6005805303914
 20
267.0380341315206
 30
0.0
 11
309.5872073475721
 21
267.0446143109672
 31
0.0
  0
LINE
  5
E1
330
1F
100
AcDbEntity
  8
1
  6
CONTINUOUS
 62
     7
100
AcDbLine
 10
309.6599969628433
 20
266.9970353628305
 30
0.0
 11
309.6489807932062
 21
267.0063200283452
 31
0.0
  0
LINE
  5
E2
330
1F
100
AcDbEntity
  8
1
  6
CONTINUOUS
 62
     7
100
AcDbLine
 10
309.6489807932062
 20
267.0063200283452
 30
0.0
 11
309.6375456615576
 21
267.0150657881401
 31
0.0
  0
LINE
  5
E3
330
1F
100
AcDbEntity
  8
1
  6
CONTINUOUS
 62
     7
100
AcDbLine
 10
309.6375456615576
 20
267.0150657881401
 30
0.0
 11
309.6257298161102
 21
267.0232407997999
 31
0.0
  0
LINE
  5
E4
330
1F
100
AcDbEntity
  8
1
  6
CONTINUOUS
 62
     7
100
AcDbLine
 10
265.2586746398704
 20
266.8798194558702
 30
0.0
 11
265.2641487674684
 21
266.8931082780113
 31
0.0
  0
LINE
  5
E5
330
1F
100
AcDbEntity
  8
1
  6
CONTINUOUS
 62
     7
100
AcDbLine
 10
265.2923375325538
 20
266.9434207334095
 30
0.0
 11
265.300830471258
 21
266.9550721014361
 31
0.0
  0
LINE
  5
E6
330
1F
100
AcDbEntity
  8
1
  6
CONTINUOUS
 62
     7
100
AcDbLine
 10
309.7076624674463
 20
266.9434207334095
 30
0.0
 11
309.6991695287421
 21
266.9550721014361
 31
0.0
  0
LINE
  5
E7
330
1F
100
AcDbEntity
  8
1
  6
CONTINUOUS
 62
     7
100
AcDbLine
 10
309.7538196144605
 20
266.8384946087785
 30
0.0
 11
309.7503097482077
 21
266.8524915464373
 31
0.0
  0
LINE
  5
E8
330
1F
100
AcDbEntity
  8
1
  6
CONTINUOUS
 62
     7
100
AcDbLine
 10
265.3624543384424
 20
267.0150657881401
 30
0.0
 11
265.3742701838898
 21
267.0232407997999
 31
0.0
  0
LINE
  5
E9
330
1F
100
AcDbEntity
  8
1
  6
CONTINUOUS
 62
     7
100
AcDbLine
 10
309.7413253601297
 20
266.8798194558702
 30
0.0
 11
309.7358512325316
 21
266.8931082780113
 31
0.0
  0
LINE
  5
EA
330
1F
100
AcDbEntity
  8
1
  6
CONTINUOUS
 62
     7
100
AcDbLine
 10
265.2496902517923
 20
266.8524915464373
 30
0.0
 11
265.2538581510232
 21
266.8662827381691
 31
0.0
  0
LINE
  5
EB
330
1F
100
AcDbEntity
  8
1
  6
CONTINUOUS
 62
     7
100
AcDbLine
 10
309.7156025704254
 20
266.9313554595474
 30
0.0
 11
309.7076624674463
 21
266.9434207334095
 31
0.0
  0
LINE
  5
EC
330
1F
100
AcDbEntity
  8
1
  6
CONTINUOUS
 62
     7
100
AcDbLine
 10
309.7297224162161
 20
266.906156024342
 30
0.0
 11
309.7229643744314
 21
266.9189194873562
 31
0.0
  0
LINE
  5
ED
330
1F
100
AcDbEntity
  8
1
  6
CONTINUOUS
 62
     7
100
AcDbLine
 10
265.5277043199408
 20
247.3666666666667
 30
0.0
 11
264.9
 21
247.3666666666667
 31
0.0
  0
LINE
  5
EE
330
1F
100
AcDbEntity
  8
1
  6
CONTINUOUS
 62
     7
100
AcDbLine
 10
309.6901492175608
 20
266.9662663561209
 30
0.0
 11
309.6806194232331
 21
266.976976684303
 31
0.0
  0
LINE
  5
EF
330
1F
100
AcDbEntity
  8
1
  6
CONTINUOUS
 62
     7
100
AcDbLine
 10
309.6135715050763
 20
267.0308132209091
 30
0.0
 11
309.6005805303914
 21
267.0380341315206
 31
0.0
  0
LINE
  5
F0
330
1F
100
AcDbEntity
  8
1
  6
CONTINUOUS
 62
     7
100
AcDbLine
 10
309.5309326794176
 20
267.0641545456676
 30
0.0
 11
309.5164285642764
 21
267.067251190712
 31
0.0
  0
LINE
  5
F1
330
1F
100
AcDbEntity
  8
1
  6
CONTINUOUS
 62
     7
100
AcDbLine
 10
309.6806194232331
 20
266.976976684303
 30
0.0
 11
309.6705559222563
 21
266.9872436340113
 31
0.0
  0
LINE
  5
F2
330
1F
100
AcDbEntity
  8
1
  6
CONTINUOUS
 62
     7
100
AcDbLine
 10
265.2433379956263
 20
266.8243406532962
 30
0.0
 11
265.2461803855396
 21
266.8384946087785
 31
0.0
  0
LINE
  5
F3
330
1F
100
AcDbEntity
  8
1
  6
CONTINUOUS
 62
     7
100
AcDbLine
 10
309.7461418489769
 20
266.8662827381691
 30
0.0
 11
309.7413253601297
 21
266.8798194558702
 31
0.0
  0
LINE
  5
F4
330
1F
100
AcDbEntity
  8
1
  6
CONTINUOUS
 62
     7
100
AcDbLine
 10
265.2641487674684
 20
266.8931082780113
 30
0.0
 11
265.2702775837839
 21
266.906156024342
 31
0.0
  0
LINE
  5
F5
330
1F
100
AcDbEntity
  8
1
  6
CONTINUOUS
 62
     7
100
AcDbLine
 10
265.2770356255687
 20
266.9189194873562
 30
0.0
 11
265.2843974295747
 21
266.9313554595474
 31
0.0
  0
LINE
  5
F6
330
1F
100
AcDbEntity
  8
1
  6
CONTINUOUS
 62
     7
100
AcDbLine
 10
265.2538581510232
 20
266.8662827381691
 30
0.0
 11
265.2586746398704
 21
266.8798194558702
 31
0.0
  0
LINE
  5
F7
330
1F
100
AcDbEntity
  8
1
  6
CONTINUOUS
 62
     7
100
AcDbLine
 10
309.7611807335721
 20
266.7776094400854
 30
0.0
 11
309.7610898824611
 21
266.7814239609435
 31
0.0
  0
LINE
  5
F8
330
1F
100
AcDbEntity
  8
1
  6
CONTINUOUS
 62
     7
100
AcDbLine
 10
309.7358512325316
 20
266.8931082780113
 30
0.0
 11
309.7297224162161
 21
266.906156024342
 31
0.0
  0
LINE
  5
F9
330
1F
100
AcDbEntity
  8
1
  6
CONTINUOUS
 62
     7
100
AcDbLine
 10
309.5453146225411
 20
267.060323876599
 30
0.0
 11
309.5309326794176
 21
267.0641545456676
 31
0.0
  0
LINE
  5
FA
330
1F
100
AcDbEntity
  8
1
  6
CONTINUOUS
 62
     7
100
AcDbLine
 10
265.241172525414
 20
266.8100784080939
 30
0.0
 11
265.2433379956263
 21
266.8243406532962
 31
0.0
  0
LINE
  5
FB
330
1F
100
AcDbEntity
  8
1
  6
CONTINUOUS
 62
     7
100
AcDbLine
 10
265.2843974295747
 20
266.9313554595474
 30
0.0
 11
265.2923375325538
 21
266.9434207334095
 31
0.0
  0
LINE
  5
FC
330
1F
100
AcDbEntity
  8
1
  6
CONTINUOUS
 62
     7
100
AcDbLine
 10
265.2389101175389
 20
266.7814239609435
 30
0.0
 11
265.2388192664279
 21
266.7776094400854
 31
0.0
  0
LINE
  5
FD
330
1F
100
AcDbEntity
  8
1
  6
CONTINUOUS
 62
     7
100
AcDbLine
 10
265.300830471258
 20
266.9550721014361
 30
0.0
 11
265.3098507824392
 21
266.9662663561209
 31
0.0
  0
LINE
  5
FE
330
1F
100
AcDbEntity
  8
1
  6
CONTINUOUS
 62
     7
100
AcDbLine
 10
309.7610898824611
 20
266.7814239609435
 30
0.0
 11
309.7603065817356
 21
266.7957566012752
 31
0.0
  0
LINE
  5
FF
330
1F
100
AcDbEntity
  8
1
  6
CONTINUOUS
 62
     7
100
AcDbLine
 10
265.2461803855396
 20
266.8384946087785
 30
0.0
 11
265.2496902517923
 21
266.8524915464373
 31
0.0
  0
LINE
  5
100
330
1F
100
AcDbEntity
  8
1
  6
CONTINUOUS
 62
     7
100
AcDbLine
 10
265.319380576767
 20
266.976976684303
 30
0.0
 11
265.3294440777437
 21
266.9872436340113
 31
0.0
  0
LINE
  5
101
330
1F
100
AcDbEntity
  8
1
  6
CONTINUOUS
 62
     7
100
AcDbLine
 10
265.3294440777437
 20
266.9872436340113
 30
0.0
 11
265.3400030371568
 21
266.9970353628305
 31
0.0
  0
LINE
  5
102
330
1F
100
AcDbEntity
  8
1
  6
CONTINUOUS
 62
     7
100
AcDbLine
 10
309.7611807335721
 20
266.7776094400854
 30
0.0
 11
310.1
 21
247.3666666666667
 31
0.0
  0
LINE
  5
103
330
1F
100
AcDbEntity
  8
1
  6
CONTINUOUS
 62
     7
100
AcDbLine
 10
309.7229643744314
 20
266.9189194873562
 30
0.0
 11
309.7156025704254
 21
266.9313554595474
 31
0.0
  0
LINE
  5
104
330
1F
100
AcDbEntity
  8
1
  6
CONTINUOUS
 62
     7
100
AcDbLine
 10
309.6991695287421
 20
266.9550721014361
 30
0.0
 11
309.6901492175608
 21
266.9662663561209
 31
0.0
  0
LINE
  5
105
330
1F
100
AcDbEntity
  8
1
  6
CONTINUOUS
 62
     7
100
AcDbLine
 10
309.7603065817356
 20
266.7957566012752
 30
0.0
 11
309.758827474586
 21
266.8100784080939
 31
0.0
  0
LINE
  5
106
330
1F
100
AcDbEntity
  8
1
  6
CONTINUOUS
 62
     7
100
AcDbLine
 10
309.5735039638417
 20
267.050535100677
 30
0.0
 11
309.5595223864236
 21
267.0557778420782
 31
0.0
  0
LINE
  5
107
330
1F
100
AcDbEntity
  8
1
  6
CONTINUOUS
 62
     7
100
AcDbLine
 10
309.5595223864236
 20
267.0557778420782
 30
0.0
 11
309.5453146225411
 21
267.060323876599
 31
0.0
  0
LINE
  5
108
330
1F
100
AcDbEntity
  8
1
  6
CONTINUOUS
 62
     7
100
AcDbLine
 10
265.2389101175389
 20
266.7814239609435
 30
0.0
 11
265.2396934182644
 21
266.7957566012752
 31
0.0
  0
LINE
  5
109
330
1F
100
AcDbEntity
  8
1
  6
CONTINUOUS
 62
     7
100
AcDbLine
 10
265.3400030371568
 20
266.9970353628305
 30
0.0
 11
265.3510192067939
 21
267.0063200283452
 31
0.0
  0
LINE
  5
10A
330
1F
100
AcDbEntity
  8
1
  6
CONTINUOUS
 62
     7
100
AcDbLine
 10
265.3510192067939
 20
267.0063200283452
 30
0.0
 11
265.3624543384424
 21
267.0150657881401
 31
0.0
  0
LINE
  5
10B
330
1F
100
AcDbEntity
  8
1
  6
CONTINUOUS
 62
     7
100
AcDbLine
 10
309.758827474586
 20
266.8100784080939
 30
0.0
 11
309.7566620043738
 21
266.8243406532962
 31
0.0
  0
LINE
  5
10C
330
1F
100
AcDbEntity
  8
1
  6
CONTINUOUS
 62
     7
100
AcDbLine
 10
309.7566620043738
 20
266.8243406532962
 30
0.0
 11
309.7538196144605
 21
266.8384946087785
 31
0.0
  0
LINE
  5
10D
330
1F
100
AcDbEntity
  8
1
  6
CONTINUOUS
 62
     7
100
AcDbLine
 10
309.5872073475721
 20
267.0446143109672
 30
0.0
 11
309.5735039638417
 21
267.050535100677
 31
0.0
  0
LINE
  5
10E
330
1F
100
AcDbEntity
  8
1
  6
CONTINUOUS
 62
     7
100
AcDbLine
 10
309.6257298161102
 20
267.0232407997999
 30
0.0
 11
309.6135715050763
 21
267.0308132209091
 31
0.0
  0
LINE
  5
10F
330
1F
100
AcDbEntity
  8
1
  6
CONTINUOUS
 62
     7
100
AcDbLine
 10
265.2396934182644
 20
266.7957566012752
 30
0.0
 11
265.241172525414
 21
266.8100784080939
 31
0.0
  0
LINE
  5
110
330
1F
100
AcDbEntity
  8
1
  6
CONTINUOUS
 62
     7
100
AcDbLine
 10
267.1000000000001
 20
235.3666666666667
 30
0.0
 11
266.2296038209212
 21
235.3666666666667
 31
0.0
  0
LINE
  5
111
330
1F
100
AcDbEntity
  8
1
  6
CONTINUOUS
 62
     7
100
AcDbLine
 10
265.1094607791387
 20
235.3666666666667
 30
0.0
 11
264.9
 21
247.3666666666667
 31
0.0
  0
LINE
  5
112
330
1F
100
AcDbEntity
  8
1
  6
CONTINUOUS
 62
     7
100
AcDbLine
 10
287.5
 20
238.8576514332342
 30
0.0
 11
287.3809080353973
 21
238.8069161948204
 31
0.0
  0
LINE
  5
113
330
1F
100
AcDbEntity
  8
1
  6
CONTINUOUS
 62
     7
100
AcDbLine
 10
309.4722956800593
 20
247.3666666666667
 30
0.0
 11
310.1
 21
247.3666666666667
 31
0.0
  0
LINE
  5
114
330
1F
100
AcDbEntity
  8
1
  6
CONTINUOUS
 62
     7
100
AcDbLine
 10
266.2296038209211
 20
235.3666666666667
 30
0.0
 11
265.7371650990794
 21
235.3666666666667
 31
0.0
  0
LINE
  5
115
330
1F
100
AcDbEntity
  8
1
  6
CONTINUOUS
 62
     7
100
AcDbLine
 10
265.3864284949238
 20
267.0308132209091
 30
0.0
 11
265.3994194696086
 21
267.0380341315206
 31
0.0
  0
LINE
  5
116
330
1F
100
AcDbEntity
  8
1
  6
CONTINUOUS
 62
     7
100
AcDbLine
 10
267.1
 20
247.3666666666667
 30
0.0
 11
267.1
 21
235.3666666666667
 31
0.0
  0
LINE
  5
117
330
1F
100
AcDbEntity
  8
1
  6
CONTINUOUS
 62
     7
100
AcDbLine
 10
265.3994194696086
 20
267.0380341315206
 30
0.0
 11
265.412792652428
 21
267.0446143109672
 31
0.0
  0
LINE
  5
118
330
1F
100
AcDbEntity
  8
1
  6
CONTINUOUS
 62
     7
100
AcDbLine
 10
282.107560250562
 20
237.3666666666667
 30
0.0
 11
287.0
 21
237.3666666666667
 31
0.0
  0
LINE
  5
119
330
1F
100
AcDbEntity
  8
1
  6
CONTINUOUS
 62
     7
100
AcDbLine
 10
265.4690673205824
 20
267.0641545456676
 30
0.0
 11
265.4835714357237
 21
267.067251190712
 31
0.0
  0
LINE
  5
11A
330
1F
100
AcDbEntity
  8
1
  6
CONTINUOUS
 62
     7
100
AcDbLine
 10
309.5164285642764
 20
267.067251190712
 30
0.0
 11
309.5121984999774
 21
267.0680117528775
 31
0.0
  0
LINE
  5
11B
330
1F
100
AcDbEntity
  8
1
  6
CONTINUOUS
 62
     7
100
AcDbLine
 10
264.9
 20
247.3666666666667
 30
0.0
 11
265.5277043199408
 21
247.3666666666667
 31
0.0
  0
LINE
  5
11C
330
1F
100
AcDbEntity
  8
1
  6
CONTINUOUS
 62
     7
100
AcDbLine
 10
265.5277043199408
 20
247.3666666666667
 30
0.0
 11
266.0201430417825
 21
247.3666666666667
 31
0.0
  0
LINE
  5
11D
330
1F
100
AcDbEntity
  8
1
  6
CONTINUOUS
 62
     7
100
AcDbLine
 10
266.0201430417825
 20
247.3666666666667
 30
0.0
 11
267.1
 21
247.3666666666667
 31
0.0
  0
LINE
  5
11E
330
1F
100
AcDbEntity
  8
1
  6
CONTINUOUS
 62
     7
100
AcDbLine
 10
307.9
 20
247.3666666666667
 30
0.0
 11
308.9798569582176
 21
247.3666666666667
 31
0.0
  0
LINE
  5
11F
330
1F
100
AcDbEntity
  8
1
  6
CONTINUOUS
 62
     7
100
AcDbLine
 10
307.9
 20
235.3666666666667
 30
0.0
 11
307.9
 21
247.3666666666667
 31
0.0
  0
LINE
  5
120
330
1F
100
AcDbEntity
  8
1
  6
CONTINUOUS
 62
     7
100
AcDbLine
 10
310.1
 20
247.3666666666667
 30
0.0
 11
309.8905392208614
 21
235.3666666666667
 31
0.0
  0
ARC
  5
121
330
1F
100
AcDbEntity
  8
1
  6
CONTINUOUS
 62
     7
100
AcDbCircle
 10
304.0432732365255
 20
264.9666666666667
 30
0.0
 40
3.000000000000001
100
AcDbArc
 50
89.91270473881839
 51
90.0
  0
ARC
  5
122
330
1F
100
AcDbEntity
  8
1
  6
CONTINUOUS
 62
     7
100
AcDbCircle
 10
270.9567267634746
 20
264.9666666666667
 30
0.0
 40
3.000000000000001
100
AcDbArc
 50
90.0
 51
90.08729526118181
  0
LINE
  5
123
330
1F
100
AcDbEntity
  8
1
  6
CONTINUOUS
 62
     7
100
AcDbLine
 10
282.107560250562
 20
237.3666666666667
 30
0.0
 11
280.1048155585661
 21
237.3666666666667
 31
0.0
  0
LINE
  5
124
330
1F
100
AcDbEntity
  8
1
  6
CONTINUOUS
 62
     7
100
AcDbLine
 10
265.3742701838898
 20
267.0232407997999
 30
0.0
 11
265.3864284949238
 21
267.0308132209091
 31
0.0
  0
LINE
  5
125
330
1F
100
AcDbEntity
  8
1
  6
CONTINUOUS
 62
     7
100
AcDbLine
 10
265.412792652428
 20
267.0446143109672
 30
0.0
 11
265.4264960361584
 21
267.050535100677
 31
0.0
  0
LINE
  5
126
330
1F
100
AcDbEntity
  8
1
  6
CONTINUOUS
 62
     7
100
AcDbLine
 10
305.969085395644
 20
239.4502644361745
 30
0.0
 11
305.742065385615
 21
265.4641809377376
 31
0.0
  0
LINE
  5
127
330
1F
100
AcDbEntity
  8
1
  6
CONTINUOUS
 62
     7
100
AcDbLine
 10
270.4515359787842
 20
267.9238244695348
 30
0.0
 11
270.952155996056
 21
267.9666631846789
 31
0.0
  0
LINE
  5
128
330
1F
100
AcDbEntity
  8
1
  6
CONTINUOUS
 62
     7
100
AcDbLine
 10
309.2628349009207
 20
235.3666666666667
 30
0.0
 11
308.7703961790789
 21
235.3666666666667
 31
0.0
  0
LINE
  5
129
330
1F
100
AcDbEntity
  8
1
  6
CONTINUOUS
 62
     7
100
AcDbLine
 10
308.7703961790789
 20
235.3666666666667
 30
0.0
 11
307.9
 21
235.3666666666667
 31
0.0
  0
LINE
  5
12A
330
1F
100
AcDbEntity
  8
1
  6
CONTINUOUS
 62
     7
100
AcDbLine
 10
265.4546853774589
 20
267.060323876599
 30
0.0
 11
265.4690673205824
 21
267.0641545456676
 31
0.0
  0
LINE
  5
12B
330
1F
100
AcDbEntity
  8
1
  6
CONTINUOUS
 62
     7
100
AcDbLine
 10
265.4404776135765
 20
267.0557778420782
 30
0.0
 11
265.4546853774589
 21
267.060323876599
 31
0.0
  0
LINE
  5
12C
330
1F
100
AcDbEntity
  8
1
  6
CONTINUOUS
 62
     7
100
AcDbLine
 10
270.9567267634746
 20
267.9666666666667
 30
0.0
 11
304.0432732365254
 21
267.9666666666667
 31
0.0
  0
ARC
  5
12D
330
1F
100
AcDbEntity
  8
1
  6
CONTINUOUS
 62
     7
100
AcDbCircle
 10
270.9567267634746
 20
264.9666666666667
 30
0.0
 40
3.000000000000001
100
AcDbArc
 50
99.69462614365239
 51
99.78240703180731
  0
LINE
  5
12E
330
1F
100
AcDbEntity
  8
1
  6
CONTINUOUS
 62
     7
100
AcDbLine
 10
265.4264960361584
 20
267.050535100677
 30
0.0
 11
265.4404776135765
 21
267.0557778420782
 31
0.0
  0
LINE
  5
12F
330
1F
100
AcDbEntity
  8
1
  6
CONTINUOUS
 62
     7
100
AcDbLine
 10
304.5484640212159
 20
267.9238244695348
 30
0.0
 11
304.0478440039441
 21
267.9666631846789
 31
0.0
  0
LINE
  5
130
330
1F
100
AcDbEntity
  8
1
  6
CONTINUOUS
 62
     7
100
AcDbLine
 10
265.7371650990794
 20
235.3666666666667
 30
0.0
 11
265.1094607791386
 21
235.3666666666667
 31
0.0
  0
LINE
  5
131
330
1F
100
AcDbEntity
  8
1
  6
CONTINUOUS
 62
     7
100
AcDbLine
 10
265.4878015000226
 20
267.0680117528775
 30
0.0
 11
270.4470060139517
 21
267.9230470138997
 31
0.0
  0
LINE
  5
132
330
1F
100
AcDbEntity
  8
1
  6
CONTINUOUS
 62
     7
100
AcDbLine
 10
304.5529939860484
 20
267.9230470138997
 30
0.0
 11
309.5121984999774
 21
267.0680117528775
 31
0.0
  0
LINE
  5
133
330
1F
100
AcDbEntity
  8
1
  6
CONTINUOUS
 62
     7
100
AcDbLine
 10
309.8905392208614
 20
235.3666666666667
 30
0.0
 11
309.2628349009207
 21
235.3666666666667
 31
0.0
  0
LINE
  5
134
330
1F
100
AcDbEntity
  8
1
  6
CONTINUOUS
 62
     7
100
AcDbLine
 10
280.1048155585661
 20
237.3666666666667
 30
0.0
 11
280.1337622594319
 21
237.9190026225464
 31
0.0
  0
ARC
  5
135
330
1F
100
AcDbEntity
  8
1
  6
CONTINUOUS
 62
     7
100
AcDbCircle
 10
286.4465856963773
 20
237.8786011970239
 30
0.0
 40
1.553460148093438
100
AcDbArc
 50
359.5598181598501
 51
22.37475611704452
  0
LINE
  5
136
330
1F
100
AcDbEntity
  8
1
  6
CONTINUOUS
 62
     7
100
AcDbLine
 10
287.8830917940255
 20
238.4699459891156
 30
0.0
 11
287.8261163728792
 21
238.5818982958096
 31
0.0
  0
LINE
  5
137
330
1F
100
AcDbEntity
  8
1
  6
CONTINUOUS
 62
     7
100
AcDbLine
 10
287.8261163728792
 20
238.5818982958096
 30
0.0
 11
287.7588949858539
 21
238.6795535625265
 31
0.0
  0
LINE
  5
138
330
1F
100
AcDbEntity
  8
1
  6
CONTINUOUS
 62
     7
100
AcDbLine
 10
265.4878015000226
 20
267.0680117528775
 30
0.0
 11
265.4835714357237
 21
267.067251190712
 31
0.0
  0
LINE
  5
139
330
1F
100
AcDbEntity
  8
1
  6
CONTINUOUS
 62
     7
100
AcDbLine
 10
269.257934614385
 20
265.4641809377376
 30
0.0
 11
269.030914604356
 21
239.4502644361745
 31
0.0
  0
LINE
  5
13A
330
1F
100
AcDbEntity
  8
1
  6
CONTINUOUS
 62
     7
100
AcDbLine
 10
308.9798569582175
 20
247.3666666666667
 30
0.0
 11
309.4722956800592
 21
247.3666666666667
 31
0.0
  0
LINE
  5
13B
330
1F
100
AcDbEntity
  8
1
  6
CONTINUOUS
 62
     7
100
AcDbLine
 10
287.7588949858539
 20
238.6795535625265
 30
0.0
 11
287.6789680031742
 21
238.7626673240447
 31
0.0
  0
LINE
  5
13C
330
1F
100
AcDbEntity
  8
1
  6
CONTINUOUS
 62
     7
100
AcDbLine
 10
287.6789680031742
 20
238.7626673240447
 30
0.0
 11
287.5926227451972
 21
238.8223427714649
 31
0.0
  0
LINE
  5
13D
330
1F
100
AcDbEntity
  8
1
  6
CONTINUOUS
 62
     7
100
AcDbLine
 10
287.5926227451972
 20
238.8223427714649
 30
0.0
 11
287.5
 21
238.8576514332342
 31
0.0
  0
ARC
  5
13E
330
1F
100
AcDbEntity
  8
1
  6
CONTINUOUS
 62
     7
100
AcDbCircle
 10
304.0432732365255
 20
264.9666666666667
 30
0.0
 40
3.0
100
AcDbArc
 50
80.21759296819266
 51
80.30537385634773
  0
LINE
  5
13F
330
1F
100
AcDbEntity
  8
1
  6
CONTINUOUS
 62
     7
100
AcDbLine
 10
287.0
 20
237.8666666666667
 30
0.0
 11
287.0
 21
237.3666666666667
 31
0.0
  0
LINE
  5
140
330
1F
100
AcDbEntity
  8
1
  6
CONTINUOUS
 62
     7
100
AcDbLine
 10
288.0
 20
237.8666666666667
 30
0.0
 11
288.0
 21
237.3666666666667
 31
0.0
  0
LINE
  5
141
330
1F
100
AcDbEntity
  8
1
  6
CONTINUOUS
 62
     7
100
AcDbLine
 10
289.0733708909963
 20
236.7666666666667
 30
0.0
 11
289.0786116689246
 21
236.8666666666667
 31
0.0
  0
LINE
  5
142
330
1F
100
AcDbEntity
  8
1
  6
CONTINUOUS
 62
     7
100
AcDbLine
 10
277.9986276540021
 20
235.3666666666667
 30
0.0
 11
277.9200159850776
 21
236.8666666666667
 31
0.0
  0
LINE
  5
143
330
1F
100
AcDbEntity
  8
1
  6
CONTINUOUS
 62
     7
100
AcDbLine
 10
307.9
 20
235.3666666666667
 30
0.0
 11
297.001372345998
 21
235.3666666666667
 31
0.0
  0
LINE
  5
144
330
1F
100
AcDbEntity
  8
1
  6
CONTINUOUS
 62
     7
100
AcDbLine
 10
289.1048155585661
 20
237.3666666666667
 30
0.0
 11
289.0786116689246
 21
236.8666666666667
 31
0.0
  0
LINE
  5
145
330
1F
100
AcDbEntity
  8
1
  6
CONTINUOUS
 62
     7
100
AcDbLine
 10
285.9213883310755
 20
236.8666666666667
 30
0.0
 11
285.9266291090038
 21
236.7666666666667
 31
0.0
  0
LINE
  5
146
330
1F
100
AcDbEntity
  8
1
  6
CONTINUOUS
 62
     7
100
AcDbLine
 10
296.0000000000001
 20
235.3666666666667
 30
0.0
 11
296.0786116689246
 21
236.8666666666667
 31
0.0
  0
LINE
  5
147
330
1F
100
AcDbEntity
  8
1
  6
CONTINUOUS
 62
     7
100
AcDbLine
 10
294.9266291090038
 20
236.7666666666667
 30
0.0
 11
295.0000000000001
 21
235.3666666666667
 31
0.0
  0
LINE
  5
148
330
1F
100
AcDbEntity
  8
1
  6
CONTINUOUS
 62
     7
100
AcDbLine
 10
294.895184441434
 20
237.3666666666667
 30
0.0
 11
292.8924397494381
 21
237.3666666666667
 31
0.0
  0
LINE
  5
149
330
1F
100
AcDbEntity
  8
1
  6
CONTINUOUS
 62
     7
100
AcDbLine
 10
280.0733708909963
 20
236.7666666666667
 30
0.0
 11
280.0786116689246
 21
236.8666666666667
 31
0.0
  0
LINE
  5
14A
330
1F
100
AcDbEntity
  8
1
  6
CONTINUOUS
 62
     7
100
AcDbLine
 10
279.0
 20
235.3666666666667
 30
0.0
 11
277.9986276540021
 21
235.3666666666667
 31
0.0
  0
LINE
  5
14B
330
1F
100
AcDbEntity
  8
1
  6
CONTINUOUS
 62
     7
100
AcDbLine
 10
277.9986276540021
 20
235.3666666666667
 30
0.0
 11
267.1000000000001
 21
235.3666666666667
 31
0.0
  0
LINE
  5
14C
330
1F
100
AcDbEntity
  8
1
  6
CONTINUOUS
 62
     7
100
AcDbLine
 10
289.0000000000001
 20
235.3666666666667
 30
0.0
 11
289.0733708909963
 21
236.7666666666667
 31
0.0
  0
LINE
  5
14D
330
1F
100
AcDbEntity
  8
1
  6
CONTINUOUS
 62
     7
100
AcDbLine
 10
287.1624903074867
 20
238.5620181329672
 30
0.0
 11
287.1088327794518
 21
238.4509654165684
 31
0.0
  0
LINE
  5
14E
330
1F
100
AcDbEntity
  8
1
  6
CONTINUOUS
 62
     7
100
AcDbLine
 10
277.9200159850776
 20
236.8666666666667
 30
0.0
 11
278.9213883310755
 21
236.8666666666667
 31
0.0
  0
LINE
  5
14F
330
1F
100
AcDbEntity
  8
1
  6
CONTINUOUS
 62
     7
100
AcDbLine
 10
296.0786116689246
 20
236.8666666666667
 30
0.0
 11
297.0799840149224
 21
236.8666666666667
 31
0.0
  0
LINE
  5
150
330
1F
100
AcDbEntity
  8
1
  6
CONTINUOUS
 62
     7
100
AcDbLine
 10
282.1337641407499
 20
238.8666666666667
 30
0.0
 11
292.8662358597966
 21
238.8666666666667
 31
0.0
  0
LINE
  5
151
330
1F
100
AcDbEntity
  8
1
  6
CONTINUOUS
 62
     7
100
AcDbLine
 10
287.3809080353973
 20
238.8069161948204
 30
0.0
 11
287.2959958957018
 21
238.7398900914313
 31
0.0
  0
LINE
  5
152
330
1F
100
AcDbEntity
  8
1
  6
CONTINUOUS
 62
     7
100
AcDbLine
 10
287.5
 20
238.8576514332342
 30
0.0
 11
287.5
 21
237.3666666666667
 31
0.0
  0
LINE
  5
153
330
1F
100
AcDbEntity
  8
1
  6
CONTINUOUS
 62
     7
100
AcDbLine
 10
280.1048155585661
 20
237.3666666666667
 30
0.0
 11
280.0786116689246
 21
236.8666666666667
 31
0.0
  0
LINE
  5
154
330
1F
100
AcDbEntity
  8
1
  6
CONTINUOUS
 62
     7
100
AcDbLine
 10
285.9266291090038
 20
236.7666666666667
 30
0.0
 11
286.0
 21
235.3666666666667
 31
0.0
  0
LINE
  5
155
330
1F
100
AcDbEntity
  8
1
  6
CONTINUOUS
 62
     7
100
AcDbLine
 10
277.9200159850776
 20
236.8666666666667
 30
0.0
 11
267.1
 21
236.8666666666667
 31
0.0
  0
LINE
  5
156
330
1F
100
AcDbEntity
  8
1
  6
CONTINUOUS
 62
     7
100
AcDbLine
 10
280.7751569320176
 20
238.8006812560804
 30
0.0
 11
281.0749991838595
 21
238.8650183523355
 31
0.0
  0
LINE
  5
157
330
1F
100
AcDbEntity
  8
1
  6
CONTINUOUS
 62
     7
100
AcDbLine
 10
307.9
 20
236.8666666666667
 30
0.0
 11
297.0799840149225
 21
236.8666666666667
 31
0.0
  0
LINE
  5
158
330
1F
100
AcDbEntity
  8
1
  6
CONTINUOUS
 62
     7
100
AcDbLine
 10
287.2959958957018
 20
238.7398900914313
 30
0.0
 11
287.2262489733099
 21
238.6603455351771
 31
0.0
  0
LINE
  5
159
330
1F
100
AcDbEntity
  8
1
  6
CONTINUOUS
 62
     7
100
AcDbLine
 10
287.0
 20
237.3666666666667
 30
0.0
 11
287.5
 21
237.3666666666667
 31
0.0
  0
LINE
  5
15A
330
1F
100
AcDbEntity
  8
1
  6
CONTINUOUS
 62
     7
100
AcDbLine
 10
292.8662358597966
 20
238.8666666666667
 30
0.0
 11
293.8676082057945
 21
238.8666666666667
 31
0.0
  0
LINE
  5
15B
330
1F
100
AcDbEntity
  8
1
  6
CONTINUOUS
 62
     7
100
AcDbLine
 10
288.0
 20
237.3666666666667
 30
0.0
 11
292.8924397494381
 21
237.3666666666667
 31
0.0
  0
ARC
  5
15C
330
1F
100
AcDbEntity
  8
1
  6
CONTINUOUS
 62
     7
100
AcDbCircle
 10
288.5352706938924
 20
237.8829888386455
 30
0.0
 40
1.535357455716008
100
AcDbArc
 50
158.2886276592522
 51
180.6091149519828
  0
LINE
  5
15D
330
1F
100
AcDbEntity
  8
1
  6
CONTINUOUS
 62
     7
100
AcDbLine
 10
281.1323917942055
 20
238.8666666666667
 30
0.0
 11
282.1337641407499
 21
238.8666666666667
 31
0.0
  0
LINE
  5
15E
330
1F
100
AcDbEntity
  8
1
  6
CONTINUOUS
 62
     7
100
AcDbLine
 10
294.9213883310754
 20
236.8666666666667
 30
0.0
 11
294.8951844414339
 21
237.3666666666667
 31
0.0
  0
LINE
  5
15F
330
1F
100
AcDbEntity
  8
1
  6
CONTINUOUS
 62
     7
100
AcDbLine
 10
294.8662377405491
 20
237.9190026229097
 30
0.0
 11
294.895184441434
 21
237.3666666666667
 31
0.0
  0
LINE
  5
160
330
1F
100
AcDbEntity
  8
1
  6
CONTINUOUS
 62
     7
100
AcDbLine
 10
287.2262489733099
 20
238.6603455351771
 30
0.0
 11
287.1624903074867
 21
238.5620181329672
 31
0.0
  0
LINE
  5
161
330
1F
100
AcDbEntity
  8
1
  6
CONTINUOUS
 62
     7
100
AcDbLine
 10
294.9266291090038
 20
236.7666666666667
 30
0.0
 11
294.9213883310755
 21
236.8666666666667
 31
0.0
  0
LINE
  5
162
330
1F
100
AcDbEntity
  8
1
  6
CONTINUOUS
 62
     7
100
AcDbLine
 10
287.5
 20
237.3666666666667
 30
0.0
 11
288.0
 21
237.3666666666667
 31
0.0
  0
LINE
  5
163
330
1F
100
AcDbEntity
  8
1
  6
CONTINUOUS
 62
     7
100
AcDbLine
 10
281.0749991838594
 20
238.8650183523355
 30
0.0
 11
281.1323917942055
 21
238.8666666666667
 31
0.0
  0
LINE
  5
164
330
1F
100
AcDbEntity
  8
1
  6
CONTINUOUS
 62
     7
100
AcDbLine
 10
293.8676082057945
 20
238.8666666666667
 30
0.0
 11
294.224843031509
 21
238.8006812700305
 31
0.0
  0
LINE
  5
165
330
1F
100
AcDbEntity
  8
1
  6
CONTINUOUS
 62
     7
100
AcDbLine
 10
286.0
 20
235.3666666666667
 30
0.0
 11
280.0
 21
235.3666666666667
 31
0.0
  0
LINE
  5
166
330
1F
100
AcDbEntity
  8
1
  6
CONTINUOUS
 62
     7
100
AcDbLine
 10
285.9213883310755
 20
236.8666666666667
 30
0.0
 11
285.895184441434
 21
237.3666666666667
 31
0.0
  0
LINE
  5
167
330
1F
100
AcDbEntity
  8
1
  6
CONTINUOUS
 62
     7
100
AcDbLine
 10
280.0
 20
235.3666666666667
 30
0.0
 11
280.0733708909963
 21
236.7666666666667
 31
0.0
  0
LINE
  5
168
330
1F
100
AcDbEntity
  8
1
  6
CONTINUOUS
 62
     7
100
AcDbLine
 10
297.0799840149225
 20
236.8666666666667
 30
0.0
 11
297.0013723459979
 21
235.3666666666667
 31
0.0
  0
LINE
  5
169
330
1F
100
AcDbEntity
  8
1
  6
CONTINUOUS
 62
     7
100
AcDbLine
 10
278.9213883310755
 20
236.8666666666667
 30
0.0
 11
279.0000000000001
 21
235.3666666666667
 31
0.0
  0
LINE
  5
16A
330
1F
100
AcDbEntity
  8
1
  6
CONTINUOUS
 62
     7
100
AcDbLine
 10
295.0000000000001
 20
235.3666666666667
 30
0.0
 11
289.0000000000001
 21
235.3666666666667
 31
0.0
  0
LINE
  5
16B
330
1F
100
AcDbEntity
  8
1
  6
CONTINUOUS
 62
     7
100
AcDbLine
 10
297.0013723459979
 20
235.3666666666667
 30
0.0
 11
296.0000000000001
 21
235.3666666666667
 31
0.0
  0
LINE
  5
16C
330
1F
100
AcDbEntity
  8
1
  6
CONTINUOUS
 62
     7
100
AcDbLine
 10
268.0103886827695
 20
246.5939458872803
 30
0.0
 11
269.4
 21
236.8666666666667
 31
0.0
  0
LINE
  5
16D
330
1F
100
AcDbEntity
  8
1
  6
CONTINUOUS
 62
     7
100
AcDbLine
 10
267.1596085767662
 20
247.3657695609496
 30
0.0
 11
267.1997029245728
 21
247.3630800322399
 31
0.0
  0
LINE
  5
16E
330
1F
100
AcDbEntity
  8
1
  6
CONTINUOUS
 62
     7
100
AcDbLine
 10
267.1997029245728
 20
247.3630800322399
 30
0.0
 11
267.2396372510753
 21
247.3586034422966
 31
0.0
  0
LINE
  5
16F
330
1F
100
AcDbEntity
  8
1
  6
CONTINUOUS
 62
     7
100
AcDbLine
 10
267.2396372510753
 20
247.3586034422966
 30
0.0
 11
267.2793319444677
 21
247.3523487155073
 31
0.0
  0
LINE
  5
170
330
1F
100
AcDbEntity
  8
1
  6
CONTINUOUS
 62
     7
100
AcDbLine
 10
305.6
 20
236.8666666666667
 30
0.0
 11
306.9896113172306
 21
246.5939458872803
 31
0.0
  0
LINE
  5
171
330
1F
100
AcDbEntity
  8
1
  6
CONTINUOUS
 62
     7
100
AcDbLine
 10
267.2793319444677
 20
247.3523487155073
 30
0.0
 11
267.3187078706691
 21
247.3443283210969
 31
0.0
  0
LINE
  5
172
330
1F
100
AcDbEntity
  8
1
  6
CONTINUOUS
 62
     7
100
AcDbLine
 10
267.1194341384744
 20
247.3666666666667
 30
0.0
 11
267.1596085767662
 21
247.3657695609496
 31
0.0
  0
LINE
  5
173
330
1F
100
AcDbEntity
  8
1
  6
CONTINUOUS
 62
     7
100
AcDbLine
 10
267.5080895017688
 20
247.2784221770161
 30
0.0
 11
267.5439374536689
 21
247.2602641309954
 31
0.0
  0
LINE
  5
174
330
1F
100
AcDbEntity
  8
1
  6
CONTINUOUS
 62
     7
100
AcDbLine
 10
267.3576865310831
 20
247.3345582482691
 30
0.0
 11
267.3961902190891
 21
247.3230579743309
 31
0.0
  0
LINE
  5
175
330
1F
100
AcDbEntity
  8
1
  6
CONTINUOUS
 62
     7
100
AcDbLine
 10
267.4341421749571
 20
247.3098504258635
 30
0.0
 11
267.4714667388723
 21
247.2949619330163
 31
0.0
  0
LINE
  5
176
330
1F
100
AcDbEntity
  8
1
  6
CONTINUOUS
 62
     7
100
AcDbLine
 10
267.4714667388723
 20
247.2949619330163
 30
0.0
 11
267.5080895017688
 21
247.2784221770161
 31
0.0
  0
LINE
  5
177
330
1F
100
AcDbEntity
  8
1
  6
CONTINUOUS
 62
     7
100
AcDbLine
 10
267.3961902190891
 20
247.3230579743309
 30
0.0
 11
267.4341421749571
 21
247.3098504258635
 31
0.0
  0
LINE
  5
178
330
1F
100
AcDbEntity
  8
1
  6
CONTINUOUS
 62
     7
100
AcDbLine
 10
267.3187078706691
 20
247.3443283210969
 30
0.0
 11
267.3576865310831
 21
247.3345582482691
 31
0.0
  0
LINE
  5
179
330
1F
100
AcDbEntity
  8
1
  6
CONTINUOUS
 62
     7
100
AcDbLine
 10
357.3339424599349
 20
247.3666666666667
 30
0.0
 11
353.7470606317019
 21
247.3666666666667
 31
0.0
  0
LINE
  5
17A
330
1F
100
AcDbEntity
  8
1
  6
CONTINUOUS
 62
     7
100
AcDbLine
 10
376.8333333333334
 20
248.3665143618231
 30
0.0
 11
376.8333333333334
 21
247.3666666666667
 31
0.0
  0
LINE
  5
17B
330
1F
100
AcDbEntity
  8
1
  6
CONTINUOUS
 62
     7
100
AcDbLine
 10
368.0833333333334
 20
250.3539930676298
 30
0.0
 11
368.0833333333334
 21
250.3662097521359
 31
0.0
  0
LINE
  5
17C
330
1F
100
AcDbEntity
  8
1
  6
CONTINUOUS
 62
     7
100
AcDbLine
 10
368.2083333333334
 20
251.3538407627861
 30
0.0
 11
368.2083333333334
 21
251.3660574472922
 31
0.0
  0
LINE
  5
17D
330
1F
100
AcDbEntity
  8
1
  6
CONTINUOUS
 62
     7
100
AcDbLine
 10
378.4583333333333
 20
251.3538407627861
 30
0.0
 11
368.2083333333334
 21
251.3538407627861
 31
0.0
  0
LINE
  5
17E
330
1F
100
AcDbEntity
  8
1
  6
CONTINUOUS
 62
     7
100
AcDbLine
 10
388.9939770341758
 20
266.7814239609435
 30
0.0
 11
388.9939049403039
 21
266.7776094400854
 31
0.0
  0
LINE
  5
17F
330
1F
100
AcDbEntity
  8
1
  6
CONTINUOUS
 62
     7
100
AcDbLine
 10
368.3333333333333
 20
252.3536884579426
 30
0.0
 11
368.3333333333333
 21
252.3659051424487
 31
0.0
  0
LINE
  5
180
330
1F
100
AcDbEntity
  8
1
  6
CONTINUOUS
 62
     7
100
AcDbLine
 10
368.3333333333333
 20
252.3659051424487
 30
0.0
 11
368.2083333333334
 21
251.3660574472922
 31
0.0
  0
LINE
  5
181
330
1F
100
AcDbEntity
  8
1
  6
CONTINUOUS
 62
     7
100
AcDbLine
 10
378.7083333333334
 20
249.3663620569795
 30
0.0
 11
378.5833333333333
 21
250.3662097521359
 31
0.0
  0
LINE
  5
182
330
1F
100
AcDbEntity
  8
1
  6
CONTINUOUS
 62
     7
100
AcDbLine
 10
378.7083333333334
 20
249.3663620569795
 30
0.0
 11
367.9583333333333
 21
249.3663620569795
 31
0.0
  0
LINE
  5
183
330
1F
100
AcDbEntity
  8
1
  6
CONTINUOUS
 62
     7
100
AcDbLine
 10
368.2083333333334
 20
251.3660574472922
 30
0.0
 11
368.3333333333333
 21
252.3536884579426
 31
0.0
  0
LINE
  5
184
330
1F
100
AcDbEntity
  8
1
  6
CONTINUOUS
 62
     7
100
AcDbLine
 10
378.2083333333334
 20
253.353536153099
 30
0.0
 11
378.3333333333334
 21
252.3659051424487
 31
0.0
  0
LINE
  5
185
330
1F
100
AcDbEntity
  8
1
  6
CONTINUOUS
 62
     7
100
AcDbLine
 10
378.3333333333334
 20
252.3659051424487
 30
0.0
 11
368.3333333333333
 21
252.3659051424487
 31
0.0
  0
LINE
  5
186
330
1F
100
AcDbEntity
  8
1
  6
CONTINUOUS
 62
     7
100
AcDbLine
 10
368.6143420169806
 20
254.6136322197581
 30
0.0
 11
368.5833333333334
 21
254.3656005327614
 31
0.0
  0
LINE
  5
187
330
1F
100
AcDbEntity
  8
1
  6
CONTINUOUS
 62
     7
100
AcDbLine
 10
392.9196060349648
 20
247.3666666666667
 30
0.0
 11
389.3327242067319
 21
247.3666666666667
 31
0.0
  0
LINE
  5
188
330
1F
100
AcDbEntity
  8
1
  6
CONTINUOUS
 62
     7
100
AcDbLine
 10
357.6727617263628
 20
266.7776094400854
 30
0.0
 11
357.3339424599349
 21
247.3666666666667
 31
0.0
  0
LINE
  5
189
330
1F
100
AcDbEntity
  8
1
  6
CONTINUOUS
 62
     7
100
AcDbLine
 10
357.6727617263628
 20
266.7776094400854
 30
0.0
 11
357.6726896324909
 21
266.7814239609435
 31
0.0
  0
LINE
  5
18A
330
1F
100
AcDbEntity
  8
1
  6
CONTINUOUS
 62
     7
100
AcDbLine
 10
369.8333333333333
 20
248.3665143618231
 30
0.0
 11
369.8333333333333
 21
248.8832980301866
 31
0.0
  0
LINE
  5
18B
330
1F
100
AcDbEntity
  8
1
  6
CONTINUOUS
 62
     7
100
AcDbLine
 10
378.5833333333333
 20
250.3662097521359
 30
0.0
 11
378.5833333333333
 21
250.3539930676298
 31
0.0
  0
LINE
  5
18C
330
1F
100
AcDbEntity
  8
1
  6
CONTINUOUS
 62
     7
100
AcDbLine
 10
376.0677688962587
 20
256.3652959230742
 30
0.0
 11
370.598897770408
 21
256.3652959230742
 31
0.0
  0
LINE
  5
18D
330
1F
100
AcDbEntity
  8
1
  6
CONTINUOUS
 62
     7
100
AcDbLine
 10
378.5833333333333
 20
250.3539930676298
 30
0.0
 11
368.0833333333334
 21
250.3539930676298
 31
0.0
  0
LINE
  5
18E
330
1F
100
AcDbEntity
  8
1
  6
CONTINUOUS
 62
     7
100
AcDbLine
 10
376.8333333333334
 20
248.3665143618231
 30
0.0
 11
378.8333333333334
 21
248.3665143618231
 31
0.0
  0
LINE
  5
18F
330
1F
100
AcDbEntity
  8
1
  6
CONTINUOUS
 62
     7
100
AcDbLine
 10
368.2083333333334
 20
251.3660574472922
 30
0.0
 11
368.0833333333334
 21
250.3662097521359
 31
0.0
  0
LINE
  5
190
330
1F
100
AcDbEntity
  8
1
  6
CONTINUOUS
 62
     7
100
AcDbLine
 10
367.9583333333333
 20
249.3663620569795
 30
0.0
 11
367.8333333333333
 21
248.3665143618231
 31
0.0
  0
LINE
  5
191
330
1F
100
AcDbEntity
  8
1
  6
CONTINUOUS
 62
     7
100
AcDbLine
 10
368.5833333333334
 20
254.3656005327614
 30
0.0
 11
368.4583333333333
 21
253.365752837605
 31
0.0
  0
LINE
  5
192
330
1F
100
AcDbEntity
  8
1
  6
CONTINUOUS
 62
     7
100
AcDbLine
 10
367.8333333333333
 20
248.3665143618231
 30
0.0
 11
369.8333333333333
 21
248.3665143618231
 31
0.0
  0
LINE
  5
193
330
1F
100
AcDbEntity
  8
1
  6
CONTINUOUS
 62
     7
100
AcDbLine
 10
367.8333333333333
 20
248.3665143618231
 30
0.0
 11
367.9583333333333
 21
249.3541453724734
 31
0.0
  0
LINE
  5
194
330
1F
100
AcDbEntity
  8
1
  6
CONTINUOUS
 62
     7
100
AcDbLine
 10
378.3333333333334
 20
252.3659051424487
 30
0.0
 11
378.2083333333334
 21
253.365752837605
 31
0.0
  0
LINE
  5
195
330
1F
100
AcDbEntity
  8
1
  6
CONTINUOUS
 62
     7
100
AcDbLine
 10
378.8333333333334
 20
248.3665143618231
 30
0.0
 11
378.7083333333334
 21
249.3663620569795
 31
0.0
  0
LINE
  5
196
330
1F
100
AcDbEntity
  8
1
  6
CONTINUOUS
 62
     7
100
AcDbLine
 10
378.7083333333334
 20
249.3541453724734
 30
0.0
 11
367.9583333333333
 21
249.3541453724734
 31
0.0
  0
LINE
  5
197
330
1F
100
AcDbEntity
  8
1
  6
CONTINUOUS
 62
     7
100
AcDbLine
 10
368.4583333333333
 20
253.365752837605
 30
0.0
 11
368.3333333333333
 21
252.3659051424487
 31
0.0
  0
LINE
  5
198
330
1F
100
AcDbEntity
  8
1
  6
CONTINUOUS
 62
     7
100
AcDbLine
 10
378.3333333333334
 20
252.3536884579425
 30
0.0
 11
368.3333333333333
 21
252.3536884579426
 31
0.0
  0
LINE
  5
199
330
1F
100
AcDbEntity
  8
1
  6
CONTINUOUS
 62
     7
100
AcDbLine
 10
368.4583333333333
 20
253.353536153099
 30
0.0
 11
368.4583333333333
 21
253.365752837605
 31
0.0
  0
LINE
  5
19A
330
1F
100
AcDbEntity
  8
1
  6
CONTINUOUS
 62
     7
100
AcDbLine
 10
378.2083333333334
 20
253.353536153099
 30
0.0
 11
368.4583333333333
 21
253.353536153099
 31
0.0
  0
LINE
  5
19B
330
1F
100
AcDbEntity
  8
1
  6
CONTINUOUS
 62
     7
100
AcDbLine
 10
378.5833333333333
 20
250.3662097521359
 30
0.0
 11
378.4583333333333
 21
251.3660574472922
 31
0.0
  0
LINE
  5
19C
330
1F
100
AcDbEntity
  8
1
  6
CONTINUOUS
 62
     7
100
AcDbLine
 10
376.8333333333334
 20
248.3665143618231
 30
0.0
 11
376.8333333333334
 21
248.8832980301866
 31
0.0
  0
LINE
  5
19D
330
1F
100
AcDbEntity
  8
1
  6
CONTINUOUS
 62
     7
100
AcDbLine
 10
368.3333333333333
 20
252.3659051424487
 30
0.0
 11
368.4583333333333
 21
253.353536153099
 31
0.0
  0
LINE
  5
19E
330
1F
100
AcDbEntity
  8
1
  6
CONTINUOUS
 62
     7
100
AcDbLine
 10
378.2083333333334
 20
253.365752837605
 30
0.0
 11
368.4583333333333
 21
253.365752837605
 31
0.0
  0
LINE
  5
19F
330
1F
100
AcDbEntity
  8
1
  6
CONTINUOUS
 62
     7
100
AcDbLine
 10
378.7083333333334
 20
249.3541453724734
 30
0.0
 11
378.8333333333334
 21
248.3665143618231
 31
0.0
  0
LINE
  5
1A0
330
1F
100
AcDbEntity
  8
1
  6
CONTINUOUS
 62
     7
100
AcDbLine
 10
378.2083333333334
 20
253.365752837605
 30
0.0
 11
378.2083333333334
 21
253.353536153099
 31
0.0
  0
LINE
  5
1A1
330
1F
100
AcDbEntity
  8
1
  6
CONTINUOUS
 62
     7
100
AcDbLine
 10
378.4583333333333
 20
251.3660574472922
 30
0.0
 11
378.3333333333334
 21
252.3659051424487
 31
0.0
  0
LINE
  5
1A2
330
1F
100
AcDbEntity
  8
1
  6
CONTINUOUS
 62
     7
100
AcDbLine
 10
376.8333333333334
 20
248.8832980301866
 30
0.0
 11
369.8333333333333
 21
248.8832980301866
 31
0.0
  0
LINE
  5
1A3
330
1F
100
AcDbEntity
  8
1
  6
CONTINUOUS
 62
     7
100
AcDbLine
 10
378.4583333333333
 20
251.3538407627861
 30
0.0
 11
378.5833333333333
 21
250.3662097521359
 31
0.0
  0
LINE
  5
1A4
330
1F
100
AcDbEntity
  8
1
  6
CONTINUOUS
 62
     7
100
AcDbLine
 10
378.0833333333334
 20
254.3656005327614
 30
0.0
 11
378.0523246496861
 21
254.6136322197581
 31
0.0
  0
LINE
  5
1A5
330
1F
100
AcDbEntity
  8
1
  6
CONTINUOUS
 62
     7
100
AcDbLine
 10
368.0833333333334
 20
250.3662097521359
 30
0.0
 11
368.2083333333334
 21
251.3538407627861
 31
0.0
  0
LINE
  5
1A6
330
1F
100
AcDbEntity
  8
1
  6
CONTINUOUS
 62
     7
100
AcDbLine
 10
378.2083333333334
 20
253.365752837605
 30
0.0
 11
378.0833333333334
 21
254.3656005327614
 31
0.0
  0
LINE
  5
1A7
330
1F
100
AcDbEntity
  8
1
  6
CONTINUOUS
 62
     7
100
AcDbLine
 10
389.3327242067319
 20
247.3666666666667
 30
0.0
 11
376.8333333333334
 21
247.3666666666667
 31
0.0
  0
LINE
  5
1A8
330
1F
100
AcDbEntity
  8
1
  6
CONTINUOUS
 62
     7
100
AcDbLine
 10
367.9583333333333
 20
249.3541453724734
 30
0.0
 11
367.9583333333333
 21
249.3663620569795
 31
0.0
  0
LINE
  5
1A9
330
1F
100
AcDbEntity
  8
1
  6
CONTINUOUS
 62
     7
100
AcDbLine
 10
378.5833333333333
 20
250.3539930676298
 30
0.0
 11
378.7083333333334
 21
249.3663620569795
 31
0.0
  0
LINE
  5
1AA
330
1F
100
AcDbEntity
  8
1
  6
CONTINUOUS
 62
     7
100
AcDbLine
 10
369.8333333333333
 20
247.3666666666667
 30
0.0
 11
357.3339424599349
 21
247.3666666666667
 31
0.0
  0
LINE
  5
1AB
330
1F
100
AcDbEntity
  8
1
  6
CONTINUOUS
 62
     7
100
AcDbLine
 10
367.9583333333333
 20
249.3663620569795
 30
0.0
 11
368.0833333333334
 21
250.3539930676298
 31
0.0
  0
LINE
  5
1AC
330
1F
100
AcDbEntity
  8
1
  6
CONTINUOUS
 62
     7
100
AcDbLine
 10
378.5833333333333
 20
250.3662097521359
 30
0.0
 11
368.0833333333334
 21
250.3662097521359
 31
0.0
  0
LINE
  5
1AD
330
1F
100
AcDbEntity
  8
1
  6
CONTINUOUS
 62
     7
100
AcDbLine
 10
378.4583333333333
 20
251.3660574472922
 30
0.0
 11
378.4583333333333
 21
251.3538407627861
 31
0.0
  0
LINE
  5
1AE
330
1F
100
AcDbEntity
  8
1
  6
CONTINUOUS
 62
     7
100
AcDbLine
 10
369.8333333333333
 20
248.3665143618231
 30
0.0
 11
369.8333333333333
 21
247.3666666666667
 31
0.0
  0
LINE
  5
1AF
330
1F
100
AcDbEntity
  8
1
  6
CONTINUOUS
 62
     7
100
AcDbLine
 10
378.7083333333334
 20
249.3663620569795
 30
0.0
 11
378.7083333333334
 21
249.3541453724734
 31
0.0
  0
LINE
  5
1B0
330
1F
100
AcDbEntity
  8
1
  6
CONTINUOUS
 62
     7
100
AcDbLine
 10
378.4583333333333
 20
251.3660574472922
 30
0.0
 11
368.2083333333334
 21
251.3660574472922
 31
0.0
  0
LINE
  5
1B1
330
1F
100
AcDbEntity
  8
1
  6
CONTINUOUS
 62
     7
100
AcDbLine
 10
368.0833333333334
 20
250.3662097521359
 30
0.0
 11
367.9583333333333
 21
249.3663620569795
 31
0.0
  0
LINE
  5
1B2
330
1F
100
AcDbEntity
  8
1
  6
CONTINUOUS
 62
     7
100
AcDbLine
 10
378.3333333333334
 20
252.3536884579425
 30
0.0
 11
378.4583333333333
 21
251.3660574472922
 31
0.0
  0
LINE
  5
1B3
330
1F
100
AcDbEntity
  8
1
  6
CONTINUOUS
 62
     7
100
AcDbLine
 10
378.3333333333334
 20
252.3659051424487
 30
0.0
 11
378.3333333333334
 21
252.3536884579425
 31
0.0
  0
LINE
  5
1B4
330
1F
100
AcDbEntity
  8
1
  6
CONTINUOUS
 62
     7
100
AcDbLine
 10
378.0833333333333
 20
254.3533838482553
 30
0.0
 11
378.2083333333334
 21
253.365752837605
 31
0.0
  0
LINE
  5
1B5
330
1F
100
AcDbEntity
  8
1
  6
CONTINUOUS
 62
     7
100
AcDbLine
 10
377.7998197038276
 20
255.3654482279179
 30
0.0
 11
377.7998197038276
 21
255.3532315434117
 31
0.0
  0
LINE
  5
1B6
330
1F
100
AcDbEntity
  8
1
  6
CONTINUOUS
 62
     7
100
AcDbLine
 10
388.9894274845359
 20
267.0680117528775
 30
0.0
 11
388.9745027885388
 21
267.9230470138997
 31
0.0
  0
LINE
  5
1B7
330
1F
100
AcDbEntity
  8
1
  6
CONTINUOUS
 62
     7
100
AcDbLine
 10
357.6770499568253
 20
267.067251190712
 30
0.0
 11
357.6772391821308
 21
267.0680117528775
 31
0.0
  0
LINE
  5
1B8
330
1F
100
AcDbEntity
  8
1
  6
CONTINUOUS
 62
     7
100
AcDbLine
 10
377.7998197038276
 20
255.3532315434117
 30
0.0
 11
368.8668469628391
 21
255.3532315434117
 31
0.0
  0
LINE
  5
1B9
330
1F
100
AcDbEntity
  8
1
  6
CONTINUOUS
 62
     7
100
AcDbLine
 10
368.4583333333333
 20
253.365752837605
 30
0.0
 11
368.5833333333334
 21
254.3533838482553
 31
0.0
  0
LINE
  5
1BA
330
1F
100
AcDbEntity
  8
1
  6
CONTINUOUS
 62
     7
100
AcDbLine
 10
377.7998197038276
 20
255.3654482279179
 30
0.0
 11
368.8668469628391
 21
255.3654482279179
 31
0.0
  0
LINE
  5
1BB
330
1F
100
AcDbEntity
  8
1
  6
CONTINUOUS
 62
     7
100
AcDbLine
 10
388.9939770341758
 20
266.7814239609435
 30
0.0
 11
388.9896167098414
 21
267.067251190712
 31
0.0
  0
LINE
  5
1BC
330
1F
100
AcDbEntity
  8
1
  6
CONTINUOUS
 62
     7
100
AcDbLine
 10
368.8668469628391
 20
255.3532315434117
 30
0.0
 11
368.8668469628391
 21
255.3654482279179
 31
0.0
  0
LINE
  5
1BD
330
1F
100
AcDbEntity
  8
1
  6
CONTINUOUS
 62
     7
100
AcDbLine
 10
378.0833333333334
 20
254.3656005327614
 30
0.0
 11
368.5833333333334
 21
254.3656005327614
 31
0.0
  0
LINE
  5
1BE
330
1F
100
AcDbEntity
  8
1
  6
CONTINUOUS
 62
   253
100
AcDbLine
 10
370.598897770408
 20
256.3530792385682
 30
0.0
 11
370.598897770408
 21
256.3652959230742
 31
0.0
  0
LINE
  5
1BF
330
1F
100
AcDbEntity
  8
1
  6
CONTINUOUS
 62
     7
100
AcDbLine
 10
357.6921638781279
 20
267.9230470138997
 30
0.0
 11
357.6921573265365
 21
267.9238244695348
 31
0.0
  0
LINE
  5
1C0
330
1F
100
AcDbEntity
  8
1
  6
CONTINUOUS
 62
   253
100
AcDbLine
 10
376.0677688962587
 20
256.3530792385681
 30
0.0
 11
376.0677688962587
 21
256.3652959230742
 31
0.0
  0
LINE
  5
1C1
330
1F
100
AcDbEntity
  8
1
  6
CONTINUOUS
 62
     7
100
AcDbLine
 10
357.6921638781279
 20
267.9230470138997
 30
0.0
 11
357.6772391821308
 21
267.0680117528775
 31
0.0
  0
LINE
  5
1C2
330
1F
100
AcDbEntity
  8
1
  6
CONTINUOUS
 62
     7
100
AcDbLine
 10
376.0677688962587
 20
256.3530792385681
 30
0.0
 11
370.598897770408
 21
256.3530792385682
 31
0.0
  0
LINE
  5
1C3
330
1F
100
AcDbEntity
  8
1
  6
CONTINUOUS
 62
     7
100
AcDbLine
 10
378.0523246496861
 20
254.6106016333176
 30
0.0
 11
378.0833333333334
 21
254.3656005327614
 31
0.0
  0
LINE
  5
1C4
330
1F
100
AcDbEntity
  8
1
  6
CONTINUOUS
 62
     7
100
AcDbLine
 10
388.9894274845359
 20
267.0680117528775
 30
0.0
 11
388.9896167098414
 21
267.067251190712
 31
0.0
  0
LINE
  5
1C5
330
1F
100
AcDbEntity
  8
1
  6
CONTINUOUS
 62
   253
100
AcDbLine
 10
378.0523246496861
 20
254.6106016333176
 30
0.0
 11
378.0523246496861
 21
254.6136322197581
 31
0.0
  0
LINE
  5
1C6
330
1F
100
AcDbEntity
  8
1
  6
CONTINUOUS
 62
     7
100
AcDbLine
 10
368.5833333333334
 20
254.3656005327614
 30
0.0
 11
368.6143420169807
 21
254.6106016333176
 31
0.0
  0
LINE
  5
1C7
330
1F
100
AcDbEntity
  8
1
  6
CONTINUOUS
 62
     7
100
AcDbLine
 10
368.5833333333334
 20
254.3533838482553
 30
0.0
 11
368.5833333333334
 21
254.3656005327614
 31
0.0
  0
LINE
  5
1C8
330
1F
100
AcDbEntity
  8
1
  6
CONTINUOUS
 62
   253
100
AcDbLine
 10
368.6143420169807
 20
254.6106016333176
 30
0.0
 11
368.6143420169806
 21
254.6136322197581
 31
0.0
  0
LINE
  5
1C9
330
1F
100
AcDbEntity
  8
1
  6
CONTINUOUS
 62
     7
100
AcDbLine
 10
378.0833333333334
 20
254.3656005327614
 30
0.0
 11
378.0833333333333
 21
254.3533838482553
 31
0.0
  0
LINE
  5
1CA
330
1F
100
AcDbEntity
  8
1
  6
CONTINUOUS
 62
     7
100
AcDbLine
 10
357.6726896324909
 20
266.7814239609435
 30
0.0
 11
357.6770499568253
 21
267.067251190712
 31
0.0
  0
LINE
  5
1CB
330
1F
100
AcDbEntity
  8
1
  6
CONTINUOUS
 62
     7
100
AcDbLine
 10
388.9745093401302
 20
267.9238244695348
 30
0.0
 11
388.9745027885388
 21
267.9230470138997
 31
0.0
  0
LINE
  5
1CC
330
1F
100
AcDbEntity
  8
1
  6
CONTINUOUS
 62
     7
100
AcDbLine
 10
378.0833333333333
 20
254.3533838482553
 30
0.0
 11
368.5833333333334
 21
254.3533838482553
 31
0.0
  0
LINE
  5
1CD
330
1F
100
AcDbEntity
  8
1
  6
CONTINUOUS
 62
     7
100
AcDbLine
 10
353.3333333333333
 20
247.3666666666667
 30
0.0
 11
353.6600951279215
 21
266.0868373410182
 31
0.0
  0
LINE
  5
1CE
330
1F
100
AcDbEntity
  8
1
  6
CONTINUOUS
 62
     7
100
AcDbLine
 10
393.0065715387452
 20
266.0868373410182
 30
0.0
 11
393.3333333333334
 21
247.3666666666667
 31
0.0
  0
LINE
  5
1CF
330
1F
100
AcDbEntity
  8
1
  6
CONTINUOUS
 62
     7
100
AcDbLine
 10
393.3333333333334
 20
247.3666666666667
 30
0.0
 11
392.9196060349648
 21
247.3666666666667
 31
0.0
  0
LINE
  5
1D0
330
1F
100
AcDbEntity
  8
1
  6
CONTINUOUS
 62
     7
100
AcDbLine
 10
353.7470606317019
 20
247.3666666666667
 30
0.0
 11
353.3333333333333
 21
247.3666666666667
 31
0.0
  0
LINE
  5
1D1
330
1F
100
AcDbEntity
  8
1
  6
CONTINUOUS
 62
     7
100
AcDbLine
 10
389.1232634275932
 20
235.3666666666667
 30
0.0
 11
389.3327242067318
 21
247.3666666666667
 31
0.0
  0
LINE
  5
1D2
330
1F
100
AcDbEntity
  8
1
  6
CONTINUOUS
 62
     7
100
AcDbLine
 10
353.9565214108405
 20
235.3666666666667
 30
0.0
 11
353.5427941124719
 21
235.3666666666667
 31
0.0
  0
LINE
  5
1D3
330
1F
100
AcDbEntity
  8
1
  6
CONTINUOUS
 62
     7
100
AcDbLine
 10
353.3333333333333
 20
247.3666666666667
 30
0.0
 11
353.7470606317019
 21
247.3666666666667
 31
0.0
  0
ARC
  5
1D4
330
1F
100
AcDbEntity
  8
1
  6
CONTINUOUS
 62
     7
100
AcDbCircle
 10
392.4932585806797
 20
266.8451727638885
 30
0.0
 40
0.4999999999999917
100
AcDbArc
 50
1.000000000000244
 51
80.10485767540978
  0
LINE
  5
1D5
330
1F
100
AcDbEntity
  8
1
  6
CONTINUOUS
 62
     7
100
AcDbLine
 10
393.3333333333334
 20
247.3666666666667
 30
0.0
 11
393.1238725541947
 21
235.3666666666667
 31
0.0
  0
LINE
  5
1D6
330
1F
100
AcDbEntity
  8
1
  6
CONTINUOUS
 62
     7
100
AcDbLine
 10
357.6929076708547
 20
267.9666666666667
 30
0.0
 11
388.973758995812
 21
267.9666666666667
 31
0.0
  0
LINE
  5
1D7
330
1F
100
AcDbEntity
  8
1
  6
CONTINUOUS
 62
     7
100
AcDbLine
 10
393.1238725541947
 20
235.3666666666667
 30
0.0
 11
392.7101452558262
 21
235.3666666666667
 31
0.0
  0
LINE
  5
1D8
330
1F
100
AcDbEntity
  8
1
  6
CONTINUOUS
 62
     7
100
AcDbLine
 10
357.5434032390735
 20
235.3666666666667
 30
0.0
 11
353.9565214108405
 21
235.3666666666667
 31
0.0
  0
LINE
  5
1D9
330
1F
100
AcDbEntity
  8
1
  6
CONTINUOUS
 62
     7
100
AcDbLine
 10
392.9196060349648
 20
247.3666666666667
 30
0.0
 11
393.3333333333334
 21
247.3666666666667
 31
0.0
  0
LINE
  5
1DA
330
1F
100
AcDbEntity
  8
1
  6
CONTINUOUS
 62
   253
100
AcDbLine
 10
304.0432732365255
 20
307.6929076708547
 30
0.0
 11
304.0432732365255
 21
338.973758995812
 31
0.0
  0
LINE
  5
1DB
330
1F
100
AcDbEntity
  8
1
  6
CONTINUOUS
 62
     7
100
AcDbLine
 10
353.7470606317019
 20
247.3666666666667
 30
0.0
 11
357.3339424599348
 21
247.3666666666667
 31
0.0
  0
LINE
  5
1DC
330
1F
100
AcDbEntity
  8
1
  6
CONTINUOUS
 62
   253
100
AcDbLine
 10
270.9567267634746
 20
338.973758995812
 30
0.0
 11
270.9567267634746
 21
307.6929076708547
 31
0.0
  0
LINE
  5
1DD
330
1F
100
AcDbEntity
  8
1
  6
CONTINUOUS
 62
     7
100
AcDbLine
 10
369.8333333333333
 20
247.3666666666667
 30
0.0
 11
376.8333333333334
 21
247.3666666666667
 31
0.0
  0
LINE
  5
1DE
330
1F
100
AcDbEntity
  8
1
  6
CONTINUOUS
 62
     7
100
AcDbLine
 10
388.9745093401303
 20
267.9238244695348
 30
0.0
 11
388.9737789566946
 21
267.9666631846789
 31
0.0
  0
LINE
  5
1DF
330
1F
100
AcDbEntity
  8
1
  6
CONTINUOUS
 62
     7
100
AcDbLine
 10
357.5434032390735
 20
235.3666666666667
 30
0.0
 11
389.1232634275932
 21
235.3666666666667
 31
0.0
  0
LINE
  5
1E0
330
1F
100
AcDbEntity
  8
1
  6
CONTINUOUS
 62
     7
100
AcDbLine
 10
389.3327242067318
 20
247.3666666666667
 30
0.0
 11
392.9196060349648
 21
247.3666666666667
 31
0.0
  0
LINE
  5
1E1
330
1F
100
AcDbEntity
  8
1
  6
CONTINUOUS
 62
     7
100
AcDbLine
 10
304.0432732365255
 20
338.973758995812
 30
0.0
 11
270.9567267634746
 21
338.973758995812
 31
0.0
  0
LINE
  5
1E2
330
1F
100
AcDbEntity
  8
1
  6
CONTINUOUS
 62
     7
100
AcDbLine
 10
270.9567267634746
 20
307.6929076708547
 30
0.0
 11
304.0432732365255
 21
307.6929076708547
 31
0.0
  0
LINE
  5
1E3
330
1F
100
AcDbEntity
  8
1
  6
CONTINUOUS
 62
     7
100
AcDbLine
 10
270.4515359787842
 20
338.9745093401303
 30
0.0
 11
270.952155996056
 21
338.9737789566946
 31
0.0
  0
LINE
  5
1E4
330
1F
100
AcDbEntity
  8
1
  6
CONTINUOUS
 62
   253
100
AcDbLine
 10
270.4515359787842
 20
338.9745093401303
 30
0.0
 11
270.5053553569043
 21
342.5798082225063
 31
0.0
  0
LINE
  5
1E5
330
1F
100
AcDbEntity
  8
1
  6
CONTINUOUS
 62
     7
100
AcDbLine
 10
353.6600951279215
 20
266.0868373410182
 30
0.0
 11
353.6728610670734
 21
266.8181975052098
 31
0.0
  0
LINE
  5
1E6
330
1F
100
AcDbEntity
  8
1
  6
CONTINUOUS
 62
     7
100
AcDbLine
 10
392.7101452558262
 20
235.3666666666667
 30
0.0
 11
389.1232634275932
 21
235.3666666666667
 31
0.0
  0
LINE
  5
1E7
330
1F
100
AcDbEntity
  8
1
  6
CONTINUOUS
 62
     7
100
AcDbLine
 10
357.6921573265363
 20
267.9238244695348
 30
0.0
 11
357.6928877099722
 21
267.9666631846789
 31
0.0
  0
LINE
  5
1E8
330
1F
100
AcDbEntity
  8
1
  6
CONTINUOUS
 62
     7
100
AcDbLine
 10
392.9938055995933
 20
266.8181975052098
 30
0.0
 11
393.0065715387452
 21
266.0868373410182
 31
0.0
  0
LINE
  5
1E9
330
1F
100
AcDbEntity
  8
1
  6
CONTINUOUS
 62
     7
100
AcDbLine
 10
392.9931824282579
 20
266.8538989671072
 30
0.0
 11
392.9938055995933
 21
266.8181975052098
 31
0.0
  0
ARC
  5
1EA
330
1F
100
AcDbEntity
  8
1
  6
CONTINUOUS
 62
     7
100
AcDbCircle
 10
354.173408085987
 20
266.8451727638885
 30
0.0
 40
0.4999999999999917
100
AcDbArc
 50
99.89514232459021
 51
178.9999999999998
  0
LINE
  5
1EB
330
1F
100
AcDbEntity
  8
1
  6
CONTINUOUS
 62
     7
100
AcDbLine
 10
353.6728610670734
 20
266.8181975052098
 30
0.0
 11
353.6734842384088
 21
266.8538989671072
 31
0.0
  0
LINE
  5
1EC
330
1F
100
AcDbEntity
  8
1
  6
CONTINUOUS
 62
     7
100
AcDbLine
 10
354.0874852961373
 20
267.3377347134791
 30
0.0
 11
357.6928877099722
 21
267.9666631846789
 31
0.0
  0
LINE
  5
1ED
330
1F
100
AcDbEntity
  8
1
  6
CONTINUOUS
 62
     7
100
AcDbLine
 10
388.9737789566946
 20
267.9666631846789
 30
0.0
 11
392.5791813705293
 21
267.3377347134791
 31
0.0
  0
LINE
  5
1EE
330
1F
100
AcDbEntity
  8
1
  6
CONTINUOUS
 62
     7
100
AcDbLine
 10
357.3339424599348
 20
247.3666666666667
 30
0.0
 11
357.5434032390735
 21
235.3666666666667
 31
0.0
  0
LINE
  5
1EF
330
1F
100
AcDbEntity
  8
1
  6
CONTINUOUS
 62
     7
100
AcDbLine
 10
357.3339424599348
 20
247.3666666666667
 30
0.0
 11
369.8333333333333
 21
247.3666666666667
 31
0.0
  0
LINE
  5
1F0
330
1F
100
AcDbEntity
  8
1
  6
CONTINUOUS
 62
     7
100
AcDbLine
 10
376.8333333333334
 20
247.3666666666667
 30
0.0
 11
389.3327242067318
 21
247.3666666666667
 31
0.0
  0
LINE
  5
1F1
330
1F
100
AcDbEntity
  8
1
  6
CONTINUOUS
 62
     7
100
AcDbLine
 10
353.5427941124719
 20
235.3666666666667
 30
0.0
 11
353.3333333333333
 21
247.3666666666667
 31
0.0
  0
LINE
  5
1F2
330
1F
100
AcDbEntity
  8
1
  6
CONTINUOUS
 62
     7
100
AcDbLine
 10
304.548464021216
 20
338.9745093401302
 30
0.0
 11
304.5529939860485
 21
338.9745027885388
 31
0.0
  0
LINE
  5
1F3
330
1F
100
AcDbEntity
  8
1
  6
CONTINUOUS
 62
   253
100
AcDbLine
 10
271.0059769196787
 20
342.5791813705293
 30
0.0
 11
270.952155996056
 21
338.9737789566946
 31
0.0
  0
LINE
  5
1F4
330
1F
100
AcDbEntity
  8
1
  6
CONTINUOUS
 62
   253
100
AcDbLine
 10
271.0059769196787
 20
342.9931824282579
 30
0.0
 11
271.0059769196787
 21
342.5791813705293
 31
0.0
  0
LINE
  5
1F5
330
1F
100
AcDbEntity
  8
1
  6
CONTINUOUS
 62
   253
100
AcDbLine
 10
304.0478440039441
 20
338.9737789566946
 30
0.0
 11
303.9940230803214
 21
342.5791813705293
 31
0.0
  0
LINE
  5
1F6
330
1F
100
AcDbEntity
  8
1
  6
CONTINUOUS
 62
     7
100
AcDbLine
 10
265.4878015000226
 20
307.6772391821308
 30
0.0
 11
270.4470060139516
 21
307.6921638781279
 31
0.0
  0
LINE
  5
1F7
330
1F
100
AcDbEntity
  8
1
  6
CONTINUOUS
 62
   253
100
AcDbLine
 10
303.9940230803214
 20
342.9931824282579
 30
0.0
 11
303.9940230803214
 21
342.5791813705293
 31
0.0
  0
LINE
  5
1F8
330
1F
100
AcDbEntity
  8
1
  6
CONTINUOUS
 62
   253
100
AcDbLine
 10
271.0059769196786
 20
304.0874852961374
 30
0.0
 11
271.0059769196786
 21
303.6734842384088
 31
0.0
  0
LINE
  5
1F9
330
1F
100
AcDbEntity
  8
1
  6
CONTINUOUS
 62
     7
100
AcDbLine
 10
304.5484640212159
 20
307.6921573265363
 30
0.0
 11
304.0478440039441
 21
307.6928877099722
 31
0.0
  0
LINE
  5
1FA
330
1F
100
AcDbEntity
  8
1
  6
CONTINUOUS
 62
     7
100
AcDbLine
 10
304.5484640212159
 20
338.9745093401303
 30
0.0
 11
304.0478440039441
 21
338.9737789566946
 31
0.0
  0
LINE
  5
1FB
330
1F
100
AcDbEntity
  8
1
  6
CONTINUOUS
 62
   253
100
AcDbLine
 10
270.5053553569043
 20
304.0868584441604
 30
0.0
 11
270.4515359787842
 21
307.6921573265363
 31
0.0
  0
LINE
  5
1FC
330
1F
100
AcDbEntity
  8
1
  6
CONTINUOUS
 62
     7
100
AcDbLine
 10
270.4470060139516
 20
338.9745027885389
 30
0.0
 11
265.4878015000226
 21
338.9894274845359
 31
0.0
  0
LINE
  5
1FD
330
1F
100
AcDbEntity
  8
1
  6
CONTINUOUS
 62
   253
100
AcDbLine
 10
304.5484640212159
 20
307.6921573265363
 30
0.0
 11
304.4946446430957
 21
304.0868584441604
 31
0.0
  0
LINE
  5
1FE
330
1F
100
AcDbEntity
  8
1
  6
CONTINUOUS
 62
     7
100
AcDbLine
 10
309.5121984999774
 20
338.9894274845359
 30
0.0
 11
309.5164285642764
 21
338.9896167098414
 31
0.0
  0
LINE
  5
1FF
330
1F
100
AcDbEntity
  8
1
  6
CONTINUOUS
 62
     7
100
AcDbLine
 10
270.4515359787841
 20
307.6921573265365
 30
0.0
 11
270.4470060139516
 21
307.6921638781279
 31
0.0
  0
LINE
  5
200
330
1F
100
AcDbEntity
  8
1
  6
CONTINUOUS
 62
   253
100
AcDbLine
 10
270.4470060139516
 20
307.6921638781279
 30
0.0
 11
270.4470060139516
 21
338.9745027885389
 31
0.0
  0
LINE
  5
201
330
1F
100
AcDbEntity
  8
1
  6
CONTINUOUS
 62
     7
100
AcDbLine
 10
309.5121984999774
 20
338.9894274845359
 30
0.0
 11
304.5529939860484
 21
338.9745027885389
 31
0.0
  0
LINE
  5
202
330
1F
100
AcDbEntity
  8
1
  6
CONTINUOUS
 62
     7
100
AcDbLine
 10
304.5529939860485
 20
307.6921638781279
 30
0.0
 11
304.548464021216
 21
307.6921573265365
 31
0.0
  0
LINE
  5
203
330
1F
100
AcDbEntity
  8
1
  6
CONTINUOUS
 62
   253
100
AcDbLine
 10
303.9940230803214
 20
342.9931824282579
 30
0.0
 11
304.4112062113182
 21
342.9938055995934
 31
0.0
  0
LINE
  5
204
330
1F
100
AcDbEntity
  8
1
  6
CONTINUOUS
 62
   253
100
AcDbLine
 10
271.0059769196786
 20
303.6734842384088
 30
0.0
 11
270.5887937886818
 21
303.6728610670734
 31
0.0
  0
LINE
  5
205
330
1F
100
AcDbEntity
  8
1
  6
CONTINUOUS
 62
   253
100
AcDbLine
 10
303.9940230803214
 20
303.6734842384088
 30
0.0
 11
271.0059769196786
 21
303.6734842384088
 31
0.0
  0
LINE
  5
206
330
1F
100
AcDbEntity
  8
1
  6
CONTINUOUS
 62
   253
100
AcDbLine
 10
270.5887937886818
 20
342.9938055995934
 30
0.0
 11
271.0059769196787
 21
342.9931824282579
 31
0.0
  0
LINE
  5
207
330
1F
100
AcDbEntity
  8
1
  6
CONTINUOUS
 62
     7
100
AcDbLine
 10
265.4835714357237
 20
338.9896167098414
 30
0.0
 11
265.4878015000226
 21
338.9894274845359
 31
0.0
  0
LINE
  5
208
330
1F
100
AcDbEntity
  8
1
  6
CONTINUOUS
 62
   253
100
AcDbLine
 10
304.4946446430957
 20
342.5798082225063
 30
0.0
 11
304.5484640212159
 21
338.9745093401303
 31
0.0
  0
LINE
  5
209
330
1F
100
AcDbEntity
  8
1
  6
CONTINUOUS
 62
   253
100
AcDbLine
 10
304.4112062113182
 20
342.9938055995934
 30
0.0
 11
308.6530951636294
 21
343.0065715387452
 31
0.0
  0
LINE
  5
20A
330
1F
100
AcDbEntity
  8
1
  6
CONTINUOUS
 62
     7
100
AcDbLine
 10
304.0478440039442
 20
307.6928877099722
 30
0.0
 11
304.0432732365255
 21
307.6929076708547
 31
0.0
  0
LINE
  5
20B
330
1F
100
AcDbEntity
  8
1
  6
CONTINUOUS
 62
   253
100
AcDbLine
 10
308.8972790457167
 20
342.5898275274296
 30
0.0
 11
308.8966964928308
 21
342.5930561709295
 31
0.0
  0
LINE
  5
20C
330
1F
100
AcDbEntity
  8
1
  6
CONTINUOUS
 62
   253
100
AcDbLine
 10
304.5529939860484
 20
338.9745027885389
 30
0.0
 11
304.5529939860484
 21
307.6921638781279
 31
0.0
  0
LINE
  5
20D
330
1F
100
AcDbEntity
  8
1
  6
CONTINUOUS
 62
     7
100
AcDbLine
 10
270.4515359787842
 20
307.6921573265363
 30
0.0
 11
270.952155996056
 21
307.6928877099722
 31
0.0
  0
LINE
  5
20E
330
1F
100
AcDbEntity
  8
1
  6
CONTINUOUS
 62
     7
100
AcDbLine
 10
304.5529939860484
 20
307.6921638781279
 30
0.0
 11
309.5121984999774
 21
307.6772391821308
 31
0.0
  0
LINE
  5
20F
330
1F
100
AcDbEntity
  8
1
  6
CONTINUOUS
 62
     7
100
AcDbLine
 10
309.5164285642764
 20
307.6770499568253
 30
0.0
 11
309.5121984999774
 21
307.6772391821308
 31
0.0
  0
LINE
  5
210
330
1F
100
AcDbEntity
  8
1
  6
CONTINUOUS
 62
     7
100
AcDbLine
 10
270.952155996056
 20
338.9737789566946
 30
0.0
 11
270.9567267634746
 21
338.9737589958121
 31
0.0
  0
LINE
  5
211
330
1F
100
AcDbEntity
  8
1
  6
CONTINUOUS
 62
   253
100
AcDbLine
 10
303.9940230803214
 20
304.0874852961374
 30
0.0
 11
304.0478440039441
 21
307.6928877099722
 31
0.0
  0
LINE
  5
212
330
1F
100
AcDbEntity
  8
1
  6
CONTINUOUS
 62
     7
100
AcDbLine
 10
270.9567267634746
 20
307.6929076708547
 30
0.0
 11
270.9521559960559
 21
307.6928877099722
 31
0.0
  0
LINE
  5
213
330
1F
100
AcDbEntity
  8
1
  6
CONTINUOUS
 62
     7
100
AcDbLine
 10
265.4878015000226
 20
307.6772391821308
 30
0.0
 11
265.4835714357237
 21
307.6770499568253
 31
0.0
  0
LINE
  5
214
330
1F
100
AcDbEntity
  8
1
  6
CONTINUOUS
 62
     7
100
AcDbLine
 10
304.0432732365255
 20
338.9737589958121
 30
0.0
 11
304.0478440039441
 21
338.9737789566946
 31
0.0
  0
LINE
  5
215
330
1F
100
AcDbEntity
  8
1
  6
CONTINUOUS
 62
   253
100
AcDbLine
 10
270.952155996056
 20
307.6928877099722
 30
0.0
 11
271.0059769196786
 21
304.0874852961374
 31
0.0
  0
LINE
  5
216
330
1F
100
AcDbEntity
  8
1
  6
CONTINUOUS
 62
   253
100
AcDbLine
 10
304.4112062113182
 20
303.6728610670734
 30
0.0
 11
303.9940230803214
 21
303.6734842384088
 31
0.0
  0
LINE
  5
217
330
1F
100
AcDbEntity
  8
1
  6
CONTINUOUS
 62
   253
100
AcDbLine
 10
303.9940230803214
 20
303.6734842384088
 30
0.0
 11
303.9940230803214
 21
304.0874852961374
 31
0.0
  0
LINE
  5
218
330
1F
100
AcDbEntity
  8
1
  6
CONTINUOUS
 62
   253
100
AcDbLine
 10
271.0059769196787
 20
342.9931824282579
 30
0.0
 11
303.9940230803214
 21
342.9931824282579
 31
0.0
  0
LINE
  5
219
330
1F
100
AcDbEntity
  8
1
  6
CONTINUOUS
 62
     7
100
AcDbLine
 10
270.4470060139516
 20
338.9745027885388
 30
0.0
 11
270.4515359787841
 21
338.9745093401303
 31
0.0
  0
LINE
  5
21A
330
1F
100
AcDbEntity
  8
1
  6
CONTINUOUS
 62
     7
100
AcDbLine
 10
307.7603627489248
 20
247.3586034422966
 30
0.0
 11
307.8002970754272
 21
247.3630800322399
 31
0.0
  0
LINE
  5
21B
330
1F
100
AcDbEntity
  8
1
  6
CONTINUOUS
 62
     7
100
AcDbLine
 10
307.2611221412323
 20
247.1195751421739
 30
0.0
 11
307.2908842943015
 21
247.1465752261628
 31
0.0
  0
LINE
  5
21C
330
1F
100
AcDbEntity
  8
1
  6
CONTINUOUS
 62
     7
100
AcDbLine
 10
307.5285332611278
 20
247.2949619330163
 30
0.0
 11
307.565857825043
 21
247.3098504258635
 31
0.0
  0
LINE
  5
21D
330
1F
100
AcDbEntity
  8
1
  6
CONTINUOUS
 62
     7
100
AcDbLine
 10
307.7206680555324
 20
247.3523487155073
 30
0.0
 11
307.7603627489248
 21
247.3586034422966
 31
0.0
  0
LINE
  5
21E
330
1F
100
AcDbEntity
  8
1
  6
CONTINUOUS
 62
     7
100
AcDbLine
 10
295.4993138270011
 20
235.3666666666667
 30
0.0
 11
296.0000000000001
 21
235.3666666666667
 31
0.0
  0
LINE
  5
21F
330
1F
100
AcDbEntity
  8
1
  6
CONTINUOUS
 62
     7
100
AcDbLine
 10
286.0079987388749
 20
235.3666666666667
 30
0.0
 11
286.0
 21
235.3666666666667
 31
0.0
  0
LINE
  5
220
330
1F
100
AcDbEntity
  8
1
  6
CONTINUOUS
 62
     7
100
AcDbLine
 10
307.8805658615256
 20
247.3666666666667
 30
0.0
 11
307.9
 21
247.3666666666667
 31
0.0
  0
LINE
  5
221
330
1F
100
AcDbEntity
  8
1
  6
CONTINUOUS
 62
     7
100
AcDbLine
 10
287.5
 20
236.8666666666667
 30
0.0
 11
287.5
 21
235.3666666666667
 31
0.0
  0
LINE
  5
222
330
1F
100
AcDbEntity
  8
1
  6
CONTINUOUS
 62
     7
100
AcDbLine
 10
287.5
 20
236.8666666666667
 30
0.0
 11
288.25
 21
236.8666666666667
 31
0.0
  0
LINE
  5
223
330
1F
100
AcDbEntity
  8
1
  6
CONTINUOUS
 62
     7
100
AcDbLine
 10
279.4220745040744
 20
236.8666666666667
 30
0.0
 11
278.9213883310754
 21
236.8666666666667
 31
0.0
  0
LINE
  5
224
330
1F
100
AcDbEntity
  8
1
  6
CONTINUOUS
 62
     7
100
AcDbLine
 10
289.0100907607189
 20
236.8666666666667
 30
0.0
 11
288.25
 21
236.8666666666667
 31
0.0
  0
LINE
  5
225
330
1F
100
AcDbEntity
  8
1
  6
CONTINUOUS
 62
     7
100
AcDbLine
 10
286.7500000000001
 20
236.8666666666668
 30
0.0
 11
287.5
 21
236.8666666666667
 31
0.0
  0
LINE
  5
226
330
1F
100
AcDbEntity
  8
1
  6
CONTINUOUS
 62
     7
100
AcDbLine
 10
307.3218220178267
 20
247.1722198660277
 30
0.0
 11
307.3538736353443
 21
247.1964579374285
 31
0.0
  0
LINE
  5
227
330
1F
100
AcDbEntity
  8
1
  6
CONTINUOUS
 62
     7
100
AcDbLine
 10
307.1549782881046
 20
246.9991351383128
 30
0.0
 11
307.1794700109011
 21
247.0309933524057
 31
0.0
  0
LINE
  5
228
330
1F
100
AcDbEntity
  8
1
  6
CONTINUOUS
 62
     7
100
AcDbLine
 10
289.0000000000001
 20
235.3666666666667
 30
0.0
 11
288.9858017260228
 21
235.3666666666667
 31
0.0
  0
LINE
  5
229
330
1F
100
AcDbEntity
  8
1
  6
CONTINUOUS
 62
     7
100
AcDbLine
 10
295.4993138270011
 20
235.3666666666667
 30
0.0
 11
295.0000000000001
 21
235.3666666666667
 31
0.0
  0
LINE
  5
22A
330
1F
100
AcDbEntity
  8
1
  6
CONTINUOUS
 62
     7
100
AcDbLine
 10
285.9710682524383
 20
236.8666666666667
 30
0.0
 11
285.9420362055682
 21
236.8666666666667
 31
0.0
  0
LINE
  5
22B
330
1F
100
AcDbEntity
  8
1
  6
CONTINUOUS
 62
     7
100
AcDbLine
 10
294.8662377405491
 20
237.9190026229097
 30
0.0
 11
294.781651453923
 21
238.2722834076314
 31
0.0
  0
LINE
  5
22C
330
1F
100
AcDbEntity
  8
1
  6
CONTINUOUS
 62
     7
100
AcDbLine
 10
307.2053594161326
 20
247.0617265427294
 30
0.0
 11
307.2325948915028
 21
247.0912734405715
 31
0.0
  0
LINE
  5
22D
330
1F
100
AcDbEntity
  8
1
  6
CONTINUOUS
 62
     7
100
AcDbLine
 10
280.0786116689246
 20
236.8666666666667
 30
0.0
 11
279.4220745040745
 21
236.8666666666667
 31
0.0
  0
LINE
  5
22E
330
1F
100
AcDbEntity
  8
1
  6
CONTINUOUS
 62
     7
100
AcDbLine
 10
307.642313468917
 20
247.3345582482691
 30
0.0
 11
307.6812921293309
 21
247.3443283210969
 31
0.0
  0
LINE
  5
22F
330
1F
100
AcDbEntity
  8
1
  6
CONTINUOUS
 62
     7
100
AcDbLine
 10
280.2183485633022
 20
238.2722834464476
 30
0.0
 11
280.133762259451
 21
237.9190026229097
 31
0.0
  0
LINE
  5
230
330
1F
100
AcDbEntity
  8
1
  6
CONTINUOUS
 62
     7
100
AcDbLine
 10
307.1103803097889
 20
246.9322998011149
 30
0.0
 11
307.1319330736646
 21
246.9662154119754
 31
0.0
  0
LINE
  5
231
330
1F
100
AcDbEntity
  8
1
  6
CONTINUOUS
 62
     7
100
AcDbLine
 10
307.6812921293309
 20
247.3443283210969
 30
0.0
 11
307.7206680555324
 21
247.3523487155073
 31
0.0
  0
LINE
  5
232
330
1F
100
AcDbEntity
  8
1
  6
CONTINUOUS
 62
     7
100
AcDbLine
 10
287.5
 20
235.3666666666667
 30
0.0
 11
286.7500000000001
 21
235.3666666666668
 31
0.0
  0
LINE
  5
233
330
1F
100
AcDbEntity
  8
1
  6
CONTINUOUS
 62
     7
100
AcDbLine
 10
307.055091006255
 20
246.8252629066303
 30
0.0
 11
307.071920940395
 21
246.8617532287385
 31
0.0
  0
LINE
  5
234
330
1F
100
AcDbEntity
  8
1
  6
CONTINUOUS
 62
     7
100
AcDbLine
 10
280.7751581679142
 20
238.8006817287759
 30
0.0
 11
280.736957100458
 21
238.7851448350863
 31
0.0
  0
LINE
  5
235
330
1F
100
AcDbEntity
  8
1
  6
CONTINUOUS
 62
     7
100
AcDbLine
 10
267.1
 20
247.3666666666667
 30
0.0
 11
267.1194341384744
 21
247.3666666666667
 31
0.0
  0
LINE
  5
236
330
1F
100
AcDbEntity
  8
1
  6
CONTINUOUS
 62
     7
100
AcDbLine
 10
289.0579637944318
 20
236.8666666666667
 30
0.0
 11
289.0100907607189
 21
236.8666666666667
 31
0.0
  0
LINE
  5
237
330
1F
100
AcDbEntity
  8
1
  6
CONTINUOUS
 62
     7
100
AcDbLine
 10
288.9858017260228
 20
235.3666666666667
 30
0.0
 11
288.2500000000001
 21
235.3666666666667
 31
0.0
  0
LINE
  5
238
330
1F
100
AcDbEntity
  8
1
  6
CONTINUOUS
 62
     7
100
AcDbLine
 10
285.9420362055682
 20
236.8666666666667
 30
0.0
 11
285.9052915784746
 21
237.1738110032724
 31
0.0
  0
LINE
  5
239
330
1F
100
AcDbEntity
  8
1
  6
CONTINUOUS
 62
     7
100
AcDbLine
 10
279.0
 20
235.3666666666667
 30
0.0
 11
279.500686172999
 21
235.3666666666667
 31
0.0
  0
LINE
  5
23A
330
1F
100
AcDbEntity
  8
1
  6
CONTINUOUS
 62
     7
100
AcDbLine
 10
288.2500000000001
 20
235.3666666666667
 30
0.0
 11
287.5
 21
235.3666666666667
 31
0.0
  0
LINE
  5
23B
330
1F
100
AcDbEntity
  8
1
  6
CONTINUOUS
 62
     7
100
AcDbLine
 10
280.736957100458
 20
238.7851448350863
 30
0.0
 11
280.6992319174133
 21
238.767910466304
 31
0.0
  0
LINE
  5
23C
330
1F
100
AcDbEntity
  8
1
  6
CONTINUOUS
 62
     7
100
AcDbLine
 10
280.6992319174133
 20
238.767910466304
 30
0.0
 11
280.6620984407553
 21
238.748989012688
 31
0.0
  0
LINE
  5
23D
330
1F
100
AcDbEntity
  8
1
  6
CONTINUOUS
 62
     7
100
AcDbLine
 10
307.4210608707665
 20
247.2405239942585
 30
0.0
 11
307.4560625463311
 21
247.2602641309954
 31
0.0
  0
LINE
  5
23E
330
1F
100
AcDbEntity
  8
1
  6
CONTINUOUS
 62
     7
100
AcDbLine
 10
307.2908842943015
 20
247.1465752261628
 30
0.0
 11
307.3218220178267
 21
247.1722198660277
 31
0.0
  0
LINE
  5
23F
330
1F
100
AcDbEntity
  8
1
  6
CONTINUOUS
 62
     7
100
AcDbLine
 10
307.3538736353443
 20
247.1964579374285
 30
0.0
 11
307.3869752497668
 21
247.2192411201154
 31
0.0
  0
LINE
  5
240
330
1F
100
AcDbEntity
  8
1
  6
CONTINUOUS
 62
     7
100
AcDbLine
 10
280.0
 20
235.3666666666667
 30
0.0
 11
279.500686172999
 21
235.3666666666667
 31
0.0
  0
LINE
  5
241
330
1F
100
AcDbEntity
  8
1
  6
CONTINUOUS
 62
     7
100
AcDbLine
 10
307.0903629633835
 20
246.8974559188166
 30
0.0
 11
307.1103803097889
 21
246.9322998011149
 31
0.0
  0
LINE
  5
242
330
1F
100
AcDbEntity
  8
1
  6
CONTINUOUS
 62
     7
100
AcDbLine
 10
307.1794700109011
 20
247.0309933524057
 30
0.0
 11
307.2053594161326
 21
247.0617265427294
 31
0.0
  0
LINE
  5
243
330
1F
100
AcDbEntity
  8
1
  6
CONTINUOUS
 62
     7
100
AcDbLine
 10
307.3869752497668
 20
247.2192411201154
 30
0.0
 11
307.4210608707665
 21
247.2405239942585
 31
0.0
  0
LINE
  5
244
330
1F
100
AcDbEntity
  8
1
  6
CONTINUOUS
 62
     7
100
AcDbLine
 10
307.8002970754272
 20
247.3630800322399
 30
0.0
 11
307.8403914232339
 21
247.3657695609496
 31
0.0
  0
LINE
  5
245
330
1F
100
AcDbEntity
  8
1
  6
CONTINUOUS
 62
     7
100
AcDbLine
 10
295.5779254959256
 20
236.8666666666667
 30
0.0
 11
294.9213883310755
 21
236.8666666666667
 31
0.0
  0
LINE
  5
246
330
1F
100
AcDbEntity
  8
1
  6
CONTINUOUS
 62
     7
100
AcDbLine
 10
307.6038097809109
 20
247.3230579743309
 30
0.0
 11
307.642313468917
 21
247.3345582482691
 31
0.0
  0
LINE
  5
247
330
1F
100
AcDbEntity
  8
1
  6
CONTINUOUS
 62
     7
100
AcDbLine
 10
288.25
 20
236.8666666666667
 30
0.0
 11
288.2500000000001
 21
235.3666666666667
 31
0.0
  0
LINE
  5
248
330
1F
100
AcDbEntity
  8
1
  6
CONTINUOUS
 62
     7
100
AcDbLine
 10
307.4560625463311
 20
247.2602641309954
 30
0.0
 11
307.4919104982312
 21
247.278422177016
 31
0.0
  0
LINE
  5
249
330
1F
100
AcDbEntity
  8
1
  6
CONTINUOUS
 62
     7
100
AcDbLine
 10
286.7500000000001
 20
236.8666666666668
 30
0.0
 11
286.7500000000001
 21
235.3666666666668
 31
0.0
  0
LINE
  5
24A
330
1F
100
AcDbEntity
  8
1
  6
CONTINUOUS
 62
     7
100
AcDbLine
 10
307.071920940395
 20
246.8617532287385
 30
0.0
 11
307.0903629633835
 21
246.8974559188166
 31
0.0
  0
LINE
  5
24B
330
1F
100
AcDbEntity
  8
1
  6
CONTINUOUS
 62
     7
100
AcDbLine
 10
307.2325948915028
 20
247.0912734405715
 30
0.0
 11
307.2611221412323
 21
247.1195751421739
 31
0.0
  0
LINE
  5
24C
330
1F
100
AcDbEntity
  8
1
  6
CONTINUOUS
 62
     7
100
AcDbLine
 10
307.565857825043
 20
247.3098504258635
 30
0.0
 11
307.6038097809109
 21
247.3230579743309
 31
0.0
  0
LINE
  5
24D
330
1F
100
AcDbEntity
  8
1
  6
CONTINUOUS
 62
     7
100
AcDbLine
 10
307.1319330736646
 20
246.9662154119754
 30
0.0
 11
307.1549782881046
 21
246.9991351383128
 31
0.0
  0
LINE
  5
24E
330
1F
100
AcDbEntity
  8
1
  6
CONTINUOUS
 62
     7
100
AcDbLine
 10
307.4919104982312
 20
247.278422177016
 30
0.0
 11
307.5285332611278
 21
247.2949619330163
 31
0.0
  0
LINE
  5
24F
330
1F
100
AcDbEntity
  8
1
  6
CONTINUOUS
 62
     7
100
AcDbLine
 10
307.8403914232339
 20
247.3657695609496
 30
0.0
 11
307.8805658615256
 21
247.3666666666667
 31
0.0
  0
LINE
  5
250
330
1F
100
AcDbEntity
  8
1
  6
CONTINUOUS
 62
     7
100
AcDbLine
 10
296.0786116689246
 20
236.8666666666667
 30
0.0
 11
295.5779254959256
 21
236.8666666666667
 31
0.0
  0
LINE
  5
251
330
1F
100
AcDbEntity
  8
1
  6
CONTINUOUS
 62
     7
100
AcDbLine
 10
286.7500000000001
 20
236.8666666666668
 30
0.0
 11
285.9710682524384
 21
236.8666666666667
 31
0.0
  0
LINE
  5
252
330
1F
100
AcDbEntity
  8
1
  6
CONTINUOUS
 62
     7
100
AcDbLine
 10
286.7500000000001
 20
235.3666666666668
 30
0.0
 11
286.0079987388749
 21
235.3666666666667
 31
0.0
  0
LINE
  5
253
330
1F
100
AcDbEntity
  8
1
  6
CONTINUOUS
 62
     7
100
AcDbLine
 10
294.3007680825939
 20
238.7679104663006
 30
0.0
 11
294.2630428995495
 21
238.7851448350831
 31
0.0
  0
LINE
  5
254
330
1F
100
AcDbEntity
  8
1
  6
CONTINUOUS
 62
     7
100
AcDbLine
 10
280.5217743362606
 20
238.6569696479411
 30
0.0
 11
280.4840042968201
 21
238.6254785235768
 31
0.0
  0
LINE
  5
255
330
1F
100
AcDbEntity
  8
1
  6
CONTINUOUS
 62
     7
100
AcDbLine
 10
280.6620984407553
 20
238.748989012688
 30
0.0
 11
280.6256724467581
 21
238.7284002362135
 31
0.0
  0
LINE
  5
256
330
1F
100
AcDbEntity
  8
1
  6
CONTINUOUS
 62
     7
100
AcDbLine
 10
294.5159957031865
 20
238.6254785235728
 30
0.0
 11
294.4782256637461
 21
238.6569696479372
 31
0.0
  0
LINE
  5
257
330
1F
100
AcDbEntity
  8
1
  6
CONTINUOUS
 62
     7
100
AcDbLine
 10
294.4782256637461
 20
238.6569696479372
 30
0.0
 11
294.4446005156024
 21
238.6823471709621
 31
0.0
  0
LINE
  5
258
330
1F
100
AcDbEntity
  8
1
  6
CONTINUOUS
 62
     7
100
AcDbLine
 10
294.3743275532487
 20
238.7284002362098
 30
0.0
 11
294.3379015592516
 21
238.7489890126844
 31
0.0
  0
LINE
  5
259
330
1F
100
AcDbEntity
  8
1
  6
CONTINUOUS
 62
     7
100
AcDbLine
 10
294.3379015592516
 20
238.7489890126844
 30
0.0
 11
294.3007680825939
 21
238.7679104663006
 31
0.0
  0
LINE
  5
25A
330
1F
100
AcDbEntity
  8
1
  6
CONTINUOUS
 62
     7
100
AcDbLine
 10
294.7816520186608
 20
238.2722821350119
 30
0.0
 11
294.5502092658258
 21
238.5940122816299
 31
0.0
  0
LINE
  5
25B
330
1F
100
AcDbEntity
  8
1
  6
CONTINUOUS
 62
     7
100
AcDbLine
 10
280.6256724467581
 20
238.7284002362135
 30
0.0
 11
280.5900686197429
 21
238.7061733830164
 31
0.0
  0
LINE
  5
25C
330
1F
100
AcDbEntity
  8
1
  6
CONTINUOUS
 62
     7
100
AcDbLine
 10
294.2630428995495
 20
238.7851448350831
 30
0.0
 11
294.2248418320935
 21
238.8006817287729
 31
0.0
  0
LINE
  5
25D
330
1F
100
AcDbEntity
  8
1
  6
CONTINUOUS
 62
     7
100
AcDbLine
 10
294.4099313802638
 20
238.7061733830126
 30
0.0
 11
294.3743275532487
 21
238.7284002362098
 31
0.0
  0
LINE
  5
25E
330
1F
100
AcDbEntity
  8
1
  6
CONTINUOUS
 62
     7
100
AcDbLine
 10
294.4446005156024
 20
238.6823471709621
 30
0.0
 11
294.4099313802638
 21
238.7061733830126
 31
0.0
  0
LINE
  5
25F
330
1F
100
AcDbEntity
  8
1
  6
CONTINUOUS
 62
     7
100
AcDbLine
 10
280.5900686197429
 20
238.7061733830164
 30
0.0
 11
280.5553994844041
 21
238.682347170966
 31
0.0
  0
LINE
  5
260
330
1F
100
AcDbEntity
  8
1
  6
CONTINUOUS
 62
     7
100
AcDbLine
 10
280.4840042968201
 20
238.6254785235768
 30
0.0
 11
280.4479554786997
 21
238.5920594749402
 31
0.0
  0
LINE
  5
261
330
1F
100
AcDbEntity
  8
1
  6
CONTINUOUS
 62
     7
100
AcDbLine
 10
294.5520445213073
 20
238.5920594749362
 30
0.0
 11
294.5159957031865
 21
238.6254785235728
 31
0.0
  0
LINE
  5
262
330
1F
100
AcDbEntity
  8
1
  6
CONTINUOUS
 62
     7
100
AcDbLine
 10
280.5553994844041
 20
238.682347170966
 30
0.0
 11
280.5217743362606
 21
238.6569696479411
 31
0.0
  0
LINE
  5
263
330
1F
100
AcDbEntity
  8
1
  6
CONTINUOUS
 62
     7
100
AcDbLine
 10
280.4497907342129
 20
238.5940122816645
 30
0.0
 11
280.2183479813392
 21
238.2722821350117
 31
0.0
  0
LINE
  5
264
330
1F
100
AcDbEntity
  8
1
  6
CONTINUOUS
 62
     7
100
AcDbLine
 10
389.3327242067319
 20
247.3666666666667
 30
0.0
 11
388.9939049403039
 21
266.7776094400854
 31
0.0
  0
LINE
  5
265
330
1F
100
AcDbEntity
  8
1
  6
CONTINUOUS
 62
     7
100
AcDbLine
 10
264.9174524064373
 20
326.8333333333334
 30
0.0
 11
264.9
 21
326.8333333333334
 31
0.0
  0
LINE
  5
266
330
1F
100
AcDbEntity
  8
1
  6
CONTINUOUS
 62
   253
100
AcDbLine
 10
266.225580670091
 20
342.9907073473078
 30
0.0
 11
266.201966797276
 21
342.9839577465073
 31
0.0
  0
LINE
  5
267
330
1F
100
AcDbEntity
  8
1
  6
CONTINUOUS
 62
   253
100
AcDbLine
 10
266.201966797276
 20
342.9839577465073
 30
0.0
 11
266.1787053714497
 21
342.9760474670282
 31
0.0
  0
LINE
  5
268
330
1F
100
AcDbEntity
  8
1
  6
CONTINUOUS
 62
   253
100
AcDbLine
 10
266.3224022788228
 20
343.0058138283785
 30
0.0
 11
266.2979593043401
 21
343.0038422917242
 31
0.0
  0
LINE
  5
269
330
1F
100
AcDbEntity
  8
1
  6
CONTINUOUS
 62
   253
100
AcDbLine
 10
309.1426648394735
 20
304.0766914722877
 30
0.0
 11
309.1411949147497
 21
304.068633406047
 31
0.0
  0
LINE
  5
26A
330
1F
100
AcDbEntity
  8
1
  6
CONTINUOUS
 62
   253
100
AcDbLine
 10
266.1115963177356
 20
342.9455587361765
 30
0.0
 11
266.0902997109313
 21
342.9332255792044
 31
0.0
  0
LINE
  5
26B
330
1F
100
AcDbEntity
  8
1
  6
CONTINUOUS
 62
     7
100
AcDbLine
 10
264.9698096257492
 20
328.4583333333334
 30
0.0
 11
264.9872620321865
 21
328.3333333333334
 31
0.0
  0
LINE
  5
26C
330
1F
100
AcDbEntity
  8
1
  6
CONTINUOUS
 62
   253
100
AcDbLine
 10
265.8779687104381
 20
303.9971769381704
 30
0.0
 11
265.8866607625894
 21
303.9740736181982
 31
0.0
  0
LINE
  5
26D
330
1F
100
AcDbEntity
  8
1
  6
CONTINUOUS
 62
     7
100
AcDbLine
 10
265.022166845061
 20
318.5833333333334
 30
0.0
 11
265.0047144386237
 21
318.4583333333333
 31
0.0
  0
LINE
  5
26E
330
1F
100
AcDbEntity
  8
1
  6
CONTINUOUS
 62
   253
100
AcDbLine
 10
265.9941566041078
 20
342.8566864979254
 30
0.0
 11
265.9773234363899
 21
342.8386647183061
 31
0.0
  0
LINE
  5
26F
330
1F
100
AcDbEntity
  8
1
  6
CONTINUOUS
 62
   253
100
AcDbLine
 10
265.94639199103
 20
342.8002448406779
 30
0.0
 11
265.932368929631
 21
342.7799401685925
 31
0.0
  0
LINE
  5
270
330
1F
100
AcDbEntity
  8
1
  6
CONTINUOUS
 62
   253
100
AcDbLine
 10
265.8640239169357
 20
304.0445143875218
 30
0.0
 11
265.8704169740142
 21
304.0206762424269
 31
0.0
  0
LINE
  5
271
330
1F
100
AcDbEntity
  8
1
  6
CONTINUOUS
 62
   253
100
AcDbLine
 10
266.0696270928625
 20
303.7468115572959
 30
0.0
 11
266.0902997109313
 21
303.7334410874623
 31
0.0
  0
LINE
  5
272
330
1F
100
AcDbEntity
  8
1
  6
CONTINUOUS
 62
   253
100
AcDbLine
 10
266.0902997109313
 20
303.7334410874623
 30
0.0
 11
266.1115963177356
 21
303.7211079304902
 31
0.0
  0
LINE
  5
273
330
1F
100
AcDbEntity
  8
1
  6
CONTINUOUS
 62
   253
100
AcDbLine
 10
265.8704169740142
 20
304.0206762424269
 30
0.0
 11
265.8779687104381
 21
303.9971769381704
 31
0.0
  0
LINE
  5
274
330
1F
100
AcDbEntity
  8
1
  6
CONTINUOUS
 62
   253
100
AcDbLine
 10
265.9773234363899
 20
303.8280019483606
 30
0.0
 11
265.9941566041078
 21
303.8099801687414
 31
0.0
  0
LINE
  5
275
330
1F
100
AcDbEntity
  8
1
  6
CONTINUOUS
 62
   253
100
AcDbLine
 10
266.0496287333
 20
342.905479839754
 30
0.0
 11
266.0303532624146
 21
342.8901347268121
 31
0.0
  0
LINE
  5
276
330
1F
100
AcDbEntity
  8
1
  6
CONTINUOUS
 62
     7
100
AcDbLine
 10
265.022166845061
 20
328.0833333333334
 30
0.0
 11
265.0264962542618
 21
328.0523246496861
 31
0.0
  0
LINE
  5
277
330
1F
100
AcDbEntity
  8
1
  6
CONTINUOUS
 62
   253
100
AcDbLine
 10
265.9613889827179
 20
342.819835570227
 30
0.0
 11
265.94639199103
 21
342.8002448406779
 31
0.0
  0
LINE
  5
278
330
1F
100
AcDbEntity
  8
1
  6
CONTINUOUS
 62
   253
100
AcDbLine
 10
266.3469048363707
 20
343.0065715387452
 30
0.0
 11
266.3224022788228
 21
343.0058138283785
 31
0.0
  0
LINE
  5
279
330
1F
100
AcDbEntity
  8
1
  6
CONTINUOUS
 62
   253
100
AcDbLine
 10
265.9941566041078
 20
303.8099801687414
 30
0.0
 11
266.0118475525229
 21
303.7928095812878
 31
0.0
  0
LINE
  5
27A
330
1F
100
AcDbEntity
  8
1
  6
CONTINUOUS
 62
   253
100
AcDbLine
 10
266.1787053714497
 20
342.9760474670282
 30
0.0
 11
266.1558529576074
 21
342.9669957443605
 31
0.0
  0
LINE
  5
27B
330
1F
100
AcDbEntity
  8
1
  6
CONTINUOUS
 62
   253
100
AcDbLine
 10
265.8866607625894
 20
342.6925930484685
 30
0.0
 11
265.8779687104381
 21
342.6694897284963
 31
0.0
  0
LINE
  5
27C
330
1F
100
AcDbEntity
  8
1
  6
CONTINUOUS
 62
     7
100
AcDbLine
 10
265.0570716579356
 20
326.0677688962587
 30
0.0
 11
265.0570716579356
 21
320.598897770408
 31
0.0
  0
LINE
  5
27D
330
1F
100
AcDbEntity
  8
1
  6
CONTINUOUS
 62
     7
100
AcDbLine
 10
265.0264962542618
 20
318.6143420169806
 30
0.0
 11
265.022166845061
 21
318.5833333333334
 31
0.0
  0
LINE
  5
27E
330
1F
100
AcDbEntity
  8
1
  6
CONTINUOUS
 62
     7
100
AcDbLine
 10
264.9
 20
339.3327242067319
 30
0.0
 11
264.9
 21
326.8333333333334
 31
0.0
  0
LINE
  5
27F
330
1F
100
AcDbEntity
  8
1
  6
CONTINUOUS
 62
   253
100
AcDbLine
 10
265.8573351605265
 20
342.5899751943791
 30
0.0
 11
265.8588050852504
 21
342.5980332606198
 31
0.0
  0
LINE
  5
280
330
1F
100
AcDbEntity
  8
1
  6
CONTINUOUS
 62
   253
100
AcDbLine
 10
266.2736353510991
 20
343.0006617229837
 30
0.0
 11
266.2494895678513
 21
342.9962798563716
 31
0.0
  0
LINE
  5
281
330
1F
100
AcDbEntity
  8
1
  6
CONTINUOUS
 62
   253
100
AcDbLine
 10
266.1334651261464
 20
342.9568245896505
 30
0.0
 11
266.1115963177356
 21
342.9455587361765
 31
0.0
  0
LINE
  5
282
330
1F
100
AcDbEntity
  8
1
  6
CONTINUOUS
 62
   253
100
AcDbLine
 10
266.0303532624146
 20
342.8901347268121
 30
0.0
 11
266.0118475525229
 21
342.8738570853789
 31
0.0
  0
LINE
  5
283
330
1F
100
AcDbEntity
  8
1
  6
CONTINUOUS
 62
     7
100
AcDbLine
 10
264.9523572193119
 20
328.5833333333333
 30
0.0
 11
264.9698096257492
 21
328.4583333333334
 31
0.0
  0
LINE
  5
284
330
1F
100
AcDbEntity
  8
1
  6
CONTINUOUS
 62
     7
100
AcDbLine
 10
264.9872620321865
 20
328.3333333333334
 30
0.0
 11
265.0047144386237
 21
328.2083333333334
 31
0.0
  0
LINE
  5
285
330
1F
100
AcDbEntity
  8
1
  6
CONTINUOUS
 62
   253
100
AcDbLine
 10
266.0118475525229
 20
342.8738570853789
 30
0.0
 11
265.9941566041078
 21
342.8566864979254
 31
0.0
  0
LINE
  5
286
330
1F
100
AcDbEntity
  8
1
  6
CONTINUOUS
 62
   253
100
AcDbLine
 10
266.0902997109313
 20
342.9332255792044
 30
0.0
 11
266.0696270928625
 21
342.9198551093708
 31
0.0
  0
LINE
  5
287
330
1F
100
AcDbEntity
  8
1
  6
CONTINUOUS
 62
   253
100
AcDbLine
 10
265.9773234363899
 20
342.8386647183061
 30
0.0
 11
265.9613889827179
 21
342.819835570227
 31
0.0
  0
LINE
  5
288
330
1F
100
AcDbEntity
  8
1
  6
CONTINUOUS
 62
   253
100
AcDbLine
 10
265.9073785464263
 20
342.7373881129807
 30
0.0
 11
265.8964719939354
 21
342.7152442036283
 31
0.0
  0
LINE
  5
289
330
1F
100
AcDbEntity
  8
1
  6
CONTINUOUS
 62
     7
100
AcDbLine
 10
264.9174524064373
 20
326.8333333333334
 30
0.0
 11
264.9174524064373
 21
328.8333333333334
 31
0.0
  0
LINE
  5
28A
330
1F
100
AcDbEntity
  8
1
  6
CONTINUOUS
 62
   253
100
AcDbLine
 10
265.8779687104381
 20
342.6694897284963
 30
0.0
 11
265.8704169740142
 21
342.6459904242398
 31
0.0
  0
LINE
  5
28B
330
1F
100
AcDbEntity
  8
1
  6
CONTINUOUS
 62
   253
100
AcDbLine
 10
265.8588050852504
 20
304.068633406047
 30
0.0
 11
265.8640239169357
 21
304.0445143875218
 31
0.0
  0
LINE
  5
28C
330
1F
100
AcDbEntity
  8
1
  6
CONTINUOUS
 62
   253
100
AcDbLine
 10
265.8964719939354
 20
303.9514224630384
 30
0.0
 11
265.9073785464263
 21
303.929278553686
 31
0.0
  0
LINE
  5
28D
330
1F
100
AcDbEntity
  8
1
  6
CONTINUOUS
 62
   253
100
AcDbLine
 10
266.1558529576074
 20
342.9669957443605
 30
0.0
 11
266.1334651261464
 21
342.9568245896505
 31
0.0
  0
LINE
  5
28E
330
1F
100
AcDbEntity
  8
1
  6
CONTINUOUS
 62
   253
100
AcDbLine
 10
265.9193538985114
 20
342.7589709290042
 30
0.0
 11
265.9073785464263
 21
342.7373881129807
 31
0.0
  0
LINE
  5
28F
330
1F
100
AcDbEntity
  8
1
  6
CONTINUOUS
 62
   253
100
AcDbLine
 10
265.8640239169357
 20
342.6221522791449
 30
0.0
 11
265.8588050852504
 21
342.5980332606198
 31
0.0
  0
LINE
  5
290
330
1F
100
AcDbEntity
  8
1
  6
CONTINUOUS
 62
   253
100
AcDbLine
 10
265.9073785464263
 20
303.929278553686
 30
0.0
 11
265.9193538985114
 21
303.9076957376625
 31
0.0
  0
LINE
  5
291
330
1F
100
AcDbEntity
  8
1
  6
CONTINUOUS
 62
   253
100
AcDbLine
 10
265.8866607625894
 20
303.9740736181982
 30
0.0
 11
265.8964719939354
 21
303.9514224630384
 31
0.0
  0
LINE
  5
292
330
1F
100
AcDbEntity
  8
1
  6
CONTINUOUS
 62
     7
100
AcDbLine
 10
264.9349048128746
 20
328.7083333333334
 30
0.0
 11
264.9523572193119
 21
328.5833333333333
 31
0.0
  0
LINE
  5
293
330
1F
100
AcDbEntity
  8
1
  6
CONTINUOUS
 62
   253
100
AcDbLine
 10
265.9193538985114
 20
303.9076957376625
 30
0.0
 11
265.932368929631
 21
303.8867264980742
 31
0.0
  0
LINE
  5
294
330
1F
100
AcDbEntity
  8
1
  6
CONTINUOUS
 62
   253
100
AcDbLine
 10
266.2494895678513
 20
342.9962798563716
 30
0.0
 11
266.225580670091
 21
342.9907073473078
 31
0.0
  0
LINE
  5
295
330
1F
100
AcDbEntity
  8
1
  6
CONTINUOUS
 62
   253
100
AcDbLine
 10
265.932368929631
 20
303.8867264980742
 30
0.0
 11
265.94639199103
 21
303.8664218259888
 31
0.0
  0
LINE
  5
296
330
1F
100
AcDbEntity
  8
1
  6
CONTINUOUS
 62
   253
100
AcDbLine
 10
265.8964719939354
 20
342.7152442036283
 30
0.0
 11
265.8866607625894
 21
342.6925930484685
 31
0.0
  0
LINE
  5
297
330
1F
100
AcDbEntity
  8
1
  6
CONTINUOUS
 62
   253
100
AcDbLine
 10
265.8704169740142
 20
342.6459904242398
 30
0.0
 11
265.8640239169357
 21
342.6221522791449
 31
0.0
  0
LINE
  5
298
330
1F
100
AcDbEntity
  8
1
  6
CONTINUOUS
 62
   253
100
AcDbLine
 10
265.94639199103
 20
303.8664218259888
 30
0.0
 11
265.9613889827179
 21
303.8468310964396
 31
0.0
  0
LINE
  5
299
330
1F
100
AcDbEntity
  8
1
  6
CONTINUOUS
 62
   253
100
AcDbLine
 10
265.8573351605265
 20
304.0766914722877
 30
0.0
 11
265.8588050852504
 21
304.068633406047
 31
0.0
  0
LINE
  5
29A
330
1F
100
AcDbEntity
  8
1
  6
CONTINUOUS
 62
   253
100
AcDbLine
 10
265.9613889827179
 20
303.8468310964396
 30
0.0
 11
265.9773234363899
 21
303.8280019483606
 31
0.0
  0
LINE
  5
29B
330
1F
100
AcDbEntity
  8
1
  6
CONTINUOUS
 62
   253
100
AcDbLine
 10
266.0118475525229
 20
303.7928095812878
 30
0.0
 11
266.0303532624146
 21
303.7765319398546
 31
0.0
  0
LINE
  5
29C
330
1F
100
AcDbEntity
  8
1
  6
CONTINUOUS
 62
     7
100
AcDbLine
 10
265.0047144386237
 20
328.2083333333334
 30
0.0
 11
265.022166845061
 21
328.0833333333334
 31
0.0
  0
LINE
  5
29D
330
1F
100
AcDbEntity
  8
1
  6
CONTINUOUS
 62
     7
100
AcDbLine
 10
264.9174524064373
 20
328.8333333333334
 30
0.0
 11
264.9349048128746
 21
328.7083333333334
 31
0.0
  0
LINE
  5
29E
330
1F
100
AcDbEntity
  8
1
  6
CONTINUOUS
 62
   253
100
AcDbLine
 10
309.1411949147497
 20
342.5980332606198
 30
0.0
 11
309.1426648394735
 21
342.5899751943791
 31
0.0
  0
LINE
  5
29F
330
1F
100
AcDbEntity
  8
1
  6
CONTINUOUS
 62
   253
100
AcDbLine
 10
266.2979593043401
 20
343.0038422917242
 30
0.0
 11
266.2736353510991
 21
343.0006617229837
 31
0.0
  0
LINE
  5
2A0
330
1F
100
AcDbEntity
  8
1
  6
CONTINUOUS
 62
   253
100
AcDbLine
 10
266.0696270928625
 20
342.9198551093708
 30
0.0
 11
266.0496287333
 21
342.905479839754
 31
0.0
  0
LINE
  5
2A1
330
1F
100
AcDbEntity
  8
1
  6
CONTINUOUS
 62
   253
100
AcDbLine
 10
265.932368929631
 20
342.7799401685925
 30
0.0
 11
265.9193538985114
 21
342.7589709290042
 31
0.0
  0
LINE
  5
2A2
330
1F
100
AcDbEntity
  8
1
  6
CONTINUOUS
 62
   253
100
AcDbLine
 10
266.0303532624146
 20
303.7765319398546
 30
0.0
 11
266.0496287333
 21
303.7611868269128
 31
0.0
  0
LINE
  5
2A3
330
1F
100
AcDbEntity
  8
1
  6
CONTINUOUS
 62
   253
100
AcDbLine
 10
266.0496287333
 20
303.7611868269128
 30
0.0
 11
266.0696270928625
 21
303.7468115572959
 31
0.0
  0
LINE
  5
2A4
330
1F
100
AcDbEntity
  8
1
  6
CONTINUOUS
 62
   253
100
AcDbLine
 10
309.0386110172822
 20
303.8468310964396
 30
0.0
 11
309.0536080089701
 21
303.8664218259888
 31
0.0
  0
LINE
  5
2A5
330
1F
100
AcDbEntity
  8
1
  6
CONTINUOUS
 62
   253
100
AcDbLine
 10
309.0806461014887
 20
303.9076957376625
 30
0.0
 11
309.0926214535737
 21
303.929278553686
 31
0.0
  0
LINE
  5
2A6
330
1F
100
AcDbEntity
  8
1
  6
CONTINUOUS
 62
   253
100
AcDbLine
 10
309.1359760830644
 20
304.0445143875218
 30
0.0
 11
309.1411949147497
 21
304.068633406047
 31
0.0
  0
LINE
  5
2A7
330
1F
100
AcDbEntity
  8
1
  6
CONTINUOUS
 62
   253
100
AcDbLine
 10
308.7020406956599
 20
343.0038422917242
 30
0.0
 11
308.726364648901
 21
343.0006617229837
 31
0.0
  0
LINE
  5
2A8
330
1F
100
AcDbEntity
  8
1
  6
CONTINUOUS
 62
   253
100
AcDbLine
 10
308.726364648901
 20
343.0006617229837
 30
0.0
 11
308.7505104321488
 21
342.9962798563716
 31
0.0
  0
LINE
  5
2A9
330
1F
100
AcDbEntity
  8
1
  6
CONTINUOUS
 62
   253
100
AcDbLine
 10
308.7505104321488
 20
342.9962798563716
 30
0.0
 11
308.7744193299091
 21
342.9907073473078
 31
0.0
  0
LINE
  5
2AA
330
1F
100
AcDbEntity
  8
1
  6
CONTINUOUS
 62
   253
100
AcDbLine
 10
308.7744193299091
 20
342.9907073473078
 30
0.0
 11
308.7980332027241
 21
342.9839577465073
 31
0.0
  0
LINE
  5
2AB
330
1F
100
AcDbEntity
  8
1
  6
CONTINUOUS
 62
   253
100
AcDbLine
 10
308.8441470423927
 20
342.9669957443605
 30
0.0
 11
308.8665348738537
 21
342.9568245896505
 31
0.0
  0
LINE
  5
2AC
330
1F
100
AcDbEntity
  8
1
  6
CONTINUOUS
 62
   253
100
AcDbLine
 10
308.8665348738537
 20
342.9568245896505
 30
0.0
 11
308.8884036822644
 21
342.9455587361765
 31
0.0
  0
LINE
  5
2AD
330
1F
100
AcDbEntity
  8
1
  6
CONTINUOUS
 62
   253
100
AcDbLine
 10
308.8884036822644
 20
342.9455587361765
 30
0.0
 11
308.9097002890688
 21
342.9332255792044
 31
0.0
  0
LINE
  5
2AE
330
1F
100
AcDbEntity
  8
1
  6
CONTINUOUS
 62
   253
100
AcDbLine
 10
308.9303729071375
 20
342.9198551093708
 30
0.0
 11
308.9503712667001
 21
342.905479839754
 31
0.0
  0
LINE
  5
2AF
330
1F
100
AcDbEntity
  8
1
  6
CONTINUOUS
 62
   253
100
AcDbLine
 10
266.2979593043401
 20
303.6628243749425
 30
0.0
 11
266.3224022788228
 21
303.6608528382882
 31
0.0
  0
LINE
  5
2B0
330
1F
100
AcDbEntity
  8
1
  6
CONTINUOUS
 62
   253
100
AcDbLine
 10
308.6775977211772
 20
303.6608528382882
 30
0.0
 11
308.7020406956599
 21
303.6628243749425
 31
0.0
  0
LINE
  5
2B1
330
1F
100
AcDbEntity
  8
1
  6
CONTINUOUS
 62
   253
100
AcDbLine
 10
308.9503712667001
 20
342.905479839754
 30
0.0
 11
308.9696467375855
 21
342.8901347268121
 31
0.0
  0
LINE
  5
2B2
330
1F
100
AcDbEntity
  8
1
  6
CONTINUOUS
 62
   253
100
AcDbLine
 10
308.6530951636294
 20
303.6600951279215
 30
0.0
 11
308.6775977211772
 21
303.6608528382882
 31
0.0
  0
LINE
  5
2B3
330
1F
100
AcDbEntity
  8
1
  6
CONTINUOUS
 62
   253
100
AcDbLine
 10
309.1035280060647
 20
303.9514224630384
 30
0.0
 11
309.1133392374107
 21
303.9740736181982
 31
0.0
  0
LINE
  5
2B4
330
1F
100
AcDbEntity
  8
1
  6
CONTINUOUS
 62
   253
100
AcDbLine
 10
308.9881524474771
 20
342.8738570853789
 30
0.0
 11
309.0058433958923
 21
342.8566864979254
 31
0.0
  0
LINE
  5
2B5
330
1F
100
AcDbEntity
  8
1
  6
CONTINUOUS
 62
   253
100
AcDbLine
 10
308.6775977211772
 20
343.0058138283785
 30
0.0
 11
308.7020406956599
 21
343.0038422917242
 31
0.0
  0
LINE
  5
2B6
330
1F
100
AcDbEntity
  8
1
  6
CONTINUOUS
 62
   253
100
AcDbLine
 10
309.0058433958923
 20
342.8566864979254
 30
0.0
 11
309.0226765636102
 21
342.8386647183061
 31
0.0
  0
LINE
  5
2B7
330
1F
100
AcDbEntity
  8
1
  6
CONTINUOUS
 62
   253
100
AcDbLine
 10
309.0386110172822
 20
342.819835570227
 30
0.0
 11
309.0536080089701
 21
342.8002448406779
 31
0.0
  0
LINE
  5
2B8
330
1F
100
AcDbEntity
  8
1
  6
CONTINUOUS
 62
   253
100
AcDbLine
 10
308.8665348738537
 20
303.7098420770162
 30
0.0
 11
308.8884036822644
 21
303.7211079304902
 31
0.0
  0
LINE
  5
2B9
330
1F
100
AcDbEntity
  8
1
  6
CONTINUOUS
 62
   253
100
AcDbLine
 10
266.1115963177356
 20
303.7211079304902
 30
0.0
 11
266.1334651261464
 21
303.7098420770162
 31
0.0
  0
LINE
  5
2BA
330
1F
100
AcDbEntity
  8
1
  6
CONTINUOUS
 62
   253
100
AcDbLine
 10
308.726364648901
 20
303.666004943683
 30
0.0
 11
308.7505104321488
 21
303.6703868102951
 31
0.0
  0
LINE
  5
2BB
330
1F
100
AcDbEntity
  8
1
  6
CONTINUOUS
 62
   253
100
AcDbLine
 10
308.8884036822644
 20
303.7211079304902
 30
0.0
 11
308.9097002890688
 21
303.7334410874623
 31
0.0
  0
LINE
  5
2BC
330
1F
100
AcDbEntity
  8
1
  6
CONTINUOUS
 62
   253
100
AcDbLine
 10
309.1133392374107
 20
303.9740736181982
 30
0.0
 11
309.122031289562
 21
303.9971769381704
 31
0.0
  0
LINE
  5
2BD
330
1F
100
AcDbEntity
  8
1
  6
CONTINUOUS
 62
   253
100
AcDbLine
 10
308.7980332027241
 20
342.9839577465073
 30
0.0
 11
308.8212946285503
 21
342.9760474670282
 31
0.0
  0
LINE
  5
2BE
330
1F
100
AcDbEntity
  8
1
  6
CONTINUOUS
 62
   253
100
AcDbLine
 10
308.7505104321488
 20
303.6703868102951
 30
0.0
 11
308.7744193299091
 21
303.6759593193589
 31
0.0
  0
LINE
  5
2BF
330
1F
100
AcDbEntity
  8
1
  6
CONTINUOUS
 62
   253
100
AcDbLine
 10
308.7744193299091
 20
303.6759593193589
 30
0.0
 11
308.7980332027241
 21
303.6827089201595
 31
0.0
  0
LINE
  5
2C0
330
1F
100
AcDbEntity
  8
1
  6
CONTINUOUS
 62
   253
100
AcDbLine
 10
308.8212946285503
 20
342.9760474670282
 30
0.0
 11
308.8441470423927
 21
342.9669957443605
 31
0.0
  0
LINE
  5
2C1
330
1F
100
AcDbEntity
  8
1
  6
CONTINUOUS
 62
   253
100
AcDbLine
 10
308.9097002890688
 20
342.9332255792044
 30
0.0
 11
308.9303729071375
 21
342.9198551093708
 31
0.0
  0
LINE
  5
2C2
330
1F
100
AcDbEntity
  8
1
  6
CONTINUOUS
 62
   253
100
AcDbLine
 10
309.0536080089701
 20
342.8002448406779
 30
0.0
 11
309.067631070369
 21
342.7799401685925
 31
0.0
  0
LINE
  5
2C3
330
1F
100
AcDbEntity
  8
1
  6
CONTINUOUS
 62
   253
100
AcDbLine
 10
309.0226765636102
 20
342.8386647183061
 30
0.0
 11
309.0386110172822
 21
342.819835570227
 31
0.0
  0
LINE
  5
2C4
330
1F
100
AcDbEntity
  8
1
  6
CONTINUOUS
 62
   253
100
AcDbLine
 10
308.9881524474771
 20
303.7928095812878
 30
0.0
 11
309.0058433958923
 21
303.8099801687414
 31
0.0
  0
LINE
  5
2C5
330
1F
100
AcDbEntity
  8
1
  6
CONTINUOUS
 62
   253
100
AcDbLine
 10
309.067631070369
 20
342.7799401685925
 30
0.0
 11
309.0806461014887
 21
342.7589709290042
 31
0.0
  0
LINE
  5
2C6
330
1F
100
AcDbEntity
  8
1
  6
CONTINUOUS
 62
   253
100
AcDbLine
 10
309.0806461014887
 20
342.7589709290042
 30
0.0
 11
309.0926214535737
 21
342.7373881129807
 31
0.0
  0
LINE
  5
2C7
330
1F
100
AcDbEntity
  8
1
  6
CONTINUOUS
 62
   253
100
AcDbLine
 10
309.0926214535737
 20
342.7373881129807
 30
0.0
 11
309.1035280060647
 21
342.7152442036283
 31
0.0
  0
LINE
  5
2C8
330
1F
100
AcDbEntity
  8
1
  6
CONTINUOUS
 62
   253
100
AcDbLine
 10
309.1035280060647
 20
342.7152442036283
 30
0.0
 11
309.1133392374106
 21
342.6925930484685
 31
0.0
  0
LINE
  5
2C9
330
1F
100
AcDbEntity
  8
1
  6
CONTINUOUS
 62
   253
100
AcDbLine
 10
309.1133392374106
 20
342.6925930484685
 30
0.0
 11
309.122031289562
 21
342.6694897284963
 31
0.0
  0
LINE
  5
2CA
330
1F
100
AcDbEntity
  8
1
  6
CONTINUOUS
 62
   253
100
AcDbLine
 10
309.122031289562
 20
342.6694897284963
 30
0.0
 11
309.1295830259858
 21
342.6459904242398
 31
0.0
  0
LINE
  5
2CB
330
1F
100
AcDbEntity
  8
1
  6
CONTINUOUS
 62
   253
100
AcDbLine
 10
266.201966797276
 20
303.6827089201595
 30
0.0
 11
266.225580670091
 21
303.6759593193589
 31
0.0
  0
LINE
  5
2CC
330
1F
100
AcDbEntity
  8
1
  6
CONTINUOUS
 62
   253
100
AcDbLine
 10
266.2736353510991
 20
303.666004943683
 30
0.0
 11
266.2979593043401
 21
303.6628243749425
 31
0.0
  0
LINE
  5
2CD
330
1F
100
AcDbEntity
  8
1
  6
CONTINUOUS
 62
   253
100
AcDbLine
 10
266.3224022788228
 20
303.6608528382882
 30
0.0
 11
266.3469048363707
 21
303.6600951279215
 31
0.0
  0
LINE
  5
2CE
330
1F
100
AcDbEntity
  8
1
  6
CONTINUOUS
 62
   253
100
AcDbLine
 10
308.9696467375855
 20
303.7765319398546
 30
0.0
 11
308.9881524474771
 21
303.7928095812878
 31
0.0
  0
LINE
  5
2CF
330
1F
100
AcDbEntity
  8
1
  6
CONTINUOUS
 62
   253
100
AcDbLine
 10
308.8441470423927
 20
303.6996709223063
 30
0.0
 11
308.8665348738537
 21
303.7098420770162
 31
0.0
  0
LINE
  5
2D0
330
1F
100
AcDbEntity
  8
1
  6
CONTINUOUS
 62
   253
100
AcDbLine
 10
309.0536080089701
 20
303.8664218259888
 30
0.0
 11
309.0676310703691
 21
303.8867264980742
 31
0.0
  0
LINE
  5
2D1
330
1F
100
AcDbEntity
  8
1
  6
CONTINUOUS
 62
   253
100
AcDbLine
 10
309.122031289562
 20
303.9971769381704
 30
0.0
 11
309.1295830259858
 21
304.020676242427
 31
0.0
  0
LINE
  5
2D2
330
1F
100
AcDbEntity
  8
1
  6
CONTINUOUS
 62
   253
100
AcDbLine
 10
309.0926214535737
 20
303.929278553686
 30
0.0
 11
309.1035280060647
 21
303.9514224630384
 31
0.0
  0
LINE
  5
2D3
330
1F
100
AcDbEntity
  8
1
  6
CONTINUOUS
 62
   253
100
AcDbLine
 10
266.225580670091
 20
303.6759593193589
 30
0.0
 11
266.2494895678513
 21
303.6703868102951
 31
0.0
  0
LINE
  5
2D4
330
1F
100
AcDbEntity
  8
1
  6
CONTINUOUS
 62
   253
100
AcDbLine
 10
308.7980332027241
 20
303.6827089201595
 30
0.0
 11
308.8212946285503
 21
303.6906191996385
 31
0.0
  0
LINE
  5
2D5
330
1F
100
AcDbEntity
  8
1
  6
CONTINUOUS
 62
   253
100
AcDbLine
 10
308.8212946285503
 20
303.6906191996385
 30
0.0
 11
308.8441470423927
 21
303.6996709223063
 31
0.0
  0
LINE
  5
2D6
330
1F
100
AcDbEntity
  8
1
  6
CONTINUOUS
 62
   253
100
AcDbLine
 10
266.1558529576074
 20
303.6996709223063
 30
0.0
 11
266.1787053714497
 21
303.6906191996385
 31
0.0
  0
LINE
  5
2D7
330
1F
100
AcDbEntity
  8
1
  6
CONTINUOUS
 62
   253
100
AcDbLine
 10
308.9303729071376
 20
303.7468115572959
 30
0.0
 11
308.9503712667001
 21
303.7611868269128
 31
0.0
  0
LINE
  5
2D8
330
1F
100
AcDbEntity
  8
1
  6
CONTINUOUS
 62
   253
100
AcDbLine
 10
266.1787053714497
 20
303.6906191996385
 30
0.0
 11
266.201966797276
 21
303.6827089201595
 31
0.0
  0
LINE
  5
2D9
330
1F
100
AcDbEntity
  8
1
  6
CONTINUOUS
 62
   253
100
AcDbLine
 10
308.9503712667001
 20
303.7611868269128
 30
0.0
 11
308.9696467375855
 21
303.7765319398546
 31
0.0
  0
LINE
  5
2DA
330
1F
100
AcDbEntity
  8
1
  6
CONTINUOUS
 62
   253
100
AcDbLine
 10
309.1295830259858
 20
304.020676242427
 30
0.0
 11
309.1359760830644
 21
304.0445143875218
 31
0.0
  0
LINE
  5
2DB
330
1F
100
AcDbEntity
  8
1
  6
CONTINUOUS
 62
   253
100
AcDbLine
 10
309.0676310703691
 20
303.8867264980742
 30
0.0
 11
309.0806461014887
 21
303.9076957376625
 31
0.0
  0
LINE
  5
2DC
330
1F
100
AcDbEntity
  8
1
  6
CONTINUOUS
 62
   253
100
AcDbLine
 10
308.6530951636294
 20
343.0065715387452
 30
0.0
 11
308.6775977211772
 21
343.0058138283785
 31
0.0
  0
LINE
  5
2DD
330
1F
100
AcDbEntity
  8
1
  6
CONTINUOUS
 62
   253
100
AcDbLine
 10
266.2494895678513
 20
303.6703868102951
 30
0.0
 11
266.2736353510991
 21
303.666004943683
 31
0.0
  0
LINE
  5
2DE
330
1F
100
AcDbEntity
  8
1
  6
CONTINUOUS
 62
   253
100
AcDbLine
 10
266.1334651261464
 20
303.7098420770162
 30
0.0
 11
266.1558529576074
 21
303.6996709223063
 31
0.0
  0
LINE
  5
2DF
330
1F
100
AcDbEntity
  8
1
  6
CONTINUOUS
 62
   253
100
AcDbLine
 10
308.9097002890688
 20
303.7334410874623
 30
0.0
 11
308.9303729071376
 21
303.7468115572959
 31
0.0
  0
LINE
  5
2E0
330
1F
100
AcDbEntity
  8
1
  6
CONTINUOUS
 62
   253
100
AcDbLine
 10
308.7020406956599
 20
303.6628243749425
 30
0.0
 11
308.726364648901
 21
303.666004943683
 31
0.0
  0
LINE
  5
2E1
330
1F
100
AcDbEntity
  8
1
  6
CONTINUOUS
 62
     7
100
AcDbLine
 10
264.9872620321865
 20
328.3333333333334
 30
0.0
 11
264.9872620321865
 21
318.3333333333334
 31
0.0
  0
LINE
  5
2E2
330
1F
100
AcDbEntity
  8
1
  6
CONTINUOUS
 62
     7
100
AcDbLine
 10
266.0201430417825
 20
303.3333333333333
 30
0.0
 11
267.1
 21
303.3333333333333
 31
0.0
  0
LINE
  5
2E3
330
1F
100
AcDbEntity
  8
1
  6
CENTER
 62
     1
100
AcDbLine
 10
373.3333333333333
 20
271.6666666666667
 30
0.0
 11
373.3333333333334
 21
231.6666666666667
 31
0.0
  0
LINE
  5
2E5
330
1F
100
AcDbEntity
  8
1
  6
CONTINUOUS
 62
     7
100
AcDbLine
 10
309.9603807485017
 20
327.7998197038276
 30
0.0
 11
309.9603807485017
 21
318.8668469628391
 31
0.0
  0
LINE
  5
2E6
330
1F
100
AcDbEntity
  8
1
  6
CONTINUOUS
 62
     7
100
AcDbLine
 10
310.1
 20
326.8333333333334
 30
0.0
 11
310.1
 21
339.3327242067318
 31
0.0
  0
LINE
  5
2E7
330
1F
100
AcDbEntity
  8
1
  6
CONTINUOUS
 62
     7
100
AcDbLine
 10
310.0127379678136
 20
328.3333333333334
 30
0.0
 11
310.0127379678136
 21
318.3333333333334
 31
0.0
  0
LINE
  5
2E8
330
1F
100
AcDbEntity
  8
1
  6
CONTINUOUS
 62
     7
100
AcDbLine
 10
307.9
 20
303.3333333333333
 30
0.0
 11
308.9798569582175
 21
303.3333333333333
 31
0.0
  0
LINE
  5
2E9
330
1F
100
AcDbEntity
  8
1
  6
CENTER
 62
     1
100
AcDbLine
 10
287.5
 20
348.3333333333334
 30
0.0
 11
287.5
 21
298.3333333333333
 31
0.0
  0
LINE
  5
2EA
330
1F
100
AcDbEntity
  8
1
  6
CONTINUOUS
 62
     7
100
AcDbLine
 10
265.022166845061
 20
328.0833333333334
 30
0.0
 11
265.022166845061
 21
318.5833333333334
 31
0.0
  0
LINE
  5
2EB
330
1F
100
AcDbEntity
  8
1
  6
CONTINUOUS
 62
     7
100
AcDbLine
 10
310.0476427806882
 20
328.5833333333333
 30
0.0
 11
310.0476427806882
 21
318.0833333333334
 31
0.0
  0
LINE
  5
2EC
330
1F
100
AcDbEntity
  8
1
  6
CONTINUOUS
 62
     7
100
AcDbLine
 10
264.9349048128746
 20
326.8333333333334
 30
0.0
 11
264.9174524064373
 21
326.8333333333334
 31
0.0
  0
LINE
  5
2ED
330
1F
100
AcDbEntity
  8
1
  6
CONTINUOUS
 62
     7
100
AcDbLine
 10
264.9
 20
319.8333333333334
 30
0.0
 11
264.9
 21
326.8333333333334
 31
0.0
  0
LINE
  5
2EE
330
1F
100
AcDbEntity
  8
1
  6
CONTINUOUS
 62
     7
100
AcDbLine
 10
310.0301903742509
 20
328.4583333333334
 30
0.0
 11
310.0301903742509
 21
318.2083333333334
 31
0.0
  0
LINE
  5
2EF
330
1F
100
AcDbEntity
  8
1
  6
CONTINUOUS
 62
     7
100
AcDbLine
 10
310.1
 20
339.3327242067318
 30
0.0
 11
309.4722956800593
 21
342.9196060349648
 31
0.0
  0
LINE
  5
2F0
330
1F
100
AcDbEntity
  8
1
  6
CONTINUOUS
 62
     7
100
AcDbLine
 10
264.9
 20
307.3339424599349
 30
0.0
 11
265.5277043199408
 21
303.7470606317019
 31
0.0
  0
LINE
  5
2F1
330
1F
100
AcDbEntity
  8
1
  6
CONTINUOUS
 62
     7
100
AcDbLine
 10
310.1
 20
319.8333333333334
 30
0.0
 11
310.1
 21
326.8333333333334
 31
0.0
  0
LINE
  5
2F2
330
1F
100
AcDbEntity
  8
1
  6
CONTINUOUS
 62
     7
100
AcDbLine
 10
264.9698096257492
 20
328.4583333333334
 30
0.0
 11
264.9698096257492
 21
318.2083333333334
 31
0.0
  0
LINE
  5
2F3
330
1F
100
AcDbEntity
  8
1
  6
CONTINUOUS
 62
     7
100
AcDbLine
 10
265.5277043199408
 20
342.9196060349648
 30
0.0
 11
264.9
 21
339.3327242067319
 31
0.0
  0
LINE
  5
2F4
330
1F
100
AcDbEntity
  8
1
  6
CONTINUOUS
 62
     7
100
AcDbLine
 10
266.0201430417825
 20
343.3333333333334
 30
0.0
 11
267.1
 21
343.3333333333334
 31
0.0
  0
LINE
  5
2F5
330
1F
100
AcDbEntity
  8
1
  6
CONTINUOUS
 62
     7
100
AcDbLine
 10
310.0825475935627
 20
319.8333333333334
 30
0.0
 11
310.0650951871255
 21
319.8333333333334
 31
0.0
  0
LINE
  5
2F6
330
1F
100
AcDbEntity
  8
1
  6
CENTER
 62
     1
100
AcDbLine
 10
287.5
 20
271.6666666666667
 30
0.0
 11
287.5
 21
231.6666666666667
 31
0.0
  0
LINE
  5
2F7
330
1F
100
AcDbEntity
  8
1
  6
CONTINUOUS
 62
     7
100
AcDbLine
 10
309.9952855613764
 20
328.2083333333334
 30
0.0
 11
309.9952855613764
 21
318.4583333333333
 31
0.0
  0
LINE
  5
2F8
330
1F
100
AcDbEntity
  8
1
  6
CONTINUOUS
 62
     7
100
AcDbLine
 10
309.4722956800593
 20
303.7470606317019
 30
0.0
 11
310.1
 21
307.3339424599349
 31
0.0
  0
LINE
  5
2F9
330
1F
100
AcDbEntity
  8
1
  6
CENTER
 62
     1
100
AcDbLine
 10
312.5000000000001
 20
323.3428221885315
 30
0.0
 11
262.5
 21
323.3428221885315
 31
0.0
  0
LINE
  5
2FA
330
1F
100
AcDbEntity
  8
1
  6
CONTINUOUS
 62
   253
100
AcDbLine
 10
309.1359760830643
 20
342.6221522791449
 30
0.0
 11
309.1411949147497
 21
342.5980332606198
 31
0.0
  0
LINE
  5
2FB
330
1F
100
AcDbEntity
  8
1
  6
CONTINUOUS
 62
     7
100
AcDbLine
 10
264.9523572193119
 20
328.5833333333333
 30
0.0
 11
264.9523572193119
 21
318.0833333333334
 31
0.0
  0
LINE
  5
2FC
330
1F
100
AcDbEntity
  8
1
  6
CONTINUOUS
 62
     7
100
AcDbLine
 10
264.9349048128746
 20
328.7083333333334
 30
0.0
 11
264.9349048128746
 21
317.9583333333333
 31
0.0
  0
LINE
  5
2FD
330
1F
100
AcDbEntity
  8
1
  6
CONTINUOUS
 62
     7
100
AcDbLine
 10
310.1
 20
307.3339424599349
 30
0.0
 11
310.1
 21
319.8333333333334
 31
0.0
  0
LINE
  5
2FE
330
1F
100
AcDbEntity
  8
1
  6
CONTINUOUS
 62
     7
100
AcDbLine
 10
309.977833154939
 20
328.0833333333334
 30
0.0
 11
309.977833154939
 21
318.5833333333334
 31
0.0
  0
LINE
  5
2FF
330
1F
100
AcDbEntity
  8
1
  6
CONTINUOUS
 62
     7
100
AcDbLine
 10
264.9
 20
326.8333333333334
 30
0.0
 11
264.9
 21
339.3327242067319
 31
0.0
  0
LINE
  5
300
330
1F
100
AcDbEntity
  8
1
  6
CONTINUOUS
 62
   253
100
AcDbLine
 10
309.1295830259858
 20
342.6459904242398
 30
0.0
 11
309.1359760830643
 21
342.6221522791449
 31
0.0
  0
LINE
  5
301
330
1F
100
AcDbEntity
  8
1
  6
CONTINUOUS
 62
     7
100
AcDbLine
 10
310.0650951871255
 20
328.7083333333334
 30
0.0
 11
310.0650951871255
 21
317.9583333333333
 31
0.0
  0
LINE
  5
302
330
1F
100
AcDbEntity
  8
1
  6
CONTINUOUS
 62
     7
100
AcDbLine
 10
264.9349048128746
 20
319.8333333333334
 30
0.0
 11
264.9174524064373
 21
319.8333333333334
 31
0.0
  0
LINE
  5
303
330
1F
100
AcDbEntity
  8
1
  6
CONTINUOUS
 62
     7
100
AcDbLine
 10
310.0825475935627
 20
326.8333333333334
 30
0.0
 11
310.0650951871255
 21
326.8333333333334
 31
0.0
  0
LINE
  5
304
330
1F
100
AcDbEntity
  8
1
  6
CONTINUOUS
 62
     7
100
AcDbLine
 10
265.0396192514983
 20
327.7998197038276
 30
0.0
 11
265.0396192514983
 21
318.8668469628391
 31
0.0
  0
LINE
  5
305
330
1F
100
AcDbEntity
  8
1
  6
CONTINUOUS
 62
     7
100
AcDbLine
 10
264.9
 20
307.3339424599349
 30
0.0
 11
264.9
 21
319.8333333333334
 31
0.0
  0
LINE
  5
306
330
1F
100
AcDbEntity
  8
1
  6
CONTINUOUS
 62
     7
100
AcDbLine
 10
307.9
 20
343.3333333333334
 30
0.0
 11
308.9798569582175
 21
343.3333333333334
 31
0.0
  0
LINE
  5
307
330
1F
100
AcDbEntity
  8
1
  6
CONTINUOUS
 62
     7
100
AcDbLine
 10
265.0047144386237
 20
328.2083333333334
 30
0.0
 11
265.0047144386237
 21
318.4583333333333
 31
0.0
  0
LINE
  5
308
330
1F
100
AcDbEntity
  8
1
  6
CONTINUOUS
 62
   253
100
AcDbLine
 10
266.3469048363707
 20
343.0065715387452
 30
0.0
 11
270.5887937886818
 21
342.9938055995934
 31
0.0
  0
LINE
  5
309
330
1F
100
AcDbEntity
  8
1
  6
CONTINUOUS
 62
   253
100
AcDbLine
 10
270.5887937886818
 20
303.6728610670734
 30
0.0
 11
266.3469048363707
 21
303.6600951279215
 31
0.0
  0
LINE
  5
30A
330
1F
100
AcDbEntity
  8
1
  6
CONTINUOUS
 62
     7
100
AcDbLine
 10
309.7610898824611
 20
338.9939770341758
 30
0.0
 11
309.5164285642764
 21
338.9896167098414
 31
0.0
  0
LINE
  5
30B
330
1F
100
AcDbEntity
  8
1
  6
CONTINUOUS
 62
     7
100
AcDbLine
 10
309.7611807335721
 20
307.6727617263628
 30
0.0
 11
309.7610898824611
 21
307.6726896324909
 31
0.0
  0
LINE
  5
30C
330
1F
100
AcDbEntity
  8
1
  6
CONTINUOUS
 62
     7
100
AcDbLine
 10
265.2389101175389
 20
307.6726896324909
 30
0.0
 11
265.2388192664279
 21
307.6727617263628
 31
0.0
  0
LINE
  5
30D
330
1F
100
AcDbEntity
  8
1
  6
CONTINUOUS
 62
   253
100
AcDbLine
 10
265.2388192664279
 20
307.6727617263628
 30
0.0
 11
265.2388192664279
 21
338.9939049403039
 31
0.0
  0
LINE
  5
30E
330
1F
100
AcDbEntity
  8
1
  6
CONTINUOUS
 62
     7
100
AcDbLine
 10
265.2389101175389
 20
338.9939770341758
 30
0.0
 11
265.4835714357237
 21
338.9896167098414
 31
0.0
  0
LINE
  5
30F
330
1F
100
AcDbEntity
  8
1
  6
CONTINUOUS
 62
     7
100
AcDbLine
 10
309.7610898824611
 20
338.9939770341758
 30
0.0
 11
309.7611807335721
 21
338.9939049403039
 31
0.0
  0
LINE
  5
310
330
1F
100
AcDbEntity
  8
1
  6
CONTINUOUS
 62
     7
100
AcDbLine
 10
309.7610898824611
 20
307.6726896324909
 30
0.0
 11
309.1426648394735
 21
304.0766914722877
 31
0.0
  0
LINE
  5
311
330
1F
100
AcDbEntity
  8
1
  6
CONTINUOUS
 62
     7
100
AcDbLine
 10
265.2389101175389
 20
338.9939770341758
 30
0.0
 11
265.8573351605265
 21
342.5899751943791
 31
0.0
  0
LINE
  5
312
330
1F
100
AcDbEntity
  8
1
  6
CONTINUOUS
 62
     7
100
AcDbLine
 10
309.1426648394735
 20
342.5899751943791
 30
0.0
 11
309.7610898824611
 21
338.9939770341758
 31
0.0
  0
LINE
  5
313
330
1F
100
AcDbEntity
  8
1
  6
CONTINUOUS
 62
     7
100
AcDbLine
 10
307.9
 20
303.3333333333333
 30
0.0
 11
307.748886525066
 21
303.6355833020214
 31
0.0
  0
LINE
  5
314
330
1F
100
AcDbEntity
  8
1
  6
CONTINUOUS
 62
   253
100
AcDbLine
 10
308.6530951636294
 20
303.6600951279215
 30
0.0
 11
304.4112062113182
 21
303.6728610670734
 31
0.0
  0
LINE
  5
315
330
1F
100
AcDbEntity
  8
1
  6
CONTINUOUS
 62
   253
100
AcDbLine
 10
309.7611807335721
 20
338.9939049403039
 30
0.0
 11
309.7611807335721
 21
307.6727617263628
 31
0.0
  0
LINE
  5
316
330
1F
100
AcDbEntity
  8
1
  6
CONTINUOUS
 62
     7
100
AcDbLine
 10
309.7610898824611
 20
307.6726896324909
 30
0.0
 11
309.5164285642764
 21
307.6770499568253
 31
0.0
  0
LINE
  5
317
330
1F
100
AcDbEntity
  8
1
  6
CONTINUOUS
 62
     7
100
AcDbLine
 10
265.2389101175389
 20
307.6726896324909
 30
0.0
 11
265.4835714357237
 21
307.6770499568253
 31
0.0
  0
LINE
  5
318
330
1F
100
AcDbEntity
  8
1
  6
CONTINUOUS
 62
     7
100
AcDbLine
 10
265.2388192664279
 20
338.9939049403039
 30
0.0
 11
265.2389101175389
 21
338.9939770341758
 31
0.0
  0
LINE
  5
319
330
1F
100
AcDbEntity
  8
1
  6
CONTINUOUS
 62
     7
100
AcDbLine
 10
265.8573351605265
 20
304.0766914722877
 30
0.0
 11
265.2389101175389
 21
307.6726896324909
 31
0.0
  0
LINE
  5
31A
330
1F
100
AcDbEntity
  8
1
  6
CONTINUOUS
 62
     7
100
AcDbLine
 10
307.3394867782724
 20
303.6440902605299
 30
0.0
 11
307.748886525066
 21
303.6355833020214
 31
0.0
  0
LINE
  5
31B
330
1F
100
AcDbEntity
  8
1
  6
CONTINUOUS
 62
     7
100
AcDbLine
 10
304.5491277382966
 20
303.6530623996749
 30
0.0
 11
307.3394867782724
 21
303.6440902605298
 31
0.0
  0
LINE
  5
31C
330
1F
100
AcDbEntity
  8
1
  6
CONTINUOUS
 62
     7
100
AcDbLine
 10
303.6433155909119
 20
303.6545065280126
 30
0.0
 11
304.5491277382966
 21
303.6530623996749
 31
0.0
  0
LINE
  5
31D
330
1F
100
AcDbEntity
  8
1
  6
CONTINUOUS
 62
     7
100
AcDbLine
 10
303.6433155909119
 20
303.6545065280126
 30
0.0
 11
271.3566844090881
 21
303.6545065280126
 31
0.0
  0
LINE
  5
31E
330
1F
100
AcDbEntity
  8
1
  6
CONTINUOUS
 62
     7
100
AcDbLine
 10
270.4508722617035
 20
303.6530623996749
 30
0.0
 11
271.3566844090881
 21
303.6545065280126
 31
0.0
  0
LINE
  5
31F
330
1F
100
AcDbEntity
  8
1
  6
CONTINUOUS
 62
     7
100
AcDbLine
 10
267.6605132217276
 20
303.6440902605298
 30
0.0
 11
270.4508722617035
 21
303.6530623996749
 31
0.0
  0
LINE
  5
320
330
1F
100
AcDbEntity
  8
1
  6
CONTINUOUS
 62
     7
100
AcDbLine
 10
303.6433155909119
 20
343.0121601386542
 30
0.0
 11
271.3566844090881
 21
343.0121601386542
 31
0.0
  0
LINE
  5
321
330
1F
100
AcDbEntity
  8
1
  6
CONTINUOUS
 62
     7
100
AcDbLine
 10
310.1
 20
307.3339424599349
 30
0.0
 11
309.4722956800593
 21
303.7470606317019
 31
0.0
  0
LINE
  5
322
330
1F
100
AcDbEntity
  8
1
  6
CONTINUOUS
 62
     7
100
AcDbLine
 10
310.0476427806882
 20
328.5833333333333
 30
0.0
 11
310.0301903742509
 21
328.4583333333334
 31
0.0
  0
LINE
  5
323
330
1F
100
AcDbEntity
  8
1
  6
CONTINUOUS
 62
     7
100
AcDbLine
 10
266.0201430417825
 20
343.3333333333334
 30
0.0
 11
267.1
 21
343.3333333333334
 31
0.0
  0
LINE
  5
324
330
1F
100
AcDbEntity
  8
1
  6
CONTINUOUS
 62
     7
100
AcDbLine
 10
307.3394867782724
 20
343.0225764061369
 30
0.0
 11
304.5491277382966
 21
343.0136042669918
 31
0.0
  0
LINE
  5
325
330
1F
100
AcDbEntity
  8
1
  6
CONTINUOUS
 62
     7
100
AcDbLine
 10
310.1
 20
339.3327242067319
 30
0.0
 11
309.7611807335721
 21
338.9939049403039
 31
0.0
  0
LINE
  5
326
330
1F
100
AcDbEntity
  8
1
  6
CONTINUOUS
 62
     7
100
AcDbLine
 10
310.0825475935627
 20
328.8333333333334
 30
0.0
 11
310.0650951871255
 21
328.7083333333334
 31
0.0
  0
LINE
  5
327
330
1F
100
AcDbEntity
  8
1
  6
CONTINUOUS
 62
     7
100
AcDbLine
 10
309.977833154939
 20
328.0833333333334
 30
0.0
 11
309.9735037457383
 21
328.0523246496861
 31
0.0
  0
LINE
  5
328
330
1F
100
AcDbEntity
  8
1
  6
CONTINUOUS
 62
     7
100
AcDbLine
 10
264.9
 20
339.3327242067319
 30
0.0
 11
265.5277043199408
 21
342.9196060349648
 31
0.0
  0
LINE
  5
329
330
1F
100
AcDbEntity
  8
1
  6
CONTINUOUS
 62
     7
100
AcDbLine
 10
264.9
 20
319.8333333333334
 30
0.0
 11
264.9
 21
307.3339424599349
 31
0.0
  0
LINE
  5
32A
330
1F
100
AcDbEntity
  8
1
  6
CONTINUOUS
 62
     7
100
AcDbLine
 10
270.4508722617035
 20
343.0136042669918
 30
0.0
 11
267.6605132217276
 21
343.0225764061369
 31
0.0
  0
LINE
  5
32B
330
1F
100
AcDbEntity
  8
1
  6
CONTINUOUS
 62
     7
100
AcDbLine
 10
309.7611807335721
 20
307.6727617263628
 30
0.0
 11
310.1
 21
307.3339424599349
 31
0.0
  0
LINE
  5
32C
330
1F
100
AcDbEntity
  8
1
  6
CONTINUOUS
 62
     7
100
AcDbLine
 10
266.0201430417825
 20
303.3333333333333
 30
0.0
 11
267.1
 21
303.3333333333333
 31
0.0
  0
LINE
  5
32D
330
1F
100
AcDbEntity
  8
1
  6
CONTINUOUS
 62
     7
100
AcDbLine
 10
271.3566844090881
 20
343.0121601386542
 30
0.0
 11
270.4508722617035
 21
343.0136042669918
 31
0.0
  0
LINE
  5
32E
330
1F
100
AcDbEntity
  8
1
  6
CONTINUOUS
 62
     7
100
AcDbLine
 10
267.251113474934
 20
303.6355833020214
 30
0.0
 11
267.6605132217276
 21
303.6440902605299
 31
0.0
  0
LINE
  5
32F
330
1F
100
AcDbEntity
  8
1
  6
CONTINUOUS
 62
     7
100
AcDbLine
 10
309.4722956800593
 20
342.9196060349648
 30
0.0
 11
310.1
 21
339.3327242067319
 31
0.0
  0
LINE
  5
330
330
1F
100
AcDbEntity
  8
1
  6
CONTINUOUS
 62
     7
100
AcDbLine
 10
310.1
 20
339.3327242067319
 30
0.0
 11
310.1
 21
326.8333333333334
 31
0.0
  0
LINE
  5
331
330
1F
100
AcDbEntity
  8
1
  6
CONTINUOUS
 62
     7
100
AcDbLine
 10
310.0825475935627
 20
326.8333333333334
 30
0.0
 11
310.0825475935627
 21
328.8333333333334
 31
0.0
  0
LINE
  5
332
330
1F
100
AcDbEntity
  8
1
  6
CONTINUOUS
 62
     7
100
AcDbLine
 10
309.9952855613764
 20
328.2083333333334
 30
0.0
 11
309.977833154939
 21
328.0833333333334
 31
0.0
  0
LINE
  5
333
330
1F
100
AcDbEntity
  8
1
  6
CONTINUOUS
 62
     7
100
AcDbLine
 10
309.9735037457383
 20
318.6143420169806
 30
0.0
 11
309.977833154939
 21
318.5833333333334
 31
0.0
  0
LINE
  5
334
330
1F
100
AcDbEntity
  8
1
  6
CONTINUOUS
 62
     7
100
AcDbLine
 10
267.251113474934
 20
343.0310833646453
 30
0.0
 11
267.1
 21
343.3333333333334
 31
0.0
  0
LINE
  5
335
330
1F
100
AcDbEntity
  8
1
  6
CONTINUOUS
 62
     7
100
AcDbLine
 10
264.9
 20
307.3339424599349
 30
0.0
 11
265.2388192664279
 21
307.6727617263628
 31
0.0
  0
LINE
  5
336
330
1F
100
AcDbEntity
  8
1
  6
CONTINUOUS
 62
     7
100
AcDbLine
 10
310.0476427806882
 20
318.0833333333334
 30
0.0
 11
310.0650951871255
 21
317.9583333333333
 31
0.0
  0
LINE
  5
337
330
1F
100
AcDbEntity
  8
1
  6
CONTINUOUS
 62
     7
100
AcDbLine
 10
310.0650951871255
 20
317.9583333333333
 30
0.0
 11
310.0825475935627
 21
317.8333333333334
 31
0.0
  0
LINE
  5
338
330
1F
100
AcDbEntity
  8
1
  6
CONTINUOUS
 62
     7
100
AcDbLine
 10
264.9174524064373
 20
319.8333333333334
 30
0.0
 11
264.9
 21
319.8333333333334
 31
0.0
  0
LINE
  5
339
330
1F
100
AcDbEntity
  8
1
  6
CONTINUOUS
 62
     7
100
AcDbLine
 10
307.9
 20
303.3333333333333
 30
0.0
 11
308.9798569582175
 21
303.3333333333333
 31
0.0
  0
LINE
  5
33A
330
1F
100
AcDbEntity
  8
1
  6
CONTINUOUS
 62
     7
100
AcDbLine
 10
267.251113474934
 20
303.6355833020214
 30
0.0
 11
267.1
 21
303.3333333333333
 31
0.0
  0
LINE
  5
33B
330
1F
100
AcDbEntity
  8
1
  6
CONTINUOUS
 62
     7
100
AcDbLine
 10
304.5491277382966
 20
343.0136042669918
 30
0.0
 11
303.6433155909119
 21
343.0121601386542
 31
0.0
  0
LINE
  5
33C
330
1F
100
AcDbEntity
  8
1
  6
CONTINUOUS
 62
     7
100
AcDbLine
 10
307.748886525066
 20
343.0310833646453
 30
0.0
 11
307.3394867782724
 21
343.0225764061369
 31
0.0
  0
LINE
  5
33D
330
1F
100
AcDbEntity
  8
1
  6
CONTINUOUS
 62
     7
100
AcDbLine
 10
310.0825475935627
 20
326.8333333333334
 30
0.0
 11
310.1
 21
326.8333333333334
 31
0.0
  0
LINE
  5
33E
330
1F
100
AcDbEntity
  8
1
  6
CONTINUOUS
 62
     7
100
AcDbLine
 10
307.9
 20
343.3333333333334
 30
0.0
 11
307.748886525066
 21
343.0310833646453
 31
0.0
  0
LINE
  5
33F
330
1F
100
AcDbEntity
  8
1
  6
CONTINUOUS
 62
     7
100
AcDbLine
 10
309.9429283420645
 20
326.0677688962587
 30
0.0
 11
309.9429283420645
 21
320.598897770408
 31
0.0
  0
LINE
  5
340
330
1F
100
AcDbEntity
  8
1
  6
CONTINUOUS
 62
     7
100
AcDbLine
 10
265.2388192664279
 20
338.9939049403039
 30
0.0
 11
264.9
 21
339.3327242067319
 31
0.0
  0
LINE
  5
341
330
1F
100
AcDbEntity
  8
1
  6
CONTINUOUS
 62
     7
100
AcDbLine
 10
310.0301903742509
 20
318.2083333333334
 30
0.0
 11
310.0476427806882
 21
318.0833333333334
 31
0.0
  0
LINE
  5
342
330
1F
100
AcDbEntity
  8
1
  6
CONTINUOUS
 62
     7
100
AcDbLine
 10
265.5277043199408
 20
303.7470606317019
 30
0.0
 11
264.9
 21
307.3339424599349
 31
0.0
  0
LINE
  5
343
330
1F
100
AcDbEntity
  8
1
  6
CONTINUOUS
 62
     7
100
AcDbLine
 10
310.0127379678136
 20
328.3333333333334
 30
0.0
 11
309.9952855613764
 21
328.2083333333334
 31
0.0
  0
LINE
  5
344
330
1F
100
AcDbEntity
  8
1
  6
CONTINUOUS
 62
     7
100
AcDbLine
 10
309.9952855613764
 20
318.4583333333333
 30
0.0
 11
310.0127379678136
 21
318.3333333333334
 31
0.0
  0
LINE
  5
345
330
1F
100
AcDbEntity
  8
1
  6
CONTINUOUS
 62
     7
100
AcDbLine
 10
310.0301903742509
 20
328.4583333333334
 30
0.0
 11
310.0127379678136
 21
328.3333333333334
 31
0.0
  0
LINE
  5
346
330
1F
100
AcDbEntity
  8
1
  6
CONTINUOUS
 62
     7
100
AcDbLine
 10
309.977833154939
 20
318.5833333333334
 30
0.0
 11
309.9952855613764
 21
318.4583333333333
 31
0.0
  0
LINE
  5
347
330
1F
100
AcDbEntity
  8
1
  6
CONTINUOUS
 62
     7
100
AcDbLine
 10
310.0127379678136
 20
318.3333333333334
 30
0.0
 11
310.0301903742509
 21
318.2083333333334
 31
0.0
  0
LINE
  5
348
330
1F
100
AcDbEntity
  8
1
  6
CONTINUOUS
 62
     7
100
AcDbLine
 10
307.9
 20
343.3333333333334
 30
0.0
 11
308.9798569582175
 21
343.3333333333334
 31
0.0
  0
LINE
  5
349
330
1F
100
AcDbEntity
  8
1
  6
CONTINUOUS
 62
     7
100
AcDbLine
 10
267.6605132217276
 20
343.0225764061369
 30
0.0
 11
267.251113474934
 21
343.0310833646453
 31
0.0
  0
LINE
  5
34A
330
1F
100
AcDbEntity
  8
1
  6
CONTINUOUS
 62
     7
100
AcDbLine
 10
310.0650951871255
 20
328.7083333333334
 30
0.0
 11
310.0476427806882
 21
328.5833333333333
 31
0.0
  0
LINE
  5
34B
330
1F
100
AcDbEntity
  8
1
  6
CONTINUOUS
 62
     7
100
AcDbLine
 10
310.0825475935627
 20
317.8333333333334
 30
0.0
 11
310.0825475935627
 21
319.8333333333334
 31
0.0
  0
LINE
  5
34C
330
1F
100
AcDbEntity
  8
1
  6
CONTINUOUS
 62
     7
100
AcDbLine
 10
310.0825475935627
 20
319.8333333333334
 30
0.0
 11
310.1
 21
319.8333333333334
 31
0.0
  0
LINE
  5
34D
330
1F
100
AcDbEntity
  8
1
  6
CONTINUOUS
 62
     7
100
AcDbLine
 10
310.1
 20
319.8333333333334
 30
0.0
 11
310.1
 21
307.3339424599349
 31
0.0
  0
LINE
  5
34E
330
1F
100
AcDbEntity
  8
1
  6
CONTINUOUS
 62
     7
100
AcDbLine
 10
264.9698096257492
 20
318.2083333333334
 30
0.0
 11
264.9523572193119
 21
318.0833333333334
 31
0.0
  0
LINE
  5
34F
330
1F
100
AcDbEntity
  8
1
  6
CONTINUOUS
 62
     7
100
AcDbLine
 10
264.9872620321865
 20
318.3333333333334
 30
0.0
 11
264.9698096257492
 21
318.2083333333334
 31
0.0
  0
LINE
  5
350
330
1F
100
AcDbEntity
  8
1
  6
CONTINUOUS
 62
     7
100
AcDbLine
 10
265.0047144386237
 20
318.4583333333333
 30
0.0
 11
264.9872620321865
 21
318.3333333333334
 31
0.0
  0
LINE
  5
351
330
1F
100
AcDbEntity
  8
1
  6
CONTINUOUS
 62
     7
100
AcDbLine
 10
264.9174524064373
 20
317.8333333333334
 30
0.0
 11
264.9174524064373
 21
319.8333333333334
 31
0.0
  0
LINE
  5
352
330
1F
100
AcDbEntity
  8
1
  6
CONTINUOUS
 62
     7
100
AcDbLine
 10
264.9523572193119
 20
318.0833333333334
 30
0.0
 11
264.9349048128746
 21
317.9583333333333
 31
0.0
  0
LINE
  5
353
330
1F
100
AcDbEntity
  8
1
  6
CONTINUOUS
 62
     7
100
AcDbLine
 10
264.9349048128746
 20
317.9583333333333
 30
0.0
 11
264.9174524064373
 21
317.8333333333334
 31
0.0
  0
LWPOLYLINE
  5
354
330
1F
100
AcDbEntity
  8
1
  6
CONTINUOUS
 62
     7
100
AcDbPolyline
 90
        6
 70
     0
 43
0.0
 10
370.598897770408
 20
256.3530792385681
 10
370.1830743887725
 20
256.3099150242232
 10
369.7854244842563
 20
256.1823088644805
 10
369.423327265823
 20
255.9758377608431
 10
369.1126081194532
 20
255.6995254912979
 10
368.8668469628391
 20
255.3654482279178
  0
LWPOLYLINE
  5
355
330
1F
100
AcDbEntity
  8
1
  6
CONTINUOUS
 62
     7
100
AcDbPolyline
 90
        6
 70
     0
 43
0.0
 10
377.7998197038276
 20
255.3654482279178
 10
377.5540585472135
 20
255.6995254912979
 10
377.2433394008436
 20
255.9758377608431
 10
376.8812421824103
 20
256.1823088644805
 10
376.4835922778942
 20
256.3099150242232
 10
376.0677688962587
 20
256.3530792385681
  0
LWPOLYLINE
  5
356
330
1F
100
AcDbEntity
  8
1
  6
CONTINUOUS
 62
     7
100
AcDbPolyline
 90
        3
 70
     0
 43
0.0
 10
378.0523246496861
 20
254.6136322197581
 10
377.9637227361782
 20
255.0021816902018
 10
377.7998197038277
 20
255.3654482279179
  0
LWPOLYLINE
  5
357
330
1F
100
AcDbEntity
  8
1
  6
CONTINUOUS
 62
   253
100
AcDbPolyline
 90
        8
 70
     0
 43
0.0
 10
270.5887937886818
 20
342.9938055995934
 10
270.5721410917325
 20
342.9824243866678
 10
270.5561343392238
 20
342.9520930061004
 10
270.5413944199421
 20
342.9039879872371
 10
270.5284930832527
 20
342.8399752842594
 10
270.5179307614124
 20
342.7625378973531
 10
270.5101171582122
 20
342.6746795591704
 10
270.5053553569043
 20
342.5798082225064
  0
LWPOLYLINE
  5
358
330
1F
100
AcDbEntity
  8
1
  6
CONTINUOUS
 62
     7
100
AcDbPolyline
 90
        3
 70
     0
 43
0.0
 10
309.9603807485017
 20
318.8668469628395
 10
309.9667215895038
 20
318.7029439304883
 10
309.9735037457382
 20
318.6143420169804
  0
LWPOLYLINE
  5
359
330
1F
100
AcDbEntity
  8
1
  6
CONTINUOUS
 62
     7
100
AcDbPolyline
 90
        3
 70
     0
 43
0.0
 10
265.0264962542618
 20
318.6143420169804
 10
265.0332784104962
 20
318.7029439304883
 10
265.0396192514983
 20
318.8668469628395
  0
LWPOLYLINE
  5
35A
330
1F
100
AcDbEntity
  8
1
  6
CONTINUOUS
 62
     7
100
AcDbPolyline
 90
        3
 70
     0
 43
0.0
 10
378.0523246496861
 20
254.6106016333177
 10
377.9637227361782
 20
254.9944035943973
 10
377.7998197038276
 20
255.3532315434118
  0
LWPOLYLINE
  5
35B
330
1F
100
AcDbEntity
  8
1
  6
CONTINUOUS
 62
     7
100
AcDbPolyline
 90
        3
 70
     0
 43
0.0
 10
309.9735037457382
 20
328.0523246496862
 10
309.9667215895038
 20
327.9637227361783
 10
309.9603807485017
 20
327.7998197038271
  0
LWPOLYLINE
  5
35C
330
1F
100
AcDbEntity
  8
1
  6
CONTINUOUS
 62
     7
100
AcDbPolyline
 90
        6
 70
     0
 43
0.0
 10
309.9603807485017
 20
327.7998197038272
 10
309.9544772763354
 20
327.5540585472131
 10
309.949594568138
 20
327.2433394008432
 10
309.9459460216876
 20
326.88124218241
 10
309.9436910959716
 20
326.483592277894
 10
309.9429283420644
 20
326.0677688962587
  0
LWPOLYLINE
  5
35D
330
1F
100
AcDbEntity
  8
1
  6
CONTINUOUS
 62
     7
100
AcDbPolyline
 90
        6
 70
     0
 43
0.0
 10
309.9429283420644
 20
320.598897770408
 10
309.9436910959716
 20
320.1830743887726
 10
309.9459460216876
 20
319.7854244842567
 10
309.949594568138
 20
319.4233272658235
 10
309.9544772763354
 20
319.1126081194537
 10
309.9603807485017
 20
318.8668469628396
  0
LWPOLYLINE
  5
35E
330
1F
100
AcDbEntity
  8
1
  6
CONTINUOUS
 62
     7
100
AcDbPolyline
 90
        3
 70
     0
 43
0.0
 10
368.8668469628391
 20
255.3654482279179
 10
368.7029439304885
 20
255.002181690202
 10
368.6143420169806
 20
254.6136322197583
  0
LWPOLYLINE
  5
35F
330
1F
100
AcDbEntity
  8
1
  6
CONTINUOUS
 62
   253
100
AcDbPolyline
 90
        8
 70
     0
 43
0.0
 10
270.5053553569043
 20
304.0868584441604
 10
270.5101171582122
 20
303.9919871074964
 10
270.5179307614124
 20
303.9041287693137
 10
270.5284930832527
 20
303.8266913824074
 10
270.5413944199421
 20
303.7626786794297
 10
270.5561343392238
 20
303.7145736605664
 10
270.5721410917325
 20
303.684242279999
 10
270.5887937886818
 20
303.6728610670734
  0
LWPOLYLINE
  5
360
330
1F
100
AcDbEntity
  8
1
  6
CONTINUOUS
 62
   253
100
AcDbPolyline
 90
        8
 70
     0
 43
0.0
 10
304.4112062113182
 20
303.6728610670734
 10
304.4278589082675
 20
303.6842422799989
 10
304.4438656607762
 20
303.7145736605664
 10
304.4586055800579
 20
303.7626786794297
 10
304.4715069167473
 20
303.8266913824074
 10
304.4820692385876
 20
303.9041287693136
 10
304.4898828417878
 20
303.9919871074963
 10
304.4946446430957
 20
304.0868584441604
  0
LWPOLYLINE
  5
361
330
1F
100
AcDbEntity
  8
1
  6
CONTINUOUS
 62
     7
100
AcDbPolyline
 90
        3
 70
     0
 43
0.0
 10
368.8668469628391
 20
255.3532315434118
 10
368.7029439304885
 20
254.9944035943973
 10
368.6143420169806
 20
254.6106016333177
  0
LWPOLYLINE
  5
362
330
1F
100
AcDbEntity
  8
1
  6
CONTINUOUS
 62
     7
100
AcDbPolyline
 90
        6
 70
     0
 43
0.0
 10
370.598897770408
 20
256.3652959230743
 10
370.1830743887725
 20
256.3215977809944
 10
369.7854244842564
 20
256.1924131732506
 10
369.423327265823
 20
255.9833880870978
 10
369.1126081194532
 20
255.7036579218145
 10
368.8668469628391
 20
255.3654482279179
  0
LWPOLYLINE
  5
363
330
1F
100
AcDbEntity
  8
1
  6
CONTINUOUS
 62
     7
100
AcDbPolyline
 90
        6
 70
     0
 43
0.0
 10
377.7998197038276
 20
255.3654482279179
 10
377.5540585472135
 20
255.7036579218145
 10
377.2433394008436
 20
255.9833880870978
 10
376.8812421824103
 20
256.1924131732506
 10
376.4835922778942
 20
256.3215977809944
 10
376.0677688962587
 20
256.3652959230743
  0
LWPOLYLINE
  5
364
330
1F
100
AcDbEntity
  8
1
  6
CONTINUOUS
 62
   253
100
AcDbPolyline
 90
        8
 70
     0
 43
0.0
 10
304.4946446430957
 20
342.5798082225064
 10
304.4898828417878
 20
342.6746795591705
 10
304.4820692385876
 20
342.7625378973532
 10
304.4715069167473
 20
342.8399752842594
 10
304.4586055800579
 20
342.9039879872371
 10
304.4438656607762
 20
342.9520930061004
 10
304.4278589082675
 20
342.9824243866679
 10
304.4112062113182
 20
342.9938055995934
  0
ENDSEC
  0
SECTION
  2
OBJECTS
  0
DICTIONARY
  5
C
330
0
100
AcDbDictionary
  3
ACAD_GROUP
350
D
  3
ACAD_LAYOUT
350
1A
  3
ACAD_MATERIAL
350
43
  3
ACAD_MLEADERSTYLE
350
6B
  3
ACAD_MLINESTYLE
350
17
  3
ACAD_PLOTSETTINGS
350
19
  3
ACAD_SCALELIST
350
47
  3
ACAD_VISUALSTYLE
350
2A
  3
ACDBHEADERROUNDTRIPXREC
350
365
  3
ACDBVARIABLEDICTIONARY
350
386
  0
DICTIONARY
  5
38D
330
8
100
AcDbDictionary
280
     1
  3
ACAD_XREC_ROUNDTRIP
360
38E
  0
DICTIONARY
  5
D
102
{ACAD_REACTORS
330
C
102
}
330
C
100
AcDbDictionary
  0
DICTIONARY
  5
1A
102
{ACAD_REACTORS
330
C
102
}
330
C
100
AcDbDictionary
  0
DICTIONARY
  5
43
102
{ACAD_REACTORS
330
C
102
}
330
C
100
AcDbDictionary
  3
BYBLOCK
350
45
  3
BYLAYER
350
44
  3
GLOBAL
350
46
  0
DICTIONARY
  5
6B
102
{ACAD_REACTORS
330
C
102
}
330
C
100
AcDbDictionary
  3
STANDARD
350
6C
  0
DICTIONARY
  5
17
102
{ACAD_REACTORS
330
C
102
}
330
C
100
AcDbDictionary
  3
STANDARD
350
18
  0
DICTIONARY
  5
19
102
{ACAD_REACTORS
330
C
102
}
330
C
100
AcDbDictionary
  0
DICTIONARY
  5
47
102
{ACAD_REACTORS
330
C
102
}
330
C
100
AcDbDictionary
  3
A0
350
48
  3
A1
350
49
  3
A2
350
4A
  3
A3
350
4B
  3
A4
350
4C
  3
A5
350
4D
  3
A6
350
4E
  3
A7
350
4F
  3
A8
350
50
  3
A9
350
51
  3
B0
350
52
  3
B1
350
53
  3
B2
350
54
  3
B3
350
55
  3
B4
350
56
  3
B5
350
57
  3
B6
350
58
  3
B7
350
59
  3
B8
350
5A
  3
B9
350
5B
  3
C0
350
5C
  3
C1
350
5D
  3
C2
350
5E
  3
C3
350
5F
  3
C4
350
60
  3
C5
350
61
  3
C6
350
62
  3
C7
350
63
  3
C8
350
64
  3
C9
350
65
  3
D0
350
66
  3
D1
350
67
  3
D2
350
68
  0
DICTIONARY
  5
2A
102
{ACAD_REACTORS
330
C
102
}
330
C
100
AcDbDictionary
  3
2DWIREFRAME
350
2F
  3
BASIC
350
32
  3
BRIGHTEN
350
36
  3
COLORCHANGE
350
3A
  3
CONCEPTUAL
350
34
  3
DIM
350
35
  3
EDGECOLOROFF
350
3D
  3
FACEPATTERN
350
39
  3
FLAT
350
2B
  3
FLATWITHEDGES
350
2C
  3
GOURAUD
350
2D
  3
GOURAUDWITHEDGES
350
2E
  3
HIDDEN
350
31
  3
JITTEROFF
350
3B
  3
LINEPATTERN
350
38
  3
OVERHANGOFF
350
3C
  3
REALISTIC
350
33
  3
SHADED
350
42
  3
SHADED_WITH_EDGES
350
41
  3
SHADES_OF_GRAY
350
3E
  3
SKETCHY
350
3F
  3
THICKEN
350
37
  3
WIREFRAME
350
30
  3
X-RAY
350
40
  0
DICTIONARY
  5
365
102
{ACAD_REACTORS
330
C
102
}
330
C
100
AcDbDictionary
  3
CEPSNID
350
36F
  3
CEPSNTYPE
350
36E
  3
DIMSTYLEDATA
350
385
  3
FINGERPRINTGUID
350
370
  3
HYPERLINKBASE
350
368
  3
INSUNITS
350
36D
  3
LAYOUTDICT
350
36A
  3
LWETCUNION
350
36C
  3
PLOTSETDICT
350
36B
  3
PSVPSCALE
350
372
  3
PUCSBASE
350
375
  3
PUCSORGBACK
350
37B
  3
PUCSORGBOTTOM
350
377
  3
PUCSORGFRONT
350
37A
  3
PUCSORGLEFT
350
378
  3
PUCSORGRIGHT
350
379
  3
PUCSORGTOP
350
376
  3
PUCSORTHOREF
350
373
  3
PUCSORTHOVIEW
350
374
  3
STYLESHEET
350
369
  3
TSTACKALIGN
350
366
  3
TSTACKSIZE
350
367
  3
UCSBASE
350
37E
  3
UCSORGBACK
350
384
  3
UCSORGBOTTOM
350
380
  3
UCSORGFRONT
350
383
  3
UCSORGLEFT
350
381
  3
UCSORGRIGHT
350
382
  3
UCSORGTOP
350
37F
  3
UCSORTHOREF
350
37C
  3
UCSORTHOVIEW
350
37D
  3
VERSIONGUID
350
371
  0
DICTIONARY
  5
386
102
{ACAD_REACTORS
330
C
102
}
330
C
100
AcDbDictionary
  3
CANNOSCALE
350
38F
  3
CMLEADERSTYLE
350
388
  3
CTABLESTYLE
350
387
  3
DIMASSOC
350
38B
  3
HIDETEXT
350
38C
  3
MSLTSCALE
350
390
  0
XRECORD
  5
38E
102
{ACAD_REACTORS
330
38D
102
}
330
38D
100
AcDbXrecord
102
VTR_0.000_0.000_1.000_1.000_VISUALSTYLE
340
2F
102
VTR_0.000_0.000_1.000_1.000_GRIDDISPLAY
 70
     3
102
VTR_0.000_0.000_1.000_1.000_GRIDMAJOR
 70
     5
102
VTR_0.000_0.000_1.000_1.000_DEFAULTLIGHTING
280
     1
102
VTR_0.000_0.000_1.000_1.000_DEFAULTLIGHTINGTYPE
 70
     1
102
VTR_0.000_0.000_1.000_1.000_BRIGHTNESS
141
0.0
102
VTR_0.000_0.000_1.000_1.000_CONTRAST
142
0.0
  0
MATERIAL
  5
45
102
{ACAD_REACTORS
330
43
102
}
102
{ACAD_XDICTIONARY
360
393
102
}
330
43
100
AcDbMaterial
  1
BYBLOCK
  0
MATERIAL
  5
44
102
{ACAD_REACTORS
330
43
102
}
102
{ACAD_XDICTIONARY
360
391
102
}
330
43
100
AcDbMaterial
  1
BYLAYER
  0
MATERIAL
  5
46
102
{ACAD_REACTORS
330
43
102
}
102
{ACAD_XDICTIONARY
360
395
102
}
330
43
100
AcDbMaterial
  1
GLOBAL
  0
ACAD_PROXY_OBJECT
  5
6C
102
{ACAD_REACTORS
330
6B
102
}
330
6B
100
AcDbProxyObject
 90
      499
 91
      505
 93
      610
310
40901902A4063FBFFFFFE056BD1B81E855B9FC0AD7A3703D0AD73F4214DD185B99185C9900AD7A3703D0AC73F90141901A02B5E8DC0F42B1CFC02B5E8DC0F42B1CFE5764000000000000300FC0
340
14
340
0
340
11
340
0
 94
        0
1001
ACAD_MLEADERVER
1070
     2
  0
MLINESTYLE
  5
18
102
{ACAD_REACTORS
330
17
102
}
330
17
100
AcDbMlineStyle
  2
Standard
 70
     0
  3

 62
   256
 51
90.0
 52
90.0
 71
     2
 49
0.5
 62
   256
  6
BYLAYER
 49
-0.5
 62
   256
  6
BYLAYER
  0
ACAD_PROXY_OBJECT
  5
48
102
{ACAD_REACTORS
330
47
102
}
330
47
100
AcDbProxyObject
 90
      499
 91
      503
 93
       41
310
903313A31580
  0
ACAD_PROXY_OBJECT
  5
49
102
{ACAD_REACTORS
330
47
102
}
330
47
100
AcDbProxyObject
 90
      499
 91
      503
 93
      105
310
903313A324000000000000004000
  0
ACAD_PROXY_OBJECT
  5
4A
102
{ACAD_REACTORS
330
47
102
}
330
47
100
AcDbProxyObject
 90
      499
 91
      503
 93
      105
310
903313A344000000000000104000
  0
ACAD_PROXY_OBJECT
  5
4B
102
{ACAD_REACTORS
330
47
102
}
330
47
100
AcDbProxyObject
 90
      499
 91
      503
 93
      105
310
903313A354000000000000144000
  0
ACAD_PROXY_OBJECT
  5
4C
102
{ACAD_REACTORS
330
47
102
}
330
47
100
AcDbProxyObject
 90
      499
 91
      503
 93
      105
310
903313A384000000000000204000
  0
ACAD_PROXY_OBJECT
  5
4D
102
{ACAD_REACTORS
330
47
102
}
330
47
100
AcDbProxyObject
 90
      499
 91
      503
 93
      113
310
904313A31304000000000000244000
  0
ACAD_PROXY_OBJECT
  5
4E
102
{ACAD_REACTORS
330
47
102
}
330
47
100
AcDbProxyObject
 90
      499
 91
      503
 93
      113
310
904313A31364000000000000304000
  0
ACAD_PROXY_OBJECT
  5
4F
102
{ACAD_REACTORS
330
47
102
}
330
47
100
AcDbProxyObject
 90
      499
 91
      503
 93
      113
310
904313A32304000000000000344000
  0
ACAD_PROXY_OBJECT
  5
50
102
{ACAD_REACTORS
330
47
102
}
330
47
100
AcDbProxyObject
 90
      499
 91
      503
 93
      113
310
904313A333040000000000003E4000
  0
ACAD_PROXY_OBJECT
  5
51
102
{ACAD_REACTORS
330
47
102
}
330
47
100
AcDbProxyObject
 90
      499
 91
      503
 93
      113
310
904313A34304000000000000444000
  0
ACAD_PROXY_OBJECT
  5
52
102
{ACAD_REACTORS
330
47
102
}
330
47
100
AcDbProxyObject
 90
      499
 91
      503
 93
      113
310
904313A35304000000000000494000
  0
ACAD_PROXY_OBJECT
  5
53
102
{ACAD_REACTORS
330
47
102
}
330
47
100
AcDbProxyObject
 90
      499
 91
      503
 93
      121
310
905313A3130304000000000000594000
  0
ACAD_PROXY_OBJECT
  5
54
102
{ACAD_REACTORS
330
47
102
}
330
47
100
AcDbProxyObject
 90
      499
 91
      503
 93
      105
310
903323A310000000000000010100
  0
ACAD_PROXY_OBJECT
  5
55
102
{ACAD_REACTORS
330
47
102
}
330
47
100
AcDbProxyObject
 90
      499
 91
      503
 93
      105
310
903343A310000000000000410100
  0
ACAD_PROXY_OBJECT
  5
56
102
{ACAD_REACTORS
330
47
102
}
330
47
100
AcDbProxyObject
 90
      499
 91
      503
 93
      105
310
903383A310000000000000810100
  0
ACAD_PROXY_OBJECT
  5
57
102
{ACAD_REACTORS
330
47
102
}
330
47
100
AcDbProxyObject
 90
      499
 91
      503
 93
      113
310
90431303A310000000000000910100
  0
ACAD_PROXY_OBJECT
  5
58
102
{ACAD_REACTORS
330
47
102
}
330
47
100
AcDbProxyObject
 90
      499
 91
      503
 93
      121
310
9053130303A310000000000001650100
  0
ACAD_PROXY_OBJECT
  5
59
102
{ACAD_REACTORS
330
47
102
}
330
47
100
AcDbProxyObject
 90
      499
 91
      503
 93
      257
310
90E312F31323822203D2031272D3022000000000000200FC000000000000284000
  0
ACAD_PROXY_OBJECT
  5
5A
102
{ACAD_REACTORS
330
47
102
}
330
47
100
AcDbProxyObject
 90
      499
 91
      503
 93
      249
310
90D312F363422203D2031272D3022000000000000240FC000000000000284000
  0
ACAD_PROXY_OBJECT
  5
5B
102
{ACAD_REACTORS
330
47
102
}
330
47
100
AcDbProxyObject
 90
      499
 91
      503
 93
      249
310
90D312F333222203D2031272D3022000000000000280FC000000000000284000
  0
ACAD_PROXY_OBJECT
  5
5C
102
{ACAD_REACTORS
330
47
102
}
330
47
100
AcDbProxyObject
 90
      499
 91
      503
 93
      249
310
90D312F313622203D2031272D30220000000000002C0FC000000000000284000
  0
ACAD_PROXY_OBJECT
  5
5D
102
{ACAD_REACTORS
330
47
102
}
330
47
100
AcDbProxyObject
 90
      499
 91
      503
 93
      249
310
90D332F333222203D2031272D30220000000000002E0FC000000000000284000
  0
ACAD_PROXY_OBJECT
  5
5E
102
{ACAD_REACTORS
330
47
102
}
330
47
100
AcDbProxyObject
 90
      499
 91
      503
 93
      241
310
90C312F3822203D2031272D3022000000000000300FC000000000000284000
  0
ACAD_PROXY_OBJECT
  5
5F
102
{ACAD_REACTORS
330
47
102
}
330
47
100
AcDbProxyObject
 90
      499
 91
      503
 93
      249
310
90D332F313622203D2031272D3022000000000000320FC000000000000284000
  0
ACAD_PROXY_OBJECT
  5
60
102
{ACAD_REACTORS
330
47
102
}
330
47
100
AcDbProxyObject
 90
      499
 91
      503
 93
      241
310
90C312F3422203D2031272D3022000000000000340FC000000000000284000
  0
ACAD_PROXY_OBJECT
  5
61
102
{ACAD_REACTORS
330
47
102
}
330
47
100
AcDbProxyObject
 90
      499
 91
      503
 93
      241
310
90C332F3822203D2031272D3022000000000000360FC000000000000284000
  0
ACAD_PROXY_OBJECT
  5
62
102
{ACAD_REACTORS
330
47
102
}
330
47
100
AcDbProxyObject
 90
      499
 91
      503
 93
      241
310
90C312F3222203D2031272D3022000000000000380FC000000000000284000
  0
ACAD_PROXY_OBJECT
  5
63
102
{ACAD_REACTORS
330
47
102
}
330
47
100
AcDbProxyObject
 90
      499
 91
      503
 93
      241
310
90C332F3422203D2031272D30220000000000003A0FC000000000000284000
  0
ACAD_PROXY_OBJECT
  5
64
102
{ACAD_REACTORS
330
47
102
}
330
47
100
AcDbProxyObject
 90
      499
 91
      503
 93
      161
310
90A3122203D2031272D30224000000000000284000
  0
ACAD_PROXY_OBJECT
  5
65
102
{ACAD_REACTORS
330
47
102
}
330
47
100
AcDbProxyObject
 90
      499
 91
      503
 93
      257
310
90E312D312F3222203D2031272D30220000000000003E0FC000000000000284000
  0
ACAD_PROXY_OBJECT
  5
66
102
{ACAD_REACTORS
330
47
102
}
330
47
100
AcDbProxyObject
 90
      499
 91
      503
 93
      225
310
90A3322203D2031272D302200000000000002100000000000000284000
  0
ACAD_PROXY_OBJECT
  5
67
102
{ACAD_REACTORS
330
47
102
}
330
47
100
AcDbProxyObject
 90
      499
 91
      503
 93
      225
310
90A3622203D2031272D302200000000000006100000000000000284000
  0
ACAD_PROXY_OBJECT
  5
68
102
{ACAD_REACTORS
330
47
102
}
330
47
100
AcDbProxyObject
 90
      499
 91
      503
 93
      249
310
90D31272D3022203D2031272D30220000000000000A100000000000000284000
  0
ACAD_PROXY_OBJECT
  5
2F
102
{ACAD_REACTORS
330
2A
102
}
330
2A
100
AcDbProxyObject
 90
      499
 91
      501
 93
      436
310
42CC9915DA5C99599C985B595049028333333333333E33F0000000000000F90107901411070040501600405405064090741402480A0340
1001
ACAD
1000
AcDbSavedByObjectVersion
1070
     0
  0
ACAD_PROXY_OBJECT
  5
32
102
{ACAD_REACTORS
330
2A
102
}
330
2A
100
AcDbProxyObject
 90
      499
 91
      501
 93
      388
310
4150985CDA58D07406404333333333333E33F0000000000000F90107A41107004050150841D405064090741402480A0350
1001
ACAD
1000
AcDbSavedByObjectVersion
1070
     0
  0
ACAD_PROXY_OBJECT
  5
36
102
{ACAD_REACTORS
330
2A
102
}
330
2A
100
AcDbProxyObject
 90
      499
 91
      501
 93
      428
310
42109C9A59DA1D195B90C409028333333333333E33F0000000000000F9010790141107004050150841D405064090741402480A029950
1001
ACAD
1000
AcDbSavedByObjectVersion
1070
     0
  0
ACAD_PROXY_OBJECT
  5
3A
102
{ACAD_REACTORS
330
2A
102
}
330
2A
100
AcDbProxyObject
 90
      499
 91
      501
 93
      452
310
42D0DBDB1BDC90DA185B99D95104090240C333333333333E33F0000000000000F90108901411070040501508421405064090741402480A0350
1001
ACAD
1000
AcDbSavedByObjectVersion
1070
     0
  0
ACAD_PROXY_OBJECT
  5
34
102
{ACAD_REACTORS
330
2A
102
}
330
2A
100
AcDbProxyObject
 90
      499
 91
      501
 93
      500
310
4290DBDB98D95C1D1D585B10940D028333333333333E33F0000000000000F90107902409070040501000000000018199010841D405064090740C02480A0340
1001
ACAD
1000
AcDbSavedByObjectVersion
1070
     0
  0
ACAD_PROXY_OBJECT
  5
35
102
{ACAD_REACTORS
330
2A
102
}
330
2A
100
AcDbProxyObject
 90
      499
 91
      501
 93
      412
310
40D11A5B50B409028333333333333E33F0000000000000F9010790141107004050150841D405064090741402480A02677FFFFFD0
1001
ACAD
1000
AcDbSavedByObjectVersion
1070
     0
  0
ACAD_PROXY_OBJECT
  5
3D
102
{ACAD_REACTORS
330
2A
102
}
330
2A
100
AcDbProxyObject
 90
      499
 91
      501
 93
      452
310
43115919D950DBDB1BDC93D999916409028333333333333E33F0000000000000F9010790141107004050150841D405064090741402480A0350
1001
ACAD
1000
AcDbSavedByObjectVersion
1070
     0
  0
ACAD_PROXY_OBJECT
  5
39
102
{ACAD_REACTORS
330
2A
102
}
330
2A
100
AcDbProxyObject
 90
      499
 91
      501
 93
      444
310
42D19858D95C185D1D195C9B90F409028333333333333E33F0000000000000F9010790141107004050150841D405064090741402480A0350
1001
ACAD
1000
AcDbSavedByObjectVersion
1070
     0
  0
ACAD_PROXY_OBJECT
  5
2B
102
{ACAD_REACTORS
330
2A
102
}
330
2A
100
AcDbProxyObject
 90
      499
 91
      501
 93
      380
310
41119B185D240901404333333333333E33F0000000000000F9010740A907004050150841D405064090741402480A1B50
1001
ACAD
1000
AcDbSavedByObjectVersion
1070
     0
  0
ACAD_PROXY_OBJECT
  5
2C
102
{ACAD_REACTORS
330
2A
102
}
330
2A
100
AcDbProxyObject
 90
      499
 91
      501
 93
      468
310
43519B185D15DA5D1A115919D95CD0140901404333333333333E33F0000000000000F90107409019070040501600405405064090741402480A1B50
1001
ACAD
1000
AcDbSavedByObjectVersion
1070
     0
  0
ACAD_PROXY_OBJECT
  5
2D
102
{ACAD_REACTORS
330
2A
102
}
330
2A
100
AcDbProxyObject
 90
      499
 91
      501
 93
      404
310
41D1DBDD5C985D5910240902404333333333333E33F0000000000000F9010740A9070040501641D405064090741402480A1B50
1001
ACAD
1000
AcDbSavedByObjectVersion
1070
     0
  0
ACAD_PROXY_OBJECT
  5
2E
102
{ACAD_REACTORS
330
2A
102
}
330
2A
100
AcDbProxyObject
 90
      499
 91
      501
 93
      492
310
4411DBDD5C985D5915DA5D1A115919D95CD0340902404333333333333E33F0000000000000F90107409019070040501600405405064090741402480A1B50
1001
ACAD
1000
AcDbSavedByObjectVersion
1070
     0
  0
ACAD_PROXY_OBJECT
  5
31
102
{ACAD_REACTORS
330
2A
102
}
330
2A
100
AcDbProxyObject
 90
      499
 91
      501
 93
      476
310
41921A5919195B90640502408333333333333E33F0000000000000F901079024090700405020000000000001110200405405064090740C02480A0340
1001
ACAD
1000
AcDbSavedByObjectVersion
1070
     0
  0
ACAD_PROXY_OBJECT
  5
3B
102
{ACAD_REACTORS
330
2A
102
}
330
2A
100
AcDbProxyObject
 90
      499
 91
      501
 93
      428
310
42529A5D1D195C93D999914409028333333333333E33F0000000000000F9010790141107004050150A41D405064090741402480A0350
1001
ACAD
1000
AcDbSavedByObjectVersion
1070
     0
  0
ACAD_PROXY_OBJECT
  5
38
102
{ACAD_REACTORS
330
2A
102
}
330
2A
100
AcDbProxyObject
 90
      499
 91
      501
 93
      444
310
42D31A5B995C185D1D195C9B90E409028333333333333E33F0000000000000F9010790141107004050750841D405064090741402483A0350
1001
ACAD
1000
AcDbSavedByObjectVersion
1070
     0
  0
ACAD_PROXY_OBJECT
  5
3C
102
{ACAD_REACTORS
330
2A
102
}
330
2A
100
AcDbProxyObject
 90
      499
 91
      501
 93
      444
310
42D3DD995C9A185B99D3D999915409028333333333333E33F0000000000000F9010790141107004050150941D405064090741402480A0350
1001
ACAD
1000
AcDbSavedByObjectVersion
1070
     0
  0
ACAD_PROXY_OBJECT
  5
33
102
{ACAD_REACTORS
330
2A
102
}
330
2A
100
AcDbProxyObject
 90
      499
 91
      501
 93
      428
310
425499585B1A5CDD1A58D08409038333333333333E33F0000000000000F9010740A907004050150800405405064090740C02480A1B40
1001
ACAD
1000
AcDbSavedByObjectVersion
1070
     0
  0
ACAD_PROXY_OBJECT
  5
42
102
{ACAD_REACTORS
330
2A
102
}
330
2A
100
AcDbProxyObject
 90
      499
 91
      501
 93
      420
310
4194DA1859195911B40902404333333333333E33F0000000000000F9010740A41107004050150800405405064090840C02480A0B40
1001
ACAD
1000
AcDbSavedByObjectVersion
1070
     0
  0
ACAD_PROXY_OBJECT
  5
41
102
{ACAD_REACTORS
330
2A
102
}
330
2A
100
AcDbProxyObject
 90
      499
 91
      501
 93
      516
310
4454DA18591959081DDA5D1A08195919D95CD1A40902404333333333333E33F0000000000000F901074090142907004050250800405405064090740C02480A0B40
1001
ACAD
1000
AcDbSavedByObjectVersion
1070
     0
  0
ACAD_PROXY_OBJECT
  5
3E
102
{ACAD_REACTORS
330
2A
102
}
330
2A
100
AcDbProxyObject
 90
      499
 91
      501
 93
      532
310
4394DA1859195CC81BD98811DC985E5174090240C333333333333E33F0000000000000F901079024090741D01000000000000111010841D405064090740C02480A0340
1001
ACAD
1000
AcDbSavedByObjectVersion
1070
     0
  0
ACAD_PROXY_OBJECT
  5
3F
102
{ACAD_REACTORS
330
2A
102
}
330
2A
100
AcDbProxyObject
 90
      499
 91
      501
 93
      476
310
41D4DAD95D18DA1E51840502408333333333333E33F0000000000000F901079024090741D01000000000000111010B41D405064090741802480A0340
1001
ACAD
1000
AcDbSavedByObjectVersion
1070
     0
  0
ACAD_PROXY_OBJECT
  5
37
102
{ACAD_REACTORS
330
2A
102
}
330
2A
100
AcDbProxyObject
 90
      499
 91
      501
 93
      412
310
41D51A1A58DAD95B90D409028333333333333E33F0000000000000F9010790141107004050150C41D405064090741402480A0350
1001
ACAD
1000
AcDbSavedByObjectVersion
1070
     0
  0
ACAD_PROXY_OBJECT
  5
30
102
{ACAD_REACTORS
330
2A
102
}
330
2A
100
AcDbProxyObject
 90
      499
 91
      501
 93
      420
310
4255DA5C99599C985B595059028333333333333E33F0000000000000F90107901411070040501600405405064090740C02480A0340
1001
ACAD
1000
AcDbSavedByObjectVersion
1070
     0
  0
ACAD_PROXY_OBJECT
  5
40
102
{ACAD_REACTORS
330
2A
102
}
330
2A
100
AcDbProxyObject
 90
      499
 91
      501
 93
      404
310
41560B54985E51940902404000000000000E03F0000000000000F9010740501907004050150841D405064090740C02480A1B40
1001
ACAD
1000
AcDbSavedByObjectVersion
1070
     0
  0
XRECORD
  5
36F
102
{ACAD_REACTORS
330
365
102
}
330
365
100
AcDbXrecord
340
0
  0
XRECORD
  5
36E
102
{ACAD_REACTORS
330
365
102
}
330
365
100
AcDbXrecord
 90
        0
  0
XRECORD
  5
385
102
{ACAD_REACTORS
330
365
102
}
330
365
100
AcDbXrecord
1000
DSTYLE
1002
{
1070
   179
 70
     2
1070
   171
 70
     2
1070
   143
 40
25.4
1070
   274
 70
     2
1070
    41
 40
3.0
1070
   141
 40
0.09
1070
    43
 40
0.38
1070
   278
 70
    46
1070
    44
 40
1.5
1070
    42
 40
0.0625
1070
   147
 40
1.5
1070
   272
 70
     4
1070
    73
 70
     1
1070
   172
 70
     0
1070
    74
 70
     1
1070
   283
 70
     1
1070
   340
340
6F
1070
   140
 40
3.0
1070
   284
 70
     0
1070
    78
 70
     0
1002
}
  0
XRECORD
  5
370
102
{ACAD_REACTORS
330
365
102
}
330
365
100
AcDbXrecord
  1
{7B87C396-BC0C-4BB2-9988-26CE1C234678}
  0
XRECORD
  5
368
102
{ACAD_REACTORS
330
365
102
}
330
365
100
AcDbXrecord
  1

  0
XRECORD
  5
36D
102
{ACAD_REACTORS
330
365
102
}
330
365
100
AcDbXrecord
 90
        4
  0
XRECORD
  5
36A
102
{ACAD_REACTORS
330
365
102
}
330
365
100
AcDbXrecord
340
1A
  0
XRECORD
  5
36C
102
{ACAD_REACTORS
330
365
102
}
330
365
100
AcDbXrecord
 90
    10269
  0
XRECORD
  5
36B
102
{ACAD_REACTORS
330
365
102
}
330
365
100
AcDbXrecord
340
19
  0
XRECORD
  5
372
102
{ACAD_REACTORS
330
365
102
}
330
365
100
AcDbXrecord
 40
0.0
  0
XRECORD
  5
375
102
{ACAD_REACTORS
330
365
102
}
330
365
100
AcDbXrecord
340
0
  0
XRECORD
  5
37B
102
{ACAD_REACTORS
330
365
102
}
330
365
100
AcDbXrecord
 10
0.0
 20
0.0
 30
0.0
  0
XRECORD
  5
377
102
{ACAD_REACTORS
330
365
102
}
330
365
100
AcDbXrecord
 10
0.0
 20
0.0
 30
0.0
  0
XRECORD
  5
37A
102
{ACAD_REACTORS
330
365
102
}
330
365
100
AcDbXrecord
 10
0.0
 20
0.0
 30
0.0
  0
XRECORD
  5
378
102
{ACAD_REACTORS
330
365
102
}
330
365
100
AcDbXrecord
 10
0.0
 20
0.0
 30
0.0
  0
XRECORD
  5
379
102
{ACAD_REACTORS
330
365
102
}
330
365
100
AcDbXrecord
 10
0.0
 20
0.0
 30
0.0
  0
XRECORD
  5
376
102
{ACAD_REACTORS
330
365
102
}
330
365
100
AcDbXrecord
 10
0.0
 20
0.0
 30
0.0
  0
XRECORD
  5
373
102
{ACAD_REACTORS
330
365
102
}
330
365
100
AcDbXrecord
340
0
  0
XRECORD
  5
374
102
{ACAD_REACTORS
330
365
102
}
330
365
100
AcDbXrecord
 70
     0
  0
XRECORD
  5
369
102
{ACAD_REACTORS
330
365
102
}
330
365
100
AcDbXrecord
  1

  0
XRECORD
  5
366
102
{ACAD_REACTORS
330
365
102
}
330
365
100
AcDbXrecord
 90
        1
  0
XRECORD
  5
367
102
{ACAD_REACTORS
330
365
102
}
330
365
100
AcDbXrecord
 90
       70
  0
XRECORD
  5
37E
102
{ACAD_REACTORS
330
365
102
}
330
365
100
AcDbXrecord
340
0
  0
XRECORD
  5
384
102
{ACAD_REACTORS
330
365
102
}
330
365
100
AcDbXrecord
 10
0.0
 20
0.0
 30
0.0
  0
XRECORD
  5
380
102
{ACAD_REACTORS
330
365
102
}
330
365
100
AcDbXrecord
 10
0.0
 20
0.0
 30
0.0
  0
XRECORD
  5
383
102
{ACAD_REACTORS
330
365
102
}
330
365
100
AcDbXrecord
 10
0.0
 20
0.0
 30
0.0
  0
XRECORD
  5
381
102
{ACAD_REACTORS
330
365
102
}
330
365
100
AcDbXrecord
 10
0.0
 20
0.0
 30
0.0
  0
XRECORD
  5
382
102
{ACAD_REACTORS
330
365
102
}
330
365
100
AcDbXrecord
 10
0.0
 20
0.0
 30
0.0
  0
XRECORD
  5
37F
102
{ACAD_REACTORS
330
365
102
}
330
365
100
AcDbXrecord
 10
0.0
 20
0.0
 30
0.0
  0
XRECORD
  5
37C
102
{ACAD_REACTORS
330
365
102
}
330
365
100
AcDbXrecord
340
0
  0
XRECORD
  5
37D
102
{ACAD_REACTORS
330
365
102
}
330
365
100
AcDbXrecord
 70
     0
  0
XRECORD
  5
371
102
{ACAD_REACTORS
330
365
102
}
330
365
100
AcDbXrecord
  1
{FAEB1C32-E019-11D5-929B-00C0DF256EC4}
  0
DICTIONARYVAR
  5
38F
102
{ACAD_REACTORS
330
386
102
}
330
386
100
DictionaryVariables
280
     0
  1
1:1
  0
DICTIONARYVAR
  5
388
102
{ACAD_REACTORS
330
386
102
}
330
386
100
DictionaryVariables
280
     0
  1
Standard
  0
DICTIONARYVAR
  5
387
102
{ACAD_REACTORS
330
386
102
}
330
386
100
DictionaryVariables
280
     0
  1
Standard
  0
DICTIONARYVAR
  5
38B
102
{ACAD_REACTORS
330
386
102
}
330
386
100
DictionaryVariables
280
     0
  1
2
  0
DICTIONARYVAR
  5
38C
102
{ACAD_REACTORS
330
386
102
}
330
386
100
DictionaryVariables
280
     0
  1
1
  0
DICTIONARYVAR
  5
390
102
{ACAD_REACTORS
330
386
102
}
330
386
100
DictionaryVariables
280
     0
  1
1
  0
DICTIONARY
  5
393
330
45
100
AcDbDictionary
280
     1
  3
ACAD_XREC_ROUNDTRIP
360
394
  0
DICTIONARY
  5
391
330
44
100
AcDbDictionary
280
     1
  3
ACAD_XREC_ROUNDTRIP
360
392
  0
DICTIONARY
  5
395
330
46
100
AcDbDictionary
280
     1
  3
ACAD_XREC_ROUNDTRIP
360
396
  0
XRECORD
  5
394
102
{ACAD_REACTORS
330
393
102
}
330
393
100
AcDbXrecord
102
MATERIAL
148
0.0
149
0.0
149
0.0
 93
        0
 94
      127
282
     0
 72
     1
 77
     1
171
     1
175
     1
179
     1
273
     0
  0
XRECORD
  5
392
102
{ACAD_REACTORS
330
391
102
}
330
391
100
AcDbXrecord
102
MATERIAL
148
0.0
149
0.0
149
0.0
 93
        0
 94
      127
282
     0
 72
     1
 77
     1
171
     1
175
     1
179
     1
273
     0
  0
XRECORD
  5
396
102
{ACAD_REACTORS
330
395
102
}
330
395
100
AcDbXrecord
102
MATERIAL
148
0.0
149
0.0
149
0.0
 93
        0
 94
      127
282
     0
 72
     1
 77
     1
171
     1
175
     1
179
     1
273
     0
  0
ENDSEC
  0
EOF
