  0
SECTION
  2
HEADER
  9
$ACADVER
  1
AC1014
  9
$ACADMAINTVER
 70
     9
  9
$DWGCODEPAGE
  3
ANSI_932
  9
$INSBASE
 10
0.0
 20
0.0
 30
0.0
  9
$EXTMIN
 10
615.5
 20
36.08298737026386
 30
0.0
  9
$EXTMAX
 10
760.5000000000001
 20
185.0
 30
0.0
  9
$LIMMIN
 10
0.0
 20
0.0
  9
$LIMMAX
 10
12.0
 20
9.0
  9
$ORTHOMODE
 70
     0
  9
$REGENMODE
 70
     1
  9
$FILLMODE
 70
     1
  9
$QTEXTMODE
 70
     0
  9
$MIRRTEXT
 70
     1
  9
$DRAGMODE
 70
     2
  9
$LTSCALE
 40
1.0
  9
$OSMODE
 70
    37
  9
$ATTMODE
 70
     1
  9
$TEXTSIZE
 40
0.2
  9
$TRACEWID
 40
0.05
  9
$TEXTSTYLE
  7
STANDARD
  9
$CLAYER
  8
0
  9
$CELTYPE
  6
BYLAYER
  9
$CECOLOR
 62
   256
  9
$CELTSCALE
 40
1.0
  9
$DELOBJ
 70
     1
  9
$DISPSILH
 70
     0
  9
$DIMSCALE
 40
1.0
  9
$DIMASZ
 40
3.0
  9
$DIMEXO
 40
0.0625
  9
$DIMDLI
 40
0.38
  9
$DIMRND
 40
0.0
  9
$DIMDLE
 40
0.0
  9
$DIMEXE
 40
1.5
  9
$DIMTP
 40
0.0
  9
$DIMTM
 40
0.0
  9
$DIMTXT
 40
3.0
  9
$DIMCEN
 40
0.09
  9
$DIMTSZ
 40
0.0
  9
$DIMTOL
 70
     0
  9
$DIMLIM
 70
     0
  9
$DIMTIH
 70
     1
  9
$DIMTOH
 70
     1
  9
$DIMSE1
 70
     0
  9
$DIMSE2
 70
     0
  9
$DIMTAD
 70
     1
  9
$DIMZIN
 70
     0
  9
$DIMBLK
  1

  9
$DIMASO
 70
     1
  9
$DIMSHO
 70
     1
  9
$DIMPOST
  1

  9
$DIMAPOST
  1

  9
$DIMALT
 70
     0
  9
$DIMALTD
 70
     2
  9
$DIMALTF
 40
25.4
  9
$DIMLFAC
 40
1.0
  9
$DIMTOFL
 70
     0
  9
$DIMTVP
 40
0.0
  9
$DIMTIX
 70
     0
  9
$DIMSOXD
 70
     0
  9
$DIMSAH
 70
     0
  9
$DIMBLK1
  1

  9
$DIMBLK2
  1

  9
$DIMSTYLE
  2
STANDARD
  9
$DIMCLRD
 70
     0
  9
$DIMCLRE
 70
     0
  9
$DIMCLRT
 70
     0
  9
$DIMTFAC
 40
1.0
  9
$DIMGAP
 40
1.5
  9
$DIMJUST
 70
     0
  9
$DIMSD1
 70
     0
  9
$DIMSD2
 70
     0
  9
$DIMTOLJ
 70
     1
  9
$DIMTZIN
 70
     0
  9
$DIMALTZ
 70
     0
  9
$DIMALTTZ
 70
     0
  9
$DIMFIT
 70
     3
  9
$DIMUPT
 70
     0
  9
$DIMUNIT
 70
     2
  9
$DIMDEC
 70
     2
  9
$DIMTDEC
 70
     4
  9
$DIMALTU
 70
     2
  9
$DIMALTTD
 70
     2
  9
$DIMTXSTY
  7
ＭＳ_ゴシック
  9
$DIMAUNIT
 70
     0
  9
$LUNITS
 70
     2
  9
$LUPREC
 70
     4
  9
$SKETCHINC
 40
0.1
  9
$FILLETRAD
 40
0.5
  9
$AUNITS
 70
     0
  9
$AUPREC
 70
     0
  9
$MENU
  1
.
  9
$ELEVATION
 40
0.0
  9
$PELEVATION
 40
0.0
  9
$THICKNESS
 40
0.0
  9
$LIMCHECK
 70
     0
  9
$CHAMFERA
 40
0.0
  9
$CHAMFERB
 40
0.0
  9
$CHAMFERC
 40
0.0
  9
$CHAMFERD
 40
0.0
  9
$SKPOLY
 70
     0
  9
$TDCREATE
 40
2459233.460347199
  9
$TDUPDATE
 40
2459233.46034757
  9
$TDINDWG
 40
0.0000000116
  9
$TDUSRTIMER
 40
0.0000000116
  9
$USRTIMER
 70
     1
  9
$ANGBASE
 50
0.0
  9
$ANGDIR
 70
     0
  9
$PDMODE
 70
     0
  9
$PDSIZE
 40
0.0
  9
$PLINEWID
 40
0.0
  9
$COORDS
 70
     1
  9
$SPLFRAME
 70
     0
  9
$SPLINETYPE
 70
     6
  9
$SPLINESEGS
 70
     8
  9
$ATTDIA
 70
     0
  9
$ATTREQ
 70
     1
  9
$HANDLING
 70
     1
  9
$HANDSEED
  5
287
  9
$SURFTAB1
 70
     6
  9
$SURFTAB2
 70
     6
  9
$SURFTYPE
 70
     6
  9
$SURFU
 70
     6
  9
$SURFV
 70
     6
  9
$UCSNAME
  2

  9
$UCSORG
 10
0.0
 20
0.0
 30
0.0
  9
$UCSXDIR
 10
1.0
 20
0.0
 30
0.0
  9
$UCSYDIR
 10
0.0
 20
1.0
 30
0.0
  9
$PUCSNAME
  2

  9
$PUCSORG
 10
0.0
 20
0.0
 30
0.0
  9
$PUCSXDIR
 10
1.0
 20
0.0
 30
0.0
  9
$PUCSYDIR
 10
0.0
 20
1.0
 30
0.0
  9
$USERI1
 70
     0
  9
$USERI2
 70
     0
  9
$USERI3
 70
     0
  9
$USERI4
 70
     0
  9
$USERI5
 70
     0
  9
$USERR1
 40
0.0
  9
$USERR2
 40
0.0
  9
$USERR3
 40
0.0
  9
$USERR4
 40
0.0
  9
$USERR5
 40
0.0
  9
$WORLDVIEW
 70
     1
  9
$SHADEDGE
 70
     3
  9
$SHADEDIF
 70
    70
  9
$TILEMODE
 70
     1
  9
$MAXACTVP
 70
    64
  9
$PINSBASE
 10
0.0
 20
0.0
 30
0.0
  9
$PLIMCHECK
 70
     0
  9
$PEXTMIN
 10
1.000000000000000E+20
 20
1.000000000000000E+20
 30
1.000000000000000E+20
  9
$PEXTMAX
 10
-1.000000000000000E+20
 20
-1.000000000000000E+20
 30
-1.000000000000000E+20
  9
$PLIMMIN
 10
0.0
 20
0.0
  9
$PLIMMAX
 10
12.0
 20
9.0
  9
$UNITMODE
 70
     0
  9
$VISRETAIN
 70
     1
  9
$PLINEGEN
 70
     0
  9
$PSLTSCALE
 70
     1
  9
$TREEDEPTH
 70
  3020
  9
$PICKSTYLE
 70
     1
  9
$CMLSTYLE
  2
STANDARD
  9
$CMLJUST
 70
     0
  9
$CMLSCALE
 40
1.0
  9
$PROXYGRAPHICS
 70
     1
  9
$MEASUREMENT
 70
     1
  0
ENDSEC
  0
SECTION
  2
CLASSES
  0
CLASS
  1
ACDBDICTIONARYWDFLT
  2
AcDbDictionaryWithDefault
  3
ObjectDBX Classes
 90
        0
280
     0
281
     0
  0
CLASS
  1
VISUALSTYLE
  2
AcDbVisualStyle
  3
ObjectDBX Classes
 90
     4095
280
     0
281
     0
  0
CLASS
  1
MATERIAL
  2
AcDbMaterial
  3
ObjectDBX Classes
 90
     1153
280
     0
281
     0
  0
CLASS
  1
SCALE
  2
AcDbScale
  3
ObjectDBX Classes
 90
     1153
280
     0
281
     0
  0
CLASS
  1
TABLESTYLE
  2
AcDbTableStyle
  3
ObjectDBX Classes
 90
     4095
280
     0
281
     0
  0
CLASS
  1
MLEADERSTYLE
  2
AcDbMLeaderStyle
  3
ACDB_MLEADERSTYLE_CLASS
 90
     4095
280
     0
281
     0
  0
CLASS
  1
SUN
  2
AcDbSun
  3
SCENEOE
 90
     1153
280
     0
281
     0
  0
CLASS
  1
DICTIONARYVAR
  2
AcDbDictionaryVar
  3
ObjectDBX Classes
 90
        0
280
     0
281
     0
  0
CLASS
  1
XRECORD
  2
AcDbXrecord
  3
ObjectDBX Classes
 90
        0
280
     0
281
     0
  0
CLASS
  1
LWPOLYLINE
  2
AcDbPolyline
  3
ObjectDBX Classes
 90
        0
280
     0
281
     1
  0
CLASS
  1
HATCH
  2
AcDbHatch
  3
ObjectDBX Classes
 90
        0
280
     0
281
     1
  0
CLASS
  1
ACDBPLACEHOLDER
  2
AcDbPlaceHolder
  3
ObjectDBX Classes
 90
        0
280
     0
281
     0
  0
CLASS
  1
LAYOUT
  2
AcDbLayout
  3
ObjectDBX Classes
 90
        0
280
     0
281
     0
  0
ENDSEC
  0
SECTION
  2
TABLES
  0
TABLE
  2
VPORT
  5
8
102
{ACAD_XDICTIONARY
360
27C
102
}
330
0
100
AcDbSymbolTable
 70
     1
  0
VPORT
  5
29
330
8
100
AcDbSymbolTableRecord
100
AcDbViewportTableRecord
  2
*ACTIVE
 70
     0
 10
0.0
 20
0.0
 11
1.0
 21
1.0
 12
688.0
 22
110.5414936851319
 13
0.0
 23
0.0
 14
0.5
 24
0.5
 15
0.5
 25
0.5
 16
0.0
 26
0.0
 36
1.0
 17
0.0
 27
0.0
 37
0.0
 40
148.9170126297361
 41
1.6
 42
50.0
 43
0.0
 44
0.0
 50
0.0
 51
0.0
 71
     0
 72
   100
 73
     1
 74
     3
 75
     0
 76
     0
 77
     0
 78
     0
  0
ENDTAB
  0
TABLE
  2
LTYPE
  5
5
330
0
100
AcDbSymbolTable
 70
     2
  0
LTYPE
  5
14
330
5
100
AcDbSymbolTableRecord
100
AcDbLinetypeTableRecord
  2
BYBLOCK
 70
     0
  3

 72
    65
 73
     0
 40
0.0
  0
LTYPE
  5
15
330
5
100
AcDbSymbolTableRecord
100
AcDbLinetypeTableRecord
  2
BYLAYER
 70
     0
  3

 72
    65
 73
     0
 40
0.0
  0
LTYPE
  5
16
330
5
100
AcDbSymbolTableRecord
100
AcDbLinetypeTableRecord
  2
CONTINUOUS
 70
     0
  3
Solid line
 72
    65
 73
     0
 40
0.0
  0
LTYPE
  5
153
330
5
100
AcDbSymbolTableRecord
100
AcDbLinetypeTableRecord
  2
CENTER
 70
     0
  3

 72
    65
 73
     0
 40
0.0
  0
ENDTAB
  0
TABLE
  2
LAYER
  5
2
330
0
100
AcDbSymbolTable
 70
     2
  0
LAYER
  5
10
330
2
100
AcDbSymbolTableRecord
100
AcDbLayerTableRecord
  2
0
 70
     0
 62
     7
  6
CONTINUOUS
  0
LAYER
  5
6E
330
2
100
AcDbSymbolTableRecord
100
AcDbLayerTableRecord
  2
2
 70
     0
 62
     7
  6
CONTINUOUS
  0
ENDTAB
  0
TABLE
  2
STYLE
  5
3
330
0
100
AcDbSymbolTable
 70
     2
  0
STYLE
  5
11
330
3
100
AcDbSymbolTableRecord
100
AcDbTextStyleTableRecord
  2
STANDARD
 70
     0
 40
0.0
 41
1.0
 50
0.0
 71
     0
 42
0.2
  3
txt
  4

  0
STYLE
  5
6F
330
3
100
AcDbSymbolTableRecord
100
AcDbTextStyleTableRecord
  2
ＭＳ_ゴシック
 70
     0
 40
0.0
 41
1.0
 50
0.0
 71
     0
 42
0.2
  3
ＭＳ ゴシック.shx
  4

  0
ENDTAB
  0
TABLE
  2
VIEW
  5
6
330
0
100
AcDbSymbolTable
 70
     0
  0
ENDTAB
  0
TABLE
  2
UCS
  5
7
330
0
100
AcDbSymbolTable
 70
     0
  0
ENDTAB
  0
TABLE
  2
APPID
  5
9
330
0
100
AcDbSymbolTable
 70
     2
  0
APPID
  5
12
330
9
100
AcDbSymbolTableRecord
100
AcDbRegAppTableRecord
  2
ACAD
 70
     0
  0
APPID
  5
286
330
9
100
AcDbSymbolTableRecord
100
AcDbRegAppTableRecord
  2
ACAD_MLEADERVER
 70
     0
  0
ENDTAB
  0
TABLE
  2
DIMSTYLE
  5
A
330
0
100
AcDbSymbolTable
 70
     1
  0
DIMSTYLE
105
27
330
A
100
AcDbSymbolTableRecord
100
AcDbDimStyleTableRecord
  2
STANDARD
 70
     0
  3

  4

  5

  6

  7

 40
1.0
 41
0.18
 42
0.0625
 43
0.38
 44
0.18
 45
0.0
 46
0.0
 47
0.0
 48
0.0
140
0.18
141
0.09
142
0.0
143
25.4
144
1.0
145
0.0
146
1.0
147
0.09
 71
     0
 72
     0
 73
     1
 74
     1
 75
     0
 76
     0
 77
     0
 78
     0
170
     0
171
     2
172
     0
173
     0
174
     0
175
     0
176
     0
177
     0
178
     0
270
     2
271
     4
272
     4
273
     2
274
     2
340
11
275
     0
280
     0
281
     0
282
     0
283
     1
284
     0
285
     0
286
     0
287
     3
288
     0
  0
ENDTAB
  0
TABLE
  2
BLOCK_RECORD
  5
1
330
0
100
AcDbSymbolTable
 70
     0
  0
BLOCK_RECORD
  5
1F
330
1
100
AcDbSymbolTableRecord
100
AcDbBlockTableRecord
  2
*MODEL_SPACE
  0
BLOCK_RECORD
  5
1B
330
1
100
AcDbSymbolTableRecord
100
AcDbBlockTableRecord
  2
*PAPER_SPACE
  0
ENDTAB
  0
ENDSEC
  0
SECTION
  2
BLOCKS
  0
BLOCK
  5
20
330
1F
100
AcDbEntity
  8
0
100
AcDbBlockBegin
  2
*MODEL_SPACE
 70
     0
 10
0.0
 20
0.0
 30
0.0
  3
*MODEL_SPACE
  1

  0
ENDBLK
  5
21
330
1F
100
AcDbEntity
  8
0
100
AcDbBlockEnd
  0
BLOCK
  5
1C
330
1B
100
AcDbEntity
 67
     1
  8
0
100
AcDbBlockBegin
  2
*PAPER_SPACE
 70
     0
 10
0.0
 20
0.0
 30
0.0
  3
*PAPER_SPACE
  1

  0
ENDBLK
  5
1D
330
1B
100
AcDbEntity
 67
     1
  8
0
100
AcDbBlockEnd
  0
ENDSEC
  0
SECTION
  2
ENTITIES
  0
LWPOLYLINE
  5
70
330
1F
100
AcDbEntity
  8
2
  6
CONTINUOUS
 62
     7
100
AcDbPolyline
 90
       29
 70
     0
 43
0.0
 10
-618.2112063455834
 20
99.70185003913143
 10
-618.2120362509672
 20
99.7266110421219
 10
-618.2140916640617
 20
99.75130053966744
 10
-618.2173675384495
 20
99.77585791450751
 10
-618.221855831256
 20
99.80022287376717
 10
-618.2275455228962
 20
99.82433559698705
 10
-618.2344226441302
 20
99.84813688299378
 10
-618.2424703103594
 20
99.87156829524965
 10
-618.2516687630821
 20
99.89457230532503
 10
-618.261995418404
 20
99.91709243414134
 10
-618.2734249224856
 20
99.93907339063756
 10
-618.2859292137907
 20
99.96046120751994
 10
-618.2994775919831
 20
99.98120337376164
 10
-618.3140367933005
 20
100.001248963527
 10
-618.3295710722242
 20
100.0205487612037
 10
-618.3460422892401
 20
100.0390553822365
 10
-618.3634100044793
 20
100.0567233894646
 10
-618.3816315770043
 20
100.0735094046784
 10
-618.4006622695008
 20
100.0893722151212
 10
-618.4204553581162
 20
100.1042728746738
 10
-618.4409622471751
 20
100.1181747994746
 10
-618.4621325884906
 20
100.1310438577396
 10
-618.4839144049782
 20
100.1428484535622
 10
-618.50625421827
 20
100.1535596044871
 10
-618.5290971800123
 20
100.1631510126673
 10
-618.5523872065299
 20
100.1715991294305
 10
-618.5760671165215
 20
100.1788832130952
 10
-618.6000787714495
 20
100.1849853798953
 10
-618.6243632182819
 20
100.1898906478884
210
0.0
220
0.0
230
-1.0
  0
LWPOLYLINE
  5
71
330
1F
100
AcDbEntity
  8
2
  6
CONTINUOUS
 62
   253
100
AcDbPolyline
 90
       29
 70
     0
 43
0.0
 10
680.1292179294487
 20
178.1567267173452
 10
680.1235367184337
 20
178.1803020604574
 10
680.1167283856977
 20
178.2035798352655
 10
680.1088089170746
 20
178.2265053860032
 10
680.099796907324
 20
178.249024883919
 10
680.0897135164712
 20
178.2710854536662
 10
680.0785824201236
 20
178.2926352974521
 10
680.0664297538806
 20
178.313623816659
 10
680.0532840519684
 20
178.3340017306483
 10
680.0391761802417
 20
178.3537211924709
 10
680.0241392637114
 20
178.3727359012105
 10
680.0082086087676
 20
178.3910012106975
 10
679.9914216202811
 20
178.4084742343374
 10
679.9738177137771
 20
178.4251139458074
 10
679.9554382228888
 20
178.4408812753859
 10
679.9363263023066
 20
178.4557392016869
 10
679.9165268264514
 20
178.4696528385858
 10
679.896086284111
 20
178.4825895171315
 10
679.8750526692847
 20
178.494518862252
 10
679.8534753684947
 20
178.5054128640751
 10
679.8314050448274
 20
178.5152459436944
 10
679.8088935189771
 20
178.5239950132286
 10
679.7859936475727
 20
178.5316395300308
 10
679.762759199071
 20
178.5381615449233
 10
679.7392447275087
 20
178.5435457443407
 10
679.7155054444121
 20
178.5477794862865
 10
679.6915970891602
 20
178.5508528300163
 10
679.6675757981103
 20
178.5527585593783
 10
679.6434979727907
 20
178.5534921997566
  0
LWPOLYLINE
  5
72
330
1F
100
AcDbEntity
  8
2
  6
CONTINUOUS
 62
     7
100
AcDbPolyline
 90
       17
 70
     0
 43
0.0
 10
639.6633088158983
 20
64.95784290857843
 10
639.6224499237867
 20
64.9604045505712
 10
639.5807706702535
 20
64.96093627665356
 10
639.5383914576121
 20
64.95933789637503
 10
639.4954445940805
 20
64.95551797229574
 10
639.4520736762253
 20
64.94939558201146
 10
639.4084327178557
 20
64.94090205595774
 10
639.3646850208715
 20
64.92998264544505
 10
639.3210017916583
 20
64.91659807251402
 10
639.2775605155731
 20
64.90072591207426
 10
639.2345431114807
 20
64.88236175770162
 10
639.1921338977282
 20
64.86152012560478
 10
639.1505174098796
 20
64.83823505671383
 10
639.109876118398
 20
64.81256038450749
 10
639.0703881007711
 20
64.78456964585253
 10
639.0322247268222
 20
64.75435562338278
 10
639.0194705534226
 20
64.74350069441645
  0
LWPOLYLINE
  5
73
330
1F
100
AcDbEntity
  8
2
  6
CONTINUOUS
 62
     7
100
AcDbPolyline
 90
       26
 70
     0
 43
0.0
 10
658.2730710649022
 20
64.05126937934291
 10
658.2732431884068
 20
64.09465219805091
 10
658.2713234343836
 20
64.1385585402067
 10
658.267225678184
 20
64.1828658617872
 10
658.2608730894384
 20
64.22744110554476
 10
658.2521997373955
 20
64.27214141918425
 10
658.2411521511672
 20
64.31681511011797
 10
658.2276907915851
 20
64.36130283748925
 10
658.2117913893865
 20
64.40543903431886
 10
658.1934461041736
 20
64.44905354412676
 10
658.172664460276
 20
64.49197344759521
 10
658.149474019422
 20
64.53402504621138
 10
658.1239207560396
 20
64.57503596185404
 10
658.0960691089114
 20
64.61483730447637
 10
658.0660016925614
 20
64.65326585486189
 10
658.0338186627232
 20
64.69016620630391
 10
657.9996367420142
 20
64.72539280827935
 10
657.9635879238924
 20
64.75881185691604
 10
657.9258178844507
 20
64.79030298128025
 10
657.8921927363061
 20
64.81568050430505
 10
657.8575236009665
 20
64.83950671635533
 10
657.8219197739504
 20
64.86173356955221
 10
657.7854937799524
 20
64.88232234602643
 10
657.7483603032938
 20
64.90124379964219
 10
657.7106351202485
 20
64.91847816842413
 10
657.6724340527917
 20
64.9340150621134
  0
LWPOLYLINE
  5
74
330
1F
100
AcDbEntity
  8
2
  6
CONTINUOUS
 62
     7
100
AcDbPolyline
 90
       29
 70
     0
 43
0.0
 10
-678.3756367817181
 20
100.1898906478884
 10
-678.3999212285505
 20
100.1849853798953
 10
-678.4239328834785
 20
100.1788832130952
 10
-678.4476127934701
 20
100.1715991294305
 10
-678.4709028199878
 20
100.1631510126673
 10
-678.4937457817301
 20
100.1535596044871
 10
-678.5160855950218
 20
100.1428484535622
 10
-678.5378674115094
 20
100.1310438577396
 10
-678.559037752825
 20
100.1181747994747
 10
-678.5795446418839
 20
100.1042728746738
 10
-678.5993377304992
 20
100.0893722151212
 10
-678.6183684229957
 20
100.0735094046784
 10
-678.6365899955207
 20
100.0567233894646
 10
-678.6539577107599
 20
100.0390553822365
 10
-678.6704289277759
 20
100.0205487612038
 10
-678.6859632066995
 20
100.001248963527
 10
-678.7005224080169
 20
99.98120337376164
 10
-678.7140707862093
 20
99.96046120751997
 10
-678.7265750775144
 20
99.93907339063759
 10
-678.738004581596
 20
99.91709243414134
 10
-678.7483312369179
 20
99.89457230532503
 10
-678.7575296896406
 20
99.87156829524965
 10
-678.7655773558698
 20
99.84813688299381
 10
-678.7724544771038
 20
99.82433559698708
 10
-678.778144168744
 20
99.80022287376718
 10
-678.7826324615505
 20
99.77585791450754
 10
-678.7859083359383
 20
99.75130053966747
 10
-678.7879637490328
 20
99.72661104212193
 10
-678.7887936544166
 20
99.70185003913146
210
0.0
220
0.0
230
-1.0
  0
LWPOLYLINE
  5
75
330
1F
100
AcDbEntity
  8
2
  6
CONTINUOUS
 62
   253
100
AcDbPolyline
 90
       29
 70
     0
 43
0.0
 10
616.8707820705513
 20
135.8432732826548
 10
616.8764632815663
 20
135.8196979395427
 10
616.8832716143023
 20
135.7964201647345
 10
616.8911910829254
 20
135.7734946139969
 10
616.900203092676
 20
135.750975116081
 10
616.9102864835287
 20
135.7289145463339
 10
616.9214175798764
 20
135.7073647025479
 10
616.9335702461194
 20
135.6863761833411
 10
616.9467159480316
 20
135.6659982693517
 10
616.9608238197583
 20
135.6462788075292
 10
616.9758607362885
 20
135.6272640987896
 10
616.9917913912323
 20
135.6089987893025
 10
617.0085783797189
 20
135.5915257656627
 10
617.0261822862228
 20
135.5748860541926
 10
617.0445617771112
 20
135.5591187246141
 10
617.0636736976934
 20
135.5442607983132
 10
617.0834731735486
 20
135.5303471614142
 10
617.103913715889
 20
135.5174104828686
 10
617.1249473307153
 20
135.505481137748
 10
617.1465246315051
 20
135.494587135925
 10
617.1685949551726
 20
135.4847540563057
 10
617.1911064810228
 20
135.4760049867715
 10
617.2140063524272
 20
135.4683604699692
 10
617.2372408009292
 20
135.4618384550767
 10
617.2607552724913
 20
135.4564542556593
 10
617.2844945555879
 20
135.4522205137135
 10
617.3084029108397
 20
135.4491471699837
 10
617.3324242018897
 20
135.4472414406218
 10
617.3565020272092
 20
135.4465078002435
  0
LWPOLYLINE
  5
76
330
1F
100
AcDbEntity
  8
2
  6
CONTINUOUS
 62
   253
100
AcDbPolyline
 90
       29
 70
     0
 43
0.0
 10
617.3565020272092
 20
178.5534921997566
 10
617.3324242018897
 20
178.5527585593783
 10
617.3084029108397
 20
178.5508528300163
 10
617.2844945555879
 20
178.5477794862865
 10
617.2607552724913
 20
178.5435457443407
 10
617.2372408009292
 20
178.5381615449233
 10
617.2140063524272
 20
178.5316395300309
 10
617.1911064810228
 20
178.5239950132285
 10
617.1685949551726
 20
178.5152459436944
 10
617.1465246315051
 20
178.5054128640751
 10
617.1249473307153
 20
178.4945188622521
 10
617.103913715889
 20
178.4825895171315
 10
617.0834731735486
 20
178.4696528385858
 10
617.0636736976934
 20
178.4557392016869
 10
617.0445617771112
 20
178.4408812753859
 10
617.0261822862228
 20
178.4251139458074
 10
617.0085783797189
 20
178.4084742343374
 10
616.9917913912323
 20
178.3910012106975
 10
616.9758607362885
 20
178.3727359012105
 10
616.9608238197583
 20
178.3537211924709
 10
616.9467159480316
 20
178.3340017306483
 10
616.9335702461194
 20
178.313623816659
 10
616.9214175798764
 20
178.2926352974521
 10
616.9102864835287
 20
178.2710854536662
 10
616.900203092676
 20
178.249024883919
 10
616.8911910829254
 20
178.2265053860032
 10
616.8832716143023
 20
178.2035798352655
 10
616.8764632815663
 20
178.1803020604574
 10
616.8707820705513
 20
178.1567267173452
  0
LWPOLYLINE
  5
77
330
1F
100
AcDbEntity
  8
2
  6
CONTINUOUS
 62
     7
100
AcDbPolyline
 90
       29
 70
     0
 43
0.0
 10
681.0370933203744
 20
102.0175797737543
 10
681.0362582435639
 20
102.0318885565518
 10
681.0347292885808
 20
102.0461850526259
 10
681.0325159265088
 20
102.0604206465084
 10
681.0296276284317
 20
102.074546722731
 10
681.0260738654332
 20
102.0885146658255
 10
681.0218641085972
 20
102.1022758603236
 10
681.0170078290074
 20
102.115781690757
 10
681.0114956091787
 20
102.1290391586603
 10
681.0053304714713
 20
102.142054501651
 10
680.9985379941344
 20
102.1547845474899
 10
680.9911437554169
 20
102.1671861239377
 10
680.9831733335678
 20
102.1792160587551
 10
680.9746523068363
 20
102.1908311797029
 10
680.9656062534715
 20
102.2019883145417
 10
680.9560604585508
 20
102.2126529065517
 10
680.9459841165477
 20
102.2228738822066
 10
680.935415539962
 20
102.2326196153293
 10
680.924393041294
 20
102.2418584797431
 10
680.9129549330437
 20
102.2505588492709
 10
680.9011395277113
 20
102.2586890977358
 10
680.8889851377967
 20
102.2662175989609
 10
680.8763486499607
 20
102.2732137696532
 10
680.8633539365179
 20
102.2796039005185
 10
680.8500488111239
 20
102.2853708771974
 10
680.8364810874343
 20
102.2904975853304
 10
680.8226985791046
 20
102.294966910558
 10
680.8087490997904
 20
102.2987617385208
 10
680.7946804631472
 20
102.3018649548591
  0
LWPOLYLINE
  5
78
330
1F
100
AcDbEntity
  8
2
  6
CONTINUOUS
 62
     7
100
AcDbPolyline
 90
       26
 70
     0
 43
0.0
 10
639.3275659471981
 20
64.93401506210941
 10
639.2893648797417
 20
64.91847816841984
 10
639.2516396966969
 20
64.9012437996376
 10
639.2145062200387
 20
64.8823223460216
 10
639.1780802260413
 20
64.86173356954717
 10
639.1424763990258
 20
64.8395067163501
 10
639.1078072636866
 20
64.81568050429969
 10
639.0741821155426
 20
64.79030298127483
 10
639.0364120761016
 20
64.75881185691054
 10
639.0003632579803
 20
64.72539280827388
 10
638.9661813372721
 20
64.6901662062985
 10
638.9339983074345
 20
64.65326585485661
 10
638.9039308910851
 20
64.6148373044713
 10
638.8760792439574
 20
64.57503596184918
 10
638.8505259805755
 20
64.5340250462068
 10
638.8273355397221
 20
64.49197344759096
 10
638.8065538958249
 20
64.44905354412286
 10
638.7882086106124
 20
64.40543903431536
 10
638.772309208414
 20
64.36130283748618
 10
638.7588478488323
 20
64.3168151101153
 10
638.7478002626042
 20
64.27214141918205
 10
638.7391269105615
 20
64.22744110554301
 10
638.732774321816
 20
64.18286586178596
 10
638.7286765656165
 20
64.13855854020592
 10
638.7267568115932
 20
64.09465219805058
 10
638.7269289350978
 20
64.05126937934308
  0
LWPOLYLINE
  5
79
330
1F
100
AcDbEntity
  8
2
  6
CONTINUOUS
 62
     7
100
AcDbPolyline
 90
       33
 70
     0
 43
0.0
 10
649.2500000000001
 20
62.49999999999997
 10
649.249652278158
 20
62.52453383716368
 10
649.2486099503241
 20
62.54900857016474
 10
649.2468755275574
 20
62.57336523722765
 10
649.2444531882343
 20
62.59754516100804
 10
649.2413487679823
 20
62.6214900899516
 10
649.237569745622
 20
62.64514233862721
 10
649.2331252251489
 20
62.66844492669607
 10
649.2280259138023
 20
62.69134171618251
 10
649.22228409627
 20
62.7137775467151
 10
649.2159136050931
 20
62.73569836841297
 10
649.2089297873429
 20
62.75705137209658
 10
649.2013494676481
 20
62.77778511650979
 10
649.193190907663
 20
62.79784965224619
 10
649.184473762073
 20
62.8171966420818
 10
649.1752190312453
 20
62.83577947742349
 10
649.1654490106372
 20
62.85355339059326
 10
649.1551872370841
 20
62.87047556267747
 10
649.1444584320972
 20
62.88650522668135
 10
649.1332884423076
 20
62.9016037657403
 10
649.121704177199
 20
62.91573480615126
 10
649.1097335442807
 20
62.92886430500011
 10
649.0974053818561
 20
62.94096063217416
 10
649.0847493895479
 20
62.9519946465617
 10
649.0717960567505
 20
62.96193976625563
 10
649.0585765891768
 20
62.97077203259149
 10
649.0451228336825
 20
62.97847016786609
 10
649.0314672015427
 20
62.98501562659725
 10
649.0176425903715
 20
62.99039264020159
 10
649.0036823048678
 20
62.99458825498238
 10
648.9896199765825
 20
62.99759236333609
 10
648.9754894828959
 20
62.99939772810256
 10
648.9613248654052
 20
62.99999999999997
  0
LWPOLYLINE
  5
7A
330
1F
100
AcDbEntity
  8
2
  6
CONTINUOUS
 62
   253
100
AcDbPolyline
 90
       29
 70
     0
 43
0.0
 10
679.6434979727907
 20
135.4465078002435
 10
679.6675757981103
 20
135.4472414406218
 10
679.6915970891602
 20
135.4491471699837
 10
679.7155054444121
 20
135.4522205137135
 10
679.7392447275087
 20
135.4564542556593
 10
679.762759199071
 20
135.4618384550767
 10
679.7859936475727
 20
135.4683604699692
 10
679.8088935189771
 20
135.4760049867715
 10
679.8314050448274
 20
135.4847540563057
 10
679.8534753684947
 20
135.494587135925
 10
679.8750526692847
 20
135.505481137748
 10
679.896086284111
 20
135.5174104828686
 10
679.9165268264514
 20
135.5303471614142
 10
679.9363263023065
 20
135.5442607983132
 10
679.9554382228888
 20
135.5591187246141
 10
679.9738177137771
 20
135.5748860541926
 10
679.9914216202811
 20
135.5915257656627
 10
680.0082086087676
 20
135.6089987893026
 10
680.0241392637114
 20
135.6272640987896
 10
680.0391761802417
 20
135.6462788075292
 10
680.0532840519684
 20
135.6659982693517
 10
680.0664297538806
 20
135.6863761833411
 10
680.0785824201236
 20
135.707364702548
 10
680.0897135164712
 20
135.7289145463339
 10
680.099796907324
 20
135.750975116081
 10
680.1088089170746
 20
135.7734946139969
 10
680.1167283856977
 20
135.7964201647345
 10
680.1235367184337
 20
135.8196979395427
 10
680.1292179294487
 20
135.8432732826548
  0
LWPOLYLINE
  5
7B
330
1F
100
AcDbEntity
  8
2
  6
CONTINUOUS
 62
     7
100
AcDbPolyline
 90
       33
 70
     0
 43
0.0
 10
648.0386751345949
 20
62.99999999999997
 10
648.0245105171042
 20
62.99939772810256
 10
648.0103800234177
 20
62.9975923633361
 10
647.9963176951323
 20
62.99458825498238
 10
647.9823574096287
 20
62.99039264020159
 10
647.9685327984574
 20
62.98501562659725
 10
647.9548771663176
 20
62.97847016786609
 10
647.9414234108233
 20
62.97077203259149
 10
647.9282039432496
 20
62.96193976625563
 10
647.9152506104522
 20
62.9519946465617
 10
647.9025946181441
 20
62.94096063217416
 10
647.8902664557194
 20
62.92886430500013
 10
647.8782958228011
 20
62.91573480615126
 10
647.8667115576925
 20
62.9016037657403
 10
647.855541567903
 20
62.88650522668135
 10
647.844812762916
 20
62.87047556267747
 10
647.8345509893629
 20
62.85355339059326
 10
647.8247809687548
 20
62.83577947742349
 10
647.8155262379272
 20
62.8171966420818
 10
647.8068090923371
 20
62.79784965224619
 10
647.798650532352
 20
62.77778511650979
 10
647.7910702126572
 20
62.75705137209658
 10
647.7840863949071
 20
62.73569836841297
 10
647.7777159037303
 20
62.7137775467151
 10
647.7719740861978
 20
62.69134171618251
 10
647.7668747748513
 20
62.66844492669607
 10
647.7624302543782
 20
62.64514233862721
 10
647.7586512320178
 20
62.6214900899516
 10
647.7555468117658
 20
62.59754516100804
 10
647.7531244724428
 20
62.57336523722765
 10
647.751390049676
 20
62.54900857016474
 10
647.7503477218421
 20
62.52453383716368
 10
647.75
 20
62.49999999999997
  0
LWPOLYLINE
  5
7C
330
1F
100
AcDbEntity
  8
2
  6
CONTINUOUS
 62
     7
100
AcDbPolyline
 90
       29
 70
     0
 43
0.0
 10
616.2053195368528
 20
102.3018649548591
 10
616.1913515743246
 20
102.2987866395366
 10
616.1775010765219
 20
102.2950267706682
 10
616.1638148502121
 20
102.2906020357318
 10
616.1503397021628
 20
102.2855291222058
 10
616.1371224391412
 20
102.2798247175682
 10
616.1242098679148
 20
102.2735055092972
 10
616.1116487952511
 20
102.266588184871
 10
616.09943404596
 20
102.2590621056158
 10
616.0875591690581
 20
102.2509291416284
 10
616.0760629431607
 20
102.242221179171
 10
616.0649841468827
 20
102.2329701045059
 10
616.0543615588394
 20
102.2232078038952
 10
616.044233957646
 20
102.2129661636013
 10
616.0346401219177
 20
102.2022770698863
 10
616.0256104535424
 20
102.1911709109604
 10
616.0171015504891
 20
102.1796093244157
 10
616.0091388072562
 20
102.1676349869979
 10
616.0017476183424
 20
102.1552905754526
 10
615.9949533782456
 20
102.1426187665256
 10
615.9887814814646
 20
102.1296622369624
 10
615.9832573224976
 20
102.1164636635088
 10
615.9783352982112
 20
102.1028713423799
 10
615.9740686373763
 20
102.0890182584276
 10
615.97046707984
 20
102.0749540795788
 10
615.9675403654496
 20
102.0607284737603
 10
615.9652982340523
 20
102.0463911088988
 10
615.9637504254952
 20
102.0319916529212
 10
615.9629066796256
 20
102.0175797737543
  0
MTEXT
  5
7D
330
1F
100
AcDbEntity
  8
2
 62
     1
100
AcDbMText
 10
688.8590096286108
 20
38.74207827935476
 30
0.0
 40
3.0
 41
0.0
 71
     1
 72
     1
  1
{\fＭＳ ゴシック;MIDR-60}
  0
LINE
  5
7E
330
1F
100
AcDbEntity
  8
2
  6
CONTINUOUS
 62
     7
100
AcDbLine
 10
721.9634244702647
 20
102.0175797737543
 30
0.0
 11
721.9676072169959
 21
102.3018649548591
 31
0.0
  0
LINE
  5
7F
330
1F
100
AcDbEntity
  8
2
  6
CONTINUOUS
 62
   253
100
AcDbLine
 10
735.7655644370748
 20
84.48656487674502
 30
0.0
 11
735.7655644370748
 21
84.49878156125112
 31
0.0
  0
LINE
  5
80
330
1F
100
AcDbEntity
  8
2
  6
CONTINUOUS
 62
     7
100
AcDbLine
 10
733.7500000000001
 20
82.49908617093831
 30
0.0
 11
743.2500000000002
 21
82.49908617093831
 31
0.0
  0
LINE
  5
81
330
1F
100
AcDbEntity
  8
2
  6
CONTINUOUS
 62
     7
100
AcDbLine
 10
755.0120424665222
 20
103.4554539750409
 30
0.0
 11
755.0112875873194
 21
103.4999941402871
 31
0.0
  0
LINE
  5
82
330
1F
100
AcDbEntity
  8
2
  6
CONTINUOUS
 62
   253
100
AcDbLine
 10
733.7810086836474
 20
82.74408727149448
 30
0.0
 11
733.7810086836474
 21
82.74711785793504
 31
0.0
  0
LINE
  5
83
330
1F
100
AcDbEntity
  8
2
  6
CONTINUOUS
 62
     7
100
AcDbLine
 10
721.9879575334782
 20
103.4554539750409
 30
0.0
 11
721.9887124126809
 21
103.4999941402871
 31
0.0
  0
LINE
  5
84
330
1F
100
AcDbEntity
  8
2
  6
CONTINUOUS
 62
     7
100
AcDbLine
 10
734.0335136295059
 20
83.48671718158867
 30
0.0
 11
734.0335136295058
 21
83.49893386609472
 31
0.0
  0
ELLIPSE
  5
85
330
1F
100
AcDbEntity
  8
2
  6
CONTINUOUS
 62
     7
100
AcDbEllipse
 10
741.2344355629256
 20
82.51130285544441
 30
0.0
 11
2.0
 21
0.0
 31
0.0
210
0.0
220
0.0
230
-1.0
 40
0.9876310106502928
 41
4.71238898038469
 42
5.759586531581283
  0
LINE
  5
86
330
1F
100
AcDbEntity
  8
2
  6
CONTINUOUS
 62
     7
100
AcDbLine
 10
716.9018595537013
 20
75.50000000000001
 30
0.0
 11
716.5000000000002
 21
75.50000000000001
 31
0.0
  0
LINE
  5
87
330
1F
100
AcDbEntity
  8
2
  6
CONTINUOUS
 62
     7
100
AcDbLine
 10
760.0357429589304
 20
102.0972680696976
 30
0.0
 11
760.0363909008174
 21
102.0601475038532
 31
0.0
  0
LINE
  5
88
330
1F
100
AcDbEntity
  8
2
  6
CONTINUOUS
 62
     7
100
AcDbLine
 10
717.3664651639308
 20
102.5789005486116
 30
0.0
 11
721.9887124126809
 21
103.4999941402871
 31
0.0
  0
LINE
  5
89
330
1F
100
AcDbEntity
  8
2
  6
CONTINUOUS
 62
     7
100
AcDbLine
 10
716.9465078002436
 20
101.0804147437823
 30
0.0
 11
716.963609099183
 21
102.0601475038532
 31
0.0
  0
ELLIPSE
  5
8A
330
1F
100
AcDbEntity
  8
2
  6
CONTINUOUS
 62
     7
100
AcDbEllipse
 10
735.7655644370748
 20
82.51130285544441
 30
0.0
 11
2.0
 21
0.0
 31
0.0
210
0.0
220
0.0
230
-1.0
 40
0.9876310106502928
 41
3.665191429188089
 42
4.712388980384688
  0
LINE
  5
8B
330
1F
100
AcDbEntity
  8
2
  6
CONTINUOUS
 62
     7
100
AcDbLine
 10
755.0321314993453
 20
102.3028526172536
 30
0.0
 11
755.0120307590236
 21
103.4544232590366
 31
0.0
  0
LINE
  5
8C
330
1F
100
AcDbEntity
  8
2
  6
CONTINUOUS
 62
     7
100
AcDbLine
 10
755.0321314993453
 20
102.3028526172536
 30
0.0
 11
755.0323927830044
 21
102.3018649548591
 31
0.0
  0
LINE
  5
8D
330
1F
100
AcDbEntity
  8
2
  6
CONTINUOUS
 62
     7
100
AcDbLine
 10
743.2189913163528
 20
82.74408727149448
 30
0.0
 11
743.2500000000002
 21
82.49908617093831
 31
0.0
  0
LINE
  5
8E
330
1F
100
AcDbEntity
  8
2
  6
CONTINUOUS
 62
     7
100
AcDbLine
 10
721.9879692409768
 20
103.4544232590366
 30
0.0
 11
721.9678685006551
 21
102.3028526172536
 31
0.0
  0
LINE
  5
8F
330
1F
100
AcDbEntity
  8
2
  6
CONTINUOUS
 62
     7
100
AcDbLine
 10
721.9887418179903
 20
103.5
 30
0.0
 11
755.0112581820101
 21
103.5
 31
0.0
  0
ELLIPSE
  5
90
330
1F
100
AcDbEntity
  8
2
  6
CONTINUOUS
 62
     7
100
AcDbEllipse
 10
770.0658853294942
 20
100.5
 30
0.0
 11
15.05353685431255
 21
-2.958061984826566
 31
0.0
210
0.0
220
0.0
230
1.0
 40
0.0332061017734967
 41
3.146731911344911
 42
3.148721691899987
  0
LINE
  5
91
330
1F
100
AcDbEntity
  8
2
  6
CONTINUOUS
 62
     7
100
AcDbLine
 10
760.5000000000001
 20
75.50000000000001
 30
0.0
 11
760.0981404462991
 21
75.50000000000001
 31
0.0
  0
ELLIPSE
  5
92
330
1F
100
AcDbEntity
  8
2
  6
CONTINUOUS
 62
     7
100
AcDbEllipse
 10
741.2344355629256
 20
82.49908617093831
 30
0.0
 11
2.0
 21
0.0
 31
0.0
210
0.0
220
0.0
230
-1.0
 40
0.9876310106502928
 41
5.75958653158128
 42
6.158830312632819
  0
ELLIPSE
  5
93
330
1F
100
AcDbEntity
  8
2
  6
CONTINUOUS
 62
     7
100
AcDbEllipse
 10
706.9341146705061
 20
100.5
 30
0.0
 11
15.05353685431251
 21
2.958061984826565
 31
0.0
210
0.0
220
0.0
230
1.0
 40
0.0332061017734968
 41
6.276056268869354
 42
6.278046049424457
  0
LINE
  5
94
330
1F
100
AcDbEntity
  8
2
  6
CONTINUOUS
 62
     7
100
AcDbLine
 10
735.7655644370748
 20
84.48656487674502
 30
0.0
 11
741.2344355629256
 21
84.48656487674502
 31
0.0
  0
LINE
  5
95
330
1F
100
AcDbEntity
  8
2
  6
CONTINUOUS
 62
     7
100
AcDbLine
 10
721.9676072169959
 20
102.3018649548591
 30
0.0
 11
721.9678685006551
 21
102.3028526172536
 31
0.0
  0
LINE
  5
96
330
1F
100
AcDbEntity
  8
2
  6
CONTINUOUS
 62
     7
100
AcDbLine
 10
734.0335136295058
 20
83.49893386609472
 30
0.0
 11
742.9664863704944
 21
83.49893386609472
 31
0.0
  0
LINE
  5
97
330
1F
100
AcDbEntity
  8
2
  6
CONTINUOUS
 62
     7
100
AcDbLine
 10
678.3756367817181
 20
135.4309636443295
 30
0.0
 11
674.2120759118901
 21
135.4437782473817
 31
0.0
  0
LINE
  5
98
330
1F
100
AcDbEntity
  8
2
  6
CONTINUOUS
 62
     7
100
AcDbLine
 10
673.3438350235555
 20
135.4451041556696
 30
0.0
 11
674.2120759118901
 21
135.4437782473817
 31
0.0
  0
LINE
  5
99
330
1F
100
AcDbEntity
  8
2
  6
CONTINUOUS
 62
     7
100
AcDbLine
 10
616.2106398128275
 20
140.4678685006549
 30
0.0
 11
616.2053195368528
 21
140.4676072169958
 31
0.0
  0
LINE
  5
9A
330
1F
100
AcDbEntity
  8
2
  6
CONTINUOUS
 62
   253
100
AcDbLine
 10
673.6628782008002
 20
178.5357429589302
 30
0.0
 11
674.0871573825167
 21
178.5363909008172
 31
0.0
  0
LINE
  5
9B
330
1F
100
AcDbEntity
  8
2
  6
CONTINUOUS
 62
   253
100
AcDbLine
 10
617.3565020272092
 20
178.5534921997566
 30
0.0
 11
622.9128426174835
 21
178.5363909008172
 31
0.0
  0
LINE
  5
9C
330
1F
100
AcDbEntity
  8
2
  6
CONTINUOUS
 62
     7
100
AcDbLine
 10
622.7415214575772
 20
173.5120307590234
 30
0.0
 11
616.2106398128275
 21
173.5321314993451
 31
0.0
  0
LINE
  5
9D
330
1F
100
AcDbEntity
  8
2
  6
CONTINUOUS
 62
     7
100
AcDbLine
 10
615.9629066796256
 20
173.5365755297355
 30
0.0
 11
616.8691363450998
 21
178.1487844721093
 31
0.0
  0
LINE
  5
9E
330
1F
100
AcDbEntity
  8
2
  6
CONTINUOUS
 62
     7
100
AcDbLine
 10
673.3438350235555
 20
178.5548958443304
 30
0.0
 11
623.6561649764446
 21
178.5548958443304
 31
0.0
  0
LINE
  5
9F
330
1F
100
AcDbEntity
  8
2
  6
CONTINUOUS
 62
     7
100
AcDbLine
 10
681.0370933203744
 20
140.4634244702645
 30
0.0
 11
680.7946804631472
 21
140.4676072169958
 31
0.0
  0
LINE
  5
A0
330
1F
100
AcDbEntity
  8
2
  6
CONTINUOUS
 62
     7
100
AcDbLine
 10
674.2120759118901
 20
178.5562217526183
 30
0.0
 11
673.3438350235555
 21
178.5548958443304
 31
0.0
  0
LINE
  5
A1
330
1F
100
AcDbEntity
  8
2
  6
CONTINUOUS
 62
     7
100
AcDbLine
 10
623.6561649764446
 20
178.5548958443304
 30
0.0
 11
622.78792408811
 21
178.5562217526183
 31
0.0
  0
LINE
  5
A2
330
1F
100
AcDbEntity
  8
2
  6
CONTINUOUS
 62
     7
100
AcDbLine
 10
622.78792408811
 20
135.4437782473817
 30
0.0
 11
623.6561649764446
 21
135.4451041556696
 31
0.0
  0
LINE
  5
A3
330
1F
100
AcDbEntity
  8
2
  6
CONTINUOUS
 62
     7
100
AcDbLine
 10
681.0370933203744
 20
173.5365755297355
 30
0.0
 11
681.0372200424192
 21
173.5364586341675
 31
0.0
  0
LINE
  5
A4
330
1F
100
AcDbEntity
  8
2
  6
CONTINUOUS
 62
     7
100
AcDbLine
 10
618.2112063455834
 20
135.4224448638161
 30
0.0
 11
618.0
 21
135.0
 31
0.0
  0
LINE
  5
A5
330
1F
100
AcDbEntity
  8
2
  6
CONTINUOUS
 62
     7
100
AcDbLine
 10
618.6243632182819
 20
178.5690363556705
 30
0.0
 11
618.2112063455834
 21
178.577555136184
 31
0.0
  0
LINE
  5
A6
330
1F
100
AcDbEntity
  8
2
  6
CONTINUOUS
 62
   253
100
AcDbLine
 10
617.1129859978316
 20
135.848222656072
 30
0.0
 11
622.8279846081602
 21
135.8658122724904
 31
0.0
  0
LINE
  5
A7
330
1F
100
AcDbEntity
  8
2
  6
CONTINUOUS
 62
     7
100
AcDbLine
 10
615.9627799575808
 20
173.5364586341675
 30
0.0
 11
615.9629066796256
 21
173.5365755297355
 31
0.0
  0
LINE
  5
A8
330
1F
100
AcDbEntity
  8
2
  6
CONTINUOUS
 62
     7
100
AcDbLine
 10
616.2106398128275
 20
140.4678685006549
 30
0.0
 11
622.7415214575772
 21
140.4879692409766
 31
0.0
  0
LINE
  5
A9
330
1F
100
AcDbEntity
  8
2
  6
CONTINUOUS
 62
     7
100
AcDbLine
 10
618.2112063455834
 20
178.577555136184
 30
0.0
 11
618.0
 21
179.0
 31
0.0
  0
LINE
  5
AA
330
1F
100
AcDbEntity
  8
2
  6
CONTINUOUS
 62
     7
100
AcDbLine
 10
680.7893601871725
 20
173.5321314993452
 30
0.0
 11
680.7946804631471
 21
173.5323927830043
 31
0.0
  0
LINE
  5
AB
330
1F
100
AcDbEntity
  8
2
  6
CONTINUOUS
 62
     7
100
AcDbLine
 10
616.2053195368528
 20
173.5323927830042
 30
0.0
 11
616.2106398128275
 21
173.5321314993452
 31
0.0
  0
LINE
  5
AC
330
1F
100
AcDbEntity
  8
2
  6
CONTINUOUS
 62
   253
100
AcDbLine
 10
623.3371217992001
 20
135.8664651639305
 30
0.0
 11
623.3371217992001
 21
135.4642570410698
 31
0.0
  0
LINE
  5
AD
330
1F
100
AcDbEntity
  8
2
  6
CONTINUOUS
 62
     7
100
AcDbLine
 10
622.78792408811
 20
135.4437782473817
 30
0.0
 11
618.6243632182819
 21
135.4309636443295
 31
0.0
  0
LINE
  5
AE
330
1F
100
AcDbEntity
  8
2
  6
CONTINUOUS
 62
   253
100
AcDbLine
 10
679.6434979727907
 20
135.4465078002435
 30
0.0
 11
674.0871573825167
 21
135.4636090991828
 31
0.0
  0
LINE
  5
AF
330
1F
100
AcDbEntity
  8
2
  6
CONTINUOUS
 62
     7
100
AcDbLine
 10
680.7946804631472
 20
140.4676072169958
 30
0.0
 11
680.7893601871725
 21
140.4678685006549
 31
0.0
  0
LINE
  5
B0
330
1F
100
AcDbEntity
  8
2
  6
CONTINUOUS
 62
     7
100
AcDbLine
 10
681.0372200424192
 20
140.4635413658326
 30
0.0
 11
681.0370933203744
 21
140.4634244702645
 31
0.0
  0
LINE
  5
B1
330
1F
100
AcDbEntity
  8
2
  6
CONTINUOUS
 62
   253
100
AcDbLine
 10
622.8279846081604
 20
178.1341877275096
 30
0.0
 11
617.1129859978316
 21
178.1517773439281
 31
0.0
  0
LINE
  5
B2
330
1F
100
AcDbEntity
  8
2
  6
CONTINUOUS
 62
   253
100
AcDbLine
 10
623.3371217992001
 20
135.4642570410698
 30
0.0
 11
622.9128426174834
 21
135.4636090991828
 31
0.0
  0
LINE
  5
B3
330
1F
100
AcDbEntity
  8
2
  6
CONTINUOUS
 62
     7
100
AcDbLine
 10
673.3438350235555
 20
135.4451041556696
 30
0.0
 11
623.6561649764446
 21
135.4451041556696
 31
0.0
  0
LINE
  5
B4
330
1F
100
AcDbEntity
  8
2
  6
CONTINUOUS
 62
     7
100
AcDbLine
 10
618.2112063455834
 20
135.4224448638161
 30
0.0
 11
618.6243632182819
 21
135.4309636443295
 31
0.0
  0
ELLIPSE
  5
B5
330
1F
100
AcDbEntity
  8
2
  6
CONTINUOUS
 62
   253
100
AcDbEllipse
 10
622.9128426174834
 20
135.963532946761
 30
0.0
 11
-0.001538892159603642
 21
0.4999976318053045
 31
0.0
210
0.0
220
0.0
230
1.0
 40
0.1736473800017386
 41
1.7669702477019
 42
3.123870090453223
  0
LINE
  5
B6
330
1F
100
AcDbEntity
  8
2
  6
CONTINUOUS
 62
     7
100
AcDbLine
 10
616.2053195368528
 20
173.5323927830042
 30
0.0
 11
615.9629066796256
 21
173.5365755297355
 31
0.0
  0
LINE
  5
B7
330
1F
100
AcDbEntity
  8
2
  6
CONTINUOUS
 62
   253
100
AcDbLine
 10
623.3371217992001
 20
178.5357429589302
 30
0.0
 11
623.3371217992001
 21
178.1335348360695
 31
0.0
  0
LINE
  5
B8
330
1F
100
AcDbEntity
  8
2
  6
CONTINUOUS
 62
   253
100
AcDbLine
 10
674.0871573825167
 20
178.5363909008172
 30
0.0
 11
679.6434979727907
 21
178.5534921997566
 31
0.0
  0
LINE
  5
B9
330
1F
100
AcDbEntity
  8
2
  6
CONTINUOUS
 62
   253
100
AcDbLine
 10
679.8870140021685
 20
178.1517773439281
 30
0.0
 11
674.1720153918399
 21
178.1341877275096
 31
0.0
  0
LINE
  5
BA
330
1F
100
AcDbEntity
  8
2
  6
CONTINUOUS
 62
     7
100
AcDbLine
 10
674.258478542423
 20
140.4879692409766
 30
0.0
 11
680.7893601871725
 21
140.4678685006548
 31
0.0
  0
LINE
  5
BB
330
1F
100
AcDbEntity
  8
2
  6
CONTINUOUS
 62
     7
100
AcDbLine
 10
678.9999999999999
 20
135.0
 30
0.0
 11
678.7887936544166
 21
135.4224448638161
 31
0.0
  0
LINE
  5
BC
330
1F
100
AcDbEntity
  8
2
  6
CONTINUOUS
 62
   253
100
AcDbLine
 10
623.3371217992001
 20
178.5357429589302
 30
0.0
 11
673.6628782008002
 21
178.5357429589302
 31
0.0
  0
LINE
  5
BD
330
1F
100
AcDbEntity
  8
2
  6
CONTINUOUS
 62
   253
100
AcDbLine
 10
673.6628782008002
 20
178.1335348360695
 30
0.0
 11
673.6628782008002
 21
178.5357429589302
 31
0.0
  0
LINE
  5
BE
330
1F
100
AcDbEntity
  8
2
  6
CONTINUOUS
 62
     7
100
AcDbLine
 10
680.1308636549002
 20
178.1487844721093
 30
0.0
 11
681.0370933203744
 21
173.5365755297355
 31
0.0
  0
ELLIPSE
  5
BF
330
1F
100
AcDbEntity
  8
2
  6
CONTINUOUS
 62
   253
100
AcDbEllipse
 10
674.0871573825167
 20
135.963532946761
 30
0.0
 11
-0.001538892159602944
 21
-0.4999976318053045
 31
0.0
210
0.0
220
0.0
230
1.0
 40
0.1736473800017425
 41
0.0177225631365709
 42
1.374622405887893
  0
LINE
  5
C0
330
1F
100
AcDbEntity
  8
2
  6
CONTINUOUS
 62
     7
100
AcDbLine
 10
616.9099942269658
 20
135.0
 30
0.0
 11
618.0
 21
135.0
 31
0.0
  0
LINE
  5
C1
330
1F
100
AcDbEntity
  8
2
  6
CONTINUOUS
 62
     7
100
AcDbLine
 10
622.78792408811
 20
178.5562217526183
 30
0.0
 11
618.6243632182819
 21
178.5690363556705
 31
0.0
  0
LINE
  5
C2
330
1F
100
AcDbEntity
  8
2
  6
CONTINUOUS
 62
     7
100
AcDbLine
 10
616.2053195368528
 20
140.4676072169958
 30
0.0
 11
615.9629066796256
 21
140.4634244702645
 31
0.0
  0
LINE
  5
C3
330
1F
100
AcDbEntity
  8
2
  6
CONTINUOUS
 62
   253
100
AcDbLine
 10
674.0871573825167
 20
135.4636090991828
 30
0.0
 11
673.6628782008002
 21
135.4642570410698
 31
0.0
  0
LINE
  5
C4
330
1F
100
AcDbEntity
  8
2
  6
CONTINUOUS
 62
     7
100
AcDbLine
 10
678.7887936544166
 20
178.577555136184
 30
0.0
 11
678.3756367817181
 21
178.5690363556705
 31
0.0
  0
LINE
  5
C5
330
1F
100
AcDbEntity
  8
2
  6
CONTINUOUS
 62
     7
100
AcDbLine
 10
616.8691363450998
 20
135.8512155278908
 30
0.0
 11
615.9629066796256
 21
140.4634244702645
 31
0.0
  0
LINE
  5
C6
330
1F
100
AcDbEntity
  8
2
  6
CONTINUOUS
 62
   253
100
AcDbLine
 10
673.6628782008002
 20
135.4642570410698
 30
0.0
 11
673.6628782008002
 21
135.8664651639305
 31
0.0
  0
LINE
  5
C7
330
1F
100
AcDbEntity
  8
2
  6
CONTINUOUS
 62
     7
100
AcDbLine
 10
678.3756367817181
 20
135.4309636443295
 30
0.0
 11
678.7887936544166
 21
135.4224448638161
 31
0.0
  0
LINE
  5
C8
330
1F
100
AcDbEntity
  8
2
  6
CONTINUOUS
 62
     7
100
AcDbLine
 10
680.7893601871725
 20
173.5321314993452
 30
0.0
 11
674.258478542423
 21
173.5120307590234
 31
0.0
  0
LINE
  5
C9
330
1F
100
AcDbEntity
  8
2
  6
CONTINUOUS
 62
   253
100
AcDbLine
 10
681.0372200424192
 20
173.5364586341675
 30
0.0
 11
681.0372200424192
 21
140.4635413658326
 31
0.0
  0
ELLIPSE
  5
CA
330
1F
100
AcDbEntity
  8
2
  6
CONTINUOUS
 62
   253
100
AcDbEllipse
 10
674.0871573825167
 20
178.036467053239
 30
0.0
 11
0.00153889215960436
 21
-0.4999976318053049
 31
0.0
210
0.0
220
0.0
230
1.0
 40
0.1736473800017377
 41
1.766970247701732
 42
3.123870090453
  0
LINE
  5
CB
330
1F
100
AcDbEntity
  8
2
  6
CONTINUOUS
 62
   253
100
AcDbLine
 10
615.9627799575808
 20
140.4635413658326
 30
0.0
 11
615.9627799575808
 21
173.5364586341674
 31
0.0
  0
LINE
  5
CC
330
1F
100
AcDbEntity
  8
2
  6
CONTINUOUS
 62
   253
100
AcDbLine
 10
674.1720153918399
 20
135.8658122724904
 30
0.0
 11
679.8870140021685
 21
135.848222656072
 31
0.0
  0
ELLIPSE
  5
CD
330
1F
100
AcDbEntity
  8
2
  6
CONTINUOUS
 62
   253
100
AcDbEllipse
 10
622.9128426174835
 20
178.036467053239
 30
0.0
 11
0.00153889215960519
 21
0.4999976318053045
 31
0.0
210
0.0
220
0.0
230
1.0
 40
0.1736473800017438
 41
0.0177225631365709
 42
1.374622405887839
  0
LINE
  5
CE
330
1F
100
AcDbEntity
  8
2
  6
CONTINUOUS
 62
     7
100
AcDbLine
 10
681.0370933203744
 20
140.4634244702645
 30
0.0
 11
680.1308636549002
 21
135.8512155278908
 31
0.0
  0
LINE
  5
CF
330
1F
100
AcDbEntity
  8
2
  6
CONTINUOUS
 62
     7
100
AcDbLine
 10
615.5523598778028
 20
151.75
 30
0.0
 11
615.5698122842401
 21
151.875
 31
0.0
  0
LINE
  5
D0
330
1F
100
AcDbEntity
  8
2
  6
CONTINUOUS
 62
     7
100
AcDbLine
 10
615.5872646906774
 20
152.0
 30
0.0
 11
615.6047170971148
 21
152.125
 31
0.0
  0
LINE
  5
D1
330
1F
100
AcDbEntity
  8
2
  6
CONTINUOUS
 62
     7
100
AcDbLine
 10
681.43018771576
 20
151.875
 30
0.0
 11
681.4127353093227
 21
152.0
 31
0.0
  0
LINE
  5
D2
330
1F
100
AcDbEntity
  8
2
  6
CONTINUOUS
 62
     7
100
AcDbLine
 10
681.4825449350718
 20
151.5
 30
0.0
 11
681.4650925286346
 21
151.625
 31
0.0
  0
ELLIPSE
  5
D3
330
1F
100
AcDbEntity
  8
2
  6
CONTINUOUS
 62
     7
100
AcDbEllipse
 10
615.6221695035521
 20
154.2655644370747
 30
0.0
 11
0.0
 21
-2.000000000000002
 31
0.0
210
0.0
220
0.0
230
1.0
 40
0.0174524064372835
 41
0.1243549945444013
 42
0.5235987755973837
  0
ELLIPSE
  5
D4
330
1F
100
AcDbEntity
  8
2
  6
CONTINUOUS
 62
     7
100
AcDbEllipse
 10
615.6221695035521
 20
154.2655644370747
 30
0.0
 11
0.0
 21
-2.000000000000002
 31
0.0
210
0.0
220
0.0
230
1.0
 40
0.0174524064372724
 41
0.5235987755985388
 42
1.570796326794924
  0
LINE
  5
D5
330
1F
100
AcDbEntity
  8
2
  6
CONTINUOUS
 62
     7
100
AcDbLine
 10
681.43018771576
 20
162.125
 30
0.0
 11
681.4476401221973
 21
162.25
 31
0.0
  0
ELLIPSE
  5
D6
330
1F
100
AcDbEntity
  8
2
  6
CONTINUOUS
 62
     7
100
AcDbEllipse
 10
615.6221695035521
 20
159.7344355629253
 30
0.0
 11
0.0
 21
-2.000000000000002
 31
0.0
210
0.0
220
0.0
230
1.0
 40
0.0174524064372846
 41
1.570796326794897
 42
2.61799387799245
  0
LINE
  5
D7
330
1F
100
AcDbEntity
  8
2
  6
CONTINUOUS
 62
     7
100
AcDbLine
 10
681.4127353093227
 20
162.0
 30
0.0
 11
681.43018771576
 21
162.125
 31
0.0
  0
LINE
  5
D8
330
1F
100
AcDbEntity
  8
2
  6
CONTINUOUS
 62
     7
100
AcDbLine
 10
615.5
 20
140.0007614082519
 30
0.0
 11
615.9627799575808
 21
140.4635413658326
 31
0.0
  0
LINE
  5
D9
330
1F
100
AcDbEntity
  8
2
  6
CONTINUOUS
 62
     7
100
AcDbLine
 10
615.5174550649283
 20
153.5
 30
0.0
 11
615.5
 21
153.5
 31
0.0
  0
LINE
  5
DA
330
1F
100
AcDbEntity
  8
2
  6
CONTINUOUS
 62
     7
100
AcDbLine
 10
681.5
 20
173.9992385917481
 30
0.0
 11
681.0372200424192
 21
173.5364586341675
 31
0.0
  0
LINE
  5
DB
330
1F
100
AcDbEntity
  8
2
  6
CONTINUOUS
 62
     7
100
AcDbLine
 10
678.9999999999999
 20
179.0
 30
0.0
 11
680.0900057730341
 21
179.0
 31
0.0
  0
LINE
  5
DC
330
1F
100
AcDbEntity
  8
2
  6
CONTINUOUS
 62
     7
100
AcDbLine
 10
615.9627799575808
 20
173.5364586341675
 30
0.0
 11
615.5
 21
173.9992385917481
 31
0.0
  0
LINE
  5
DD
330
1F
100
AcDbEntity
  8
2
  6
CONTINUOUS
 62
     7
100
AcDbLine
 10
681.4650925286346
 20
162.375
 30
0.0
 11
681.4825449350718
 21
162.5
 31
0.0
  0
LINE
  5
DE
330
1F
100
AcDbEntity
  8
2
  6
CONTINUOUS
 62
     7
100
AcDbLine
 10
615.6570743164266
 20
154.2655644370747
 30
0.0
 11
615.6570743164266
 21
159.7344355629253
 31
0.0
  0
LINE
  5
DF
330
1F
100
AcDbEntity
  8
2
  6
CONTINUOUS
 62
     7
100
AcDbLine
 10
681.4127353093227
 20
152.0
 30
0.0
 11
681.3952829028854
 21
152.125
 31
0.0
  0
LINE
  5
E0
330
1F
100
AcDbEntity
  8
2
  6
CONTINUOUS
 62
     7
100
AcDbLine
 10
615.5
 20
140.0007614082519
 30
0.0
 11
615.5
 21
153.5
 31
0.0
  0
LINE
  5
E1
330
1F
100
AcDbEntity
  8
2
  6
CONTINUOUS
 62
     7
100
AcDbLine
 10
616.2106398128275
 20
102.3028526172536
 30
0.0
 11
616.2053195368528
 21
102.3018649548591
 31
0.0
  0
ELLIPSE
  5
E2
330
1F
100
AcDbEntity
  8
2
  6
CONTINUOUS
 62
     7
100
AcDbEllipse
 10
681.377830496448
 20
154.2655644370747
 30
0.0
 11
0.0
 21
-2.000000000000002
 31
0.0
210
0.0
220
0.0
230
-1.0
 40
0.0174524064372723
 41
0.5235987755985382
 42
1.570796326794924
  0
LINE
  5
E3
330
1F
100
AcDbEntity
  8
2
  6
CONTINUOUS
 62
     7
100
AcDbLine
 10
681.0372200424192
 20
140.4635413658326
 30
0.0
 11
681.5
 21
140.0007614082519
 31
0.0
  0
LINE
  5
E4
330
1F
100
AcDbEntity
  8
2
  6
CONTINUOUS
 62
     7
100
AcDbLine
 10
616.9099942269658
 20
179.0
 30
0.0
 11
618.0
 21
179.0
 31
0.0
  0
LINE
  5
E5
330
1F
100
AcDbEntity
  8
2
  6
CONTINUOUS
 62
     7
100
AcDbLine
 10
681.3952829028854
 20
161.875
 30
0.0
 11
681.4127353093227
 21
162.0
 31
0.0
  0
LINE
  5
E6
330
1F
100
AcDbEntity
  8
2
  6
CONTINUOUS
 62
     7
100
AcDbLine
 10
681.5
 20
140.0007614082519
 30
0.0
 11
681.5000000000001
 21
153.5
 31
0.0
  0
LINE
  5
E7
330
1F
100
AcDbEntity
  8
2
  6
CONTINUOUS
 62
     7
100
AcDbLine
 10
681.0370933203744
 20
173.5365755297355
 30
0.0
 11
680.7946804631471
 21
173.5323927830042
 31
0.0
  0
LINE
  5
E8
330
1F
100
AcDbEntity
  8
2
  6
CONTINUOUS
 62
   253
100
AcDbLine
 10
622.9128426174835
 20
178.5363909008172
 30
0.0
 11
623.3371217992001
 21
178.5357429589302
 31
0.0
  0
LINE
  5
E9
330
1F
100
AcDbEntity
  8
2
  6
CONTINUOUS
 62
     7
100
AcDbLine
 10
681.3429256835735
 20
154.2655644370747
 30
0.0
 11
681.3429256835735
 21
159.7344355629253
 31
0.0
  0
LINE
  5
EA
330
1F
100
AcDbEntity
  8
2
  6
CONTINUOUS
 62
     7
100
AcDbLine
 10
681.4825449350718
 20
153.5
 30
0.0
 11
681.4825449350718
 21
151.5
 31
0.0
  0
LINE
  5
EB
330
1F
100
AcDbEntity
  8
2
  6
CONTINUOUS
 62
     7
100
AcDbLine
 10
615.5174550649283
 20
151.5
 30
0.0
 11
615.5349074713655
 21
151.625
 31
0.0
  0
LINE
  5
EC
330
1F
100
AcDbEntity
  8
2
  6
CONTINUOUS
 62
     7
100
AcDbLine
 10
658.3091802087486
 20
64.10956364590453
 30
0.0
 11
658.313829961266
 21
64.05233595624294
 31
0.0
  0
LINE
  5
ED
330
1F
100
AcDbEntity
  8
2
  6
CONTINUOUS
 62
     7
100
AcDbLine
 10
679.0
 20
75.50000000000001
 30
0.0
 11
680.0900057730342
 21
75.50000000000001
 31
0.0
  0
LINE
  5
EE
330
1F
100
AcDbEntity
  8
2
  6
CONTINUOUS
 62
     7
100
AcDbLine
 10
615.5174550649283
 20
153.5
 30
0.0
 11
615.5174550649283
 21
151.5
 31
0.0
  0
LINE
  5
EF
330
1F
100
AcDbEntity
  8
2
  6
CONTINUOUS
 62
     7
100
AcDbLine
 10
615.5698122842401
 20
151.875
 30
0.0
 11
615.5872646906774
 21
152.0
 31
0.0
  0
LINE
  5
F0
330
1F
100
AcDbEntity
  8
2
  6
CONTINUOUS
 62
   253
100
AcDbLine
 10
622.9128426174834
 20
135.4636090991828
 30
0.0
 11
617.3565020272092
 21
135.4465078002435
 31
0.0
  0
ELLIPSE
  5
F1
330
1F
100
AcDbEntity
  8
2
  6
CONTINUOUS
 62
     7
100
AcDbEllipse
 10
681.377830496448
 20
159.7344355629253
 30
0.0
 11
0.0
 21
-2.000000000000002
 31
0.0
210
0.0
220
0.0
230
-1.0
 40
0.0174524064372723
 41
2.617993877991305
 42
3.017237659044283
  0
LINE
  5
F2
330
1F
100
AcDbEntity
  8
2
  6
CONTINUOUS
 62
     7
100
AcDbLine
 10
615.622169503552
 20
152.25
 30
0.0
 11
615.6264989127528
 21
152.2810086836473
 31
0.0
  0
ELLIPSE
  5
F3
330
1F
100
AcDbEntity
  8
2
  6
CONTINUOUS
 62
     7
100
AcDbEllipse
 10
681.377830496448
 20
159.7344355629253
 30
0.0
 11
0.0
 21
-2.000000000000002
 31
0.0
210
0.0
220
0.0
230
-1.0
 40
0.0174524064372843
 41
1.570796326794897
 42
2.617993877992481
  0
LINE
  5
F4
330
1F
100
AcDbEntity
  8
2
  6
CONTINUOUS
 62
     7
100
AcDbLine
 10
616.4197803709102
 20
135.4018595537011
 30
0.0
 11
615.5
 21
140.0007614082519
 31
0.0
  0
LINE
  5
F5
330
1F
100
AcDbEntity
  8
2
  6
CONTINUOUS
 62
     7
100
AcDbLine
 10
681.3778304964482
 20
152.25
 30
0.0
 11
681.3735010872474
 21
152.2810086836473
 31
0.0
  0
LINE
  5
F6
330
1F
100
AcDbEntity
  8
2
  6
CONTINUOUS
 62
     7
100
AcDbLine
 10
678.9999999999999
 20
179.0
 30
0.0
 11
678.7887936544166
 21
178.577555136184
 31
0.0
  0
LINE
  5
F7
330
1F
100
AcDbEntity
  8
2
  6
CONTINUOUS
 62
     7
100
AcDbLine
 10
681.5000000000001
 20
160.5
 30
0.0
 11
681.5
 21
173.9992385917481
 31
0.0
  0
LINE
  5
F8
330
1F
100
AcDbEntity
  8
2
  6
CONTINUOUS
 62
     7
100
AcDbLine
 10
681.3735010872474
 20
161.7189913163527
 30
0.0
 11
681.377830496448
 21
161.75
 31
0.0
  0
LINE
  5
F9
330
1F
100
AcDbEntity
  8
2
  6
CONTINUOUS
 62
     7
100
AcDbLine
 10
615.5
 20
173.9992385917481
 30
0.0
 11
616.4197803709102
 21
178.5981404462989
 31
0.0
  0
LINE
  5
FA
330
1F
100
AcDbEntity
  8
2
  6
CONTINUOUS
 62
     7
100
AcDbLine
 10
681.4650925286346
 20
151.625
 30
0.0
 11
681.4476401221973
 21
151.75
 31
0.0
  0
LINE
  5
FB
330
1F
100
AcDbEntity
  8
2
  6
CONTINUOUS
 62
     7
100
AcDbLine
 10
681.4476401221973
 20
162.25
 30
0.0
 11
681.4650925286346
 21
162.375
 31
0.0
  0
LINE
  5
FC
330
1F
100
AcDbEntity
  8
2
  6
CONTINUOUS
 62
     7
100
AcDbLine
 10
678.3756367817181
 20
178.5690363556705
 30
0.0
 11
674.2120759118901
 21
178.5562217526183
 31
0.0
  0
LINE
  5
FD
330
1F
100
AcDbEntity
  8
2
  6
CONTINUOUS
 62
     7
100
AcDbLine
 10
615.6047170971148
 20
152.125
 30
0.0
 11
615.622169503552
 21
152.25
 31
0.0
  0
LINE
  5
FE
330
1F
100
AcDbEntity
  8
2
  6
CONTINUOUS
 62
     7
100
AcDbLine
 10
681.4825449350718
 20
162.5
 30
0.0
 11
681.4825449350718
 21
160.5
 31
0.0
  0
LINE
  5
FF
330
1F
100
AcDbEntity
  8
2
  6
CONTINUOUS
 62
     7
100
AcDbLine
 10
681.3952829028854
 20
152.125
 30
0.0
 11
681.3778304964482
 21
152.25
 31
0.0
  0
LINE
  5
100
330
1F
100
AcDbEntity
  8
2
  6
CONTINUOUS
 62
     7
100
AcDbLine
 10
678.9999999999999
 20
135.0
 30
0.0
 11
680.0900057730341
 21
135.0
 31
0.0
  0
LINE
  5
101
330
1F
100
AcDbEntity
  8
2
  6
CONTINUOUS
 62
     7
100
AcDbLine
 10
681.5
 20
140.0007614082519
 30
0.0
 11
680.5802196290897
 21
135.4018595537011
 31
0.0
  0
LINE
  5
102
330
1F
100
AcDbEntity
  8
2
  6
CONTINUOUS
 62
     7
100
AcDbLine
 10
681.0372200424192
 20
102.0126460132811
 30
0.0
 11
681.0370933203744
 21
102.0175797737543
 31
0.0
  0
LINE
  5
103
330
1F
100
AcDbEntity
  8
2
  6
CONTINUOUS
 62
   253
100
AcDbLine
 10
617.1123337111399
 20
101.527201667159
 30
0.0
 11
617.1129859978316
 21
101.5266722571602
 31
0.0
  0
LINE
  5
104
330
1F
100
AcDbEntity
  8
2
  6
CONTINUOUS
 62
     7
100
AcDbLine
 10
680.5802196290897
 20
178.5981404462989
 30
0.0
 11
681.5
 21
173.9992385917481
 31
0.0
  0
LINE
  5
105
330
1F
100
AcDbEntity
  8
2
  6
CONTINUOUS
 62
   253
100
AcDbLine
 10
673.6628782008002
 20
135.4642570410698
 30
0.0
 11
623.3371217992001
 21
135.4642570410698
 31
0.0
  0
LINE
  5
106
330
1F
100
AcDbEntity
  8
2
  6
CONTINUOUS
 62
     7
100
AcDbLine
 10
681.4825449350718
 20
160.5
 30
0.0
 11
681.5000000000001
 21
160.5
 31
0.0
  0
LINE
  5
107
330
1F
100
AcDbEntity
  8
2
  6
CONTINUOUS
 62
     7
100
AcDbLine
 10
681.4476401221973
 20
151.75
 30
0.0
 11
681.43018771576
 21
151.875
 31
0.0
  0
ELLIPSE
  5
108
330
1F
100
AcDbEntity
  8
2
  6
CONTINUOUS
 62
     7
100
AcDbEllipse
 10
681.377830496448
 20
154.2655644370747
 30
0.0
 11
0.0
 21
-2.000000000000002
 31
0.0
210
0.0
220
0.0
230
-1.0
 40
0.0174524064372834
 41
0.1243549945444013
 42
0.5235987755973839
  0
LINE
  5
109
330
1F
100
AcDbEntity
  8
2
  6
CONTINUOUS
 62
     7
100
AcDbLine
 10
615.9629066796256
 20
140.4634244702645
 30
0.0
 11
615.9627799575808
 21
140.4635413658326
 31
0.0
  0
LINE
  5
10A
330
1F
100
AcDbEntity
  8
2
  6
CONTINUOUS
 62
     7
100
AcDbLine
 10
681.377830496448
 20
161.75
 30
0.0
 11
681.3952829028854
 21
161.875
 31
0.0
  0
LINE
  5
10B
330
1F
100
AcDbEntity
  8
2
  6
CONTINUOUS
 62
     7
100
AcDbLine
 10
615.5349074713655
 20
151.625
 30
0.0
 11
615.5523598778028
 21
151.75
 31
0.0
  0
LINE
  5
10C
330
1F
100
AcDbEntity
  8
2
  6
CONTINUOUS
 62
     7
100
AcDbLine
 10
681.4825449350718
 20
153.5
 30
0.0
 11
681.5000000000001
 21
153.5
 31
0.0
  0
LINE
  5
10D
330
1F
100
AcDbEntity
  8
2
  6
CONTINUOUS
 62
     7
100
AcDbLine
 10
660.501372345998
 20
60.5
 30
0.0
 11
677.869058904753
 21
60.5
 31
0.0
  0
LINE
  5
10E
330
1F
100
AcDbEntity
  8
2
  6
CONTINUOUS
 62
     7
100
AcDbLine
 10
646.3965567874319
 20
62.99037280859254
 30
0.0
 11
646.3965567874319
 21
62.99999999999997
 31
0.0
  0
LINE
  5
10F
330
1F
100
AcDbEntity
  8
2
  6
CONTINUOUS
 62
     7
100
AcDbLine
 10
616.9099942269659
 20
75.50000000000001
 30
0.0
 11
618.0000000000001
 21
75.50000000000001
 31
0.0
  0
LINE
  5
110
330
1F
100
AcDbEntity
  8
2
  6
CONTINUOUS
 62
     7
100
AcDbLine
 10
645.5000000000001
 20
60.5
 30
0.0
 11
646.501372345998
 21
60.5
 31
0.0
  0
LINE
  5
111
330
1F
100
AcDbEntity
  8
2
  6
CONTINUOUS
 62
     7
100
AcDbLine
 10
649.2500000000001
 20
62.49999999999997
 30
0.0
 11
649.2500000000001
 21
60.49999999999997
 31
0.0
  0
LINE
  5
112
330
1F
100
AcDbEntity
  8
2
  6
CONTINUOUS
 62
     7
100
AcDbLine
 10
651.6306911161427
 20
62.99085308656288
 30
0.0
 11
650.6034432125682
 21
62.99039264020162
 31
0.0
  0
ARC
  5
113
330
1F
100
AcDbEntity
  8
2
  6
CONTINUOUS
 62
     7
100
AcDbCircle
 10
-677.5803252620608
 20
66.3
 30
0.0
 40
1.000000000000001
210
0.0
220
0.0
230
-1.0
100
AcDbArc
 50
319.6435073252026
 51
359.4999999999997
  0
LINE
  5
114
330
1F
100
AcDbEntity
  8
2
  6
CONTINUOUS
 62
     7
100
AcDbLine
 10
650.4986276540021
 20
60.5
 30
0.0
 11
651.5000000000001
 21
60.5
 31
0.0
  0
LINE
  5
115
330
1F
100
AcDbEntity
  8
2
  6
CONTINUOUS
 62
     7
100
AcDbLine
 10
676.5803633389966
 20
66.29127346450161
 30
0.0
 11
676.2813118785639
 21
100.5591766346841
 31
0.0
  0
LINE
  5
116
330
1F
100
AcDbEntity
  8
2
  6
CONTINUOUS
 62
     7
100
AcDbLine
 10
637.8696667247914
 20
62.99999999999997
 30
0.0
 11
637.3689805517924
 21
62.99999999999997
 31
0.0
  0
LINE
  5
117
330
1F
100
AcDbEntity
  8
2
  6
CONTINUOUS
 62
     7
100
AcDbLine
 10
619.105702573526
 20
74.6191452206184
 30
0.0
 11
620.5000000000001
 21
63.0
 31
0.0
  0
LINE
  5
118
330
1F
100
AcDbEntity
  8
2
  6
CONTINUOUS
 62
     7
100
AcDbLine
 10
648.0386751345949
 20
62.99999999999997
 30
0.0
 11
648.5000000000001
 21
62.99999999999994
 31
0.0
  0
LINE
  5
119
330
1F
100
AcDbEntity
  8
2
  6
CONTINUOUS
 62
     7
100
AcDbLine
 10
616.9099942269659
 20
75.50000000000001
 30
0.0
 11
616.4197803709103
 21
75.50000000000001
 31
0.0
  0
LINE
  5
11A
330
1F
100
AcDbEntity
  8
2
  6
CONTINUOUS
 62
     7
100
AcDbLine
 10
674.2525988610813
 20
103.4554539750409
 30
0.0
 11
673.7434634481181
 21
103.4999941402871
 31
0.0
  0
LINE
  5
11B
330
1F
100
AcDbEntity
  8
2
  6
CONTINUOUS
 62
     7
100
AcDbLine
 10
680.7946804631472
 20
102.3018649548591
 30
0.0
 11
680.7893601871725
 21
102.3028526172536
 31
0.0
  0
LINE
  5
11C
330
1F
100
AcDbEntity
  8
2
  6
CONTINUOUS
 62
     7
100
AcDbLine
 10
658.4266291090038
 20
61.89999999999998
 30
0.0
 11
658.5000000000001
 21
60.49999999999999
 31
0.0
  0
ARC
  5
11D
330
1F
100
AcDbEntity
  8
2
  6
CONTINUOUS
 62
     7
100
AcDbCircle
 10
-623.6561649764448
 20
96.0
 30
0.0
 40
5.000000000000001
210
0.0
220
0.0
230
-1.0
100
AcDbArc
 50
80.00000000000004
 51
90.00000000000001
  0
LINE
  5
11E
330
1F
100
AcDbEntity
  8
2
  6
CONTINUOUS
 62
     7
100
AcDbLine
 10
637.8696667247914
 20
62.99999999999997
 30
0.0
 11
638.6310194482077
 21
62.99999999999997
 31
0.0
  0
ARC
  5
11F
330
1F
100
AcDbEntity
  8
2
  6
CONTINUOUS
 62
     7
100
AcDbCircle
 10
623.262465990578
 20
100.5
 30
0.0
 40
3.0
100
AcDbArc
 50
99.88599397203683
 51
100.0000000000011
  0
ARC
  5
120
330
1F
100
AcDbEntity
  8
2
  6
CONTINUOUS
 62
     7
100
AcDbCircle
 10
-673.3438350235556
 20
96.0
 30
0.0
 40
5.000000000000001
210
0.0
220
0.0
230
-1.0
100
AcDbArc
 50
90.0
 51
99.99999999999997
  0
LINE
  5
121
330
1F
100
AcDbEntity
  8
2
  6
CONTINUOUS
 62
     7
100
AcDbLine
 10
679.0
 20
75.50000000000001
 30
0.0
 11
678.7887936544167
 21
99.70185003913146
 31
0.0
  0
LINE
  5
122
330
1F
100
AcDbEntity
  8
2
  6
CONTINUOUS
 62
     7
100
AcDbLine
 10
647.75
 20
60.49999999999997
 30
0.0
 11
648.5000000000001
 21
60.49999999999997
 31
0.0
  0
LINE
  5
123
330
1F
100
AcDbEntity
  8
2
  6
CONTINUOUS
 62
     7
100
AcDbLine
 10
637.5
 20
60.5
 30
0.0
 11
638.000686172999
 21
60.5
 31
0.0
  0
LINE
  5
124
330
1F
100
AcDbEntity
  8
2
  6
CONTINUOUS
 62
     7
100
AcDbLine
 10
681.0372200424192
 20
102.0126460132811
 30
0.0
 11
681.5
 21
75.50000000000003
 31
0.0
  0
LINE
  5
125
330
1F
100
AcDbEntity
  8
2
  6
CONTINUOUS
 62
     7
100
AcDbLine
 10
680.5802196290897
 20
75.50000000000001
 30
0.0
 11
680.0900057730341
 21
75.50000000000001
 31
0.0
  0
LINE
  5
126
330
1F
100
AcDbEntity
  8
2
  6
CONTINUOUS
 62
     7
100
AcDbLine
 10
646.501372345998
 20
60.5
 30
0.0
 11
647.7500000000001
 21
60.49999999999997
 31
0.0
  0
LINE
  5
127
330
1F
100
AcDbEntity
  8
2
  6
CONTINUOUS
 62
     7
100
AcDbLine
 10
678.8871742649612
 20
75.49999999999999
 30
0.0
 11
679.0000000000001
 21
75.49999999999999
 31
0.0
  0
LINE
  5
128
330
1F
100
AcDbEntity
  8
2
  6
CONTINUOUS
 62
     7
100
AcDbLine
 10
618.2112063455834
 20
99.70185003913143
 30
0.0
 11
618.0000000000001
 21
75.50000000000001
 31
0.0
  0
LINE
  5
129
330
1F
100
AcDbEntity
  8
2
  6
CONTINUOUS
 62
     7
100
AcDbLine
 10
673.3438350235556
 20
101.0
 30
0.0
 11
623.6561649764448
 21
101.0
 31
0.0
  0
LINE
  5
12A
330
1F
100
AcDbEntity
  8
2
  6
CONTINUOUS
 62
     7
100
AcDbLine
 10
646.3965567874319
 20
62.99999999999997
 30
0.0
 11
648.0386751345949
 21
62.99999999999997
 31
0.0
  0
LINE
  5
12B
330
1F
100
AcDbEntity
  8
2
  6
CONTINUOUS
 62
     7
100
AcDbLine
 10
618.0000000000001
 20
75.49999999999999
 30
0.0
 11
618.112825735039
 21
75.49999999999999
 31
0.0
  0
LINE
  5
12C
330
1F
100
AcDbEntity
  8
2
  6
CONTINUOUS
 62
     7
100
AcDbLine
 10
648.5000000000001
 20
62.99999999999997
 30
0.0
 11
648.9613248654052
 21
63.0
 31
0.0
  0
ARC
  5
12D
330
1F
100
AcDbEntity
  8
2
  6
CONTINUOUS
 62
     7
100
AcDbCircle
 10
-618.112825735039
 20
74.49999999999999
 30
0.0
 40
1.000000000000001
210
0.0
220
0.0
230
-1.0
100
AcDbArc
 50
90.0
 51
173.1572265873691
  0
ARC
  5
12E
330
1F
100
AcDbEntity
  8
2
  6
CONTINUOUS
 62
     7
100
AcDbCircle
 10
-678.8871742649612
 20
74.49999999999999
 30
0.0
 40
1.000000000000001
210
0.0
220
0.0
230
-1.0
100
AcDbArc
 50
6.84277341263097
 51
90.00000000000001
  0
LINE
  5
12F
330
1F
100
AcDbEntity
  8
2
  6
CONTINUOUS
 62
     7
100
AcDbLine
 10
615.5
 20
75.50000000000001
 30
0.0
 11
615.9627799575808
 21
102.0126460132811
 31
0.0
  0
LINE
  5
130
330
1F
100
AcDbEntity
  8
2
  6
CONTINUOUS
 62
     7
100
AcDbLine
 10
678.3756367817181
 20
100.1898906478884
 30
0.0
 11
674.2120759118901
 21
100.9240387650611
 31
0.0
  0
LINE
  5
131
330
1F
100
AcDbEntity
  8
2
  6
CONTINUOUS
 62
     7
100
AcDbLine
 10
649.2500000000001
 20
60.49999999999997
 30
0.0
 11
650.4986276540021
 21
60.5
 31
0.0
  0
LINE
  5
132
330
1F
100
AcDbEntity
  8
2
  6
CONTINUOUS
 62
     7
100
AcDbLine
 10
658.9993138270012
 20
60.5
 30
0.0
 11
658.5000000000001
 21
60.5
 31
0.0
  0
LINE
  5
133
330
1F
100
AcDbEntity
  8
2
  6
CONTINUOUS
 62
     7
100
AcDbLine
 10
674.2584785424231
 20
103.4544232590366
 30
0.0
 11
680.7893601871725
 21
102.3028526172536
 31
0.0
  0
LINE
  5
134
330
1F
100
AcDbEntity
  8
2
  6
CONTINUOUS
 62
     7
100
AcDbLine
 10
638.5
 20
60.5
 30
0.0
 11
638.000686172999
 21
60.5
 31
0.0
  0
LINE
  5
135
330
1F
100
AcDbEntity
  8
2
  6
CONTINUOUS
 62
     7
100
AcDbLine
 10
658.2292476145277
 20
64.40560786244798
 30
0.0
 11
658.3091802087486
 21
64.1095636459045
 31
0.0
  0
LINE
  5
136
330
1F
100
AcDbEntity
  8
2
  6
CONTINUOUS
 62
     7
100
AcDbLine
 10
616.2106398128275
 20
102.3028526172536
 30
0.0
 11
622.7415214575772
 21
103.4544232590366
 31
0.0
  0
LINE
  5
137
330
1F
100
AcDbEntity
  8
2
  6
CONTINUOUS
 62
     7
100
AcDbLine
 10
638.6861700387341
 20
64.05233595624293
 30
0.0
 11
638.7707523661202
 21
64.40560781883745
 31
0.0
  0
LINE
  5
138
330
1F
100
AcDbEntity
  8
2
  6
CONTINUOUS
 62
     7
100
AcDbLine
 10
676.5000000000001
 20
62.99999999999997
 30
0.0
 11
677.8942974264743
 21
74.61914522061839
 31
0.0
  0
LINE
  5
139
330
1F
100
AcDbEntity
  8
2
  6
CONTINUOUS
 62
     7
100
AcDbLine
 10
648.9613248654052
 20
62.99999999999997
 30
0.0
 11
650.6034432125682
 21
62.99999999999997
 31
0.0
  0
LINE
  5
13A
330
1F
100
AcDbEntity
  8
2
  6
CONTINUOUS
 62
     7
100
AcDbLine
 10
616.4197803709102
 20
75.50000000000001
 30
0.0
 11
615.5
 21
75.50000000000001
 31
0.0
  0
LINE
  5
13B
330
1F
100
AcDbEntity
  8
2
  6
CONTINUOUS
 62
     7
100
AcDbLine
 10
659.6310194482077
 20
62.99999999999997
 30
0.0
 11
659.1303332752087
 21
62.99999999999997
 31
0.0
  0
LINE
  5
13C
330
1F
100
AcDbEntity
  8
2
  6
CONTINUOUS
 62
     7
100
AcDbLine
 10
658.3689805517924
 20
62.99999999999997
 30
0.0
 11
659.1303332752087
 21
62.99999999999997
 31
0.0
  0
LINE
  5
13D
330
1F
100
AcDbEntity
  8
2
  6
CONTINUOUS
 62
     7
100
AcDbLine
 10
638.5
 20
60.5
 30
0.0
 11
638.5733708909963
 21
61.9
 31
0.0
  0
ARC
  5
13E
330
1F
100
AcDbEntity
  8
2
  6
CONTINUOUS
 62
     7
100
AcDbCircle
 10
-619.4196747379393
 20
66.3
 30
0.0
 40
0.9999999999999996
210
0.0
220
0.0
230
-1.0
100
AcDbArc
 50
180.5000000000002
 51
220.3564926747977
  0
LINE
  5
13F
330
1F
100
AcDbEntity
  8
2
  6
CONTINUOUS
 62
     7
100
AcDbLine
 10
648.5000000000001
 20
60.49999999999997
 30
0.0
 11
649.2500000000001
 21
60.49999999999997
 31
0.0
  0
LINE
  5
140
330
1F
100
AcDbEntity
  8
2
  6
CONTINUOUS
 62
     7
100
AcDbLine
 10
651.5000000000001
 20
60.5
 30
0.0
 11
651.5733708909963
 21
61.9
 31
0.0
  0
LINE
  5
141
330
1F
100
AcDbEntity
  8
2
  6
CONTINUOUS
 62
     7
100
AcDbLine
 10
623.256536551882
 20
103.4999941402871
 30
0.0
 11
622.7474011389188
 21
103.4554539750409
 31
0.0
  0
LINE
  5
142
330
1F
100
AcDbEntity
  8
2
  6
CONTINUOUS
 62
     7
100
AcDbLine
 10
645.5000000000001
 20
60.5
 30
0.0
 11
638.5
 21
60.5
 31
0.0
  0
LINE
  5
143
330
1F
100
AcDbEntity
  8
2
  6
CONTINUOUS
 62
     7
100
AcDbLine
 10
645.4266291090038
 20
61.89999999999998
 30
0.0
 11
645.5000000000001
 21
60.49999999999999
 31
0.0
  0
LINE
  5
144
330
1F
100
AcDbEntity
  8
2
  6
CONTINUOUS
 62
     7
100
AcDbLine
 10
648.5000000000001
 20
62.99999999999997
 30
0.0
 11
648.5000000000001
 21
60.49999999999997
 31
0.0
  0
LINE
  5
145
330
1F
100
AcDbEntity
  8
2
  6
CONTINUOUS
 62
     7
100
AcDbLine
 10
647.75
 20
62.49999999999997
 30
0.0
 11
647.75
 21
60.49999999999997
 31
0.0
  0
ARC
  5
146
330
1F
100
AcDbEntity
  8
2
  6
CONTINUOUS
 62
     7
100
AcDbCircle
 10
673.7375340094221
 20
100.5
 30
0.0
 40
3.000000000000001
100
AcDbArc
 50
79.99999999999882
 51
80.1140060279633
  0
LINE
  5
147
330
1F
100
AcDbEntity
  8
2
  6
CONTINUOUS
 62
     7
100
AcDbLine
 10
622.78792408811
 20
100.9240387650611
 30
0.0
 11
618.6243632182819
 21
100.1898906478884
 31
0.0
  0
LINE
  5
148
330
1F
100
AcDbEntity
  8
2
  6
CONTINUOUS
 62
     7
100
AcDbLine
 10
658.5000000000001
 20
60.5
 30
0.0
 11
651.5000000000001
 21
60.5
 31
0.0
  0
LINE
  5
149
330
1F
100
AcDbEntity
  8
2
  6
CONTINUOUS
 62
     7
100
AcDbLine
 10
650.6034432125682
 20
62.99999999999997
 30
0.0
 11
650.6034432125682
 21
62.990372457152
 31
0.0
  0
LINE
  5
14A
330
1F
100
AcDbEntity
  8
2
  6
CONTINUOUS
 62
     7
100
AcDbLine
 10
681.5
 20
75.50000000000001
 30
0.0
 11
680.5802196290898
 21
75.50000000000001
 31
0.0
  0
LINE
  5
14B
330
1F
100
AcDbEntity
  8
2
  6
CONTINUOUS
 62
     7
100
AcDbLine
 10
615.9629066796256
 20
102.0175797737543
 30
0.0
 11
615.9627799575808
 21
102.0126460132811
 31
0.0
  0
LINE
  5
14C
330
1F
100
AcDbEntity
  8
2
  6
CONTINUOUS
 62
     7
100
AcDbLine
 10
658.9993138270012
 20
60.5
 30
0.0
 11
659.5000000000001
 21
60.5
 31
0.0
  0
LINE
  5
14D
330
1F
100
AcDbEntity
  8
2
  6
CONTINUOUS
 62
   253
100
AcDbLine
 10
623.3371217992001
 20
178.1335348360695
 30
0.0
 11
622.8279846081604
 21
178.1341877275096
 31
0.0
  0
LINE
  5
14E
330
1F
100
AcDbEntity
  8
2
  6
CONTINUOUS
 62
     7
100
AcDbLine
 10
681.5000000000001
 20
153.5
 30
0.0
 11
681.5000000000001
 21
160.5
 31
0.0
  0
LINE
  5
14F
330
1F
100
AcDbEntity
  8
2
  6
CONTINUOUS
 62
     7
100
AcDbLine
 10
615.5
 20
160.5
 30
0.0
 11
615.5
 21
173.9992385917481
 31
0.0
  0
LINE
  5
150
330
1F
100
AcDbEntity
  8
2
  6
CONTINUOUS
 62
   253
100
AcDbLine
 10
622.7415214575772
 20
140.4879692409766
 30
0.0
 11
622.7415214575772
 21
173.5120307590234
 31
0.0
  0
ELLIPSE
  5
151
330
1F
100
AcDbEntity
  8
2
  6
CONTINUOUS
 62
     7
100
AcDbEllipse
 10
680.0898534565905
 20
135.5000761640219
 30
0.0
 11
-0.3536610945847896
 21
0.3536610945847896
 31
0.0
210
0.0
220
0.0
230
1.0
 40
0.9996954598818865
 41
2.356346783439936
 42
3.729454686988622
  0
LINE
  5
152
330
1F
100
AcDbEntity
  8
0
  6
CENTER
 62
     1
100
AcDbLine
 10
648.5000000000001
 20
55.0
 30
0.0
 11
648.5000000000001
 21
107.5
 31
0.0
  0
ELLIPSE
  5
154
330
1F
100
AcDbEntity
  8
2
  6
CONTINUOUS
 62
     7
100
AcDbEllipse
 10
673.7375340094221
 20
188.5658853294941
 30
0.0
 11
-0.5399217854697134
 21
15.05348521842583
 31
0.0
210
0.0
220
0.0
230
1.0
 40
0.1960352768186727
 41
3.133175851340412
 42
3.135165631895479
  0
LINE
  5
155
330
1F
100
AcDbEntity
  8
2
  6
CONTINUOUS
 62
   253
100
AcDbLine
 10
674.258478542423
 20
173.5120307590234
 30
0.0
 11
674.258478542423
 21
140.4879692409766
 31
0.0
  0
LINE
  5
156
330
1F
100
AcDbEntity
  8
2
  6
CONTINUOUS
 62
   253
100
AcDbLine
 10
674.1720153918399
 20
178.1341877275096
 30
0.0
 11
674.2525988610813
 21
173.512042466522
 31
0.0
  0
LINE
  5
157
330
1F
100
AcDbEntity
  8
2
  6
CONTINUOUS
 62
     7
100
AcDbLine
 10
680.0900057730342
 20
179.0
 30
0.0
 11
679.0
 21
179.0
 31
0.0
  0
LINE
  5
158
330
1F
100
AcDbEntity
  8
2
  6
CONTINUOUS
 62
     7
100
AcDbLine
 10
615.5
 20
153.5
 30
0.0
 11
615.5
 21
160.5
 31
0.0
  0
LINE
  5
159
330
1F
100
AcDbEntity
  8
2
  6
CONTINUOUS
 62
     7
100
AcDbLine
 10
623.256536551882
 20
140.4887124126808
 30
0.0
 11
622.7474011389188
 21
140.487957533478
 31
0.0
  0
LINE
  5
15A
330
1F
100
AcDbEntity
  8
2
  6
CONTINUOUS
 62
     7
100
AcDbLine
 10
616.4197803709103
 20
178.5981404462989
 30
0.0
 11
615.5
 21
173.9992385917481
 31
0.0
  0
LINE
  5
15B
330
1F
100
AcDbEntity
  8
2
  6
CONTINUOUS
 62
     7
100
AcDbLine
 10
623.262465990578
 20
140.4887418179902
 30
0.0
 11
673.7375340094221
 21
140.4887418179902
 31
0.0
  0
LINE
  5
15C
330
1F
100
AcDbEntity
  8
2
  6
CONTINUOUS
 62
     7
100
AcDbLine
 10
620.7186881214362
 20
100.5591766346841
 30
0.0
 11
620.4196366610036
 21
66.29127346450161
 31
0.0
  0
ELLIPSE
  5
15D
330
1F
100
AcDbEntity
  8
2
  6
CONTINUOUS
 62
     7
100
AcDbEllipse
 10
673.7375340094221
 20
125.434114670506
 30
0.0
 11
0.5399217854697136
 21
15.0534852184258
 31
0.0
210
0.0
220
0.0
230
1.0
 40
0.1960352768186732
 41
0.0064270216942937
 42
0.0084168022493936
  0
LINE
  5
15E
330
1F
100
AcDbEntity
  8
0
  6
CENTER
 62
     1
100
AcDbLine
 10
738.5000000000003
 20
55.00000000000031
 30
0.0
 11
738.5000000000001
 21
107.5000000000003
 31
0.0
  0
ELLIPSE
  5
15F
330
1F
100
AcDbEntity
  8
2
  6
CONTINUOUS
 62
     7
100
AcDbEllipse
 10
623.262465990578
 20
125.4340917025469
 30
0.0
 11
0.0
 21
-15.05465011544325
 31
0.0
210
0.0
220
0.0
230
1.0
 40
0.1992739769436795
 41
3.141592653589793
 42
3.143569134441945
  0
LINE
  5
160
330
1F
100
AcDbEntity
  8
2
  6
CONTINUOUS
 62
     7
100
AcDbLine
 10
681.5000000000001
 20
160.5
 30
0.0
 11
681.5000000000001
 21
173.9992385917481
 31
0.0
  0
LINE
  5
161
330
1F
100
AcDbEntity
  8
2
  6
CONTINUOUS
 62
     7
100
AcDbLine
 10
673.7375340094221
 20
173.5112581820099
 30
0.0
 11
623.262465990578
 21
173.5112581820099
 31
0.0
  0
LINE
  5
162
330
1F
100
AcDbEntity
  8
2
  6
CONTINUOUS
 62
     7
100
AcDbLine
 10
680.0900057730342
 20
135.0
 30
0.0
 11
679.0
 21
135.0
 31
0.0
  0
LINE
  5
163
330
1F
100
AcDbEntity
  8
2
  6
CONTINUOUS
 62
     7
100
AcDbLine
 10
615.5
 20
140.0007614082519
 30
0.0
 11
615.5
 21
153.5
 31
0.0
  0
ELLIPSE
  5
164
330
1F
100
AcDbEntity
  8
2
  6
CONTINUOUS
 62
     7
100
AcDbEllipse
 10
673.7375340094221
 20
125.4340917025469
 30
0.0
 11
0.0
 21
15.05465011544325
 31
0.0
210
0.0
220
0.0
230
1.0
 40
0.1992739769436795
 41
6.281208826327433
 42
6.283185307179586
  0
LINE
  5
165
330
1F
100
AcDbEntity
  8
2
  6
CONTINUOUS
 62
     7
100
AcDbLine
 10
623.2565365518822
 20
173.5112875873192
 30
0.0
 11
622.7474011389188
 21
173.512042466522
 31
0.0
  0
LINE
  5
166
330
1F
100
AcDbEntity
  8
2
  6
CONTINUOUS
 62
   253
100
AcDbLine
 10
623.256536551882
 20
140.4887124126808
 30
0.0
 11
623.3371217992001
 21
135.8664651639305
 31
0.0
  0
ARC
  5
167
330
1F
100
AcDbEntity
  8
2
  6
CONTINUOUS
 62
     7
100
AcDbCircle
 10
623.262465990578
 20
100.5
 30
0.0
 40
3.0
100
AcDbArc
 50
90.0
 51
90.11324401111692
  0
LINE
  5
168
330
1F
100
AcDbEntity
  8
2
  6
CONTINUOUS
 62
     7
100
AcDbLine
 10
681.5000000000001
 20
140.0007614082519
 30
0.0
 11
681.5000000000001
 21
153.5
 31
0.0
  0
ELLIPSE
  5
169
330
1F
100
AcDbEntity
  8
2
  6
CONTINUOUS
 62
     7
100
AcDbEllipse
 10
673.7375340094221
 20
188.5659082974532
 30
0.0
 11
0.0
 21
15.05465011544325
 31
0.0
210
0.0
220
0.0
230
1.0
 40
0.1992739769436795
 41
3.141592653589793
 42
3.143569134441951
  0
LINE
  5
16A
330
1F
100
AcDbEntity
  8
2
  6
CONTINUOUS
 62
     7
100
AcDbLine
 10
658.342776662151
 20
63.5
 30
0.0
 11
656.3400319701552
 21
63.5
 31
0.0
  0
LINE
  5
16B
330
1F
100
AcDbEntity
  8
2
  6
CONTINUOUS
 62
     7
100
AcDbLine
 10
674.2525988610813
 20
173.512042466522
 30
0.0
 11
673.7434634481181
 21
173.5112875873192
 31
0.0
  0
LINE
  5
16C
330
1F
100
AcDbEntity
  8
2
  6
CONTINUOUS
 62
   253
100
AcDbLine
 10
622.7474011389188
 20
173.512042466522
 30
0.0
 11
622.8279846081604
 21
178.1341877275096
 31
0.0
  0
LINE
  5
16D
330
1F
100
AcDbEntity
  8
2
  6
CONTINUOUS
 62
     7
100
AcDbLine
 10
646.3965567874319
 20
62.99039264020159
 30
0.0
 11
645.3692887751278
 21
62.99085309545701
 31
0.0
  0
ELLIPSE
  5
16E
330
1F
100
AcDbEntity
  8
2
  6
CONTINUOUS
 62
     7
100
AcDbEllipse
 10
623.262465990578
 20
188.5659082974532
 30
0.0
 11
0.0
 21
-15.05465011544325
 31
0.0
210
0.0
220
0.0
230
1.0
 40
0.1992739769436795
 41
6.281208826327437
 42
6.283185307179586
  0
LINE
  5
16F
330
1F
100
AcDbEntity
  8
2
  6
CONTINUOUS
 62
   253
100
AcDbLine
 10
623.262465990578
 20
173.5112581820099
 30
0.0
 11
623.262465990578
 21
140.4887418179901
 31
0.0
  0
LINE
  5
170
330
1F
100
AcDbEntity
  8
2
  6
CONTINUOUS
 62
     7
100
AcDbLine
 10
639.6847995734887
 20
64.99999999999997
 30
0.0
 11
640.6861719194866
 21
64.99999999999997
 31
0.0
  0
LINE
  5
171
330
1F
100
AcDbEntity
  8
2
  6
CONTINUOUS
 62
   253
100
AcDbLine
 10
622.8279846081602
 20
135.8658122724904
 30
0.0
 11
622.7474011389188
 21
140.487957533478
 31
0.0
  0
LINE
  5
172
330
1F
100
AcDbEntity
  8
2
  6
CONTINUOUS
 62
     7
100
AcDbLine
 10
639.0194705534226
 20
64.74350069441645
 30
0.0
 11
638.7707517036287
 21
64.40560632589285
 31
0.0
  0
LINE
  5
173
330
1F
100
AcDbEntity
  8
2
  6
CONTINUOUS
 62
     7
100
AcDbLine
 10
623.262465990578
 20
103.5
 30
0.0
 11
673.737534009422
 21
103.5
 31
0.0
  0
ELLIPSE
  5
174
330
1F
100
AcDbEntity
  8
2
  6
CONTINUOUS
 62
     7
100
AcDbEllipse
 10
680.0898534565905
 20
178.4999238359781
 30
0.0
 11
0.3536610945847896
 21
0.3536610945847896
 31
0.0
210
0.0
220
0.0
230
1.0
 40
0.9996954598817688
 41
5.695323273780764
 42
7.068431177329454
  0
LINE
  5
175
330
1F
100
AcDbEntity
  8
2
  6
CONTINUOUS
 62
     7
100
AcDbLine
 10
658.313829961266
 20
64.05233595624293
 30
0.0
 11
658.2741944050931
 21
64.05167832672475
 31
0.0
  0
LINE
  5
176
330
1F
100
AcDbEntity
  8
2
  6
CONTINUOUS
 62
     7
100
AcDbLine
 10
680.0900057730344
 20
75.49999999999999
 30
0.0
 11
679.0000000000001
 21
75.49999999999999
 31
0.0
  0
LINE
  5
177
330
1F
100
AcDbEntity
  8
2
  6
CONTINUOUS
 62
   253
100
AcDbLine
 10
673.6628782008002
 20
178.1335348360695
 30
0.0
 11
623.3371217992001
 21
178.1335348360695
 31
0.0
  0
LINE
  5
178
330
1F
100
AcDbEntity
  8
2
  6
CONTINUOUS
 62
   253
100
AcDbLine
 10
622.8279846081602
 20
135.8658122724904
 30
0.0
 11
623.3371217992001
 21
135.8664651639305
 31
0.0
  0
LINE
  5
179
330
1F
100
AcDbEntity
  8
2
  6
CONTINUOUS
 62
     7
100
AcDbLine
 10
658.2292482963711
 20
64.4056063258939
 30
0.0
 11
657.980529446579
 21
64.74350069441523
 31
0.0
  0
LINE
  5
17A
330
1F
100
AcDbEntity
  8
2
  6
CONTINUOUS
 62
   253
100
AcDbLine
 10
623.3371217992001
 20
178.1335348360695
 30
0.0
 11
623.2565365518822
 21
173.5112875873192
 31
0.0
  0
ELLIPSE
  5
17B
330
1F
100
AcDbEntity
  8
2
  6
CONTINUOUS
 62
     7
100
AcDbEllipse
 10
616.9101465434096
 20
178.4999238359781
 30
0.0
 11
0.3536610945847898
 21
-0.3536610945847897
 31
0.0
210
0.0
220
0.0
230
1.0
 40
0.9996954598819255
 41
2.356346783439923
 42
3.729454686988626
  0
LINE
  5
17C
330
1F
100
AcDbEntity
  8
2
  6
CONTINUOUS
 62
     7
100
AcDbLine
 10
618.0000000000001
 20
179.0
 30
0.0
 11
616.9099942269659
 21
179.0
 31
0.0
  0
LINE
  5
17D
330
1F
100
AcDbEntity
  8
2
  6
CONTINUOUS
 62
   253
100
AcDbLine
 10
673.6628782008002
 20
135.8664651639305
 30
0.0
 11
673.7434634481181
 21
140.4887124126808
 31
0.0
  0
LINE
  5
17E
330
1F
100
AcDbEntity
  8
2
  6
CONTINUOUS
 62
   253
100
AcDbLine
 10
674.1720153918399
 20
178.1341877275096
 30
0.0
 11
673.6628782008002
 21
178.1335348360695
 31
0.0
  0
LINE
  5
17F
330
1F
100
AcDbEntity
  8
2
  6
CONTINUOUS
 62
     7
100
AcDbLine
 10
681.5000000000001
 20
173.9992385917481
 30
0.0
 11
680.5802196290898
 21
178.5981404462989
 31
0.0
  0
LINE
  5
180
330
1F
100
AcDbEntity
  8
2
  6
CONTINUOUS
 62
     7
100
AcDbLine
 10
618.0000000000001
 20
135.0
 30
0.0
 11
616.9099942269659
 21
135.0
 31
0.0
  0
LINE
  5
181
330
1F
100
AcDbEntity
  8
2
  6
CONTINUOUS
 62
     7
100
AcDbLine
 10
674.2525988610813
 20
140.4879575334781
 30
0.0
 11
673.7434634481181
 21
140.4887124126809
 31
0.0
  0
ARC
  5
182
330
1F
100
AcDbEntity
  8
2
  6
CONTINUOUS
 62
     7
100
AcDbCircle
 10
673.7375340094221
 20
100.5
 30
0.0
 40
3.0
100
AcDbArc
 50
89.88675598888321
 51
90.0
  0
LINE
  5
183
330
1F
100
AcDbEntity
  8
2
  6
CONTINUOUS
 62
   253
100
AcDbLine
 10
673.7434634481181
 20
173.5112875873192
 30
0.0
 11
673.6628782008002
 21
178.1335348360695
 31
0.0
  0
LINE
  5
184
330
1F
100
AcDbEntity
  8
2
  6
CONTINUOUS
 62
   253
100
AcDbLine
 10
673.6628782008002
 20
135.8664651639305
 30
0.0
 11
674.1720153918399
 21
135.8658122724904
 31
0.0
  0
LINE
  5
185
330
1F
100
AcDbEntity
  8
2
  6
CONTINUOUS
 62
   253
100
AcDbLine
 10
674.2525988610813
 20
140.4879575334781
 30
0.0
 11
674.1720153918399
 21
135.8658122724904
 31
0.0
  0
LINE
  5
186
330
1F
100
AcDbEntity
  8
0
  6
CENTER
 62
     1
100
AcDbLine
 10
648.7604722665004
 20
185.0
 30
0.0
 11
648.7604722665004
 21
127.5
 31
0.0
  0
ELLIPSE
  5
187
330
1F
100
AcDbEntity
  8
2
  6
CONTINUOUS
 62
     7
100
AcDbEllipse
 10
623.262465990578
 20
125.434114670506
 30
0.0
 11
0.5399217854697135
 21
-15.05348521842575
 31
0.0
210
0.0
220
0.0
230
1.0
 40
0.1960352768186737
 41
3.133175851340402
 42
3.135165631895495
  0
LINE
  5
188
330
1F
100
AcDbEntity
  8
2
  6
CONTINUOUS
 62
     7
100
AcDbLine
 10
615.5
 20
140.0007614082519
 30
0.0
 11
616.4197803709103
 21
135.4018595537011
 31
0.0
  0
ELLIPSE
  5
189
330
1F
100
AcDbEntity
  8
2
  6
CONTINUOUS
 62
     7
100
AcDbEllipse
 10
616.9101465434096
 20
135.5000761640219
 30
0.0
 11
-0.3536610945847897
 21
-0.3536610945847898
 31
0.0
210
0.0
220
0.0
230
1.0
 40
0.9996954598819255
 41
5.69532327378076
 42
7.068431177329457
  0
LINE
  5
18A
330
1F
100
AcDbEntity
  8
2
  6
CONTINUOUS
 62
     7
100
AcDbLine
 10
680.5802196290898
 20
135.4018595537011
 30
0.0
 11
681.5000000000001
 21
140.0007614082519
 31
0.0
  0
LINE
  5
18B
330
1F
100
AcDbEntity
  8
2
  6
CONTINUOUS
 62
   253
100
AcDbLine
 10
673.7375340094221
 20
140.4887418179902
 30
0.0
 11
673.7375340094221
 21
173.51125818201
 31
0.0
  0
ELLIPSE
  5
18C
330
1F
100
AcDbEntity
  8
2
  6
CONTINUOUS
 62
     7
100
AcDbEllipse
 10
623.262465990578
 20
188.5658853294939
 30
0.0
 11
-0.5399217854697139
 21
-15.0534852184257
 31
0.0
210
0.0
220
0.0
230
1.0
 40
0.1960352768186745
 41
0.0064270216943125
 42
0.0084168022494124
  0
LINE
  5
18D
330
1F
100
AcDbEntity
  8
2
  6
CONTINUOUS
 62
   253
100
AcDbLine
 10
623.3371217992001
 20
135.8664651639305
 30
0.0
 11
673.6628782008002
 21
135.8664651639305
 31
0.0
  0
LINE
  5
18E
330
1F
100
AcDbEntity
  8
2
  6
CONTINUOUS
 62
     7
100
AcDbLine
 10
638.725805594907
 20
64.05167832672478
 30
0.0
 11
638.6861700387341
 21
64.05233595624291
 31
0.0
  0
LINE
  5
18F
330
1F
100
AcDbEntity
  8
2
  6
CONTINUOUS
 62
     7
100
AcDbLine
 10
616.4197803709103
 20
75.49999999999999
 30
0.0
 11
616.9099942269659
 21
75.49999999999999
 31
0.0
  0
LINE
  5
190
330
1F
100
AcDbEntity
  8
2
  6
CONTINUOUS
 62
     7
100
AcDbLine
 10
636.3676082057945
 20
62.99999999999997
 30
0.0
 11
637.3689805517924
 21
62.99999999999997
 31
0.0
  0
LINE
  5
191
330
1F
100
AcDbEntity
  8
2
  6
CONTINUOUS
 62
     7
100
AcDbLine
 10
615.7618259739234
 20
60.5
 30
0.0
 11
615.5000000000001
 21
75.5
 31
0.0
  0
LINE
  5
192
330
1F
100
AcDbEntity
  8
2
  6
CONTINUOUS
 62
     7
100
AcDbLine
 10
680.3183936551667
 20
60.5
 30
0.0
 11
679.828179799111
 21
60.5
 31
0.0
  0
LINE
  5
193
330
1F
100
AcDbEntity
  8
2
  6
CONTINUOUS
 62
     7
100
AcDbLine
 10
658.313829961266
 20
64.05233595624293
 30
0.0
 11
658.3427766621509
 21
63.5
 31
0.0
  0
LINE
  5
194
330
1F
100
AcDbEntity
  8
2
  6
CONTINUOUS
 62
     7
100
AcDbLine
 10
616.6816063448334
 20
60.5
 30
0.0
 11
615.7618259739234
 21
60.5
 31
0.0
  0
LINE
  5
195
330
1F
100
AcDbEntity
  8
2
  6
CONTINUOUS
 62
     7
100
AcDbLine
 10
645.3689805517924
 20
62.99999999999997
 30
0.0
 11
645.4266291090038
 21
61.89999999999997
 31
0.0
  0
LINE
  5
196
330
1F
100
AcDbEntity
  8
2
  6
CONTINUOUS
 62
     7
100
AcDbLine
 10
637.5
 20
60.5
 30
0.0
 11
636.4986276540021
 21
60.5
 31
0.0
  0
LINE
  5
197
330
1F
100
AcDbEntity
  8
2
  6
CONTINUOUS
 62
     7
100
AcDbLine
 10
681.2381740260769
 20
60.5
 30
0.0
 11
680.3183936551668
 21
60.5
 31
0.0
  0
LINE
  5
198
330
1F
100
AcDbEntity
  8
2
  6
CONTINUOUS
 62
     7
100
AcDbLine
 10
657.6724352886885
 20
64.93401458941786
 30
0.0
 11
657.3152004265115
 21
65.0
 31
0.0
  0
LINE
  5
199
330
1F
100
AcDbEntity
  8
2
  6
CONTINUOUS
 62
     7
100
AcDbLine
 10
619.1309410952472
 20
60.5
 30
0.0
 11
636.4986276540022
 21
60.5
 31
0.0
  0
LINE
  5
19A
330
1F
100
AcDbEntity
  8
2
  6
CONTINUOUS
 62
     7
100
AcDbLine
 10
678.8909141526156
 20
62.99999999999997
 30
0.0
 11
677.8908760742298
 21
62.99999999999997
 31
0.0
  0
LINE
  5
19B
330
1F
100
AcDbEntity
  8
2
  6
CONTINUOUS
 62
     7
100
AcDbLine
 10
645.3689805517924
 20
62.99999999999997
 30
0.0
 11
645.342776662151
 21
63.49999999999997
 31
0.0
  0
LINE
  5
19C
330
1F
100
AcDbEntity
  8
2
  6
CONTINUOUS
 62
     7
100
AcDbLine
 10
651.5733708909963
 20
61.89999999999998
 30
0.0
 11
651.6310194482077
 21
63.0
 31
0.0
  0
LINE
  5
19D
330
1F
100
AcDbEntity
  8
2
  6
CONTINUOUS
 62
     7
100
AcDbLine
 10
617.1718202008891
 20
60.5
 30
0.0
 11
616.6816063448334
 21
60.5
 31
0.0
  0
LINE
  5
19E
330
1F
100
AcDbEntity
  8
2
  6
CONTINUOUS
 62
     7
100
AcDbLine
 10
681.4825449350718
 20
153.5
 30
0.0
 11
681.4650925286346
 21
153.5
 31
0.0
  0
LINE
  5
19F
330
1F
100
AcDbEntity
  8
2
  6
CONTINUOUS
 62
     7
100
AcDbLine
 10
615.5872646906774
 20
152.0
 30
0.0
 11
615.5872646906774
 21
162.0
 31
0.0
  0
LINE
  5
1A0
330
1F
100
AcDbEntity
  8
2
  6
CONTINUOUS
 62
     7
100
AcDbLine
 10
619.1091239257703
 20
62.99999999999997
 30
0.0
 11
618.1090858473846
 21
62.99999999999997
 31
0.0
  0
LINE
  5
1A1
330
1F
100
AcDbEntity
  8
2
  6
CONTINUOUS
 62
     7
100
AcDbLine
 10
615.5872646906774
 20
162.0
 30
0.0
 11
615.5698122842401
 21
162.125
 31
0.0
  0
LINE
  5
1A2
330
1F
100
AcDbEntity
  8
2
  6
CONTINUOUS
 62
     7
100
AcDbLine
 10
618.0000000000001
 20
75.49999999999999
 30
0.0
 11
618.1309030168615
 21
60.49999999999999
 31
0.0
  0
LINE
  5
1A3
330
1F
100
AcDbEntity
  8
2
  6
CONTINUOUS
 62
     7
100
AcDbLine
 10
680.5802196290899
 20
75.49999999999999
 30
0.0
 11
681.5000000000001
 21
75.49999999999999
 31
0.0
  0
LINE
  5
1A4
330
1F
100
AcDbEntity
  8
2
  6
CONTINUOUS
 62
     7
100
AcDbLine
 10
638.6572233378492
 20
63.5
 30
0.0
 11
638.6310194482078
 21
63.0
 31
0.0
  0
LINE
  5
1A5
330
1F
100
AcDbEntity
  8
2
  6
CONTINUOUS
 62
     7
100
AcDbLine
 10
681.3778304964482
 20
152.25
 30
0.0
 11
681.377830496448
 21
161.7499999999999
 31
0.0
  0
LINE
  5
1A6
330
1F
100
AcDbEntity
  8
2
  6
CONTINUOUS
 62
     7
100
AcDbLine
 10
660.6323917942057
 20
62.99999999999997
 30
0.0
 11
660.501372345998
 21
60.49999999999997
 31
0.0
  0
LINE
  5
1A7
330
1F
100
AcDbEntity
  8
2
  6
CONTINUOUS
 62
     7
100
AcDbLine
 10
617.1718202008891
 20
60.5
 30
0.0
 11
618.1309030168615
 21
60.5
 31
0.0
  0
LWPOLYLINE
  5
1A8
330
1F
100
AcDbEntity
  8
2
  6
CONTINUOUS
 62
     7
100
AcDbPolyline
 90
        8
 70
     0
 43
0.0
 10
-647.7500000000001
 20
63.99999999999999
 42
0.1101044299853654
 10
-647.8845470179426
 20
64.64169297232955
 10
-647.9443343841479
 20
64.74825897873964
 10
-648.0164757915757
 20
64.84265382863971
 10
-648.0985399993771
 20
64.91811360138131
 10
-648.1919407491002
 20
64.97210416714141
 10
-648.2930742894523
 20
64.99823301440496
 10
-648.3273502691898
 20
64.99999999999997
210
0.0
220
0.0
230
-1.0
  0
LINE
  5
1A9
330
1F
100
AcDbEntity
  8
2
  6
CONTINUOUS
 62
     7
100
AcDbLine
 10
638.6572233378492
 20
63.49999999999997
 30
0.0
 11
638.6861700387149
 21
64.05233595587528
 31
0.0
  0
LINE
  5
1AA
330
1F
100
AcDbEntity
  8
2
  6
CONTINUOUS
 62
     7
100
AcDbLine
 10
615.5
 20
75.49999999999999
 30
0.0
 11
616.4197803709102
 21
75.49999999999999
 31
0.0
  0
LINE
  5
1AB
330
1F
100
AcDbEntity
  8
2
  6
CONTINUOUS
 62
     7
100
AcDbLine
 10
678.8690969831387
 20
60.5
 30
0.0
 11
679.0
 21
75.5
 31
0.0
  0
ARC
  5
1AC
330
1F
100
AcDbEntity
  8
2
  6
CONTINUOUS
 62
     7
100
AcDbCircle
 10
-717.4641808886481
 20
102.0885418664789
 30
0.0
 40
0.4999999999999363
210
0.0
220
0.0
230
-1.0
100
AcDbArc
 50
0.999999999999847
 51
78.73007123647984
  0
LINE
  5
1AD
330
1F
100
AcDbEntity
  8
2
  6
CONTINUOUS
 62
     7
100
AcDbLine
 10
649.2500000000001
 20
63.5
 30
0.0
 11
656.3400319701551
 21
63.5
 31
0.0
  0
LINE
  5
1AE
330
1F
100
AcDbEntity
  8
2
  6
CONTINUOUS
 62
     7
100
AcDbLine
 10
651.6572233378492
 20
63.5
 30
0.0
 11
651.6310194482078
 21
63.0
 31
0.0
  0
LINE
  5
1AF
330
1F
100
AcDbEntity
  8
2
  6
CONTINUOUS
 62
     7
100
AcDbLine
 10
658.3689805517924
 20
62.99999999999997
 30
0.0
 11
658.342776662151
 21
63.49999999999997
 31
0.0
  0
LINE
  5
1B0
330
1F
100
AcDbEntity
  8
2
  6
CONTINUOUS
 62
     7
100
AcDbLine
 10
658.4266291090038
 20
61.89999999999998
 30
0.0
 11
658.3689805517924
 21
63.0
 31
0.0
  0
LINE
  5
1B1
330
1F
100
AcDbEntity
  8
2
  6
CONTINUOUS
 62
     7
100
AcDbLine
 10
656.3138280805136
 20
64.99999999999997
 30
0.0
 11
657.3152004265115
 21
64.99999999999997
 31
0.0
  0
LINE
  5
1B2
330
1F
100
AcDbEntity
  8
2
  6
CONTINUOUS
 62
     7
100
AcDbLine
 10
648.5000000000001
 20
63.5
 30
0.0
 11
649.2500000000001
 21
63.5
 31
0.0
  0
LINE
  5
1B3
330
1F
100
AcDbEntity
  8
2
  6
CONTINUOUS
 62
     7
100
AcDbLine
 10
680.0900057730344
 20
75.49999999999999
 30
0.0
 11
680.5802196290899
 21
75.49999999999999
 31
0.0
  0
LINE
  5
1B4
330
1F
100
AcDbEntity
  8
2
  6
CONTINUOUS
 62
     7
100
AcDbLine
 10
659.5000000000001
 20
60.5
 30
0.0
 11
659.6310194482077
 21
63.0
 31
0.0
  0
LINE
  5
1B5
330
1F
100
AcDbEntity
  8
2
  6
CONTINUOUS
 62
     7
100
AcDbLine
 10
639.6847995734887
 20
64.99999999999997
 30
0.0
 11
639.3275647477825
 21
64.93401460336689
 31
0.0
  0
LINE
  5
1B6
330
1F
100
AcDbEntity
  8
2
  6
CONTINUOUS
 62
     7
100
AcDbLine
 10
716.963609099183
 20
102.0601475038532
 30
0.0
 11
716.96425704107
 21
102.0972680696976
 31
0.0
  0
LINE
  5
1B7
330
1F
100
AcDbEntity
  8
2
  6
CONTINUOUS
 62
     7
100
AcDbLine
 10
681.5000000000001
 20
75.49999999999999
 30
0.0
 11
681.2381740260769
 21
60.49999999999999
 31
0.0
  0
LINE
  5
1B8
330
1F
100
AcDbEntity
  8
2
  6
CONTINUOUS
 62
     7
100
AcDbLine
 10
647.75
 20
64.00000000000006
 30
0.0
 11
647.75
 21
63.50000000000003
 31
0.0
  0
LINE
  5
1B9
330
1F
100
AcDbEntity
  8
2
  6
CONTINUOUS
 62
     7
100
AcDbLine
 10
648.6726497308105
 20
64.99999999999997
 30
0.0
 11
648.5000000000002
 21
64.99999999999999
 31
0.0
  0
LINE
  5
1BA
330
1F
100
AcDbEntity
  8
2
  6
CONTINUOUS
 62
     7
100
AcDbLine
 10
648.5000000000001
 20
65.0
 30
0.0
 11
648.3273502691898
 21
64.99999999999999
 31
0.0
  0
LWPOLYLINE
  5
1BB
330
1F
100
AcDbEntity
  8
2
  6
CONTINUOUS
 62
     7
100
AcDbPolyline
 90
        7
 70
     0
 43
0.0
 10
-648.6726497308105
 20
64.99999999999997
 10
-648.8000931890657
 20
64.97516327416844
 10
-648.8928754576627
 20
64.92435941839966
 10
-648.9724288770086
 20
64.8545338368004
 10
-649.0428494895874
 20
64.76720204057035
 10
-649.1059541262101
 20
64.66086451166808
 42
0.1135245646651578
 10
-649.2500000000001
 20
64.00000000000001
210
0.0
220
0.0
230
-1.0
  0
LINE
  5
1BC
330
1F
100
AcDbEntity
  8
2
  6
CONTINUOUS
 62
     7
100
AcDbLine
 10
660.501372345998
 20
60.5
 30
0.0
 11
659.5000000000001
 21
60.5
 31
0.0
  0
LINE
  5
1BD
330
1F
100
AcDbEntity
  8
2
  6
CONTINUOUS
 62
     7
100
AcDbLine
 10
640.659968029845
 20
63.5
 30
0.0
 11
638.6572233378492
 21
63.5
 31
0.0
  0
LINE
  5
1BE
330
1F
100
AcDbEntity
  8
2
  6
CONTINUOUS
 62
     7
100
AcDbLine
 10
637.3689805517924
 20
62.99999999999997
 30
0.0
 11
637.5
 21
60.49999999999997
 31
0.0
  0
LINE
  5
1BF
330
1F
100
AcDbEntity
  8
2
  6
CONTINUOUS
 62
     7
100
AcDbLine
 10
618.1309030168615
 20
60.5
 30
0.0
 11
619.1309410952472
 21
60.5
 31
0.0
  0
LINE
  5
1C0
330
1F
100
AcDbEntity
  8
2
  6
CONTINUOUS
 62
     7
100
AcDbLine
 10
618.0000000000001
 20
75.49999999999999
 30
0.0
 11
616.9099942269659
 21
75.49999999999999
 31
0.0
  0
LINE
  5
1C1
330
1F
100
AcDbEntity
  8
2
  6
CONTINUOUS
 62
     7
100
AcDbLine
 10
648.5000000000001
 20
65.0
 30
0.0
 11
648.5000000000001
 21
63.5
 31
0.0
  0
LINE
  5
1C2
330
1F
100
AcDbEntity
  8
2
  6
CONTINUOUS
 62
     7
100
AcDbLine
 10
677.869058904753
 20
60.5
 30
0.0
 11
678.8690969831388
 21
60.5
 31
0.0
  0
LINE
  5
1C3
330
1F
100
AcDbEntity
  8
2
  6
CONTINUOUS
 62
     7
100
AcDbLine
 10
660.6323917942057
 20
62.99999999999997
 30
0.0
 11
677.8908760742299
 21
62.99999999999997
 31
0.0
  0
LINE
  5
1C4
330
1F
100
AcDbEntity
  8
2
  6
CONTINUOUS
 62
     7
100
AcDbLine
 10
659.6310194482077
 20
62.99999999999997
 30
0.0
 11
660.6323917942057
 21
62.99999999999997
 31
0.0
  0
LINE
  5
1C5
330
1F
100
AcDbEntity
  8
2
  6
CONTINUOUS
 62
     7
100
AcDbLine
 10
678.8690969831387
 20
60.5
 30
0.0
 11
679.828179799111
 21
60.5
 31
0.0
  0
LINE
  5
1C6
330
1F
100
AcDbEntity
  8
2
  6
CONTINUOUS
 62
     7
100
AcDbLine
 10
648.6726497308105
 20
64.99999999999997
 30
0.0
 11
656.3138280805136
 21
64.99999999999997
 31
0.0
  0
LINE
  5
1C7
330
1F
100
AcDbEntity
  8
2
  6
CONTINUOUS
 62
     7
100
AcDbLine
 10
640.659968029845
 20
63.5
 30
0.0
 11
647.75
 21
63.50000000000003
 31
0.0
  0
LINE
  5
1C8
330
1F
100
AcDbEntity
  8
2
  6
CONTINUOUS
 62
     7
100
AcDbLine
 10
649.2500000000001
 20
64.00000000000006
 30
0.0
 11
649.2500000000001
 21
63.50000000000001
 31
0.0
  0
LINE
  5
1C9
330
1F
100
AcDbEntity
  8
2
  6
CONTINUOUS
 62
     7
100
AcDbLine
 10
638.5733708909963
 20
61.89999999999998
 30
0.0
 11
638.6310194482077
 21
63.0
 31
0.0
  0
LINE
  5
1CA
330
1F
100
AcDbEntity
  8
2
  6
CONTINUOUS
 62
     7
100
AcDbLine
 10
647.75
 20
63.50000000000003
 30
0.0
 11
648.5000000000001
 21
63.50000000000001
 31
0.0
  0
LINE
  5
1CB
330
1F
100
AcDbEntity
  8
2
  6
CONTINUOUS
 62
     7
100
AcDbLine
 10
640.6861719194866
 20
64.99999999999997
 30
0.0
 11
648.3273502691898
 21
64.99999999999997
 31
0.0
  0
LINE
  5
1CC
330
1F
100
AcDbEntity
  8
2
  6
CONTINUOUS
 62
     7
100
AcDbLine
 10
636.4986276540021
 20
60.5
 30
0.0
 11
636.3676082057945
 21
63.0
 31
0.0
  0
LINE
  5
1CD
330
1F
100
AcDbEntity
  8
2
  6
CONTINUOUS
 62
     7
100
AcDbLine
 10
619.1091239257703
 20
62.99999999999997
 30
0.0
 11
636.3676082057946
 21
62.99999999999997
 31
0.0
  0
LINE
  5
1CE
330
1F
100
AcDbEntity
  8
2
  6
CONTINUOUS
 62
     7
100
AcDbLine
 10
615.6047170971148
 20
161.875
 30
0.0
 11
615.5872646906774
 21
162.0
 31
0.0
  0
LINE
  5
1CF
330
1F
100
AcDbEntity
  8
2
  6
CONTINUOUS
 62
     7
100
AcDbLine
 10
742.0000000000001
 20
75.49999999999999
 30
0.0
 11
755.4992385917483
 21
75.49999999999999
 31
0.0
  0
LINE
  5
1D0
330
1F
100
AcDbEntity
  8
2
  6
CONTINUOUS
 62
     7
100
AcDbLine
 10
615.5349074713655
 20
151.625
 30
0.0
 11
615.5349074713655
 21
162.375
 31
0.0
  0
LINE
  5
1D1
330
1F
100
AcDbEntity
  8
2
  6
CONTINUOUS
 62
     7
100
AcDbLine
 10
615.5349074713655
 20
153.5
 30
0.0
 11
615.5174550649283
 21
153.5
 31
0.0
  0
LINE
  5
1D2
330
1F
100
AcDbEntity
  8
2
  6
CONTINUOUS
 62
     7
100
AcDbLine
 10
615.5523598778028
 20
151.75
 30
0.0
 11
615.5523598778028
 21
162.25
 31
0.0
  0
LINE
  5
1D3
330
1F
100
AcDbEntity
  8
2
  6
CONTINUOUS
 62
     7
100
AcDbLine
 10
716.9018595537012
 20
75.49999999999999
 30
0.0
 11
721.5007614082521
 21
75.49999999999999
 31
0.0
  0
LINE
  5
1D4
330
1F
100
AcDbEntity
  8
2
  6
CONTINUOUS
 62
   253
100
AcDbLine
 10
680.1308636549002
 20
178.1487844721093
 30
0.0
 11
680.1292179294487
 21
178.1567267173452
 31
0.0
  0
LINE
  5
1D5
330
1F
100
AcDbEntity
  8
2
  6
CONTINUOUS
 62
     7
100
AcDbLine
 10
716.7618259739235
 20
60.49999999999997
 30
0.0
 11
716.5000000000001
 21
75.49999999999999
 31
0.0
  0
LINE
  5
1D6
330
1F
100
AcDbEntity
  8
2
  6
CONTINUOUS
 62
     7
100
AcDbLine
 10
681.3603780900108
 20
152.5335136295058
 30
0.0
 11
681.3603780900108
 21
161.4664863704942
 31
0.0
  0
LINE
  5
1D7
330
1F
100
AcDbEntity
  8
2
  6
CONTINUOUS
 62
     7
100
AcDbLine
 10
717.1636855276246
 20
60.49999999999997
 30
0.0
 11
716.7618259739235
 21
60.49999999999997
 31
0.0
  0
LINE
  5
1D8
330
1F
100
AcDbEntity
  8
2
  6
CONTINUOUS
 62
     7
100
AcDbLine
 10
760.2381740260769
 20
60.49999999999997
 30
0.0
 11
759.8363144723758
 21
60.49999999999997
 31
0.0
  0
LINE
  5
1D9
330
1F
100
AcDbEntity
  8
2
  6
CONTINUOUS
 62
     7
100
AcDbLine
 10
615.5698122842401
 20
151.875
 30
0.0
 11
615.5698122842401
 21
162.125
 31
0.0
  0
LINE
  5
1DA
330
1F
100
AcDbEntity
  8
2
  6
CONTINUOUS
 62
     7
100
AcDbLine
 10
615.5174550649283
 20
160.5
 30
0.0
 11
615.5
 21
160.5
 31
0.0
  0
LINE
  5
1DB
330
1F
100
AcDbEntity
  8
2
  6
CONTINUOUS
 62
     7
100
AcDbLine
 10
744.0000000000001
 20
76.49999999999999
 30
0.0
 11
742.0000000000001
 21
76.49999999999999
 31
0.0
  0
LINE
  5
1DC
330
1F
100
AcDbEntity
  8
2
  6
CONTINUOUS
 62
     7
100
AcDbLine
 10
743.5000000000001
 20
80.49939078062553
 30
0.0
 11
743.6250000000002
 21
79.49954308546917
 31
0.0
  0
LINE
  5
1DD
330
1F
100
AcDbEntity
  8
2
  6
CONTINUOUS
 62
     7
100
AcDbLine
 10
681.3952829028854
 20
152.125
 30
0.0
 11
681.3952829028854
 21
161.875
 31
0.0
  0
LINE
  5
1DE
330
1F
100
AcDbEntity
  8
2
  6
CONTINUOUS
 62
     7
100
AcDbLine
 10
721.5007614082521
 20
75.49999999999999
 30
0.0
 11
735.0000000000002
 21
75.49999999999999
 31
0.0
  0
LINE
  5
1DF
330
1F
100
AcDbEntity
  8
2
  6
CONTINUOUS
 62
     7
100
AcDbLine
 10
760.0981404462991
 20
75.49999999999999
 30
0.0
 11
760.5000000000001
 21
75.49999999999999
 31
0.0
  0
LINE
  5
1E0
330
1F
100
AcDbEntity
  8
2
  6
CONTINUOUS
 62
     7
100
AcDbLine
 10
743.8750000000001
 20
77.49984769515639
 30
0.0
 11
744.0000000000001
 21
76.49999999999999
 31
0.0
  0
LINE
  5
1E1
330
1F
100
AcDbEntity
  8
2
  6
CONTINUOUS
 62
     7
100
AcDbLine
 10
743.7500000000001
 20
78.49969539031277
 30
0.0
 11
743.8750000000001
 21
77.49984769515639
 31
0.0
  0
LINE
  5
1E2
330
1F
100
AcDbEntity
  8
2
  6
CONTINUOUS
 62
     7
100
AcDbLine
 10
760.5000000000001
 20
75.49999999999999
 30
0.0
 11
760.2381740260769
 21
60.49999999999997
 31
0.0
  0
LINE
  5
1E3
330
1F
100
AcDbEntity
  8
2
  6
CONTINUOUS
 62
     7
100
AcDbLine
 10
743.3750000000001
 20
81.49923847578194
 30
0.0
 11
743.5000000000001
 21
80.49939078062553
 31
0.0
  0
LINE
  5
1E4
330
1F
100
AcDbEntity
  8
2
  6
CONTINUOUS
 62
     7
100
AcDbLine
 10
615.6396219099893
 20
152.5335136295058
 30
0.0
 11
615.6396219099893
 21
161.4664863704942
 31
0.0
  0
LINE
  5
1E5
330
1F
100
AcDbEntity
  8
2
  6
CONTINUOUS
 62
     7
100
AcDbLine
 10
721.5007614082521
 20
75.49999999999999
 30
0.0
 11
721.7625873821753
 21
60.49999999999997
 31
0.0
  0
LINE
  5
1E6
330
1F
100
AcDbEntity
  8
2
  6
CONTINUOUS
 62
     7
100
AcDbLine
 10
615.5174550649283
 20
162.5
 30
0.0
 11
615.5174550649283
 21
160.5
 31
0.0
  0
LINE
  5
1E7
330
1F
100
AcDbEntity
  8
2
  6
CONTINUOUS
 62
     7
100
AcDbLine
 10
615.5349074713655
 20
160.5
 30
0.0
 11
615.5174550649283
 21
160.5
 31
0.0
  0
ELLIPSE
  5
1E8
330
1F
100
AcDbEntity
  8
2
  6
CONTINUOUS
 62
     7
100
AcDbEllipse
 10
615.6221695035521
 20
159.7344355629253
 30
0.0
 11
0.0
 21
-2.000000000000002
 31
0.0
210
0.0
220
0.0
230
1.0
 40
0.0174524064372724
 41
2.617993877991307
 42
3.017237659044283
  0
LINE
  5
1E9
330
1F
100
AcDbEntity
  8
2
  6
CONTINUOUS
 62
     7
100
AcDbLine
 10
755.4992385917483
 20
75.49999999999999
 30
0.0
 11
760.0981404462991
 21
75.49999999999999
 31
0.0
  0
ELLIPSE
  5
1EA
330
1F
100
AcDbEntity
  8
2
  6
CONTINUOUS
 62
     7
100
AcDbEllipse
 10
680.0898534565903
 20
178.4999238359781
 30
0.0
 11
-0.3536610945847897
 21
-0.3536610945847898
 31
0.0
210
0.0
220
0.0
230
-1.0
 40
0.9996954598816894
 41
2.356346783439935
 42
3.729454686988619
  0
LINE
  5
1EB
330
1F
100
AcDbEntity
  8
2
  6
CONTINUOUS
 62
     7
100
AcDbLine
 10
733.5000000000001
 20
80.49939078062553
 30
0.0
 11
743.5000000000001
 21
80.49939078062553
 31
0.0
  0
LINE
  5
1EC
330
1F
100
AcDbEntity
  8
2
  6
CONTINUOUS
 62
     7
100
AcDbLine
 10
743.7500000000001
 20
78.48747870580667
 30
0.0
 11
743.8750000000001
 21
77.49984769515639
 31
0.0
  0
LINE
  5
1ED
330
1F
100
AcDbEntity
  8
2
  6
CONTINUOUS
 62
     7
100
AcDbLine
 10
615.5523598778028
 20
162.25
 30
0.0
 11
615.5349074713655
 21
162.375
 31
0.0
  0
LINE
  5
1EE
330
1F
100
AcDbEntity
  8
2
  6
CONTINUOUS
 62
     7
100
AcDbLine
 10
742.0000000000001
 20
75.50000000000001
 30
0.0
 11
755.4992385917483
 21
75.50000000000001
 31
0.0
  0
ELLIPSE
  5
1EF
330
1F
100
AcDbEntity
  8
2
  6
CONTINUOUS
 62
   253
100
AcDbEllipse
 10
679.8360991965745
 20
178.0931449393657
 30
0.0
 11
-0.2933930602446652
 21
-0.06261399364580394
 31
0.0
210
0.0
220
0.0
230
-1.0
 40
0.1591545063425473
 41
1.779068326207613
 42
3.120569049296094
  0
LINE
  5
1F0
330
1F
100
AcDbEntity
  8
2
  6
CONTINUOUS
 62
   253
100
AcDbLine
 10
680.1308636549002
 20
135.8512155278908
 30
0.0
 11
680.1292179294487
 21
135.8432732826548
 31
0.0
  0
ELLIPSE
  5
1F1
330
1F
100
AcDbEntity
  8
2
  6
CONTINUOUS
 62
   253
100
AcDbEllipse
 10
617.1639008034256
 20
178.0931449393657
 30
0.0
 11
-0.2933930602446754
 21
0.06261399364581159
 31
0.0
210
0.0
220
0.0
230
-1.0
 40
0.1591545063425436
 41
0.0210236042935151
 42
1.362524327382369
  0
LINE
  5
1F2
330
1F
100
AcDbEntity
  8
2
  6
CONTINUOUS
 62
     7
100
AcDbLine
 10
733.2500000000001
 20
78.49969539031277
 30
0.0
 11
733.3750000000001
 21
79.48732640096311
 31
0.0
  0
LINE
  5
1F3
330
1F
100
AcDbEntity
  8
2
  6
CONTINUOUS
 62
     7
100
AcDbLine
 10
743.2189913163528
 20
82.74711785793504
 30
0.0
 11
743.2500000000002
 21
82.49908617093831
 31
0.0
  0
LINE
  5
1F4
330
1F
100
AcDbEntity
  8
2
  6
CONTINUOUS
 62
     7
100
AcDbLine
 10
681.43018771576
 20
151.875
 30
0.0
 11
681.43018771576
 21
162.125
 31
0.0
  0
LINE
  5
1F5
330
1F
100
AcDbEntity
  8
2
  6
CONTINUOUS
 62
     7
100
AcDbLine
 10
721.7625873821753
 20
60.49999999999997
 30
0.0
 11
755.237412617825
 21
60.49999999999997
 31
0.0
  0
LINE
  5
1F6
330
1F
100
AcDbEntity
  8
2
  6
CONTINUOUS
 62
     7
100
AcDbLine
 10
681.4476401221973
 20
151.75
 30
0.0
 11
681.4476401221973
 21
162.25
 31
0.0
  0
LINE
  5
1F7
330
1F
100
AcDbEntity
  8
2
  6
CONTINUOUS
 62
     7
100
AcDbLine
 10
759.8363144723758
 20
60.49999999999997
 30
0.0
 11
755.237412617825
 21
60.49999999999997
 31
0.0
  0
ELLIPSE
  5
1F8
330
1F
100
AcDbEntity
  8
2
  6
CONTINUOUS
 62
     7
100
AcDbEllipse
 10
680.0898534565903
 20
135.500076164022
 30
0.0
 11
0.3536610945847895
 21
-0.3536610945847897
 31
0.0
210
0.0
220
0.0
230
-1.0
 40
0.9996954598818865
 41
5.695323273780764
 42
7.068431177329443
  0
ELLIPSE
  5
1F9
330
1F
100
AcDbEntity
  8
2
  6
CONTINUOUS
 62
   253
100
AcDbEllipse
 10
679.8360991965745
 20
135.9068550606343
 30
0.0
 11
0.2933930602446765
 21
-0.06261399364580633
 31
0.0
210
0.0
220
0.0
230
-1.0
 40
0.1591545063425471
 41
0.0210236042936051
 42
1.362524327381999
  0
LINE
  5
1FA
330
1F
100
AcDbEntity
  8
2
  6
CONTINUOUS
 62
     7
100
AcDbLine
 10
615.6221695035521
 20
161.75
 30
0.0
 11
615.6047170971148
 21
161.875
 31
0.0
  0
LINE
  5
1FB
330
1F
100
AcDbEntity
  8
2
  6
CONTINUOUS
 62
     7
100
AcDbLine
 10
615.5698122842401
 20
162.125
 30
0.0
 11
615.5523598778028
 21
162.25
 31
0.0
  0
LINE
  5
1FC
330
1F
100
AcDbEntity
  8
2
  6
CONTINUOUS
 62
     7
100
AcDbLine
 10
735.0000000000002
 20
75.49999999999999
 30
0.0
 11
742.0000000000001
 21
75.49999999999999
 31
0.0
  0
ELLIPSE
  5
1FD
330
1F
100
AcDbEntity
  8
2
  6
CONTINUOUS
 62
     7
100
AcDbEllipse
 10
616.9101465434096
 20
135.500076164022
 30
0.0
 11
0.3536610945847895
 21
0.3536610945847897
 31
0.0
210
0.0
220
0.0
230
-1.0
 40
0.9996954598818865
 41
2.356346783439936
 42
3.729454686988614
  0
LINE
  5
1FE
330
1F
100
AcDbEntity
  8
2
  6
CONTINUOUS
 62
     7
100
AcDbLine
 10
743.6250000000002
 20
79.49954308546917
 30
0.0
 11
743.7500000000001
 21
78.49969539031277
 31
0.0
  0
LINE
  5
1FF
330
1F
100
AcDbEntity
  8
2
  6
CONTINUOUS
 62
     7
100
AcDbLine
 10
615.5349074713655
 20
162.375
 30
0.0
 11
615.5174550649283
 21
162.5
 31
0.0
  0
LINE
  5
200
330
1F
100
AcDbEntity
  8
2
  6
CONTINUOUS
 62
     7
100
AcDbLine
 10
755.237412617825
 20
60.49999999999997
 30
0.0
 11
755.4992385917483
 21
75.49999999999999
 31
0.0
  0
LINE
  5
201
330
1F
100
AcDbEntity
  8
2
  6
CONTINUOUS
 62
     7
100
AcDbLine
 10
681.4127353093227
 20
152.0
 30
0.0
 11
681.4127353093227
 21
162.0
 31
0.0
  0
LINE
  5
202
330
1F
100
AcDbEntity
  8
2
  6
CONTINUOUS
 62
     7
100
AcDbLine
 10
615.6047170971148
 20
152.125
 30
0.0
 11
615.6047170971148
 21
161.875
 31
0.0
  0
LINE
  5
203
330
1F
100
AcDbEntity
  8
2
  6
CONTINUOUS
 62
     7
100
AcDbLine
 10
681.4650925286346
 20
151.625
 30
0.0
 11
681.4650925286346
 21
162.375
 31
0.0
  0
ELLIPSE
  5
204
330
1F
100
AcDbEntity
  8
2
  6
CONTINUOUS
 62
   253
100
AcDbEllipse
 10
617.1639008034256
 20
135.9068550606343
 30
0.0
 11
0.2933930602446697
 21
0.06261399364581038
 31
0.0
210
0.0
220
0.0
230
-1.0
 40
0.1591545063425434
 41
1.779068326207333
 42
3.120569049296186
  0
LINE
  5
205
330
1F
100
AcDbEntity
  8
2
  6
CONTINUOUS
 62
   253
100
AcDbLine
 10
616.8691363450998
 20
178.1487844721093
 30
0.0
 11
616.8707820705513
 21
178.1567267173452
 31
0.0
  0
LINE
  5
206
330
1F
100
AcDbEntity
  8
2
  6
CONTINUOUS
 62
     7
100
AcDbLine
 10
615.622169503552
 20
152.25
 30
0.0
 11
615.6221695035521
 21
161.7499999999999
 31
0.0
  0
LINE
  5
207
330
1F
100
AcDbEntity
  8
2
  6
CONTINUOUS
 62
     7
100
AcDbLine
 10
721.7625873821753
 20
60.49999999999997
 30
0.0
 11
717.1636855276246
 21
60.49999999999997
 31
0.0
  0
LINE
  5
208
330
1F
100
AcDbEntity
  8
2
  6
CONTINUOUS
 62
     7
100
AcDbLine
 10
615.6264989127528
 20
161.7189913163527
 30
0.0
 11
615.6221695035521
 21
161.75
 31
0.0
  0
ELLIPSE
  5
209
330
1F
100
AcDbEntity
  8
2
  6
CONTINUOUS
 62
     7
100
AcDbEllipse
 10
616.9101465434096
 20
178.4999238359781
 30
0.0
 11
-0.3536610945847898
 21
0.3536610945847897
 31
0.0
210
0.0
220
0.0
230
-1.0
 40
0.9996954598819255
 41
5.695323273780765
 42
7.068431177329457
  0
LINE
  5
20A
330
1F
100
AcDbEntity
  8
2
  6
CONTINUOUS
 62
     7
100
AcDbLine
 10
681.4825449350718
 20
160.5
 30
0.0
 11
681.4650925286346
 21
160.5
 31
0.0
  0
LINE
  5
20B
330
1F
100
AcDbEntity
  8
2
  6
CONTINUOUS
 62
     7
100
AcDbLine
 10
615.5
 20
160.5
 30
0.0
 11
615.5
 21
173.9992385917481
 31
0.0
  0
LINE
  5
20C
330
1F
100
AcDbEntity
  8
2
  6
CONTINUOUS
 62
   253
100
AcDbLine
 10
616.8691363450998
 20
135.8512155278908
 30
0.0
 11
616.8707820705513
 21
135.8432732826548
 31
0.0
  0
LINE
  5
20D
330
1F
100
AcDbEntity
  8
2
  6
CONTINUOUS
 62
     7
100
AcDbLine
 10
716.5000000000001
 20
75.49999999999999
 30
0.0
 11
716.9018595537012
 21
75.49999999999999
 31
0.0
  0
LINE
  5
20E
330
1F
100
AcDbEntity
  8
2
  6
CONTINUOUS
 62
     7
100
AcDbLine
 10
743.8750000000001
 20
77.49984769515639
 30
0.0
 11
743.8750000000001
 21
77.48763101065029
 31
0.0
  0
LINE
  5
20F
330
1F
100
AcDbEntity
  8
2
  6
CONTINUOUS
 62
     7
100
AcDbLine
 10
733.3750000000001
 20
79.49954308546917
 30
0.0
 11
733.5000000000001
 21
80.48717409611943
 31
0.0
  0
LINE
  5
210
330
1F
100
AcDbEntity
  8
2
  6
CONTINUOUS
 62
     7
100
AcDbLine
 10
743.2500000000002
 20
82.49908617093831
 30
0.0
 11
743.3750000000001
 21
81.49923847578194
 31
0.0
  0
LINE
  5
211
330
1F
100
AcDbEntity
  8
2
  6
CONTINUOUS
 62
     7
100
AcDbLine
 10
743.3750000000001
 20
81.48702179127584
 30
0.0
 11
743.5000000000001
 21
80.49939078062553
 31
0.0
  0
LINE
  5
212
330
1F
100
AcDbEntity
  8
2
  6
CONTINUOUS
 62
     7
100
AcDbLine
 10
743.6250000000002
 20
79.48732640096307
 30
0.0
 11
733.3750000000001
 21
79.48732640096311
 31
0.0
  0
ELLIPSE
  5
213
330
1F
100
AcDbEntity
  8
2
  6
CONTINUOUS
 62
     7
100
AcDbEllipse
 10
741.2344355629256
 20
82.49908617093831
 30
0.0
 11
2.000000000000002
 21
2.197419098626980E-12
 31
0.0
210
0.0
220
0.0
230
-1.0
 40
0.9998476951563913
 41
5.759586531582374
 42
6.158830312633905
  0
LINE
  5
214
330
1F
100
AcDbEntity
  8
2
  6
CONTINUOUS
 62
     7
100
AcDbLine
 10
742.0000000000001
 20
76.49999999999999
 30
0.0
 11
742.0000000000001
 21
75.50000000000001
 31
0.0
  0
LINE
  5
215
330
1F
100
AcDbEntity
  8
2
  6
CONTINUOUS
 62
     7
100
AcDbLine
 10
721.5007614082522
 20
75.50000000000001
 30
0.0
 11
716.9018595537012
 21
75.50000000000001
 31
0.0
  0
LINE
  5
216
330
1F
100
AcDbEntity
  8
2
  6
CONTINUOUS
 62
     7
100
AcDbLine
 10
742.9664863704944
 20
83.48671718158862
 30
0.0
 11
734.0335136295059
 21
83.48671718158867
 31
0.0
  0
LINE
  5
217
330
1F
100
AcDbEntity
  8
2
  6
CONTINUOUS
 62
     7
100
AcDbLine
 10
733.0000000000002
 20
76.49999999999999
 30
0.0
 11
733.1250000000001
 21
77.49984769515639
 31
0.0
  0
LINE
  5
218
330
1F
100
AcDbEntity
  8
2
  6
CONTINUOUS
 62
     7
100
AcDbLine
 10
760.0981404462991
 20
75.50000000000001
 30
0.0
 11
755.4992385917483
 21
75.50000000000001
 31
0.0
  0
LINE
  5
219
330
1F
100
AcDbEntity
  8
2
  6
CONTINUOUS
 62
     7
100
AcDbLine
 10
760.0534921997566
 20
101.0804147437823
 30
0.0
 11
760.5000000000001
 21
75.50000000000001
 31
0.0
  0
LINE
  5
21A
330
1F
100
AcDbEntity
  8
2
  6
CONTINUOUS
 62
     7
100
AcDbLine
 10
733.5000000000001
 20
80.48717409611943
 30
0.0
 11
743.5000000000001
 21
80.48717409611943
 31
0.0
  0
LINE
  5
21B
330
1F
100
AcDbEntity
  8
2
  6
CONTINUOUS
 62
     7
100
AcDbLine
 10
743.2500000000002
 20
82.49908617093831
 30
0.0
 11
743.2500000000002
 21
82.48686948643224
 31
0.0
  0
LINE
  5
21C
330
1F
100
AcDbEntity
  8
2
  6
CONTINUOUS
 62
     7
100
AcDbLine
 10
721.9635413658327
 20
102.0126460132811
 30
0.0
 11
721.9634244702647
 21
102.0175797737543
 31
0.0
  0
LINE
  5
21D
330
1F
100
AcDbEntity
  8
2
  6
CONTINUOUS
 62
     7
100
AcDbLine
 10
733.6250000000002
 20
81.49923847578194
 30
0.0
 11
743.3750000000001
 21
81.49923847578194
 31
0.0
  0
LINE
  5
21E
330
1F
100
AcDbEntity
  8
2
  6
CONTINUOUS
 62
     7
100
AcDbLine
 10
760.0363909008174
 20
102.0601475038532
 30
0.0
 11
760.0534921997566
 21
101.0804147437823
 31
0.0
  0
LINE
  5
21F
330
1F
100
AcDbEntity
  8
2
  6
CONTINUOUS
 62
     7
100
AcDbLine
 10
733.7500000000001
 20
82.48686948643224
 30
0.0
 11
733.7500000000001
 21
82.49908617093831
 31
0.0
  0
LINE
  5
220
330
1F
100
AcDbEntity
  8
2
  6
CONTINUOUS
 62
     7
100
AcDbLine
 10
733.1250000000001
 20
77.49984769515639
 30
0.0
 11
733.2500000000001
 21
78.48747870580667
 31
0.0
  0
LINE
  5
221
330
1F
100
AcDbEntity
  8
2
  6
CONTINUOUS
 62
     7
100
AcDbLine
 10
755.0112875873194
 20
103.4999941402871
 30
0.0
 11
759.6335348360697
 21
102.5789005486116
 31
0.0
  0
LINE
  5
222
330
1F
100
AcDbEntity
  8
2
  6
CONTINUOUS
 62
     7
100
AcDbLine
 10
735.0000000000002
 20
76.49999999999999
 30
0.0
 11
735.0000000000002
 21
77.09312956119743
 31
0.0
  0
LINE
  5
223
330
1F
100
AcDbEntity
  8
2
  6
CONTINUOUS
 62
     7
100
AcDbLine
 10
733.1250000000001
 20
77.49984769515639
 30
0.0
 11
733.2500000000001
 21
78.49969539031277
 31
0.0
  0
LINE
  5
224
330
1F
100
AcDbEntity
  8
2
  6
CONTINUOUS
 62
     7
100
AcDbLine
 10
733.0000000000002
 20
76.49999999999999
 30
0.0
 11
733.1250000000001
 21
77.48763101065029
 31
0.0
  0
LINE
  5
225
330
1F
100
AcDbEntity
  8
2
  6
CONTINUOUS
 62
     7
100
AcDbLine
 10
735.7655644370748
 20
84.49878156125112
 30
0.0
 11
741.2344355629256
 21
84.49878156125109
 31
0.0
  0
LINE
  5
226
330
1F
100
AcDbEntity
  8
2
  6
CONTINUOUS
 62
     7
100
AcDbLine
 10
733.7500000000001
 20
82.48686948643224
 30
0.0
 11
743.2500000000002
 21
82.48686948643224
 31
0.0
  0
LINE
  5
227
330
1F
100
AcDbEntity
  8
2
  6
CONTINUOUS
 62
   253
100
AcDbLine
 10
741.2344355629256
 20
84.48656487674502
 30
0.0
 11
741.2344355629256
 21
84.49878156125109
 31
0.0
  0
LINE
  5
228
330
1F
100
AcDbEntity
  8
2
  6
CONTINUOUS
 62
     7
100
AcDbLine
 10
733.2500000000001
 20
78.48747870580667
 30
0.0
 11
743.7500000000001
 21
78.48747870580667
 31
0.0
  0
LINE
  5
229
330
1F
100
AcDbEntity
  8
2
  6
CONTINUOUS
 62
     7
100
AcDbLine
 10
742.0000000000001
 20
76.49999999999999
 30
0.0
 11
742.0000000000001
 21
77.09312956119743
 31
0.0
  0
LINE
  5
22A
330
1F
100
AcDbEntity
  8
2
  6
CONTINUOUS
 62
     7
100
AcDbLine
 10
743.6250000000002
 20
79.48732640096307
 30
0.0
 11
743.7500000000001
 21
78.49969539031277
 31
0.0
  0
LINE
  5
22B
330
1F
100
AcDbEntity
  8
2
  6
CONTINUOUS
 62
     7
100
AcDbLine
 10
733.5000000000001
 20
80.49939078062553
 30
0.0
 11
733.6250000000002
 21
81.4870217912759
 31
0.0
  0
LINE
  5
22C
330
1F
100
AcDbEntity
  8
2
  6
CONTINUOUS
 62
     7
100
AcDbLine
 10
733.7500000000001
 20
82.49908617093831
 30
0.0
 11
733.7810086836474
 21
82.74711785793504
 31
0.0
  0
LINE
  5
22D
330
1F
100
AcDbEntity
  8
2
  6
CONTINUOUS
 62
     7
100
AcDbLine
 10
735.0000000000002
 20
76.49999999999999
 30
0.0
 11
733.0000000000002
 21
76.49999999999999
 31
0.0
  0
LINE
  5
22E
330
1F
100
AcDbEntity
  8
2
  6
CONTINUOUS
 62
     7
100
AcDbLine
 10
755.4992385917483
 20
75.50000000000001
 30
0.0
 11
755.0364586341675
 21
102.0126460132811
 31
0.0
  0
LINE
  5
22F
330
1F
100
AcDbEntity
  8
2
  6
CONTINUOUS
 62
     7
100
AcDbLine
 10
743.5000000000001
 20
80.48717409611943
 30
0.0
 11
743.6250000000002
 21
79.49954308546917
 31
0.0
  0
LINE
  5
230
330
1F
100
AcDbEntity
  8
2
  6
CONTINUOUS
 62
     7
100
AcDbLine
 10
735.0000000000002
 20
77.09312956119743
 30
0.0
 11
742.0000000000001
 21
77.09312956119743
 31
0.0
  0
LINE
  5
231
330
1F
100
AcDbEntity
  8
2
  6
CONTINUOUS
 62
     7
100
AcDbLine
 10
743.5000000000001
 20
80.49939078062553
 30
0.0
 11
743.5000000000001
 21
80.48717409611943
 31
0.0
  0
LINE
  5
232
330
1F
100
AcDbEntity
  8
2
  6
CONTINUOUS
 62
     7
100
AcDbLine
 10
735.0000000000002
 20
76.49999999999999
 30
0.0
 11
735.0000000000002
 21
75.50000000000001
 31
0.0
  0
LINE
  5
233
330
1F
100
AcDbEntity
  8
2
  6
CONTINUOUS
 62
     7
100
AcDbLine
 10
733.2500000000001
 20
78.48747870580667
 30
0.0
 11
733.2500000000001
 21
78.49969539031277
 31
0.0
  0
LINE
  5
234
330
1F
100
AcDbEntity
  8
2
  6
CONTINUOUS
 62
     7
100
AcDbLine
 10
743.8750000000001
 20
77.48763101065029
 30
0.0
 11
744.0000000000001
 21
76.49999999999999
 31
0.0
  0
LINE
  5
235
330
1F
100
AcDbEntity
  8
2
  6
CONTINUOUS
 62
     7
100
AcDbLine
 10
743.8750000000001
 20
77.48763101065029
 30
0.0
 11
733.1250000000001
 21
77.48763101065029
 31
0.0
  0
LINE
  5
236
330
1F
100
AcDbEntity
  8
2
  6
CONTINUOUS
 62
     7
100
AcDbLine
 10
755.0365755297357
 20
102.0175797737543
 30
0.0
 11
755.0364586341676
 21
102.0126460132811
 31
0.0
  0
LINE
  5
237
330
1F
100
AcDbEntity
  8
2
  6
CONTINUOUS
 62
     7
100
AcDbLine
 10
733.5000000000001
 20
80.49939078062553
 30
0.0
 11
733.6250000000002
 21
81.49923847578194
 31
0.0
  0
LINE
  5
238
330
1F
100
AcDbEntity
  8
2
  6
CONTINUOUS
 62
     7
100
AcDbLine
 10
743.6250000000002
 20
79.49954308546917
 30
0.0
 11
743.6250000000002
 21
79.48732640096307
 31
0.0
  0
LINE
  5
239
330
1F
100
AcDbEntity
  8
2
  6
CONTINUOUS
 62
     7
100
AcDbLine
 10
733.1250000000001
 20
77.49984769515639
 30
0.0
 11
743.8750000000001
 21
77.49984769515639
 31
0.0
  0
LINE
  5
23A
330
1F
100
AcDbEntity
  8
2
  6
CONTINUOUS
 62
     7
100
AcDbLine
 10
733.5000000000001
 20
80.48717409611943
 30
0.0
 11
733.5000000000001
 21
80.49939078062553
 31
0.0
  0
LINE
  5
23B
330
1F
100
AcDbEntity
  8
2
  6
CONTINUOUS
 62
     7
100
AcDbLine
 10
743.7500000000001
 20
78.49969539031277
 30
0.0
 11
743.7500000000001
 21
78.48747870580667
 31
0.0
  0
ELLIPSE
  5
23C
330
1F
100
AcDbEntity
  8
2
  6
CONTINUOUS
 62
     7
100
AcDbEllipse
 10
735.7655644370748
 20
82.49908617093831
 30
0.0
 11
2.000000000000002
 21
-2.208170978711185E-12
 31
0.0
210
0.0
220
0.0
230
-1.0
 40
0.9998476951563913
 41
3.665191429186994
 42
4.712388980383594
  0
LINE
  5
23D
330
1F
100
AcDbEntity
  8
2
  6
CONTINUOUS
 62
     7
100
AcDbLine
 10
733.3750000000001
 20
79.49954308546917
 30
0.0
 11
733.5000000000001
 21
80.49939078062553
 31
0.0
  0
LINE
  5
23E
330
1F
100
AcDbEntity
  8
2
  6
CONTINUOUS
 62
     7
100
AcDbLine
 10
721.9635413658327
 20
102.0126460132811
 30
0.0
 11
721.5007614082522
 21
75.50000000000001
 31
0.0
  0
LINE
  5
23F
330
1F
100
AcDbEntity
  8
2
  6
CONTINUOUS
 62
     7
100
AcDbLine
 10
733.2500000000001
 20
78.49969539031277
 30
0.0
 11
733.3750000000001
 21
79.49954308546917
 31
0.0
  0
ELLIPSE
  5
240
330
1F
100
AcDbEntity
  8
2
  6
CONTINUOUS
 62
     7
100
AcDbEllipse
 10
735.7655644370748
 20
82.49908617093831
 30
0.0
 11
2.000000000000002
 21
0.0
 31
0.0
210
0.0
220
0.0
230
-1.0
 40
0.9998476951563913
 41
3.26594764813654
 42
3.665191429188061
  0
LINE
  5
241
330
1F
100
AcDbEntity
  8
2
  6
CONTINUOUS
 62
     7
100
AcDbLine
 10
733.1250000000001
 20
77.48763101065029
 30
0.0
 11
733.1250000000001
 21
77.49984769515639
 31
0.0
  0
LINE
  5
242
330
1F
100
AcDbEntity
  8
2
  6
CONTINUOUS
 62
     7
100
AcDbLine
 10
743.3750000000001
 20
81.48702179127584
 30
0.0
 11
733.6250000000002
 21
81.4870217912759
 31
0.0
  0
LINE
  5
243
330
1F
100
AcDbEntity
  8
2
  6
CONTINUOUS
 62
     7
100
AcDbLine
 10
733.2500000000001
 20
78.49969539031277
 30
0.0
 11
743.7500000000001
 21
78.49969539031277
 31
0.0
  0
LINE
  5
244
330
1F
100
AcDbEntity
  8
2
  6
CONTINUOUS
 62
     7
100
AcDbLine
 10
743.3750000000001
 20
81.49923847578194
 30
0.0
 11
743.3750000000001
 21
81.48702179127584
 31
0.0
  0
LINE
  5
245
330
1F
100
AcDbEntity
  8
2
  6
CONTINUOUS
 62
     7
100
AcDbLine
 10
733.6250000000002
 20
81.49923847578194
 30
0.0
 11
733.7500000000001
 21
82.48686948643224
 31
0.0
  0
LINE
  5
246
330
1F
100
AcDbEntity
  8
2
  6
CONTINUOUS
 62
     7
100
AcDbLine
 10
733.6250000000002
 20
81.49923847578194
 30
0.0
 11
733.7500000000001
 21
82.49908617093831
 31
0.0
  0
LINE
  5
247
330
1F
100
AcDbEntity
  8
2
  6
CONTINUOUS
 62
     7
100
AcDbLine
 10
733.3750000000001
 20
79.49954308546917
 30
0.0
 11
743.6250000000002
 21
79.49954308546917
 31
0.0
  0
LINE
  5
248
330
1F
100
AcDbEntity
  8
2
  6
CONTINUOUS
 62
     7
100
AcDbLine
 10
721.5007614082522
 20
75.50000000000001
 30
0.0
 11
735.0000000000002
 21
75.50000000000001
 31
0.0
  0
LINE
  5
249
330
1F
100
AcDbEntity
  8
2
  6
CONTINUOUS
 62
     7
100
AcDbLine
 10
733.3750000000001
 20
79.48732640096311
 30
0.0
 11
733.3750000000001
 21
79.49954308546917
 31
0.0
  0
LINE
  5
24A
330
1F
100
AcDbEntity
  8
2
  6
CONTINUOUS
 62
     7
100
AcDbLine
 10
733.6250000000002
 20
81.4870217912759
 30
0.0
 11
733.6250000000002
 21
81.49923847578194
 31
0.0
  0
ELLIPSE
  5
24B
330
1F
100
AcDbEntity
  8
2
  6
CONTINUOUS
 62
     7
100
AcDbEllipse
 10
735.7655644370748
 20
82.49908617093831
 30
0.0
 11
2.0
 21
0.0
 31
0.0
210
0.0
220
0.0
230
-1.0
 40
0.9876310106502928
 41
3.265947648136552
 42
3.665191429188122
  0
ELLIPSE
  5
24C
330
1F
100
AcDbEntity
  8
2
  6
CONTINUOUS
 62
     7
100
AcDbEllipse
 10
741.2344355629256
 20
82.49908617093831
 30
0.0
 11
2.000000000000002
 21
0.0
 31
0.0
210
0.0
220
0.0
230
-1.0
 40
0.9998476951563913
 41
4.71238898038469
 42
5.759586531581277
  0
LINE
  5
24D
330
1F
100
AcDbEntity
  8
2
  6
CONTINUOUS
 62
     7
100
AcDbLine
 10
743.2500000000002
 20
82.48686948643224
 30
0.0
 11
743.3750000000001
 21
81.49923847578194
 31
0.0
  0
LINE
  5
24E
330
1F
100
AcDbEntity
  8
2
  6
CONTINUOUS
 62
   253
100
AcDbLine
 10
743.2189913163528
 20
82.74408727149448
 30
0.0
 11
743.2189913163528
 21
82.74711785793504
 31
0.0
  0
LINE
  5
24F
330
1F
100
AcDbEntity
  8
2
  6
CONTINUOUS
 62
     7
100
AcDbLine
 10
733.7500000000001
 20
82.49908617093831
 30
0.0
 11
733.7810086836474
 21
82.74408727149448
 31
0.0
  0
LINE
  5
250
330
1F
100
AcDbEntity
  8
2
  6
CONTINUOUS
 62
     7
100
AcDbLine
 10
755.0365755297357
 20
102.0175797737543
 30
0.0
 11
755.0323927830044
 21
102.3018649548591
 31
0.0
  0
ARC
  5
251
330
1F
100
AcDbEntity
  8
2
  6
CONTINUOUS
 62
     7
100
AcDbCircle
 10
-759.5358191113521
 20
102.0885418664789
 30
0.0
 40
0.4999999999999934
210
0.0
220
0.0
230
-1.0
100
AcDbArc
 50
101.2699287635202
 51
179.0000000000005
  0
LINE
  5
252
330
1F
100
AcDbEntity
  8
2
  6
CONTINUOUS
 62
     7
100
AcDbLine
 10
716.5000000000002
 20
75.50000000000001
 30
0.0
 11
716.9465078002436
 21
101.0804147437823
 31
0.0
  0
LINE
  5
253
330
1F
100
AcDbEntity
  8
2
  6
CONTINUOUS
 62
     7
100
AcDbLine
 10
742.9664863704944
 20
83.49893386609472
 30
0.0
 11
742.9664863704944
 21
83.48671718158862
 31
0.0
  0
ENDSEC
  0
SECTION
  2
OBJECTS
  0
DICTIONARY
  5
C
330
0
100
AcDbDictionary
  3
ACAD_GROUP
350
D
  3
ACAD_LAYOUT
350
1A
  3
ACAD_MATERIAL
350
43
  3
ACAD_MLEADERSTYLE
350
6B
  3
ACAD_MLINESTYLE
350
17
  3
ACAD_PLOTSETTINGS
350
19
  3
ACAD_SCALELIST
350
47
  3
ACAD_VISUALSTYLE
350
2A
  3
ACDBHEADERROUNDTRIPXREC
350
254
  3
ACDBVARIABLEDICTIONARY
350
275
  0
DICTIONARY
  5
27C
330
8
100
AcDbDictionary
280
     1
  3
ACAD_XREC_ROUNDTRIP
360
27D
  0
DICTIONARY
  5
D
102
{ACAD_REACTORS
330
C
102
}
330
C
100
AcDbDictionary
  0
DICTIONARY
  5
1A
102
{ACAD_REACTORS
330
C
102
}
330
C
100
AcDbDictionary
  0
DICTIONARY
  5
43
102
{ACAD_REACTORS
330
C
102
}
330
C
100
AcDbDictionary
  3
BYBLOCK
350
45
  3
BYLAYER
350
44
  3
GLOBAL
350
46
  0
DICTIONARY
  5
6B
102
{ACAD_REACTORS
330
C
102
}
330
C
100
AcDbDictionary
  3
STANDARD
350
6C
  0
DICTIONARY
  5
17
102
{ACAD_REACTORS
330
C
102
}
330
C
100
AcDbDictionary
  3
STANDARD
350
18
  0
DICTIONARY
  5
19
102
{ACAD_REACTORS
330
C
102
}
330
C
100
AcDbDictionary
  0
DICTIONARY
  5
47
102
{ACAD_REACTORS
330
C
102
}
330
C
100
AcDbDictionary
  3
A0
350
48
  3
A1
350
49
  3
A2
350
4A
  3
A3
350
4B
  3
A4
350
4C
  3
A5
350
4D
  3
A6
350
4E
  3
A7
350
4F
  3
A8
350
50
  3
A9
350
51
  3
B0
350
52
  3
B1
350
53
  3
B2
350
54
  3
B3
350
55
  3
B4
350
56
  3
B5
350
57
  3
B6
350
58
  3
B7
350
59
  3
B8
350
5A
  3
B9
350
5B
  3
C0
350
5C
  3
C1
350
5D
  3
C2
350
5E
  3
C3
350
5F
  3
C4
350
60
  3
C5
350
61
  3
C6
350
62
  3
C7
350
63
  3
C8
350
64
  3
C9
350
65
  3
D0
350
66
  3
D1
350
67
  3
D2
350
68
  0
DICTIONARY
  5
2A
102
{ACAD_REACTORS
330
C
102
}
330
C
100
AcDbDictionary
  3
2DWIREFRAME
350
2F
  3
BASIC
350
32
  3
BRIGHTEN
350
36
  3
COLORCHANGE
350
3A
  3
CONCEPTUAL
350
34
  3
DIM
350
35
  3
EDGECOLOROFF
350
3D
  3
FACEPATTERN
350
39
  3
FLAT
350
2B
  3
FLATWITHEDGES
350
2C
  3
GOURAUD
350
2D
  3
GOURAUDWITHEDGES
350
2E
  3
HIDDEN
350
31
  3
JITTEROFF
350
3B
  3
LINEPATTERN
350
38
  3
OVERHANGOFF
350
3C
  3
REALISTIC
350
33
  3
SHADED
350
42
  3
SHADED_WITH_EDGES
350
41
  3
SHADES_OF_GRAY
350
3E
  3
SKETCHY
350
3F
  3
THICKEN
350
37
  3
WIREFRAME
350
30
  3
X-RAY
350
40
  0
DICTIONARY
  5
254
102
{ACAD_REACTORS
330
C
102
}
330
C
100
AcDbDictionary
  3
CEPSNID
350
25E
  3
CEPSNTYPE
350
25D
  3
DIMSTYLEDATA
350
274
  3
FINGERPRINTGUID
350
25F
  3
HYPERLINKBASE
350
257
  3
INSUNITS
350
25C
  3
LAYOUTDICT
350
259
  3
LWETCUNION
350
25B
  3
PLOTSETDICT
350
25A
  3
PSVPSCALE
350
261
  3
PUCSBASE
350
264
  3
PUCSORGBACK
350
26A
  3
PUCSORGBOTTOM
350
266
  3
PUCSORGFRONT
350
269
  3
PUCSORGLEFT
350
267
  3
PUCSORGRIGHT
350
268
  3
PUCSORGTOP
350
265
  3
PUCSORTHOREF
350
262
  3
PUCSORTHOVIEW
350
263
  3
STYLESHEET
350
258
  3
TSTACKALIGN
350
255
  3
TSTACKSIZE
350
256
  3
UCSBASE
350
26D
  3
UCSORGBACK
350
273
  3
UCSORGBOTTOM
350
26F
  3
UCSORGFRONT
350
272
  3
UCSORGLEFT
350
270
  3
UCSORGRIGHT
350
271
  3
UCSORGTOP
350
26E
  3
UCSORTHOREF
350
26B
  3
UCSORTHOVIEW
350
26C
  3
VERSIONGUID
350
260
  0
DICTIONARY
  5
275
102
{ACAD_REACTORS
330
C
102
}
330
C
100
AcDbDictionary
  3
CANNOSCALE
350
27E
  3
CMLEADERSTYLE
350
277
  3
CTABLESTYLE
350
276
  3
DIMASSOC
350
27A
  3
HIDETEXT
350
27B
  3
MSLTSCALE
350
27F
  0
XRECORD
  5
27D
102
{ACAD_REACTORS
330
27C
102
}
330
27C
100
AcDbXrecord
102
VTR_0.000_0.000_1.000_1.000_VISUALSTYLE
340
2F
102
VTR_0.000_0.000_1.000_1.000_GRIDDISPLAY
 70
     3
102
VTR_0.000_0.000_1.000_1.000_GRIDMAJOR
 70
     5
102
VTR_0.000_0.000_1.000_1.000_DEFAULTLIGHTING
280
     1
102
VTR_0.000_0.000_1.000_1.000_DEFAULTLIGHTINGTYPE
 70
     1
102
VTR_0.000_0.000_1.000_1.000_BRIGHTNESS
141
0.0
102
VTR_0.000_0.000_1.000_1.000_CONTRAST
142
0.0
  0
MATERIAL
  5
45
102
{ACAD_REACTORS
330
43
102
}
102
{ACAD_XDICTIONARY
360
282
102
}
330
43
100
AcDbMaterial
  1
BYBLOCK
  0
MATERIAL
  5
44
102
{ACAD_REACTORS
330
43
102
}
102
{ACAD_XDICTIONARY
360
280
102
}
330
43
100
AcDbMaterial
  1
BYLAYER
  0
MATERIAL
  5
46
102
{ACAD_REACTORS
330
43
102
}
102
{ACAD_XDICTIONARY
360
284
102
}
330
43
100
AcDbMaterial
  1
GLOBAL
  0
ACAD_PROXY_OBJECT
  5
6C
102
{ACAD_REACTORS
330
6B
102
}
330
6B
100
AcDbProxyObject
 90
      499
 91
      505
 93
      610
310
40901902A4063FBFFFFFE056BD1B81E855B9FC0AD7A3703D0AD73F4214DD185B99185C9900AD7A3703D0AC73F90141901A02B5E8DC0F42B1CFC02B5E8DC0F42B1CFE5764000000000000300FC0
340
14
340
0
340
11
340
0
 94
        0
1001
ACAD_MLEADERVER
1070
     2
  0
MLINESTYLE
  5
18
102
{ACAD_REACTORS
330
17
102
}
330
17
100
AcDbMlineStyle
  2
Standard
 70
     0
  3

 62
   256
 51
90.0
 52
90.0
 71
     2
 49
0.5
 62
   256
  6
BYLAYER
 49
-0.5
 62
   256
  6
BYLAYER
  0
ACAD_PROXY_OBJECT
  5
48
102
{ACAD_REACTORS
330
47
102
}
330
47
100
AcDbProxyObject
 90
      499
 91
      503
 93
       41
310
903313A31580
  0
ACAD_PROXY_OBJECT
  5
49
102
{ACAD_REACTORS
330
47
102
}
330
47
100
AcDbProxyObject
 90
      499
 91
      503
 93
      105
310
903313A324000000000000004000
  0
ACAD_PROXY_OBJECT
  5
4A
102
{ACAD_REACTORS
330
47
102
}
330
47
100
AcDbProxyObject
 90
      499
 91
      503
 93
      105
310
903313A344000000000000104000
  0
ACAD_PROXY_OBJECT
  5
4B
102
{ACAD_REACTORS
330
47
102
}
330
47
100
AcDbProxyObject
 90
      499
 91
      503
 93
      105
310
903313A354000000000000144000
  0
ACAD_PROXY_OBJECT
  5
4C
102
{ACAD_REACTORS
330
47
102
}
330
47
100
AcDbProxyObject
 90
      499
 91
      503
 93
      105
310
903313A384000000000000204000
  0
ACAD_PROXY_OBJECT
  5
4D
102
{ACAD_REACTORS
330
47
102
}
330
47
100
AcDbProxyObject
 90
      499
 91
      503
 93
      113
310
904313A31304000000000000244000
  0
ACAD_PROXY_OBJECT
  5
4E
102
{ACAD_REACTORS
330
47
102
}
330
47
100
AcDbProxyObject
 90
      499
 91
      503
 93
      113
310
904313A31364000000000000304000
  0
ACAD_PROXY_OBJECT
  5
4F
102
{ACAD_REACTORS
330
47
102
}
330
47
100
AcDbProxyObject
 90
      499
 91
      503
 93
      113
310
904313A32304000000000000344000
  0
ACAD_PROXY_OBJECT
  5
50
102
{ACAD_REACTORS
330
47
102
}
330
47
100
AcDbProxyObject
 90
      499
 91
      503
 93
      113
310
904313A333040000000000003E4000
  0
ACAD_PROXY_OBJECT
  5
51
102
{ACAD_REACTORS
330
47
102
}
330
47
100
AcDbProxyObject
 90
      499
 91
      503
 93
      113
310
904313A34304000000000000444000
  0
ACAD_PROXY_OBJECT
  5
52
102
{ACAD_REACTORS
330
47
102
}
330
47
100
AcDbProxyObject
 90
      499
 91
      503
 93
      113
310
904313A35304000000000000494000
  0
ACAD_PROXY_OBJECT
  5
53
102
{ACAD_REACTORS
330
47
102
}
330
47
100
AcDbProxyObject
 90
      499
 91
      503
 93
      121
310
905313A3130304000000000000594000
  0
ACAD_PROXY_OBJECT
  5
54
102
{ACAD_REACTORS
330
47
102
}
330
47
100
AcDbProxyObject
 90
      499
 91
      503
 93
      105
310
903323A310000000000000010100
  0
ACAD_PROXY_OBJECT
  5
55
102
{ACAD_REACTORS
330
47
102
}
330
47
100
AcDbProxyObject
 90
      499
 91
      503
 93
      105
310
903343A310000000000000410100
  0
ACAD_PROXY_OBJECT
  5
56
102
{ACAD_REACTORS
330
47
102
}
330
47
100
AcDbProxyObject
 90
      499
 91
      503
 93
      105
310
903383A310000000000000810100
  0
ACAD_PROXY_OBJECT
  5
57
102
{ACAD_REACTORS
330
47
102
}
330
47
100
AcDbProxyObject
 90
      499
 91
      503
 93
      113
310
90431303A310000000000000910100
  0
ACAD_PROXY_OBJECT
  5
58
102
{ACAD_REACTORS
330
47
102
}
330
47
100
AcDbProxyObject
 90
      499
 91
      503
 93
      121
310
9053130303A310000000000001650100
  0
ACAD_PROXY_OBJECT
  5
59
102
{ACAD_REACTORS
330
47
102
}
330
47
100
AcDbProxyObject
 90
      499
 91
      503
 93
      257
310
90E312F31323822203D2031272D3022000000000000200FC000000000000284000
  0
ACAD_PROXY_OBJECT
  5
5A
102
{ACAD_REACTORS
330
47
102
}
330
47
100
AcDbProxyObject
 90
      499
 91
      503
 93
      249
310
90D312F363422203D2031272D3022000000000000240FC000000000000284000
  0
ACAD_PROXY_OBJECT
  5
5B
102
{ACAD_REACTORS
330
47
102
}
330
47
100
AcDbProxyObject
 90
      499
 91
      503
 93
      249
310
90D312F333222203D2031272D3022000000000000280FC000000000000284000
  0
ACAD_PROXY_OBJECT
  5
5C
102
{ACAD_REACTORS
330
47
102
}
330
47
100
AcDbProxyObject
 90
      499
 91
      503
 93
      249
310
90D312F313622203D2031272D30220000000000002C0FC000000000000284000
  0
ACAD_PROXY_OBJECT
  5
5D
102
{ACAD_REACTORS
330
47
102
}
330
47
100
AcDbProxyObject
 90
      499
 91
      503
 93
      249
310
90D332F333222203D2031272D30220000000000002E0FC000000000000284000
  0
ACAD_PROXY_OBJECT
  5
5E
102
{ACAD_REACTORS
330
47
102
}
330
47
100
AcDbProxyObject
 90
      499
 91
      503
 93
      241
310
90C312F3822203D2031272D3022000000000000300FC000000000000284000
  0
ACAD_PROXY_OBJECT
  5
5F
102
{ACAD_REACTORS
330
47
102
}
330
47
100
AcDbProxyObject
 90
      499
 91
      503
 93
      249
310
90D332F313622203D2031272D3022000000000000320FC000000000000284000
  0
ACAD_PROXY_OBJECT
  5
60
102
{ACAD_REACTORS
330
47
102
}
330
47
100
AcDbProxyObject
 90
      499
 91
      503
 93
      241
310
90C312F3422203D2031272D3022000000000000340FC000000000000284000
  0
ACAD_PROXY_OBJECT
  5
61
102
{ACAD_REACTORS
330
47
102
}
330
47
100
AcDbProxyObject
 90
      499
 91
      503
 93
      241
310
90C332F3822203D2031272D3022000000000000360FC000000000000284000
  0
ACAD_PROXY_OBJECT
  5
62
102
{ACAD_REACTORS
330
47
102
}
330
47
100
AcDbProxyObject
 90
      499
 91
      503
 93
      241
310
90C312F3222203D2031272D3022000000000000380FC000000000000284000
  0
ACAD_PROXY_OBJECT
  5
63
102
{ACAD_REACTORS
330
47
102
}
330
47
100
AcDbProxyObject
 90
      499
 91
      503
 93
      241
310
90C332F3422203D2031272D30220000000000003A0FC000000000000284000
  0
ACAD_PROXY_OBJECT
  5
64
102
{ACAD_REACTORS
330
47
102
}
330
47
100
AcDbProxyObject
 90
      499
 91
      503
 93
      161
310
90A3122203D2031272D30224000000000000284000
  0
ACAD_PROXY_OBJECT
  5
65
102
{ACAD_REACTORS
330
47
102
}
330
47
100
AcDbProxyObject
 90
      499
 91
      503
 93
      257
310
90E312D312F3222203D2031272D30220000000000003E0FC000000000000284000
  0
ACAD_PROXY_OBJECT
  5
66
102
{ACAD_REACTORS
330
47
102
}
330
47
100
AcDbProxyObject
 90
      499
 91
      503
 93
      225
310
90A3322203D2031272D302200000000000002100000000000000284000
  0
ACAD_PROXY_OBJECT
  5
67
102
{ACAD_REACTORS
330
47
102
}
330
47
100
AcDbProxyObject
 90
      499
 91
      503
 93
      225
310
90A3622203D2031272D302200000000000006100000000000000284000
  0
ACAD_PROXY_OBJECT
  5
68
102
{ACAD_REACTORS
330
47
102
}
330
47
100
AcDbProxyObject
 90
      499
 91
      503
 93
      249
310
90D31272D3022203D2031272D30220000000000000A100000000000000284000
  0
ACAD_PROXY_OBJECT
  5
2F
102
{ACAD_REACTORS
330
2A
102
}
330
2A
100
AcDbProxyObject
 90
      499
 91
      501
 93
      436
310
42CC9915DA5C99599C985B595049028333333333333E33F0000000000000F90107901411070040501600405405064090741402480A0340
1001
ACAD
1000
AcDbSavedByObjectVersion
1070
     0
  0
ACAD_PROXY_OBJECT
  5
32
102
{ACAD_REACTORS
330
2A
102
}
330
2A
100
AcDbProxyObject
 90
      499
 91
      501
 93
      388
310
4150985CDA58D07406404333333333333E33F0000000000000F90107A41107004050150841D405064090741402480A0350
1001
ACAD
1000
AcDbSavedByObjectVersion
1070
     0
  0
ACAD_PROXY_OBJECT
  5
36
102
{ACAD_REACTORS
330
2A
102
}
330
2A
100
AcDbProxyObject
 90
      499
 91
      501
 93
      428
310
42109C9A59DA1D195B90C409028333333333333E33F0000000000000F9010790141107004050150841D405064090741402480A029950
1001
ACAD
1000
AcDbSavedByObjectVersion
1070
     0
  0
ACAD_PROXY_OBJECT
  5
3A
102
{ACAD_REACTORS
330
2A
102
}
330
2A
100
AcDbProxyObject
 90
      499
 91
      501
 93
      452
310
42D0DBDB1BDC90DA185B99D95104090240C333333333333E33F0000000000000F90108901411070040501508421405064090741402480A0350
1001
ACAD
1000
AcDbSavedByObjectVersion
1070
     0
  0
ACAD_PROXY_OBJECT
  5
34
102
{ACAD_REACTORS
330
2A
102
}
330
2A
100
AcDbProxyObject
 90
      499
 91
      501
 93
      500
310
4290DBDB98D95C1D1D585B10940D028333333333333E33F0000000000000F90107902409070040501000000000018199010841D405064090740C02480A0340
1001
ACAD
1000
AcDbSavedByObjectVersion
1070
     0
  0
ACAD_PROXY_OBJECT
  5
35
102
{ACAD_REACTORS
330
2A
102
}
330
2A
100
AcDbProxyObject
 90
      499
 91
      501
 93
      412
310
40D11A5B50B409028333333333333E33F0000000000000F9010790141107004050150841D405064090741402480A02677FFFFFD0
1001
ACAD
1000
AcDbSavedByObjectVersion
1070
     0
  0
ACAD_PROXY_OBJECT
  5
3D
102
{ACAD_REACTORS
330
2A
102
}
330
2A
100
AcDbProxyObject
 90
      499
 91
      501
 93
      452
310
43115919D950DBDB1BDC93D999916409028333333333333E33F0000000000000F9010790141107004050150841D405064090741402480A0350
1001
ACAD
1000
AcDbSavedByObjectVersion
1070
     0
  0
ACAD_PROXY_OBJECT
  5
39
102
{ACAD_REACTORS
330
2A
102
}
330
2A
100
AcDbProxyObject
 90
      499
 91
      501
 93
      444
310
42D19858D95C185D1D195C9B90F409028333333333333E33F0000000000000F9010790141107004050150841D405064090741402480A0350
1001
ACAD
1000
AcDbSavedByObjectVersion
1070
     0
  0
ACAD_PROXY_OBJECT
  5
2B
102
{ACAD_REACTORS
330
2A
102
}
330
2A
100
AcDbProxyObject
 90
      499
 91
      501
 93
      380
310
41119B185D240901404333333333333E33F0000000000000F9010740A907004050150841D405064090741402480A1B50
1001
ACAD
1000
AcDbSavedByObjectVersion
1070
     0
  0
ACAD_PROXY_OBJECT
  5
2C
102
{ACAD_REACTORS
330
2A
102
}
330
2A
100
AcDbProxyObject
 90
      499
 91
      501
 93
      468
310
43519B185D15DA5D1A115919D95CD0140901404333333333333E33F0000000000000F90107409019070040501600405405064090741402480A1B50
1001
ACAD
1000
AcDbSavedByObjectVersion
1070
     0
  0
ACAD_PROXY_OBJECT
  5
2D
102
{ACAD_REACTORS
330
2A
102
}
330
2A
100
AcDbProxyObject
 90
      499
 91
      501
 93
      404
310
41D1DBDD5C985D5910240902404333333333333E33F0000000000000F9010740A9070040501641D405064090741402480A1B50
1001
ACAD
1000
AcDbSavedByObjectVersion
1070
     0
  0
ACAD_PROXY_OBJECT
  5
2E
102
{ACAD_REACTORS
330
2A
102
}
330
2A
100
AcDbProxyObject
 90
      499
 91
      501
 93
      492
310
4411DBDD5C985D5915DA5D1A115919D95CD0340902404333333333333E33F0000000000000F90107409019070040501600405405064090741402480A1B50
1001
ACAD
1000
AcDbSavedByObjectVersion
1070
     0
  0
ACAD_PROXY_OBJECT
  5
31
102
{ACAD_REACTORS
330
2A
102
}
330
2A
100
AcDbProxyObject
 90
      499
 91
      501
 93
      476
310
41921A5919195B90640502408333333333333E33F0000000000000F901079024090700405020000000000001110200405405064090740C02480A0340
1001
ACAD
1000
AcDbSavedByObjectVersion
1070
     0
  0
ACAD_PROXY_OBJECT
  5
3B
102
{ACAD_REACTORS
330
2A
102
}
330
2A
100
AcDbProxyObject
 90
      499
 91
      501
 93
      428
310
42529A5D1D195C93D999914409028333333333333E33F0000000000000F9010790141107004050150A41D405064090741402480A0350
1001
ACAD
1000
AcDbSavedByObjectVersion
1070
     0
  0
ACAD_PROXY_OBJECT
  5
38
102
{ACAD_REACTORS
330
2A
102
}
330
2A
100
AcDbProxyObject
 90
      499
 91
      501
 93
      444
310
42D31A5B995C185D1D195C9B90E409028333333333333E33F0000000000000F9010790141107004050750841D405064090741402483A0350
1001
ACAD
1000
AcDbSavedByObjectVersion
1070
     0
  0
ACAD_PROXY_OBJECT
  5
3C
102
{ACAD_REACTORS
330
2A
102
}
330
2A
100
AcDbProxyObject
 90
      499
 91
      501
 93
      444
310
42D3DD995C9A185B99D3D999915409028333333333333E33F0000000000000F9010790141107004050150941D405064090741402480A0350
1001
ACAD
1000
AcDbSavedByObjectVersion
1070
     0
  0
ACAD_PROXY_OBJECT
  5
33
102
{ACAD_REACTORS
330
2A
102
}
330
2A
100
AcDbProxyObject
 90
      499
 91
      501
 93
      428
310
425499585B1A5CDD1A58D08409038333333333333E33F0000000000000F9010740A907004050150800405405064090740C02480A1B40
1001
ACAD
1000
AcDbSavedByObjectVersion
1070
     0
  0
ACAD_PROXY_OBJECT
  5
42
102
{ACAD_REACTORS
330
2A
102
}
330
2A
100
AcDbProxyObject
 90
      499
 91
      501
 93
      420
310
4194DA1859195911B40902404333333333333E33F0000000000000F9010740A41107004050150800405405064090840C02480A0B40
1001
ACAD
1000
AcDbSavedByObjectVersion
1070
     0
  0
ACAD_PROXY_OBJECT
  5
41
102
{ACAD_REACTORS
330
2A
102
}
330
2A
100
AcDbProxyObject
 90
      499
 91
      501
 93
      516
310
4454DA18591959081DDA5D1A08195919D95CD1A40902404333333333333E33F0000000000000F901074090142907004050250800405405064090740C02480A0B40
1001
ACAD
1000
AcDbSavedByObjectVersion
1070
     0
  0
ACAD_PROXY_OBJECT
  5
3E
102
{ACAD_REACTORS
330
2A
102
}
330
2A
100
AcDbProxyObject
 90
      499
 91
      501
 93
      532
310
4394DA1859195CC81BD98811DC985E5174090240C333333333333E33F0000000000000F901079024090741D01000000000000111010841D405064090740C02480A0340
1001
ACAD
1000
AcDbSavedByObjectVersion
1070
     0
  0
ACAD_PROXY_OBJECT
  5
3F
102
{ACAD_REACTORS
330
2A
102
}
330
2A
100
AcDbProxyObject
 90
      499
 91
      501
 93
      476
310
41D4DAD95D18DA1E51840502408333333333333E33F0000000000000F901079024090741D01000000000000111010B41D405064090741802480A0340
1001
ACAD
1000
AcDbSavedByObjectVersion
1070
     0
  0
ACAD_PROXY_OBJECT
  5
37
102
{ACAD_REACTORS
330
2A
102
}
330
2A
100
AcDbProxyObject
 90
      499
 91
      501
 93
      412
310
41D51A1A58DAD95B90D409028333333333333E33F0000000000000F9010790141107004050150C41D405064090741402480A0350
1001
ACAD
1000
AcDbSavedByObjectVersion
1070
     0
  0
ACAD_PROXY_OBJECT
  5
30
102
{ACAD_REACTORS
330
2A
102
}
330
2A
100
AcDbProxyObject
 90
      499
 91
      501
 93
      420
310
4255DA5C99599C985B595059028333333333333E33F0000000000000F90107901411070040501600405405064090740C02480A0340
1001
ACAD
1000
AcDbSavedByObjectVersion
1070
     0
  0
ACAD_PROXY_OBJECT
  5
40
102
{ACAD_REACTORS
330
2A
102
}
330
2A
100
AcDbProxyObject
 90
      499
 91
      501
 93
      404
310
41560B54985E51940902404000000000000E03F0000000000000F9010740501907004050150841D405064090740C02480A1B40
1001
ACAD
1000
AcDbSavedByObjectVersion
1070
     0
  0
XRECORD
  5
25E
102
{ACAD_REACTORS
330
254
102
}
330
254
100
AcDbXrecord
340
0
  0
XRECORD
  5
25D
102
{ACAD_REACTORS
330
254
102
}
330
254
100
AcDbXrecord
 90
        0
  0
XRECORD
  5
274
102
{ACAD_REACTORS
330
254
102
}
330
254
100
AcDbXrecord
1000
DSTYLE
1002
{
1070
   179
 70
     2
1070
   171
 70
     2
1070
   143
 40
25.4
1070
   274
 70
     2
1070
    41
 40
3.0
1070
   141
 40
0.09
1070
    43
 40
0.38
1070
   278
 70
    46
1070
    44
 40
1.5
1070
    42
 40
0.0625
1070
   147
 40
1.5
1070
   272
 70
     4
1070
    73
 70
     1
1070
   172
 70
     0
1070
    74
 70
     1
1070
   283
 70
     1
1070
   340
340
6F
1070
   140
 40
3.0
1070
   284
 70
     0
1070
    78
 70
     0
1002
}
  0
XRECORD
  5
25F
102
{ACAD_REACTORS
330
254
102
}
330
254
100
AcDbXrecord
  1
{FD171255-9AB4-4067-95A4-7109E145AA40}
  0
XRECORD
  5
257
102
{ACAD_REACTORS
330
254
102
}
330
254
100
AcDbXrecord
  1

  0
XRECORD
  5
25C
102
{ACAD_REACTORS
330
254
102
}
330
254
100
AcDbXrecord
 90
        4
  0
XRECORD
  5
259
102
{ACAD_REACTORS
330
254
102
}
330
254
100
AcDbXrecord
340
1A
  0
XRECORD
  5
25B
102
{ACAD_REACTORS
330
254
102
}
330
254
100
AcDbXrecord
 90
    10269
  0
XRECORD
  5
25A
102
{ACAD_REACTORS
330
254
102
}
330
254
100
AcDbXrecord
340
19
  0
XRECORD
  5
261
102
{ACAD_REACTORS
330
254
102
}
330
254
100
AcDbXrecord
 40
0.0
  0
XRECORD
  5
264
102
{ACAD_REACTORS
330
254
102
}
330
254
100
AcDbXrecord
340
0
  0
XRECORD
  5
26A
102
{ACAD_REACTORS
330
254
102
}
330
254
100
AcDbXrecord
 10
0.0
 20
0.0
 30
0.0
  0
XRECORD
  5
266
102
{ACAD_REACTORS
330
254
102
}
330
254
100
AcDbXrecord
 10
0.0
 20
0.0
 30
0.0
  0
XRECORD
  5
269
102
{ACAD_REACTORS
330
254
102
}
330
254
100
AcDbXrecord
 10
0.0
 20
0.0
 30
0.0
  0
XRECORD
  5
267
102
{ACAD_REACTORS
330
254
102
}
330
254
100
AcDbXrecord
 10
0.0
 20
0.0
 30
0.0
  0
XRECORD
  5
268
102
{ACAD_REACTORS
330
254
102
}
330
254
100
AcDbXrecord
 10
0.0
 20
0.0
 30
0.0
  0
XRECORD
  5
265
102
{ACAD_REACTORS
330
254
102
}
330
254
100
AcDbXrecord
 10
0.0
 20
0.0
 30
0.0
  0
XRECORD
  5
262
102
{ACAD_REACTORS
330
254
102
}
330
254
100
AcDbXrecord
340
0
  0
XRECORD
  5
263
102
{ACAD_REACTORS
330
254
102
}
330
254
100
AcDbXrecord
 70
     0
  0
XRECORD
  5
258
102
{ACAD_REACTORS
330
254
102
}
330
254
100
AcDbXrecord
  1

  0
XRECORD
  5
255
102
{ACAD_REACTORS
330
254
102
}
330
254
100
AcDbXrecord
 90
        1
  0
XRECORD
  5
256
102
{ACAD_REACTORS
330
254
102
}
330
254
100
AcDbXrecord
 90
       70
  0
XRECORD
  5
26D
102
{ACAD_REACTORS
330
254
102
}
330
254
100
AcDbXrecord
340
0
  0
XRECORD
  5
273
102
{ACAD_REACTORS
330
254
102
}
330
254
100
AcDbXrecord
 10
0.0
 20
0.0
 30
0.0
  0
XRECORD
  5
26F
102
{ACAD_REACTORS
330
254
102
}
330
254
100
AcDbXrecord
 10
0.0
 20
0.0
 30
0.0
  0
XRECORD
  5
272
102
{ACAD_REACTORS
330
254
102
}
330
254
100
AcDbXrecord
 10
0.0
 20
0.0
 30
0.0
  0
XRECORD
  5
270
102
{ACAD_REACTORS
330
254
102
}
330
254
100
AcDbXrecord
 10
0.0
 20
0.0
 30
0.0
  0
XRECORD
  5
271
102
{ACAD_REACTORS
330
254
102
}
330
254
100
AcDbXrecord
 10
0.0
 20
0.0
 30
0.0
  0
XRECORD
  5
26E
102
{ACAD_REACTORS
330
254
102
}
330
254
100
AcDbXrecord
 10
0.0
 20
0.0
 30
0.0
  0
XRECORD
  5
26B
102
{ACAD_REACTORS
330
254
102
}
330
254
100
AcDbXrecord
340
0
  0
XRECORD
  5
26C
102
{ACAD_REACTORS
330
254
102
}
330
254
100
AcDbXrecord
 70
     0
  0
XRECORD
  5
260
102
{ACAD_REACTORS
330
254
102
}
330
254
100
AcDbXrecord
  1
{FAEB1C32-E019-11D5-929B-00C0DF256EC4}
  0
DICTIONARYVAR
  5
27E
102
{ACAD_REACTORS
330
275
102
}
330
275
100
DictionaryVariables
280
     0
  1
1:1
  0
DICTIONARYVAR
  5
277
102
{ACAD_REACTORS
330
275
102
}
330
275
100
DictionaryVariables
280
     0
  1
Standard
  0
DICTIONARYVAR
  5
276
102
{ACAD_REACTORS
330
275
102
}
330
275
100
DictionaryVariables
280
     0
  1
Standard
  0
DICTIONARYVAR
  5
27A
102
{ACAD_REACTORS
330
275
102
}
330
275
100
DictionaryVariables
280
     0
  1
2
  0
DICTIONARYVAR
  5
27B
102
{ACAD_REACTORS
330
275
102
}
330
275
100
DictionaryVariables
280
     0
  1
1
  0
DICTIONARYVAR
  5
27F
102
{ACAD_REACTORS
330
275
102
}
330
275
100
DictionaryVariables
280
     0
  1
1
  0
DICTIONARY
  5
282
330
45
100
AcDbDictionary
280
     1
  3
ACAD_XREC_ROUNDTRIP
360
283
  0
DICTIONARY
  5
280
330
44
100
AcDbDictionary
280
     1
  3
ACAD_XREC_ROUNDTRIP
360
281
  0
DICTIONARY
  5
284
330
46
100
AcDbDictionary
280
     1
  3
ACAD_XREC_ROUNDTRIP
360
285
  0
XRECORD
  5
283
102
{ACAD_REACTORS
330
282
102
}
330
282
100
AcDbXrecord
102
MATERIAL
148
0.0
149
0.0
149
0.0
 93
        0
 94
      127
282
     0
 72
     1
 77
     1
171
     1
175
     1
179
     1
273
     0
  0
XRECORD
  5
281
102
{ACAD_REACTORS
330
280
102
}
330
280
100
AcDbXrecord
102
MATERIAL
148
0.0
149
0.0
149
0.0
 93
        0
 94
      127
282
     0
 72
     1
 77
     1
171
     1
175
     1
179
     1
273
     0
  0
XRECORD
  5
285
102
{ACAD_REACTORS
330
284
102
}
330
284
100
AcDbXrecord
102
MATERIAL
148
0.0
149
0.0
149
0.0
 93
        0
 94
      127
282
     0
 72
     1
 77
     1
171
     1
175
     1
179
     1
273
     0
  0
ENDSEC
  0
EOF
