  0
SECTION
  2
HEADER
  9
$ACADVER
  1
AC1004
  9
$INSBASE
 10
0.0
 20
0.0
  9
$EXTMIN
 10
0.0
 20
0.0
  9
$EXTMAX
 10
589.0000000000001
 20
217.0
  9
$LIMMIN
 10
0.0
 20
0.0
  9
$LIMMAX
 10
12.0
 20
9.0
  9
$ORTHOMODE
 70
     0
  9
$REGENMODE
 70
     1
  9
$FILLMODE
 70
     1
  9
$QTEXTMODE
 70
     0
  9
$DRAGMODE
 70
     2
  9
$LTSCALE
 40
1.0
  9
$OSMODE
 70
    37
  9
$ATTMODE
 70
     1
  9
$TEXTSIZE
 40
0.2
  9
$TRACEWID
 40
0.05
  9
$TEXTSTYLE
  7
STANDARD
  9
$CLAYER
  8
0
  9
$CELTYPE
  6
BYLAYER
  9
$CECOLOR
 62
   256
  9
$DIMSCALE
 40
1.0
  9
$DIMASZ
 40
3.0
  9
$DIMEXO
 40
0.0625
  9
$DIMDLI
 40
0.38
  9
$DIMRND
 40
0.0
  9
$DIMDLE
 40
0.0
  9
$DIMEXE
 40
1.5
  9
$DIMTP
 40
0.0
  9
$DIMTM
 40
0.0
  9
$DIMTXT
 40
3.0
  9
$DIMCEN
 40
0.09
  9
$DIMTSZ
 40
0.0
  9
$DIMTOL
 70
     0
  9
$DIMLIM
 70
     0
  9
$DIMTIH
 70
     1
  9
$DIMTOH
 70
     1
  9
$DIMSE1
 70
     0
  9
$DIMSE2
 70
     0
  9
$DIMTAD
 70
     1
  9
$DIMZIN
 70
     0
  9
$DIMBLK
  1

  9
$DIMASO
 70
     1
  9
$DIMSHO
 70
     1
  9
$DIMPOST
  1

  9
$DIMAPOST
  1

  9
$DIMALT
 70
     0
  9
$DIMALTD
 70
     2
  9
$DIMALTF
 40
25.4
  9
$DIMLFAC
 40
1.0
  9
$DIMTOFL
 70
     0
  9
$DIMTVP
 40
0.0
  9
$DIMTIX
 70
     0
  9
$DIMSOXD
 70
     0
  9
$DIMSAH
 70
     0
  9
$DIMBLK1
  1

  9
$DIMBLK2
  1

  9
$LUNITS
 70
     2
  9
$LUPREC
 70
     4
  9
$SKETCHINC
 40
0.1
  9
$FILLETRAD
 40
0.5
  9
$AUNITS
 70
     0
  9
$AUPREC
 70
     0
  9
$MENU
  1
.
  9
$ELEVATION
 40
0.0
  9
$THICKNESS
 40
0.0
  9
$LIMCHECK
 70
     0
  9
$CHAMFERA
 40
0.0
  9
$CHAMFERB
 40
0.0
  9
$SKPOLY
 70
     0
  9
$TDCREATE
 40
2460256.4591214
  9
$TDUPDATE
 40
2460256.45912162
  9
$TDINDWG
 40
0.0000000116
  9
$TDUSRTIMER
 40
0.0000000116
  9
$USRTIMER
 70
     1
  9
$ANGBASE
 50
0.0
  9
$ANGDIR
 70
     0
  9
$PDMODE
 70
     0
  9
$PDSIZE
 40
0.0
  9
$PLINEWID
 40
0.0
  9
$COORDS
 70
     1
  9
$SPLFRAME
 70
     0
  9
$SPLINETYPE
 70
     6
  9
$SPLINESEGS
 70
     8
  9
$ATTDIA
 70
     0
  9
$ATTREQ
 70
     1
  9
$SURFTAB1
 70
     6
  9
$SURFTAB2
 70
     6
  9
$SURFTYPE
 70
     6
  9
$SURFU
 70
     6
  9
$SURFV
 70
     6
  9
$UCSNAME
  2

  9
$UCSORG
 10
0.0
 20
0.0
 30
0.0
  9
$UCSXDIR
 10
1.0
 20
0.0
 30
0.0
  9
$UCSYDIR
 10
0.0
 20
1.0
 30
0.0
  9
$USERI1
 70
     0
  9
$USERI2
 70
     0
  9
$USERI3
 70
     0
  9
$USERI4
 70
     0
  9
$USERI5
 70
     0
  9
$USERR1
 40
0.0
  9
$USERR2
 40
0.0
  9
$USERR3
 40
0.0
  9
$USERR4
 40
0.0
  9
$USERR5
 40
0.0
  9
$WORLDVIEW
 70
     1
  0
ENDSEC
  0
SECTION
  2
TABLES
  0
TABLE
  2
LTYPE
 70
     2
  0
LTYPE
  2
CONTINUOUS
 70
     0
  3
Solid line
 72
    65
 73
     0
 40
0.0
  0
LTYPE
  2
CENTER
 70
     0
  3

 72
    65
 73
     0
 40
0.0
  0
ENDTAB
  0
TABLE
  2
LAYER
 70
     1
  0
LAYER
  2
0
 70
     0
 62
     7
  6
CONTINUOUS
  0
ENDTAB
  0
TABLE
  2
STYLE
 70
     2
  0
STYLE
  2
STANDARD
 70
     0
 40
0.0
 41
1.0
 50
0.0
 71
     0
 42
0.2
  3
txt
  4

  0
STYLE
  2
ＭＳ_ゴシック
 70
     0
 40
0.0
 41
1.0
 50
0.0
 71
     0
 42
0.2
  3
ＭＳ ゴシック.shx
  4

  0
ENDTAB
  0
TABLE
  2
VIEW
 70
     0
  0
ENDTAB
  0
ENDSEC
  0
SECTION
  2
BLOCKS
  0
BLOCK
  8
0
  2
D_FRAME_DRAWING_17
 70
     0
 10
0.0
 20
0.0
  0
LINE
  8
0
  6
CONTINUOUS
 62
     7
 10
0.0
 20
0.0
 11
210.0
 21
0.0
  0
LINE
  8
0
  6
CONTINUOUS
 62
     7
 10
210.0
 20
0.0
 11
210.0
 21
297.0
  0
LINE
  8
0
  6
CONTINUOUS
 62
     7
 10
210.0
 20
297.0
 11
0.0
 21
297.0
  0
LINE
  8
0
  6
CONTINUOUS
 62
     7
 10
0.0
 20
297.0
 11
0.0
 21
0.0
  0
ENDBLK
  8
0
  0
BLOCK
  8
0
  2
D_FRAME_VIEW_1288
 70
     0
 10
0.0
 20
0.0
  0
LINE
  8
0
  6
CONTINUOUS
 62
     7
 10
467.1224211790803
 20
48.25000000000001
 11
466.6275229189109
 21
48.25000000000001
  0
LINE
  8
0
  6
CONTINUOUS
 62
     7
 10
467.116264736901
 20
76.25000000000001
 11
467.6111629970704
 21
76.25000000000001
  0
LINE
  8
0
  6
CONTINUOUS
 62
     7
 10
383.372477081089
 20
48.25000000000001
 11
382.8775788209196
 21
48.25000000000001
  0
LINE
  8
0
  6
CONTINUOUS
 62
     7
 10
382.3888370029295
 20
76.25000000000001
 11
382.8837352630989
 21
76.25000000000001
  0
LINE
  8
0
  6
CONTINUOUS
 62
     7
 10
465.5056477018588
 20
48.25000000000001
 11
466.6275229189109
 21
48.25000000000001
  0
LINE
  8
0
  6
CONTINUOUS
 62
     7
 10
465.5056477018588
 20
48.25000000000001
 11
465.75
 21
76.25000000000001
  0
LINE
  8
0
  6
CONTINUOUS
 62
     7
 10
467.116264736901
 20
76.25000000000001
 11
465.75
 21
76.25000000000001
  0
LINE
  8
0
  6
CONTINUOUS
 62
     7
 10
383.372477081089
 20
48.25000000000001
 11
384.4943522981412
 21
48.25000000000001
  0
LINE
  8
0
  6
CONTINUOUS
 62
     7
 10
384.25
 20
76.25000000000001
 11
384.4943522981412
 21
48.25000000000001
  0
LINE
  8
0
  6
CONTINUOUS
 62
     7
 10
384.25
 20
76.25000000000001
 11
382.8837352630989
 21
76.25000000000001
  0
LINE
  8
0
  6
CONTINUOUS
 62
     7
 10
468.55
 20
76.25000000000001
 11
468.0612581820099
 21
48.25000000000001
  0
LINE
  8
0
  6
CONTINUOUS
 62
     7
 10
468.0612581820099
 20
48.25000000000001
 11
467.1224211790803
 21
48.25000000000001
  0
LINE
  8
0
  6
CONTINUOUS
 62
     7
 10
467.6111629970704
 20
76.25000000000001
 11
468.55
 21
76.25000000000001
  0
LINE
  8
0
  6
CONTINUOUS
 62
     7
 10
381.9387418179901
 20
48.25000000000001
 11
381.45
 21
76.25000000000001
  0
LINE
  8
0
  6
CONTINUOUS
 62
     7
 10
382.8775788209196
 20
48.25000000000001
 11
381.9387418179901
 21
48.25000000000001
  0
LINE
  8
0
  6
CONTINUOUS
 62
     7
 10
381.45
 20
76.25000000000001
 11
382.3888370029295
 21
76.25000000000001
  0
POLYLINE
  8
0
  6
CONTINUOUS
 62
     7
 66
     1
  0
VERTEX
  8
0
  6
CONTINUOUS
 62
     7
 10
425.4226497308103
 20
53.05000000000002
  0
VERTEX
  8
0
  6
CONTINUOUS
 62
     7
 10
425.5476497308103
 20
53.02628120948833
  0
VERTEX
  8
0
  6
CONTINUOUS
 62
     7
 10
425.641960828573
 20
52.97504482442446
  0
VERTEX
  8
0
  6
CONTINUOUS
 62
     7
 10
425.7214680451302
 20
52.90564177380557
  0
VERTEX
  8
0
  6
CONTINUOUS
 62
     7
 10
425.7914409793979
 20
52.81940174479637
  0
VERTEX
  8
0
  6
CONTINUOUS
 62
     7
 10
425.8457532722589
 20
52.73040434474687
  0
VERTEX
  8
0
  6
CONTINUOUS
 62
     7
 10
425.9037217071409
 20
52.60290866209048
  0
SEQEND
  8
0
  6
CONTINUOUS
 62
     7
  0
ARC
  8
0
  6
CONTINUOUS
 62
     7
 10
424.4364859533708
 20
52.06258125681794
 40
1.563564665125782
 50
359.5389632985912
 51
20.21684307441393
  0
LINE
  8
0
  6
CONTINUOUS
 62
     7
 10
425.4226497308103
 20
53.05000000000002
 11
436.2967334007307
 21
53.05000000000002
  0
LINE
  8
0
  6
CONTINUOUS
 62
     7
 10
425.4226497308103
 20
53.05000000000002
 11
425.0
 21
53.05
  0
LINE
  8
0
  6
CONTINUOUS
 62
     7
 10
426.0
 20
51.55000000000002
 11
426.0
 21
52.05000000000002
  0
LINE
  8
0
  6
CONTINUOUS
 62
     7
 10
425.0
 20
51.55000000000001
 11
426.0
 21
51.55000000000002
  0
LINE
  8
0
  6
CONTINUOUS
 62
     7
 10
413.7032665992693
 20
53.05000000000002
 11
424.5773502691897
 21
53.05000000000002
  0
ARC
  8
0
  6
CONTINUOUS
 62
     7
 10
425.5012206088429
 20
52.06958841322851
 40
1.501348401387098
 50
155.1225001753282
 51
180.7475714825297
  0
POLYLINE
  8
0
  6
CONTINUOUS
 62
     7
 66
     1
  0
VERTEX
  8
0
  6
CONTINUOUS
 62
     7
 10
424.1391833975638
 20
52.70117503233829
  0
VERTEX
  8
0
  6
CONTINUOUS
 62
     7
 10
424.1996385319197
 20
52.80630782792825
  0
VERTEX
  8
0
  6
CONTINUOUS
 62
     7
 10
424.2729152363361
 20
52.89968107682505
  0
VERTEX
  8
0
  6
CONTINUOUS
 62
     7
 10
424.3555879332501
 20
52.97328998644852
  0
VERTEX
  8
0
  6
CONTINUOUS
 62
     7
 10
424.4500443311455
 20
53.02538689473263
  0
VERTEX
  8
0
  6
CONTINUOUS
 62
     7
 10
424.5515359562149
 20
53.04899993180028
  0
VERTEX
  8
0
  6
CONTINUOUS
 62
     7
 10
424.5773502691897
 20
53.05000000000002
  0
SEQEND
  8
0
  6
CONTINUOUS
 62
     7
  0
LINE
  8
0
  6
CONTINUOUS
 62
     7
 10
424.0
 20
51.55000000000002
 11
424.0
 21
52.05000000000002
  0
LINE
  8
0
  6
CONTINUOUS
 62
     7
 10
424.0
 20
51.55000000000002
 11
413.6770627096278
 21
51.55000000000002
  0
LINE
  8
0
  6
CONTINUOUS
 62
     7
 10
413.6770627096278
 20
51.55000000000001
 11
410.672945671634
 21
51.55000000000001
  0
LINE
  8
0
  6
CONTINUOUS
 62
     7
 10
410.672945671634
 20
51.55000000000001
 11
410.7018923725103
 21
52.10233595607959
  0
LINE
  8
0
  6
CONTINUOUS
 62
     7
 10
439.3270543283659
 20
51.55000000000001
 11
436.3229372903722
 21
51.55000000000001
  0
LINE
  8
0
  6
CONTINUOUS
 62
     7
 10
439.298107627481
 20
52.10233595624295
 11
439.2394784815966
 21
52.10206349935007
  0
LINE
  8
0
  6
CONTINUOUS
 62
     7
 10
439.298107627481
 20
52.10233595624295
 11
439.3270543283659
 21
51.55000000000001
  0
LINE
  8
0
  6
CONTINUOUS
 62
     7
 10
436.3229372903722
 20
51.55000000000002
 11
426.0
 21
51.55000000000002
  0
LINE
  8
0
  6
CONTINUOUS
 62
     7
 10
425.0
 20
53.05
 11
424.5773502691897
 21
53.05000000000002
  0
LINE
  8
0
  6
CONTINUOUS
 62
     7
 10
424.0
 20
51.55000000000002
 11
425.0
 21
51.55000000000001
  0
LINE
  8
0
  6
CONTINUOUS
 62
     7
 10
438.6567641097777
 20
52.98399502248123
 11
438.2994780927265
 21
53.05
  0
LINE
  8
0
  6
CONTINUOUS
 62
     7
 10
436.2967334007307
 20
53.05
 11
438.2994780927265
 21
53.05
  0
LINE
  8
0
  6
CONTINUOUS
 62
     7
 10
410.7605215184034
 20
52.10206349935024
 11
410.7018923725188
 21
52.10233595624295
  0
LINE
  8
0
  6
CONTINUOUS
 62
     7
 10
411.7005219072735
 20
53.05000000000001
 11
413.7032665992693
 21
53.05000000000001
  0
LINE
  8
0
  6
CONTINUOUS
 62
     7
 10
411.7005219072735
 20
53.05000000000001
 11
411.3432358946715
 21
52.9839950241832
  0
LINE
  8
0
  6
CONTINUOUS
 62
     7
 10
465.5300829316728
 20
51.05000000000001
 11
464.5300448532871
 21
51.05000000000001
  0
LINE
  8
0
  6
CONTINUOUS
 62
     7
 10
464.505609623473
 20
48.25000000000001
 11
465.5056477018588
 21
48.25000000000001
  0
LINE
  8
0
  6
CONTINUOUS
 62
     7
 10
385.4699551467128
 20
51.05
 11
384.4699170683271
 21
51.05
  0
LINE
  8
0
  6
CONTINUOUS
 62
     7
 10
384.4943522981413
 20
48.25000000000001
 11
385.494390376527
 21
48.25000000000001
  0
LINE
  8
0
  6
CONTINUOUS
 62
     7
 10
429.172945671634
 20
51.55000000000001
 11
429.1467417819925
 21
51.05000000000001
  0
LINE
  8
0
  6
CONTINUOUS
 62
     7
 10
439.3532582180075
 20
51.05000000000001
 11
439.3270543283659
 21
51.55000000000001
  0
LINE
  8
0
  6
CONTINUOUS
 62
     7
 10
420.8532582180075
 20
51.05000000000001
 11
420.827054328366
 21
51.55000000000001
  0
LINE
  8
0
  6
CONTINUOUS
 62
     7
 10
410.672945671634
 20
51.55000000000001
 11
410.6467417819925
 21
51.05000000000001
  0
LINE
  8
0
  6
CONTINUOUS
 62
     7
 10
439.5
 20
48.25000000000001
 11
429.0
 21
48.25000000000001
  0
LINE
  8
0
  6
CONTINUOUS
 62
     7
 10
429.0
 20
48.25000000000001
 11
429.0733708909962
 21
49.65000000000001
  0
LINE
  8
0
  6
CONTINUOUS
 62
     7
 10
439.4266291090037
 20
49.65000000000001
 11
439.5
 21
48.25000000000001
  0
LINE
  8
0
  6
CONTINUOUS
 62
     7
 10
421.0
 20
48.25000000000001
 11
410.4999999999999
 21
48.25000000000001
  0
LINE
  8
0
  6
CONTINUOUS
 62
     7
 10
420.9266291090037
 20
49.65000000000001
 11
421.0
 21
48.25000000000001
  0
LINE
  8
0
  6
CONTINUOUS
 62
     7
 10
410.4999999999999
 20
48.25000000000001
 11
410.5733708909963
 21
49.65000000000001
  0
LINE
  8
0
  6
CONTINUOUS
 62
     7
 10
441.6481141279904
 20
51.05
 11
441.5013723459979
 21
48.25000000000001
  0
LINE
  8
0
  6
CONTINUOUS
 62
     7
 10
441.6481141279904
 20
51.05
 11
464.5300448532871
 21
51.05
  0
LINE
  8
0
  6
CONTINUOUS
 62
     7
 10
441.5013723459979
 20
48.25000000000001
 11
464.505609623473
 21
48.25000000000001
  0
LINE
  8
0
  6
CONTINUOUS
 62
     7
 10
429.1467417819925
 20
51.05000000000001
 11
429.0733708909962
 21
49.65000000000001
  0
LINE
  8
0
  6
CONTINUOUS
 62
     7
 10
439.3532582180075
 20
51.05000000000001
 11
439.4266291090037
 21
49.65000000000001
  0
LINE
  8
0
  6
CONTINUOUS
 62
     7
 10
408.4986276540021
 20
48.25000000000001
 11
408.3518858720095
 21
51.05
  0
LINE
  8
0
  6
CONTINUOUS
 62
     7
 10
385.4699551467128
 20
51.05
 11
408.3518858720095
 21
51.05
  0
LINE
  8
0
  6
CONTINUOUS
 62
     7
 10
385.494390376527
 20
48.25000000000001
 11
408.4986276540021
 21
48.25000000000001
  0
LINE
  8
0
  6
CONTINUOUS
 62
     7
 10
420.9266291090037
 20
49.65000000000001
 11
420.8532582180075
 21
51.05000000000001
  0
LINE
  8
0
  6
CONTINUOUS
 62
     7
 10
410.6467417819925
 20
51.05000000000001
 11
410.5733708909963
 21
49.65000000000001
  0
LINE
  8
0
  6
CONTINUOUS
 62
     7
 10
440.5
 20
48.25000000000001
 11
440.6467417819925
 21
51.05
  0
LINE
  8
0
  6
CONTINUOUS
 62
     7
 10
440.6467417819925
 20
51.05
 11
441.6481141279904
 21
51.05
  0
LINE
  8
0
  6
CONTINUOUS
 62
     7
 10
441.5013723459979
 20
48.25000000000001
 11
440.5
 21
48.25000000000001
  0
LINE
  8
0
  6
CONTINUOUS
 62
     7
 10
409.3532582180075
 20
51.05
 11
409.4999999999999
 21
48.25000000000001
  0
LINE
  8
0
  6
CONTINUOUS
 62
     7
 10
408.3518858720095
 20
51.05
 11
409.3532582180075
 21
51.05
  0
LINE
  8
0
  6
CONTINUOUS
 62
     7
 10
409.4999999999999
 20
48.25000000000001
 11
408.4986276540021
 21
48.25000000000001
  0
LINE
  8
0
  6
CONTINUOUS
 62
     7
 10
461.5452856791467
 20
51.05000000000001
 11
463.6701364759256
 21
75.33715574274767
  0
LINE
  8
0
  6
CONTINUOUS
 62
     7
 10
386.3298635240743
 20
75.33715574274765
 11
388.4547143208533
 21
51.05000000000001
  0
ARC
  8
0
  6
CONTINUOUS
 62
     7
 10
385.3336688259826
 20
75.25000000000001
 40
1.000000000000001
 50
4.999999999999261
 51
90.0
  0
ARC
  8
0
  6
CONTINUOUS
 62
     7
 10
464.6663311740174
 20
75.25000000000001
 40
1.000000000000001
 50
90.0
 51
175.0000000000007
  0
LINE
  8
0
  6
CONTINUOUS
 62
     7
 10
384.25
 20
76.25000000000001
 11
385.3336688259826
 21
76.25000000000001
  0
LINE
  8
0
  6
CONTINUOUS
 62
     7
 10
464.6663311740174
 20
76.25000000000001
 11
465.75
 21
76.25000000000001
  0
LINE
  8
0
  6
CONTINUOUS
 62
     7
 10
440.6467417819925
 20
51.05
 11
440.1460556089935
 21
51.05
  0
LINE
  8
0
  6
CONTINUOUS
 62
     7
 10
439.999313827001
 20
48.25000000000001
 11
440.5
 21
48.25000000000001
  0
LINE
  8
0
  6
CONTINUOUS
 62
     7
 10
409.8539443910064
 20
51.05
 11
409.3532582180075
 21
51.05
  0
LINE
  8
0
  6
CONTINUOUS
 62
     7
 10
409.4999999999999
 20
48.25000000000001
 11
410.0006861729989
 21
48.25000000000001
  0
LINE
  8
0
  6
CONTINUOUS
 62
     7
 10
439.3532582180075
 20
51.05
 11
440.1460556089935
 21
51.05
  0
LINE
  8
0
  6
CONTINUOUS
 62
     7
 10
439.5
 20
48.25000000000001
 11
439.999313827001
 21
48.25000000000001
  0
LINE
  8
0
  6
CONTINUOUS
 62
     7
 10
409.8539443910064
 20
51.05
 11
410.6467417819925
 21
51.05
  0
LINE
  8
0
  6
CONTINUOUS
 62
     7
 10
410.0006861729989
 20
48.25000000000001
 11
410.4999999999999
 21
48.25000000000001
  0
LINE
  8
0
  6
CONTINUOUS
 62
     7
 10
428.119165546353
 20
51.05
 11
428.119165546353
 21
51.04037245715204
  0
LINE
  8
0
  6
CONTINUOUS
 62
     7
 10
427.9986276540021
 20
48.25000000000001
 11
429.0
 21
48.25000000000001
  0
LINE
  8
0
  6
CONTINUOUS
 62
     7
 10
421.8808344536469
 20
51.04037280859256
 11
421.8808344536469
 21
51.05
  0
LINE
  8
0
  6
CONTINUOUS
 62
     7
 10
421.0
 20
48.25000000000002
 11
422.0013723459979
 21
48.25000000000002
  0
POLYLINE
  8
0
  6
CONTINUOUS
 62
     7
 66
     1
  0
VERTEX
  8
0
  6
CONTINUOUS
 62
     7
 10
424.2886751345948
 20
51.05
  0
VERTEX
  8
0
  6
CONTINUOUS
 62
     7
 10
424.2745105171041
 20
51.0493977281026
  0
VERTEX
  8
0
  6
CONTINUOUS
 62
     7
 10
424.2603800234176
 20
51.04759236333611
  0
VERTEX
  8
0
  6
CONTINUOUS
 62
     7
 10
424.2463176951322
 20
51.0445882549824
  0
VERTEX
  8
0
  6
CONTINUOUS
 62
     7
 10
424.2323574096287
 20
51.04039264020162
  0
VERTEX
  8
0
  6
CONTINUOUS
 62
     7
 10
424.2185327984573
 20
51.03501562659728
  0
VERTEX
  8
0
  6
CONTINUOUS
 62
     7
 10
424.2048771663175
 20
51.02847016786612
  0
VERTEX
  8
0
  6
CONTINUOUS
 62
     7
 10
424.1914234108232
 20
51.02077203259152
  0
VERTEX
  8
0
  6
CONTINUOUS
 62
     7
 10
424.1782039432496
 20
51.01193976625565
  0
VERTEX
  8
0
  6
CONTINUOUS
 62
     7
 10
424.1652506104521
 20
51.00199464656173
  0
VERTEX
  8
0
  6
CONTINUOUS
 62
     7
 10
424.152594618144
 20
50.99096063217419
  0
VERTEX
  8
0
  6
CONTINUOUS
 62
     7
 10
424.1402664557193
 20
50.97886430500014
  0
VERTEX
  8
0
  6
CONTINUOUS
 62
     7
 10
424.128295822801
 20
50.96573480615128
  0
VERTEX
  8
0
  6
CONTINUOUS
 62
     7
 10
424.1167115576924
 20
50.95160376574033
  0
VERTEX
  8
0
  6
CONTINUOUS
 62
     7
 10
424.1055415679028
 20
50.93650522668138
  0
VERTEX
  8
0
  6
CONTINUOUS
 62
     7
 10
424.094812762916
 20
50.92047556267749
  0
VERTEX
  8
0
  6
CONTINUOUS
 62
     7
 10
424.0845509893629
 20
50.90355339059328
  0
VERTEX
  8
0
  6
CONTINUOUS
 62
     7
 10
424.0747809687548
 20
50.88577947742352
  0
VERTEX
  8
0
  6
CONTINUOUS
 62
     7
 10
424.0655262379271
 20
50.86719664208183
  0
VERTEX
  8
0
  6
CONTINUOUS
 62
     7
 10
424.0568090923371
 20
50.84784965224623
  0
VERTEX
  8
0
  6
CONTINUOUS
 62
     7
 10
424.0486505323519
 20
50.82778511650981
  0
VERTEX
  8
0
  6
CONTINUOUS
 62
     7
 10
424.0410702126571
 20
50.80705137209662
  0
VERTEX
  8
0
  6
CONTINUOUS
 62
     7
 10
424.034086394907
 20
50.785698368413
  0
VERTEX
  8
0
  6
CONTINUOUS
 62
     7
 10
424.0277159037301
 20
50.76377754671515
  0
VERTEX
  8
0
  6
CONTINUOUS
 62
     7
 10
424.0219740861977
 20
50.74134171618255
  0
VERTEX
  8
0
  6
CONTINUOUS
 62
     7
 10
424.0168747748511
 20
50.71844492669612
  0
VERTEX
  8
0
  6
CONTINUOUS
 62
     7
 10
424.012430254378
 20
50.69514233862724
  0
VERTEX
  8
0
  6
CONTINUOUS
 62
     7
 10
424.0086512320177
 20
50.67149008995163
  0
VERTEX
  8
0
  6
CONTINUOUS
 62
     7
 10
424.0055468117658
 20
50.64754516100807
  0
VERTEX
  8
0
  6
CONTINUOUS
 62
     7
 10
424.0031244724427
 20
50.62336523722769
  0
VERTEX
  8
0
  6
CONTINUOUS
 62
     7
 10
424.001390049676
 20
50.59900857016478
  0
VERTEX
  8
0
  6
CONTINUOUS
 62
     7
 10
424.0003477218421
 20
50.57453383716371
  0
VERTEX
  8
0
  6
CONTINUOUS
 62
     7
 10
424.0
 20
50.55
  0
SEQEND
  8
0
  6
CONTINUOUS
 62
     7
  0
LINE
  8
0
  6
CONTINUOUS
 62
     7
 10
421.8808344536469
 20
51.05
 11
424.2886751345948
 21
51.05
  0
POLYLINE
  8
0
  6
CONTINUOUS
 62
     7
 66
     1
  0
VERTEX
  8
0
  6
CONTINUOUS
 62
     7
 10
426.0
 20
50.55
  0
VERTEX
  8
0
  6
CONTINUOUS
 62
     7
 10
425.9996522781579
 20
50.57453383716371
  0
VERTEX
  8
0
  6
CONTINUOUS
 62
     7
 10
425.998609950324
 20
50.59900857016478
  0
VERTEX
  8
0
  6
CONTINUOUS
 62
     7
 10
425.9968755275573
 20
50.62336523722769
  0
VERTEX
  8
0
  6
CONTINUOUS
 62
     7
 10
425.9944531882342
 20
50.64754516100807
  0
VERTEX
  8
0
  6
CONTINUOUS
 62
     7
 10
425.9913487679823
 20
50.67149008995163
  0
VERTEX
  8
0
  6
CONTINUOUS
 62
     7
 10
425.9875697456219
 20
50.69514233862724
  0
VERTEX
  8
0
  6
CONTINUOUS
 62
     7
 10
425.9831252251489
 20
50.71844492669612
  0
VERTEX
  8
0
  6
CONTINUOUS
 62
     7
 10
425.9780259138023
 20
50.74134171618255
  0
VERTEX
  8
0
  6
CONTINUOUS
 62
     7
 10
425.9722840962698
 20
50.76377754671515
  0
VERTEX
  8
0
  6
CONTINUOUS
 62
     7
 10
425.965913605093
 20
50.785698368413
  0
VERTEX
  8
0
  6
CONTINUOUS
 62
     7
 10
425.9589297873428
 20
50.80705137209662
  0
VERTEX
  8
0
  6
CONTINUOUS
 62
     7
 10
425.9513494676481
 20
50.82778511650981
  0
VERTEX
  8
0
  6
CONTINUOUS
 62
     7
 10
425.9431909076629
 20
50.84784965224623
  0
VERTEX
  8
0
  6
CONTINUOUS
 62
     7
 10
425.9344737620729
 20
50.86719664208183
  0
VERTEX
  8
0
  6
CONTINUOUS
 62
     7
 10
425.9252190312452
 20
50.88577947742352
  0
VERTEX
  8
0
  6
CONTINUOUS
 62
     7
 10
425.9154490106371
 20
50.90355339059327
  0
VERTEX
  8
0
  6
CONTINUOUS
 62
     7
 10
425.905187237084
 20
50.92047556267749
  0
VERTEX
  8
0
  6
CONTINUOUS
 62
     7
 10
425.8944584320972
 20
50.93650522668138
  0
VERTEX
  8
0
  6
CONTINUOUS
 62
     7
 10
425.8832884423076
 20
50.95160376574033
  0
VERTEX
  8
0
  6
CONTINUOUS
 62
     7
 10
425.871704177199
 20
50.96573480615127
  0
VERTEX
  8
0
  6
CONTINUOUS
 62
     7
 10
425.8597335442807
 20
50.97886430500014
  0
VERTEX
  8
0
  6
CONTINUOUS
 62
     7
 10
425.847405381856
 20
50.99096063217418
  0
VERTEX
  8
0
  6
CONTINUOUS
 62
     7
 10
425.8347493895478
 20
51.00199464656173
  0
VERTEX
  8
0
  6
CONTINUOUS
 62
     7
 10
425.8217960567504
 20
51.01193976625565
  0
VERTEX
  8
0
  6
CONTINUOUS
 62
     7
 10
425.8085765891768
 20
51.02077203259152
  0
VERTEX
  8
0
  6
CONTINUOUS
 62
     7
 10
425.7951228336824
 20
51.02847016786611
  0
VERTEX
  8
0
  6
CONTINUOUS
 62
     7
 10
425.7814672015426
 20
51.03501562659728
  0
VERTEX
  8
0
  6
CONTINUOUS
 62
     7
 10
425.7676425903713
 20
51.04039264020162
  0
VERTEX
  8
0
  6
CONTINUOUS
 62
     7
 10
425.7536823048678
 20
51.0445882549824
  0
VERTEX
  8
0
  6
CONTINUOUS
 62
     7
 10
425.7396199765824
 20
51.04759236333611
  0
VERTEX
  8
0
  6
CONTINUOUS
 62
     7
 10
425.7254894828959
 20
51.0493977281026
  0
VERTEX
  8
0
  6
CONTINUOUS
 62
     7
 10
425.7113248654052
 20
51.05
  0
SEQEND
  8
0
  6
CONTINUOUS
 62
     7
  0
LINE
  8
0
  6
CONTINUOUS
 62
     7
 10
425.7113248654052
 20
51.05
 11
428.119165546353
 21
51.05
  0
LINE
  8
0
  6
CONTINUOUS
 62
     7
 10
426.0
 20
48.25000000000001
 11
426.0
 21
50.55
  0
LINE
  8
0
  6
CONTINUOUS
 62
     7
 10
426.0
 20
48.25000000000001
 11
427.9986276540021
 21
48.25000000000001
  0
LINE
  8
0
  6
CONTINUOUS
 62
     7
 10
424.0
 20
48.25000000000001
 11
424.0
 21
50.55
  0
LINE
  8
0
  6
CONTINUOUS
 62
     7
 10
424.2886751345948
 20
51.05
 11
425.0
 21
51.05
  0
LINE
  8
0
  6
CONTINUOUS
 62
     7
 10
424.0
 20
48.25000000000001
 11
425.0
 21
48.25000000000001
  0
LINE
  8
0
  6
CONTINUOUS
 62
     7
 10
425.0
 20
51.05
 11
425.7113248654052
 21
51.05
  0
LINE
  8
0
  6
CONTINUOUS
 62
     7
 10
425.0
 20
48.25000000000001
 11
426.0
 21
48.25000000000001
  0
LINE
  8
0
  6
CONTINUOUS
 62
     7
 10
422.0013723459979
 20
48.25000000000001
 11
424.0
 21
48.25000000000001
  0
LINE
  8
0
  6
CONTINUOUS
 62
     7
 10
382.8837352630989
 20
76.25000000000001
 11
382.3888370029295
 21
76.25000000000001
  0
LINE
  8
0
  6
CONTINUOUS
 62
     7
 10
467.6111629970704
 20
76.25000000000001
 11
467.116264736901
 21
76.25000000000001
  0
POLYLINE
  8
0
  6
CONTINUOUS
 62
     7
 66
     1
  0
VERTEX
  8
0
  6
CONTINUOUS
 62
     7
 10
465.0935155967621
 20
107.554758721512
  0
VERTEX
  8
0
  6
CONTINUOUS
 62
     7
 10
465.1166103056765
 20
107.5488435833445
  0
VERTEX
  8
0
  6
CONTINUOUS
 62
     7
 10
465.1393968068089
 20
107.5418343176534
  0
VERTEX
  8
0
  6
CONTINUOUS
 62
     7
 10
465.1618232969228
 20
107.5337468594276
  0
VERTEX
  8
0
  6
CONTINUOUS
 62
     7
 10
465.1838387912374
 20
107.5245995948384
  0
VERTEX
  8
0
  6
CONTINUOUS
 62
     7
 10
465.2053932393371
 20
107.5144133194394
  0
VERTEX
  8
0
  6
CONTINUOUS
 62
     7
 10
465.2264376389567
 20
107.5032111908901
  0
VERTEX
  8
0
  6
CONTINUOUS
 62
     7
 10
465.2469241473843
 20
107.4910186763085
  0
VERTEX
  8
0
  6
CONTINUOUS
 62
     7
 10
465.2668061902281
 20
107.4778634943736
  0
VERTEX
  8
0
  6
CONTINUOUS
 62
     7
 10
465.2860385672988
 20
107.4637755523097
  0
VERTEX
  8
0
  6
CONTINUOUS
 62
     7
 10
465.3045775553687
 20
107.4487868778945
  0
VERTEX
  8
0
  6
CONTINUOUS
 62
     7
 10
465.3223810075733
 20
107.4329315466465
  0
VERTEX
  8
0
  6
CONTINUOUS
 62
     7
 10
465.339408449228
 20
107.4162456043574
  0
VERTEX
  8
0
  6
CONTINUOUS
 62
     7
 10
465.3556211698448
 20
107.3987669851446
  0
VERTEX
  8
0
  6
CONTINUOUS
 62
     7
 10
465.3709823111366
 20
107.3805354252114
  0
VERTEX
  8
0
  6
CONTINUOUS
 62
     7
 10
465.3854569508121
 20
107.36159237251
  0
VERTEX
  8
0
  6
CONTINUOUS
 62
     7
 10
465.3990121819683
 20
107.3419808925127
  0
VERTEX
  8
0
  6
CONTINUOUS
 62
     7
 10
465.4116171879022
 20
107.3217455703065
  0
VERTEX
  8
0
  6
CONTINUOUS
 62
     7
 10
465.4232433121692
 20
107.300932409232
  0
VERTEX
  8
0
  6
CONTINUOUS
 62
     7
 10
465.4338641237321
 20
107.2795887262994
  0
VERTEX
  8
0
  6
CONTINUOUS
 62
     7
 10
465.4434554770493
 20
107.2577630446164
  0
VERTEX
  8
0
  6
CONTINUOUS
 62
     7
 10
465.4519955669679
 20
107.2355049830754
  0
VERTEX
  8
0
  6
CONTINUOUS
 62
     7
 10
465.4594649782957
 20
107.2128651435486
  0
VERTEX
  8
0
  6
CONTINUOUS
 62
     7
 10
465.4658467299404
 20
107.1898949958492
  0
VERTEX
  8
0
  6
CONTINUOUS
 62
     7
 10
465.4711263135144
 20
107.1666467607191
  0
VERTEX
  8
0
  6
CONTINUOUS
 62
     7
 10
465.4752917263189
 20
107.1431732911087
  0
VERTEX
  8
0
  6
CONTINUOUS
 62
     7
 10
465.4783334986302
 20
107.1195279520206
  0
VERTEX
  8
0
  6
CONTINUOUS
 62
     7
 10
465.4802447152292
 20
107.0957644991887
  0
VERTEX
  8
0
  6
CONTINUOUS
 62
     7
 10
465.4810210311223
 20
107.0719369568686
  0
SEQEND
  8
0
  6
CONTINUOUS
 62
     7
  0
LINE
  8
0
  6
CONTINUOUS
 62
     7
 10
465.0935155967621
 20
107.554758721512
 11
459.6051388903971
 21
108.8218503239262
  0
ARC
  8
0
  6
CONTINUOUS
 62
     7
 10
458.4803836186778
 20
103.95
 40
5.0
 50
77.00000000000045
 51
90.0
  0
LINE
  8
0
  6
CONTINUOUS
 62
     7
 10
458.4803836186778
 20
108.95
 11
391.5196163813224
 21
108.95
  0
ARC
  8
0
  6
CONTINUOUS
 62
     7
 10
391.5196163813224
 20
103.95
 40
5.0
 50
90.0
 51
102.9999999999997
  0
LINE
  8
0
  6
CONTINUOUS
 62
     7
 10
390.3948611096031
 20
108.8218503239262
 11
384.9064844032378
 21
107.554758721512
  0
POLYLINE
  8
0
  6
CONTINUOUS
 62
     7
 66
     1
  0
VERTEX
  8
0
  6
CONTINUOUS
 62
     7
 10
384.5189789688777
 20
107.0719369568685
  0
VERTEX
  8
0
  6
CONTINUOUS
 62
     7
 10
384.5197552847707
 20
107.0957644991887
  0
VERTEX
  8
0
  6
CONTINUOUS
 62
     7
 10
384.5216665013697
 20
107.1195279520206
  0
VERTEX
  8
0
  6
CONTINUOUS
 62
     7
 10
384.5247082736811
 20
107.1431732911086
  0
VERTEX
  8
0
  6
CONTINUOUS
 62
     7
 10
384.5288736864854
 20
107.166646760719
  0
VERTEX
  8
0
  6
CONTINUOUS
 62
     7
 10
384.5341532700596
 20
107.1898949958492
  0
VERTEX
  8
0
  6
CONTINUOUS
 62
     7
 10
384.5405350217043
 20
107.2128651435485
  0
VERTEX
  8
0
  6
CONTINUOUS
 62
     7
 10
384.548004433032
 20
107.2355049830753
  0
VERTEX
  8
0
  6
CONTINUOUS
 62
     7
 10
384.5565445229506
 20
107.2577630446164
  0
VERTEX
  8
0
  6
CONTINUOUS
 62
     7
 10
384.5661358762678
 20
107.2795887262994
  0
VERTEX
  8
0
  6
CONTINUOUS
 62
     7
 10
384.5767566878308
 20
107.300932409232
  0
VERTEX
  8
0
  6
CONTINUOUS
 62
     7
 10
384.5883828120978
 20
107.3217455703064
  0
VERTEX
  8
0
  6
CONTINUOUS
 62
     7
 10
384.6009878180316
 20
107.3419808925127
  0
VERTEX
  8
0
  6
CONTINUOUS
 62
     7
 10
384.6145430491878
 20
107.36159237251
  0
VERTEX
  8
0
  6
CONTINUOUS
 62
     7
 10
384.6290176888633
 20
107.3805354252114
  0
VERTEX
  8
0
  6
CONTINUOUS
 62
     7
 10
384.6443788301551
 20
107.3987669851445
  0
VERTEX
  8
0
  6
CONTINUOUS
 62
     7
 10
384.6605915507719
 20
107.4162456043573
  0
VERTEX
  8
0
  6
CONTINUOUS
 62
     7
 10
384.6776189924266
 20
107.4329315466465
  0
VERTEX
  8
0
  6
CONTINUOUS
 62
     7
 10
384.6954224446312
 20
107.4487868778944
  0
VERTEX
  8
0
  6
CONTINUOUS
 62
     7
 10
384.7139614327011
 20
107.4637755523097
  0
VERTEX
  8
0
  6
CONTINUOUS
 62
     7
 10
384.7331938097718
 20
107.4778634943736
  0
VERTEX
  8
0
  6
CONTINUOUS
 62
     7
 10
384.7530758526156
 20
107.4910186763084
  0
VERTEX
  8
0
  6
CONTINUOUS
 62
     7
 10
384.7735623610433
 20
107.5032111908901
  0
VERTEX
  8
0
  6
CONTINUOUS
 62
     7
 10
384.7946067606629
 20
107.5144133194394
  0
VERTEX
  8
0
  6
CONTINUOUS
 62
     7
 10
384.8161612087625
 20
107.5245995948383
  0
VERTEX
  8
0
  6
CONTINUOUS
 62
     7
 10
384.8381767030772
 20
107.5337468594276
  0
VERTEX
  8
0
  6
CONTINUOUS
 62
     7
 10
384.860603193191
 20
107.5418343176533
  0
VERTEX
  8
0
  6
CONTINUOUS
 62
     7
 10
384.8833896943234
 20
107.5488435833445
  0
VERTEX
  8
0
  6
CONTINUOUS
 62
     7
 10
384.9064844032378
 20
107.554758721512
  0
SEQEND
  8
0
  6
CONTINUOUS
 62
     7
  0
LINE
  8
0
  6
CONTINUOUS
 62
     7
 10
384.5189789688777
 20
107.0719369568685
 11
384.25
 21
76.25000000000001
  0
LINE
  8
0
  6
CONTINUOUS
 62
     7
 10
465.75
 20
76.25000000000001
 11
465.4810210311223
 21
107.0719369568686
  0
LINE
  8
0
  6
CONTINUOUS
 62
     7
 10
382.8837352630989
 20
76.25000000000001
 11
384.25
 21
76.25000000000001
  0
LINE
  8
0
  6
CONTINUOUS
 62
     7
 10
465.75
 20
76.25000000000001
 11
467.116264736901
 21
76.25000000000001
  0
LINE
  8
0
  6
CONTINUOUS
 62
     7
 10
467.9690757279591
 20
109.531129255599
 11
467.9690214951609
 21
109.533635921281
  0
LINE
  8
0
  6
CONTINUOUS
 62
     7
 10
467.9690757279591
 20
109.531129255599
 11
468.55
 21
76.25000000000001
  0
LINE
  8
0
  6
CONTINUOUS
 62
     7
 10
468.55
 20
76.25000000000001
 11
467.6111629970704
 21
76.25000000000001
  0
LINE
  8
0
  6
CONTINUOUS
 62
     7
 10
381.45
 20
76.25000000000001
 11
382.0309242720409
 21
109.5311292555989
  0
LINE
  8
0
  6
CONTINUOUS
 62
     7
 10
382.0309785048392
 20
109.5336359212809
 11
382.0309242720409
 21
109.5311292555989
  0
LINE
  8
0
  6
CONTINUOUS
 62
     7
 10
382.3888370029295
 20
76.25000000000001
 11
381.45
 21
76.25000000000001
  0
POLYLINE
  8
0
  6
CONTINUOUS
 62
     7
 66
     1
  0
VERTEX
  8
0
  6
CONTINUOUS
 62
     7
 10
382.0309785048392
 20
109.5336359212809
  0
VERTEX
  8
0
  6
CONTINUOUS
 62
     7
 10
382.0317430734532
 20
109.5485748814519
  0
VERTEX
  8
0
  6
CONTINUOUS
 62
     7
 10
382.0332595338153
 20
109.5634955921668
  0
VERTEX
  8
0
  6
CONTINUOUS
 62
     7
 10
382.0355183174704
 20
109.5783428747353
  0
VERTEX
  8
0
  6
CONTINUOUS
 62
     7
 10
382.0385098559639
 20
109.5930615504676
  0
VERTEX
  8
0
  6
CONTINUOUS
 62
     7
 10
382.042224580841
 20
109.6075964406734
  0
VERTEX
  8
0
  6
CONTINUOUS
 62
     7
 10
382.0466529236468
 20
109.6218923666629
  0
VERTEX
  8
0
  6
CONTINUOUS
 62
     7
 10
382.0508699573099
 20
109.6335716134939
  0
VERTEX
  8
0
  6
CONTINUOUS
 62
     7
 10
382.0555710417946
 20
109.6450769571321
  0
VERTEX
  8
0
  6
CONTINUOUS
 62
     7
 10
382.0607434928388
 20
109.6563789060675
  0
VERTEX
  8
0
  6
CONTINUOUS
 62
     7
 10
382.0663746261806
 20
109.6674479687906
  0
VERTEX
  8
0
  6
CONTINUOUS
 62
     7
 10
382.0726444386871
 20
109.6785842359585
  0
VERTEX
  8
0
  6
CONTINUOUS
 62
     7
 10
382.0793891440376
 20
109.6894534875378
  0
VERTEX
  8
0
  6
CONTINUOUS
 62
     7
 10
382.0865896376488
 20
109.7000263420921
  0
VERTEX
  8
0
  6
CONTINUOUS
 62
     7
 10
382.0942268149378
 20
109.7102734181854
  0
VERTEX
  8
0
  6
CONTINUOUS
 62
     7
 10
382.1020745945082
 20
109.7199247874658
  0
VERTEX
  8
0
  6
CONTINUOUS
 62
     7
 10
382.1103225512314
 20
109.7292502537651
  0
VERTEX
  8
0
  6
CONTINUOUS
 62
     7
 10
382.1189487082934
 20
109.7382261045595
  0
VERTEX
  8
0
  6
CONTINUOUS
 62
     7
 10
382.1279310888797
 20
109.7468286273252
  0
VERTEX
  8
0
  6
CONTINUOUS
 62
     7
 10
382.1375399988127
 20
109.7552829653509
  0
VERTEX
  8
0
  6
CONTINUOUS
 62
     7
 10
382.1475088945643
 20
109.7633263581257
  0
VERTEX
  8
0
  6
CONTINUOUS
 62
     7
 10
382.1578098026612
 20
109.7709374410058
  0
VERTEX
  8
0
  6
CONTINUOUS
 62
     7
 10
382.1684147496302
 20
109.7780948493474
  0
VERTEX
  8
0
  6
CONTINUOUS
 62
     7
 10
382.1790017772837
 20
109.7846073357888
  0
VERTEX
  8
0
  6
CONTINUOUS
 62
     7
 10
382.1898571590867
 20
109.7906800176666
  0
VERTEX
  8
0
  6
CONTINUOUS
 62
     7
 10
382.200952338741
 20
109.7962979830916
  0
VERTEX
  8
0
  6
CONTINUOUS
 62
     7
 10
382.2122587599487
 20
109.8014463201744
  0
VERTEX
  8
0
  6
CONTINUOUS
 62
     7
 10
382.2241038359375
 20
109.8062477343742
  0
VERTEX
  8
0
  6
CONTINUOUS
 62
     7
 10
382.2361510199127
 20
109.8105432948834
  0
VERTEX
  8
0
  6
CONTINUOUS
 62
     7
 10
382.248366975188
 20
109.8143223093018
  0
VERTEX
  8
0
  6
CONTINUOUS
 62
     7
 10
382.2607183650767
 20
109.8175740852296
  0
SEQEND
  8
0
  6
CONTINUOUS
 62
     7
  0
POLYLINE
  8
0
  6
CONTINUOUS
 62
     7
 66
     1
  0
VERTEX
  8
0
  6
CONTINUOUS
 62
     7
 10
467.7392816349233
 20
109.8175740852297
  0
VERTEX
  8
0
  6
CONTINUOUS
 62
     7
 10
467.7482714333294
 20
109.8152639785376
  0
VERTEX
  8
0
  6
CONTINUOUS
 62
     7
 10
467.7571871209369
 20
109.8126764345091
  0
VERTEX
  8
0
  6
CONTINUOUS
 62
     7
 10
467.771990059267
 20
109.8077053065207
  0
VERTEX
  8
0
  6
CONTINUOUS
 62
     7
 10
467.7865184017235
 20
109.8019695169481
  0
VERTEX
  8
0
  6
CONTINUOUS
 62
     7
 10
467.7980956178117
 20
109.7967543519062
  0
VERTEX
  8
0
  6
CONTINUOUS
 62
     7
 10
467.8094440105034
 20
109.791053052504
  0
VERTEX
  8
0
  6
CONTINUOUS
 62
     7
 10
467.8206522500663
 20
109.7848111478721
  0
VERTEX
  8
0
  6
CONTINUOUS
 62
     7
 10
467.8315852503698
 20
109.7780948493475
  0
VERTEX
  8
0
  6
CONTINUOUS
 62
     7
 10
467.8393216302212
 20
109.7729398191293
  0
VERTEX
  8
0
  6
CONTINUOUS
 62
     7
 10
467.8468953448448
 20
109.767547069616
  0
VERTEX
  8
0
  6
CONTINUOUS
 62
     7
 10
467.8592457350672
 20
109.7579551111417
  0
VERTEX
  8
0
  6
CONTINUOUS
 62
     7
 10
467.8710813883758
 20
109.7477316975085
  0
VERTEX
  8
0
  6
CONTINUOUS
 62
     7
 10
467.8802988745073
 20
109.7389756978248
  0
VERTEX
  8
0
  6
CONTINUOUS
 62
     7
 10
467.8891378980518
 20
109.7298365382722
  0
VERTEX
  8
0
  6
CONTINUOUS
 62
     7
 10
467.8976646910837
 20
109.720233174939
  0
VERTEX
  8
0
  6
CONTINUOUS
 62
     7
 10
467.9057731850622
 20
109.7102734181855
  0
VERTEX
  8
0
  6
CONTINUOUS
 62
     7
 10
467.9113670942575
 20
109.7028596660881
  0
VERTEX
  8
0
  6
CONTINUOUS
 62
     7
 10
467.9167289523944
 20
109.6952762648139
  0
VERTEX
  8
0
  6
CONTINUOUS
 62
     7
 10
467.9252086562654
 20
109.6821598427883
  0
VERTEX
  8
0
  6
CONTINUOUS
 62
     7
 10
467.9329946046875
 20
109.6686203429669
  0
VERTEX
  8
0
  6
CONTINUOUS
 62
     7
 10
467.937868851875
 20
109.659215234215
  0
VERTEX
  8
0
  6
CONTINUOUS
 62
     7
 10
467.9424094638231
 20
109.6496412733209
  0
VERTEX
  8
0
  6
CONTINUOUS
 62
     7
 10
467.9466079345341
 20
109.6399164871708
  0
VERTEX
  8
0
  6
CONTINUOUS
 62
     7
 10
467.9501220998051
 20
109.6309582448982
  0
VERTEX
  8
0
  6
CONTINUOUS
 62
     7
 10
467.9533470763533
 20
109.621892366663
  0
VERTEX
  8
0
  6
CONTINUOUS
 62
     7
 10
467.9577532301397
 20
109.6076928682956
  0
VERTEX
  8
0
  6
CONTINUOUS
 62
     7
 10
467.9614531303321
 20
109.5932851062005
  0
VERTEX
  8
0
  6
CONTINUOUS
 62
     7
 10
467.9644333181155
 20
109.5787223372156
  0
VERTEX
  8
0
  6
CONTINUOUS
 62
     7
 10
467.9667187165099
 20
109.5637784659944
  0
VERTEX
  8
0
  6
CONTINUOUS
 62
     7
 10
467.9682499692861
 20
109.54873056335
  0
VERTEX
  8
0
  6
CONTINUOUS
 62
     7
 10
467.9690214951609
 20
109.533635921281
  0
SEQEND
  8
0
  6
CONTINUOUS
 62
     7
  0
LINE
  8
0
  6
CONTINUOUS
 62
     7
 10
382.2633932642844
 20
109.8182045531033
 11
382.2607183650767
 21
109.8175740852296
  0
LINE
  8
0
  6
CONTINUOUS
 62
     7
 10
382.2633932642844
 20
109.8182045531033
 11
390.2978722984427
 21
111.6731101943557
  0
ARC
  8
0
  6
CONTINUOUS
 62
     7
 10
390.9727254614745
 20
108.75
 40
3.000000000000001
 50
102.9184112513296
 51
103.0000000000048
  0
ARC
  8
0
  6
CONTINUOUS
 62
     7
 10
459.0272745385258
 20
108.75
 40
3.000000000000001
 50
77.00000000000391
 51
77.08158874867695
  0
LINE
  8
0
  6
CONTINUOUS
 62
     7
 10
459.7021277015572
 20
111.6731101943557
 11
467.7366067357153
 21
109.8182045531034
  0
LINE
  8
0
  6
CONTINUOUS
 62
     7
 10
467.7392816349233
 20
109.8175740852297
 11
467.7366067357153
 21
109.8182045531034
  0
LINE
  8
0
  6
CONTINUOUS
 62
     7
 10
390.9685009683126
 20
111.7499970256081
 11
390.3020354676539
 21
111.6740682160628
  0
LINE
  8
0
  6
CONTINUOUS
 62
     7
 10
459.0314990316873
 20
111.7499970256081
 11
459.6979645323461
 21
111.6740682160629
  0
ARC
  8
0
  6
CONTINUOUS
 62
     7
 10
390.9727254614745
 20
108.75
 40
3.000000000000001
 50
90.0
 51
90.08068190291726
  0
LINE
  8
0
  6
CONTINUOUS
 62
     7
 10
390.9727254614745
 20
111.75
 11
459.0272745385258
 21
111.75
  0
ARC
  8
0
  6
CONTINUOUS
 62
     7
 10
459.0272745385258
 20
108.75
 40
3.000000000000001
 50
89.91931809709018
 51
90.00000000000001
  0
LINE
  8
0
  6
CONTINUOUS
 62
     7
 10
388.1296864568446
 20
108.2988935492604
 11
387.7347291898404
 21
63.04127346450164
  0
LINE
  8
0
  6
CONTINUOUS
 62
     7
 10
462.2652708101596
 20
63.04127346450163
 11
461.8703135431555
 21
108.2988935492604
  0
ARC
  8
0
  6
CONTINUOUS
 62
     7
 10
386.7347672667763
 20
63.05
 40
1.000000000000003
 50
316.8769620966133
 51
359.5000000000001
  0
ARC
  8
0
  6
CONTINUOUS
 62
     7
 10
463.2652327332237
 20
63.05
 40
0.999999999999972
 50
180.5
 51
223.1230379033854
  0
POLYLINE
  8
0
  6
CONTINUOUS
 62
     7
 66
     1
  0
VERTEX
  8
0
  6
CONTINUOUS
 62
     7
 10
439.2378668388992
 20
52.10128551766623
  0
VERTEX
  8
0
  6
CONTINUOUS
 62
     7
 10
439.2396081883734
 20
52.1446645348652
  0
VERTEX
  8
0
  6
CONTINUOUS
 62
     7
 10
439.2391931455525
 20
52.18856710160431
  0
VERTEX
  8
0
  6
CONTINUOUS
 62
     7
 10
439.2365355067609
 20
52.23287070196956
  0
VERTEX
  8
0
  6
CONTINUOUS
 62
     7
 10
439.2315583529837
 20
52.2774423077256
  0
VERTEX
  8
0
  6
CONTINUOUS
 62
     7
 10
439.2241956531905
 20
52.32213909609925
  0
VERTEX
  8
0
  6
CONTINUOUS
 62
     7
 10
439.2143938226303
 20
52.36680940409443
  0
VERTEX
  8
0
  6
CONTINUOUS
 62
     7
 10
439.2021131928615
 20
52.41129392003889
  0
VERTEX
  8
0
  6
CONTINUOUS
 62
     7
 10
439.1873293482938
 20
52.45542710522784
  0
VERTEX
  8
0
  6
CONTINUOUS
 62
     7
 10
439.1700342837438
 20
52.4990388300316
  0
VERTEX
  8
0
  6
CONTINUOUS
 62
     7
 10
439.1502373391868
 20
52.54195620004871
  0
VERTEX
  8
0
  6
CONTINUOUS
 62
     7
 10
439.127965871663
 20
52.58400553925932
  0
VERTEX
  8
0
  6
CONTINUOUS
 62
     7
 10
439.1032656301937
 20
52.62501448916125
  0
VERTEX
  8
0
  6
CONTINUOUS
 62
     7
 10
439.076200807466
 20
52.66481417605689
  0
VERTEX
  8
0
  6
CONTINUOUS
 62
     7
 10
439.0468537516743
 20
52.70324139348345
  0
VERTEX
  8
0
  6
CONTINUOUS
 62
     7
 10
439.0153243328721
 20
52.74014074364945
  0
VERTEX
  8
0
  6
CONTINUOUS
 62
     7
 10
438.981728969943
 20
52.77536668095829
  0
VERTEX
  8
0
  6
CONTINUOUS
 62
     7
 10
438.9461993362388
 20
52.80878540242319
  0
VERTEX
  8
0
  6
CONTINUOUS
 62
     7
 10
438.9088807733974
 20
52.84027653400243
  0
VERTEX
  8
0
  6
CONTINUOUS
 62
     7
 10
438.8699304531913
 20
52.86973456843694
  0
VERTEX
  8
0
  6
CONTINUOUS
 62
     7
 10
438.8295153358961
 20
52.89707001871856
  0
VERTEX
  8
0
  6
CONTINUOUS
 62
     7
 10
438.7878099801197
 20
52.92221026138831
  0
VERTEX
  8
0
  6
CONTINUOUS
 62
     7
 10
438.7449942629881
 20
52.94510005489037
  0
VERTEX
  8
0
  6
CONTINUOUS
 62
     7
 10
438.7012510708804
 20
52.96570172957097
  0
VERTEX
  8
0
  6
CONTINUOUS
 62
     7
 10
438.6567640195677
 20
52.98399505698973
  0
SEQEND
  8
0
  6
CONTINUOUS
 62
     7
  0
POLYLINE
  8
0
  6
CONTINUOUS
 62
     7
 66
     1
  0
VERTEX
  8
0
  6
CONTINUOUS
 62
     7
 10
411.3432359804377
 20
52.9839950569918
  0
VERTEX
  8
0
  6
CONTINUOUS
 62
     7
 10
411.2987489291248
 20
52.96570172957327
  0
VERTEX
  8
0
  6
CONTINUOUS
 62
     7
 10
411.2550057370167
 20
52.94510005489285
  0
VERTEX
  8
0
  6
CONTINUOUS
 62
     7
 10
411.2121900198849
 20
52.92221026139096
  0
VERTEX
  8
0
  6
CONTINUOUS
 62
     7
 10
411.1704846641081
 20
52.89707001872135
  0
VERTEX
  8
0
  6
CONTINUOUS
 62
     7
 10
411.1300695468126
 20
52.86973456843985
  0
VERTEX
  8
0
  6
CONTINUOUS
 62
     7
 10
411.0911192266063
 20
52.84027653400543
  0
VERTEX
  8
0
  6
CONTINUOUS
 62
     7
 10
411.0538006637645
 20
52.80878540242624
  0
VERTEX
  8
0
  6
CONTINUOUS
 62
     7
 10
411.01827103006
 20
52.77536668096138
  0
VERTEX
  8
0
  6
CONTINUOUS
 62
     7
 10
410.9846756671306
 20
52.74014074365254
  0
VERTEX
  8
0
  6
CONTINUOUS
 62
     7
 10
410.9531462483281
 20
52.70324139348651
  0
VERTEX
  8
0
  6
CONTINUOUS
 62
     7
 10
410.9237991925361
 20
52.66481417605988
  0
VERTEX
  8
0
  6
CONTINUOUS
 62
     7
 10
410.8967343698081
 20
52.62501448916417
  0
VERTEX
  8
0
  6
CONTINUOUS
 62
     7
 10
410.8720341283386
 20
52.58400553926213
  0
VERTEX
  8
0
  6
CONTINUOUS
 62
     7
 10
410.8497626608145
 20
52.54195620005139
  0
VERTEX
  8
0
  6
CONTINUOUS
 62
     7
 10
410.8299657162573
 20
52.49903883003412
  0
VERTEX
  8
0
  6
CONTINUOUS
 62
     7
 10
410.8126706517071
 20
52.45542710523019
  0
VERTEX
  8
0
  6
CONTINUOUS
 62
     7
 10
410.7978868071393
 20
52.41129392004105
  0
VERTEX
  8
0
  6
CONTINUOUS
 62
     7
 10
410.7856061773703
 20
52.36680940409638
  0
VERTEX
  8
0
  6
CONTINUOUS
 62
     7
 10
410.7758043468099
 20
52.32213909610098
  0
VERTEX
  8
0
  6
CONTINUOUS
 62
     7
 10
410.7684416470166
 20
52.2774423077271
  0
VERTEX
  8
0
  6
CONTINUOUS
 62
     7
 10
410.7634644932394
 20
52.23287070197082
  0
VERTEX
  8
0
  6
CONTINUOUS
 62
     7
 10
410.7608068544477
 20
52.18856710160532
  0
VERTEX
  8
0
  6
CONTINUOUS
 62
     7
 10
410.7603918116268
 20
52.14466453486597
  0
VERTEX
  8
0
  6
CONTINUOUS
 62
     7
 10
410.762133161101
 20
52.10128551766675
  0
SEQEND
  8
0
  6
CONTINUOUS
 62
     7
  0
LINE
  8
0
  6
CONTINUOUS
 62
     7
 10
429.1464134499275
 20
51.04085308656289
 11
428.119165546353
 21
51.04039264020162
  0
LINE
  8
0
  6
CONTINUOUS
 62
     7
 10
421.8808344536469
 20
51.04039264020162
 11
420.8535664413428
 21
51.04085309545705
  0
ENDBLK
  8
0
  0
BLOCK
  8
0
  2
D_FRAME_VIEW_1925
 70
     0
 10
0.0
 20
0.0
  0
LINE
  8
0
  6
CONTINUOUS
 62
     7
 10
538.0010659715527
 20
76.25000000000001
 11
538.4898077895429
 21
48.25000000000001
  0
LINE
  8
0
  6
CONTINUOUS
 62
     7
 10
538.0010659715527
 20
76.25000000000001
 11
556.0
 21
76.25000000000001
  0
LINE
  8
0
  6
CONTINUOUS
 62
     7
 10
556.0
 20
76.25000000000001
 11
564.0
 21
76.25000000000001
  0
LINE
  8
0
  6
CONTINUOUS
 62
     7
 10
564.0
 20
76.25000000000001
 11
581.9989340284474
 21
76.25000000000001
  0
LINE
  8
0
  6
CONTINUOUS
 62
     7
 10
581.5101922104573
 20
48.25000000000001
 11
581.9989340284474
 21
76.25000000000001
  0
LINE
  8
0
  6
CONTINUOUS
 62
     7
 10
538.4898077895429
 20
48.25000000000001
 11
581.5101922104573
 21
48.25000000000001
  0
LINE
  8
0
  6
CONTINUOUS
 62
     7
 10
538.4898077895429
 20
48.25000000000001
 11
531.9179487690361
 21
48.25000000000001
  0
LINE
  8
0
  6
CONTINUOUS
 62
     7
 10
531.4292069510459
 20
76.25000000000001
 11
538.0010659715527
 21
76.25000000000001
  0
LINE
  8
0
  6
CONTINUOUS
 62
     7
 10
588.082051230964
 20
48.25000000000001
 11
581.5101922104573
 21
48.25000000000001
  0
LINE
  8
0
  6
CONTINUOUS
 62
     7
 10
581.9989340284474
 20
76.25000000000001
 11
588.5707930489542
 21
76.25000000000001
  0
LINE
  8
0
  6
CONTINUOUS
 62
     7
 10
589.0000000000001
 20
76.25000000000001
 11
588.51125818201
 21
48.25000000000001
  0
LINE
  8
0
  6
CONTINUOUS
 62
     7
 10
588.51125818201
 20
48.25000000000001
 11
588.0820512309641
 21
48.25000000000001
  0
LINE
  8
0
  6
CONTINUOUS
 62
     7
 10
588.5707930489542
 20
76.25000000000001
 11
589.0000000000001
 21
76.25000000000001
  0
LINE
  8
0
  6
CONTINUOUS
 62
     7
 10
531.4887418179901
 20
48.25000000000001
 11
531.0
 21
76.25000000000001
  0
LINE
  8
0
  6
CONTINUOUS
 62
     7
 10
531.9179487690361
 20
48.25000000000001
 11
531.4887418179901
 21
48.25000000000001
  0
LINE
  8
0
  6
CONTINUOUS
 62
     7
 10
531.0
 20
76.25000000000001
 11
531.4292069510459
 21
76.25000000000001
  0
LINE
  8
0
  6
CONTINUOUS
 62
     7
 10
564.0
 20
77.2498476951564
 11
566.0
 21
77.2498476951564
  0
LINE
  8
0
  6
CONTINUOUS
 62
     7
 10
565.8571428571429
 20
78.2496953903128
 11
566.0
 21
77.2498476951564
  0
LINE
  8
0
  6
CONTINUOUS
 62
     7
 10
565.7142857142857
 20
79.24954308546918
 11
565.8571428571429
 21
78.2496953903128
  0
LINE
  8
0
  6
CONTINUOUS
 62
     7
 10
565.5714285714286
 20
80.24939078062556
 11
565.7142857142857
 21
79.24954308546918
  0
LINE
  8
0
  6
CONTINUOUS
 62
     7
 10
565.4285714285714
 20
81.24923847578197
 11
565.5714285714286
 21
80.24939078062556
  0
LINE
  8
0
  6
CONTINUOUS
 62
     7
 10
565.2857142857143
 20
82.24908617093836
 11
565.4285714285714
 21
81.24923847578197
  0
LINE
  8
0
  6
CONTINUOUS
 62
     7
 10
565.2453081839323
 20
82.53188580509787
 11
565.2857142857143
 21
82.24908617093836
  0
POLYLINE
  8
0
  6
CONTINUOUS
 62
     7
 66
     1
  0
VERTEX
  8
0
  6
CONTINUOUS
 62
     7
 10
565.2453081839324
 20
82.53188580509706
  0
VERTEX
  8
0
  6
CONTINUOUS
 62
     7
 10
565.1557058568492
 20
82.90226956426024
  0
VERTEX
  8
0
  6
CONTINUOUS
 62
     7
 10
564.9974600041792
 20
83.24893386609402
  0
SEQEND
  8
0
  6
CONTINUOUS
 62
     7
  0
POLYLINE
  8
0
  6
CONTINUOUS
 62
     7
 66
     1
  0
VERTEX
  8
0
  6
CONTINUOUS
 62
     7
 10
564.9974600041787
 20
83.24893386609475
  0
VERTEX
  8
0
  6
CONTINUOUS
 62
     7
 10
564.7516988475646
 20
83.58714355999135
  0
VERTEX
  8
0
  6
CONTINUOUS
 62
     7
 10
564.4409797011948
 20
83.86687372527463
  0
VERTEX
  8
0
  6
CONTINUOUS
 62
     7
 10
564.0788824827615
 20
84.07589881142744
  0
VERTEX
  8
0
  6
CONTINUOUS
 62
     7
 10
563.6812325782454
 20
84.20508341917125
  0
VERTEX
  8
0
  6
CONTINUOUS
 62
     7
 10
563.2654091966099
 20
84.24878156125112
  0
SEQEND
  8
0
  6
CONTINUOUS
 62
     7
  0
LINE
  8
0
  6
CONTINUOUS
 62
     7
 10
556.7345908033901
 20
84.24878156125112
 11
563.2654091966099
 21
84.24878156125112
  0
POLYLINE
  8
0
  6
CONTINUOUS
 62
     7
 66
     1
  0
VERTEX
  8
0
  6
CONTINUOUS
 62
     7
 10
556.7345908033893
 20
84.24878156125112
  0
VERTEX
  8
0
  6
CONTINUOUS
 62
     7
 10
556.3187674217538
 20
84.20508341917107
  0
VERTEX
  8
0
  6
CONTINUOUS
 62
     7
 10
555.9211175172378
 20
84.0758988114271
  0
VERTEX
  8
0
  6
CONTINUOUS
 62
     7
 10
555.5590202988045
 20
83.86687372527415
  0
VERTEX
  8
0
  6
CONTINUOUS
 62
     7
 10
555.2483011524348
 20
83.58714355999074
  0
VERTEX
  8
0
  6
CONTINUOUS
 62
     7
 10
555.0025399958208
 20
83.24893386609402
  0
SEQEND
  8
0
  6
CONTINUOUS
 62
     7
  0
POLYLINE
  8
0
  6
CONTINUOUS
 62
     7
 66
     1
  0
VERTEX
  8
0
  6
CONTINUOUS
 62
     7
 10
555.0025399958212
 20
83.24893386609457
  0
VERTEX
  8
0
  6
CONTINUOUS
 62
     7
 10
554.844294143151
 20
82.90226956426083
  0
VERTEX
  8
0
  6
CONTINUOUS
 62
     7
 10
554.7546918160677
 20
82.53188580509769
  0
SEQEND
  8
0
  6
CONTINUOUS
 62
     7
  0
LINE
  8
0
  6
CONTINUOUS
 62
     7
 10
554.7142857142857
 20
82.24908617093836
 11
554.7546918160679
 21
82.53188580509787
  0
LINE
  8
0
  6
CONTINUOUS
 62
     7
 10
554.5714285714286
 20
81.24923847578197
 11
554.7142857142857
 21
82.24908617093836
  0
LINE
  8
0
  6
CONTINUOUS
 62
     7
 10
554.4285714285714
 20
80.24939078062556
 11
554.5714285714286
 21
81.24923847578197
  0
LINE
  8
0
  6
CONTINUOUS
 62
     7
 10
554.2857142857143
 20
79.24954308546918
 11
554.4285714285714
 21
80.24939078062556
  0
LINE
  8
0
  6
CONTINUOUS
 62
     7
 10
554.1428571428571
 20
78.2496953903128
 11
554.2857142857143
 21
79.24954308546918
  0
LINE
  8
0
  6
CONTINUOUS
 62
     7
 10
554.0
 20
77.2498476951564
 11
554.1428571428571
 21
78.2496953903128
  0
LINE
  8
0
  6
CONTINUOUS
 62
     7
 10
554.0
 20
77.2498476951564
 11
556.0
 21
77.2498476951564
  0
LINE
  8
0
  6
CONTINUOUS
 62
     7
 10
556.0
 20
76.25000000000001
 11
556.0
 21
77.2498476951564
  0
LINE
  8
0
  6
CONTINUOUS
 62
     7
 10
538.5819902435935
 20
109.531129255599
 11
538.0010659715527
 21
76.25000000000001
  0
LINE
  8
0
  6
CONTINUOUS
 62
     7
 10
581.9989340284474
 20
76.25000000000001
 11
581.4180097564066
 21
109.531129255599
  0
LINE
  8
0
  6
CONTINUOUS
 62
     7
 10
564.0
 20
76.25000000000001
 11
564.0
 21
77.2498476951564
  0
LINE
  8
0
  6
CONTINUOUS
 62
     7
 10
538.0010659715527
 20
76.25000000000001
 11
556.0
 21
76.25000000000001
  0
LINE
  8
0
  6
CONTINUOUS
 62
     7
 10
564.0
 20
76.25000000000001
 11
581.9989340284474
 21
76.25000000000001
  0
LINE
  8
0
  6
CONTINUOUS
 62
     7
 10
581.418039353896
 20
109.533635921281
 11
581.418009756406
 21
109.531129255599
  0
LINE
  8
0
  6
CONTINUOUS
 62
     7
 10
588.5707930489542
 20
76.25000000000001
 11
581.9989340284474
 21
76.25000000000001
  0
LINE
  8
0
  6
CONTINUOUS
 62
     7
 10
538.5819902435941
 20
109.531129255599
 11
538.5819606461041
 21
109.533635921281
  0
LINE
  8
0
  6
CONTINUOUS
 62
     7
 10
538.0010659715527
 20
76.25000000000001
 11
531.4292069510459
 21
76.25000000000001
  0
LINE
  8
0
  6
CONTINUOUS
 62
     7
 10
564.0
 20
77.88300152598352
 11
556.0
 21
77.88300152598352
  0
LINE
  8
0
  6
CONTINUOUS
 62
     7
 10
556.0
 20
77.2498476951564
 11
556.0
 21
77.88300152598352
  0
LINE
  8
0
  6
CONTINUOUS
 62
     7
 10
564.0
 20
77.2498476951564
 11
564.0
 21
77.88300152598352
  0
LINE
  8
0
  6
CONTINUOUS
 62
     7
 10
554.1428571428571
 20
78.2496953903128
 11
565.8571428571429
 21
78.2496953903128
  0
LINE
  8
0
  6
CONTINUOUS
 62
     7
 10
554.2857142857143
 20
79.24954308546918
 11
565.7142857142857
 21
79.24954308546918
  0
LINE
  8
0
  6
CONTINUOUS
 62
     7
 10
554.4285714285714
 20
80.24939078062556
 11
565.5714285714286
 21
80.24939078062556
  0
LINE
  8
0
  6
CONTINUOUS
 62
     7
 10
554.5714285714286
 20
81.24923847578197
 11
565.4285714285714
 21
81.24923847578197
  0
LINE
  8
0
  6
CONTINUOUS
 62
     7
 10
565.2857142857143
 20
82.24908617093836
 11
565.2453081839323
 21
82.52793677631715
  0
LINE
  8
0
  6
CONTINUOUS
 62
     9
 10
565.2453081839323
 20
82.53188580509787
 11
565.2453081839323
 21
82.52793677631715
  0
LINE
  8
0
  6
CONTINUOUS
 62
     7
 10
554.7546918160679
 20
82.52793677631715
 11
554.7142857142857
 21
82.24908617093836
  0
LINE
  8
0
  6
CONTINUOUS
 62
     7
 10
554.7142857142857
 20
82.24908617093836
 11
565.2857142857143
 21
82.24908617093836
  0
LINE
  8
0
  6
CONTINUOUS
 62
     9
 10
554.7546918160679
 20
82.53188580509787
 11
554.7546918160679
 21
82.52793677631715
  0
LINE
  8
0
  6
CONTINUOUS
 62
     7
 10
555.0025399958213
 20
83.24893386609475
 11
564.9974600041788
 21
83.24893386609475
  0
LINE
  8
0
  6
CONTINUOUS
 62
     7
 10
581.4141099799937
 20
109.8175740852297
 11
581.418039353896
 21
109.533635921281
  0
LINE
  8
0
  6
CONTINUOUS
 62
     7
 10
538.5858900200066
 20
109.8175740852297
 11
538.5819606461041
 21
109.533635921281
  0
LINE
  8
0
  6
CONTINUOUS
 62
     7
 10
538.5858900200064
 20
109.8175740852297
 11
538.5859891516673
 21
109.8182045531034
  0
LINE
  8
0
  6
CONTINUOUS
 62
     7
 10
581.414010848333
 20
109.8182045531034
 11
581.4141099799938
 21
109.8175740852297
  0
LINE
  8
0
  6
CONTINUOUS
 62
     7
 10
538.6183666500709
 20
111.6731101943557
 11
538.6183620777448
 21
111.6740682160629
  0
LINE
  8
0
  6
CONTINUOUS
 62
     7
 10
538.6183666500709
 20
111.6731101943557
 11
538.5859891516671
 21
109.8182045531034
  0
LINE
  8
0
  6
CONTINUOUS
 62
     9
 10
531.9939491213969
 20
109.0671249045082
 11
531.997188599974
 21
109.0674874543631
  0
LINE
  8
0
  6
CONTINUOUS
 62
     7
 10
581.4140108483327
 20
109.8182045531033
 11
581.3816333499291
 21
111.6731101943557
  0
LINE
  8
0
  6
CONTINUOUS
 62
     7
 10
581.3816379222553
 20
111.6740682160629
 11
581.3816333499291
 21
111.6731101943557
  0
LINE
  8
0
  6
CONTINUOUS
 62
     7
 10
531.0
 20
76.25000000000001
 11
531.5651632950634
 21
108.6281834892943
  0
LINE
  8
0
  6
CONTINUOUS
 62
     9
 10
531.9970897781795
 20
108.7839853772458
 11
531.9890018276532
 21
108.7836946357535
  0
LINE
  8
0
  6
CONTINUOUS
 62
     7
 10
531.429206951046
 20
76.25000000000001
 11
531.0
 21
76.25000000000001
  0
LINE
  8
0
  6
CONTINUOUS
 62
     7
 10
588.4348367049366
 20
108.6281834892943
 11
589.0000000000001
 21
76.25000000000001
  0
LINE
  8
0
  6
CONTINUOUS
 62
     7
 10
589.0000000000001
 20
76.25000000000001
 11
588.5707930489542
 21
76.25000000000001
  0
LINE
  8
0
  6
CONTINUOUS
 62
     7
 10
531.5651632950634
 20
108.6281834892943
 11
531.593659288584
 21
110.2607178647226
  0
LINE
  8
0
  6
CONTINUOUS
 62
     7
 10
588.4063407114161
 20
110.2607178647226
 11
588.4348367049366
 21
108.6281834892943
  0
LINE
  8
0
  6
CONTINUOUS
 62
     7
 10
538.6196339291185
 20
111.7499970256081
 11
538.6183620777448
 21
111.6740682160629
  0
POLYLINE
  8
0
  6
CONTINUOUS
 62
     7
 10
0.0
 20
0.0
 30
0.0
 66
     1
 70
     8
  0
VERTEX
  8
0
  6
CONTINUOUS
 62
     7
 10
538.6196339291184
 20
111.7499970256081
 30
0.0
 70
    32
  0
VERTEX
  8
0
  6
CONTINUOUS
 62
     7
 10
538.6196548049516
 20
111.75
 30
0.0
 70
    32
  0
SEQEND
  8
0
  6
CONTINUOUS
 62
     7
  0
LINE
  8
0
  6
CONTINUOUS
 62
     7
 10
538.6196548049518
 20
111.75
 11
581.3803451950483
 21
111.75
  0
POLYLINE
  8
0
  6
CONTINUOUS
 62
     7
 10
0.0
 20
0.0
 30
0.0
 66
     1
 70
     8
  0
VERTEX
  8
0
  6
CONTINUOUS
 62
     7
 10
581.3803451950486
 20
111.75
 30
0.0
 70
    32
  0
VERTEX
  8
0
  6
CONTINUOUS
 62
     7
 10
581.3803660708815
 20
111.7499970256081
 30
0.0
 70
    32
  0
SEQEND
  8
0
  6
CONTINUOUS
 62
     7
  0
LINE
  8
0
  6
CONTINUOUS
 62
     7
 10
581.3803660708815
 20
111.7499970256081
 11
581.3816379222553
 21
111.6740682160628
  0
LINE
  8
0
  6
CONTINUOUS
 62
     7
 10
581.3803660708815
 20
111.7499970256081
 11
587.9758400961682
 21
110.8102728749181
  0
LINE
  8
0
  6
CONTINUOUS
 62
     7
 10
532.0241599038319
 20
110.8102728749181
 11
538.6196339291185
 21
111.7499970256081
  0
ARC
  8
0
  6
CONTINUOUS
 62
     7
 10
587.9053123007843
 20
110.3152720364559
 40
0.4999999999999998
 50
0.9999999999994884
 51
81.89106667039
  0
LINE
  8
0
  6
CONTINUOUS
 62
     7
 10
588.4052361483626
 20
110.3239982396745
 11
588.4063407114161
 21
110.2607178647226
  0
ARC
  8
0
  6
CONTINUOUS
 62
     7
 10
532.0946876992158
 20
110.3152720364559
 40
0.5000000000000476
 50
98.10893332961005
 51
179.0000000000005
  0
LINE
  8
0
  6
CONTINUOUS
 62
     7
 10
531.593659288584
 20
110.2607178647226
 11
531.5947638516375
 21
110.3239982396745
  0
ENDBLK
  8
0
  0
BLOCK
  8
0
  2
D_FRAME_VIEW_1774
 70
     0
 10
0.0
 20
0.0
  0
LINE
  8
0
  6
CONTINUOUS
 62
     7
 10
384.25
 20
156.0
 11
382.8837352630989
 21
156.0
  0
POLYLINE
  8
0
  6
CONTINUOUS
 62
     7
 66
     1
  0
VERTEX
  8
0
  6
CONTINUOUS
 62
     7
 10
382.3888370029296
 20
156.4292069510459
  0
VERTEX
  8
0
  6
CONTINUOUS
 62
     7
 10
382.4134435991492
 20
156.3303491815123
  0
VERTEX
  8
0
  6
CONTINUOUS
 62
     7
 10
382.4575767526368
 20
156.2385362117467
  0
VERTEX
  8
0
  6
CONTINUOUS
 62
     7
 10
382.5194046436967
 20
156.1575788912587
  0
VERTEX
  8
0
  6
CONTINUOUS
 62
     7
 10
382.5963610032175
 20
156.0908374878394
  0
VERTEX
  8
0
  6
CONTINUOUS
 62
     7
 10
382.6852516299255
 20
156.0410822140758
  0
VERTEX
  8
0
  6
CONTINUOUS
 62
     7
 10
382.782386971004
 20
156.0103782450855
  0
VERTEX
  8
0
  6
CONTINUOUS
 62
     7
 10
382.883735263099
 20
156.0
  0
SEQEND
  8
0
  6
CONTINUOUS
 62
     7
  0
LINE
  8
0
  6
CONTINUOUS
 62
     7
 10
381.45
 20
163.0010659715526
 11
382.3888370029295
 21
156.4292069510459
  0
LINE
  8
0
  6
CONTINUOUS
 62
     7
 10
381.45
 20
163.0010659715526
 11
381.45
 21
181.0
  0
LINE
  8
0
  6
CONTINUOUS
 62
     7
 10
381.45
 20
181.0
 11
381.45
 21
189.0
  0
LINE
  8
0
  6
CONTINUOUS
 62
     7
 10
382.3888370029295
 20
213.5707930489541
 11
381.45
 21
206.9989340284473
  0
POLYLINE
  8
0
  6
CONTINUOUS
 62
     7
 66
     1
  0
VERTEX
  8
0
  6
CONTINUOUS
 62
     7
 10
382.883735263099
 20
214.0
  0
VERTEX
  8
0
  6
CONTINUOUS
 62
     7
 10
382.782386971004
 20
213.9896217549145
  0
VERTEX
  8
0
  6
CONTINUOUS
 62
     7
 10
382.6852516299255
 20
213.9589177859242
  0
VERTEX
  8
0
  6
CONTINUOUS
 62
     7
 10
382.5963610032175
 20
213.9091625121606
  0
VERTEX
  8
0
  6
CONTINUOUS
 62
     7
 10
382.5194046436967
 20
213.8424211087413
  0
VERTEX
  8
0
  6
CONTINUOUS
 62
     7
 10
382.4575767526368
 20
213.7614637882534
  0
VERTEX
  8
0
  6
CONTINUOUS
 62
     7
 10
382.4134435991492
 20
213.6696508184877
  0
VERTEX
  8
0
  6
CONTINUOUS
 62
     7
 10
382.3888370029296
 20
213.5707930489541
  0
SEQEND
  8
0
  6
CONTINUOUS
 62
     7
  0
LINE
  8
0
  6
CONTINUOUS
 62
     7
 10
384.25
 20
214.0
 11
382.883735263099
 21
214.0
  0
LINE
  8
0
  6
CONTINUOUS
 62
     7
 10
467.116264736901
 20
214.0
 11
465.75
 21
214.0
  0
POLYLINE
  8
0
  6
CONTINUOUS
 62
     7
 66
     1
  0
VERTEX
  8
0
  6
CONTINUOUS
 62
     7
 10
467.6111629970704
 20
213.5707930489541
  0
VERTEX
  8
0
  6
CONTINUOUS
 62
     7
 10
467.5865564008507
 20
213.6696508184877
  0
VERTEX
  8
0
  6
CONTINUOUS
 62
     7
 10
467.5424232473631
 20
213.7614637882534
  0
VERTEX
  8
0
  6
CONTINUOUS
 62
     7
 10
467.4805953563032
 20
213.8424211087413
  0
VERTEX
  8
0
  6
CONTINUOUS
 62
     7
 10
467.4036389967825
 20
213.9091625121606
  0
VERTEX
  8
0
  6
CONTINUOUS
 62
     7
 10
467.3147483700745
 20
213.9589177859242
  0
VERTEX
  8
0
  6
CONTINUOUS
 62
     7
 10
467.2176130289959
 20
213.9896217549145
  0
VERTEX
  8
0
  6
CONTINUOUS
 62
     7
 10
467.116264736901
 20
214.0
  0
SEQEND
  8
0
  6
CONTINUOUS
 62
     7
  0
LINE
  8
0
  6
CONTINUOUS
 62
     7
 10
468.55
 20
206.9989340284473
 11
467.6111629970704
 21
213.5707930489541
  0
LINE
  8
0
  6
CONTINUOUS
 62
     7
 10
468.55
 20
163.0010659715526
 11
468.55
 21
181.0
  0
LINE
  8
0
  6
CONTINUOUS
 62
     7
 10
468.55
 20
181.0
 11
468.55
 21
189.0
  0
LINE
  8
0
  6
CONTINUOUS
 62
     7
 10
468.55
 20
189.0
 11
468.55
 21
206.9989340284473
  0
LINE
  8
0
  6
CONTINUOUS
 62
     7
 10
467.6111629970704
 20
156.4292069510459
 11
468.55
 21
163.0010659715526
  0
POLYLINE
  8
0
  6
CONTINUOUS
 62
     7
 66
     1
  0
VERTEX
  8
0
  6
CONTINUOUS
 62
     7
 10
467.116264736901
 20
156.0
  0
VERTEX
  8
0
  6
CONTINUOUS
 62
     7
 10
467.2176130289959
 20
156.0103782450855
  0
VERTEX
  8
0
  6
CONTINUOUS
 62
     7
 10
467.3147483700745
 20
156.0410822140758
  0
VERTEX
  8
0
  6
CONTINUOUS
 62
     7
 10
467.4036389967825
 20
156.0908374878394
  0
VERTEX
  8
0
  6
CONTINUOUS
 62
     7
 10
467.4805953563032
 20
156.1575788912587
  0
VERTEX
  8
0
  6
CONTINUOUS
 62
     7
 10
467.5424232473631
 20
156.2385362117466
  0
VERTEX
  8
0
  6
CONTINUOUS
 62
     7
 10
467.5865564008507
 20
156.3303491815123
  0
VERTEX
  8
0
  6
CONTINUOUS
 62
     7
 10
467.6111629970704
 20
156.4292069510459
  0
SEQEND
  8
0
  6
CONTINUOUS
 62
     7
  0
LINE
  8
0
  6
CONTINUOUS
 62
     7
 10
467.116264736901
 20
156.0
 11
465.75
 21
156.0
  0
LINE
  8
0
  6
CONTINUOUS
 62
     7
 10
459.7021277015572
 20
163.618366650071
 11
459.6979645323461
 21
163.6183620777447
  0
LINE
  8
0
  6
CONTINUOUS
 62
     7
 10
459.0314990316873
 20
163.6196339291185
 11
459.6979645323461
 21
163.6183620777448
  0
LINE
  8
0
  6
CONTINUOUS
 62
     7
 10
459.0314990316874
 20
163.6196339291185
 11
459.0272745385258
 21
163.6196548049515
  0
LINE
  8
0
  6
CONTINUOUS
 62
     9
 10
459.0272745385258
 20
163.6196548049517
 11
459.0272745385258
 21
206.3803451950483
  0
LINE
  8
0
  6
CONTINUOUS
 62
     7
 10
459.0272745385258
 20
206.3803451950485
 11
459.0314990316875
 21
206.3803660708815
  0
LINE
  8
0
  6
CONTINUOUS
 62
     7
 10
459.0314990316875
 20
206.3803660708815
 11
459.6979645323462
 21
206.3816379222553
  0
LINE
  8
0
  6
CONTINUOUS
 62
     7
 10
459.6979645323463
 20
206.3816379222553
 11
459.7021277015574
 21
206.3816333499291
  0
LINE
  8
0
  6
CONTINUOUS
 62
     7
 10
390.9727254614745
 20
163.6196548049517
 11
390.9685009683126
 21
163.6196339291187
  0
LINE
  8
0
  6
CONTINUOUS
 62
     7
 10
390.9727254614745
 20
163.6196548049517
 11
459.0272745385258
 21
163.6196548049517
  0
LINE
  8
0
  6
CONTINUOUS
 62
     9
 10
458.9244309889426
 20
157.0241599038319
 11
459.0314990316873
 21
163.6196339291185
  0
LINE
  8
0
  6
CONTINUOUS
 62
     9
 10
390.9685009683126
 20
163.6196339291187
 11
391.0755690110574
 21
157.0241599038319
  0
LINE
  8
0
  6
CONTINUOUS
 62
     7
 10
390.9685009683127
 20
206.3803660708813
 11
390.3020354676539
 21
206.3816379222554
  0
LINE
  8
0
  6
CONTINUOUS
 62
     9
 10
391.0755690110575
 20
212.9758400961682
 11
390.9685009683127
 21
206.3803660708813
  0
LINE
  8
0
  6
CONTINUOUS
 62
     7
 10
390.2978722984429
 20
206.3816333499292
 11
390.3020354676539
 21
206.3816379222555
  0
LINE
  8
0
  6
CONTINUOUS
 62
     7
 10
390.9685009683127
 20
206.3803660708813
 11
390.9727254614745
 21
206.3803451950483
  0
LINE
  8
0
  6
CONTINUOUS
 62
     9
 10
390.9727254614745
 20
206.3803451950483
 11
390.9727254614745
 21
163.6196548049517
  0
LINE
  8
0
  6
CONTINUOUS
 62
     7
 10
390.9685009683126
 20
163.6196339291187
 11
390.3020354676539
 21
163.6183620777444
  0
LINE
  8
0
  6
CONTINUOUS
 62
     7
 10
390.3020354676538
 20
163.6183620777444
 11
390.2978722984427
 21
163.6183666500706
  0
LINE
  8
0
  6
CONTINUOUS
 62
     7
 10
459.0272745385258
 20
206.3803451950483
 11
390.9727254614745
 21
206.3803451950483
  0
LINE
  8
0
  6
CONTINUOUS
 62
     9
 10
459.0314990316875
 20
206.3803660708815
 11
458.9244309889427
 21
212.9758400961681
  0
LINE
  8
0
  6
CONTINUOUS
 62
     7
 10
459.7021277015572
 20
163.6183666500709
 11
467.7366067357153
 21
163.5859891516671
  0
LINE
  8
0
  6
CONTINUOUS
 62
     7
 10
467.7392816349233
 20
163.5858900200064
 11
467.7366067357153
 21
163.5859891516672
  0
LINE
  8
0
  6
CONTINUOUS
 62
     7
 10
467.7366067357154
 20
206.4140108483329
 11
467.7392816349233
 21
206.4141099799937
  0
LINE
  8
0
  6
CONTINUOUS
 62
     7
 10
467.7366067357154
 20
206.4140108483328
 11
459.7021277015574
 21
206.381633349929
  0
LINE
  8
0
  6
CONTINUOUS
 62
     7
 10
390.2978722984429
 20
206.3816333499292
 11
382.2633932642847
 21
206.414010848333
  0
LINE
  8
0
  6
CONTINUOUS
 62
     7
 10
382.2607183650767
 20
206.414109979994
 11
382.2633932642847
 21
206.4140108483332
  0
LINE
  8
0
  6
CONTINUOUS
 62
     7
 10
382.2633932642844
 20
163.5859891516667
 11
382.2607183650767
 21
163.5858900200059
  0
LINE
  8
0
  6
CONTINUOUS
 62
     7
 10
382.2633932642844
 20
163.585989151667
 11
390.2978722984427
 21
163.6183666500707
  0
LINE
  8
0
  6
CONTINUOUS
 62
     9
 10
391.0755690110575
 20
212.9758400961682
 11
391.0755690110575
 21
213.4052361483625
  0
LINE
  8
0
  6
CONTINUOUS
 62
     9
 10
458.9244309889427
 20
212.9758400961681
 11
458.9244309889427
 21
213.4052361483625
  0
LINE
  8
0
  6
CONTINUOUS
 62
     9
 10
391.0755690110574
 20
156.5947638516375
 11
391.0755690110574
 21
157.0241599038319
  0
LINE
  8
0
  6
CONTINUOUS
 62
     9
 10
458.9244309889426
 20
156.5947638516375
 11
458.9244309889426
 21
157.0241599038319
  0
LINE
  8
0
  6
CONTINUOUS
 62
     7
 10
384.5189789688777
 20
213.4620010892044
 11
384.25
 21
214.0
  0
LINE
  8
0
  6
CONTINUOUS
 62
     7
 10
384.9064844032378
 20
213.4535734039538
 11
384.5189789688777
 21
213.4620010892044
  0
LINE
  8
0
  6
CONTINUOUS
 62
     7
 10
390.3948611096031
 20
213.4314562377637
 11
384.9064844032378
 21
213.4535734039538
  0
LINE
  8
0
  6
CONTINUOUS
 62
     7
 10
391.5196163813224
 20
213.4292193768473
 11
390.3948611096031
 21
213.4314562377637
  0
LINE
  8
0
  6
CONTINUOUS
 62
     7
 10
458.4803836186778
 20
213.4292193768473
 11
391.5196163813224
 21
213.4292193768473
  0
LINE
  8
0
  6
CONTINUOUS
 62
     7
 10
459.6051388903971
 20
213.4314562377637
 11
458.4803836186778
 21
213.4292193768473
  0
LINE
  8
0
  6
CONTINUOUS
 62
     7
 10
465.0935155967621
 20
213.4535734039538
 11
459.6051388903971
 21
213.4314562377637
  0
LINE
  8
0
  6
CONTINUOUS
 62
     7
 10
465.4810210311223
 20
213.4620010892044
 11
465.0935155967621
 21
213.4535734039538
  0
LINE
  8
0
  6
CONTINUOUS
 62
     7
 10
465.75
 20
214.0
 11
465.4810210311223
 21
213.4620010892044
  0
LINE
  8
0
  6
CONTINUOUS
 62
     7
 10
465.75
 20
214.0
 11
467.116264736901
 21
214.0
  0
LINE
  8
0
  6
CONTINUOUS
 62
     7
 10
382.8837352630989
 20
214.0
 11
384.25
 21
214.0
  0
LINE
  8
0
  6
CONTINUOUS
 62
     7
 10
465.75
 20
156.0
 11
467.116264736901
 21
156.0
  0
LINE
  8
0
  6
CONTINUOUS
 62
     7
 10
465.75
 20
156.0
 11
465.4810210311223
 21
156.5379989107956
  0
LINE
  8
0
  6
CONTINUOUS
 62
     7
 10
465.0935155967621
 20
156.5464265960462
 11
465.4810210311223
 21
156.5379989107956
  0
LINE
  8
0
  6
CONTINUOUS
 62
     7
 10
465.0935155967621
 20
156.5464265960462
 11
459.6051388903971
 21
156.5685437622363
  0
LINE
  8
0
  6
CONTINUOUS
 62
     7
 10
458.4803836186778
 20
156.5707806231527
 11
459.6051388903971
 21
156.5685437622363
  0
LINE
  8
0
  6
CONTINUOUS
 62
     7
 10
458.4803836186778
 20
156.5707806231527
 11
391.5196163813224
 21
156.5707806231527
  0
LINE
  8
0
  6
CONTINUOUS
 62
     7
 10
390.3948611096031
 20
156.5685437622363
 11
391.5196163813224
 21
156.5707806231527
  0
LINE
  8
0
  6
CONTINUOUS
 62
     7
 10
390.3948611096031
 20
156.5685437622363
 11
384.9064844032378
 21
156.5464265960462
  0
LINE
  8
0
  6
CONTINUOUS
 62
     7
 10
384.5189789688777
 20
156.5379989107956
 11
384.9064844032378
 21
156.5464265960462
  0
LINE
  8
0
  6
CONTINUOUS
 62
     7
 10
384.5189789688777
 20
156.5379989107956
 11
384.25
 21
156.0
  0
LINE
  8
0
  6
CONTINUOUS
 62
     7
 10
382.8837352630989
 20
156.0
 11
384.25
 21
156.0
  0
LINE
  8
0
  6
CONTINUOUS
 62
     7
 10
382.0309785048392
 20
163.5819606461032
 11
382.2607183650767
 21
163.5858900200059
  0
POLYLINE
  8
0
  6
CONTINUOUS
 62
     7
 10
0.0
 20
0.0
 30
0.0
 66
     1
 70
     8
  0
VERTEX
  8
0
  6
CONTINUOUS
 62
     7
 10
382.0309785048392
 20
163.5819606461031
 30
0.0
 70
    32
  0
VERTEX
  8
0
  6
CONTINUOUS
 62
     7
 10
382.0309242720409
 20
163.5819902435931
 30
0.0
 70
    32
  0
SEQEND
  8
0
  6
CONTINUOUS
 62
     7
  0
POLYLINE
  8
0
  6
CONTINUOUS
 62
     7
 10
0.0
 20
0.0
 30
0.0
 66
     1
 70
     8
  0
VERTEX
  8
0
  6
CONTINUOUS
 62
     7
 10
382.0309242720409
 20
206.4180097564069
 30
0.0
 70
    32
  0
VERTEX
  8
0
  6
CONTINUOUS
 62
     7
 10
382.0309785048392
 20
206.4180393538969
 30
0.0
 70
    32
  0
SEQEND
  8
0
  6
CONTINUOUS
 62
     7
  0
LINE
  8
0
  6
CONTINUOUS
 62
     7
 10
382.0309785048392
 20
206.4180393538969
 11
382.2607183650767
 21
206.414109979994
  0
POLYLINE
  8
0
  6
CONTINUOUS
 62
     7
 10
0.0
 20
0.0
 30
0.0
 66
     1
 70
     8
  0
VERTEX
  8
0
  6
CONTINUOUS
 62
     7
 10
467.9690757279591
 20
163.5819902435941
 30
0.0
 70
    32
  0
VERTEX
  8
0
  6
CONTINUOUS
 62
     7
 10
467.9690214951609
 20
163.5819606461041
 30
0.0
 70
    32
  0
SEQEND
  8
0
  6
CONTINUOUS
 62
     7
  0
LINE
  8
0
  6
CONTINUOUS
 62
     7
 10
467.7392816349233
 20
163.5858900200065
 11
467.9690214951609
 21
163.5819606461041
  0
LINE
  8
0
  6
CONTINUOUS
 62
     7
 10
467.7392816349233
 20
206.4141099799936
 11
467.9690214951609
 21
206.4180393538959
  0
POLYLINE
  8
0
  6
CONTINUOUS
 62
     7
 10
0.0
 20
0.0
 30
0.0
 66
     1
 70
     8
  0
VERTEX
  8
0
  6
CONTINUOUS
 62
     7
 10
467.9690214951609
 20
206.4180393538959
 30
0.0
 70
    32
  0
VERTEX
  8
0
  6
CONTINUOUS
 62
     7
 10
467.9690757279591
 20
206.418009756406
 30
0.0
 70
    32
  0
SEQEND
  8
0
  6
CONTINUOUS
 62
     7
  0
LINE
  8
0
  6
CONTINUOUS
 62
     7
 10
468.55
 20
206.9989340284473
 11
467.9690757279591
 21
206.4180097564065
  0
LINE
  8
0
  6
CONTINUOUS
 62
     7
 10
467.6111629970704
 20
213.5707930489541
 11
468.55
 21
206.9989340284473
  0
LINE
  8
0
  6
CONTINUOUS
 62
     7
 10
467.9690757279591
 20
163.5819902435935
 11
468.55
 21
163.0010659715526
  0
LINE
  8
0
  6
CONTINUOUS
 62
     7
 10
468.55
 20
163.0010659715526
 11
467.6111629970704
 21
156.4292069510459
  0
LINE
  8
0
  6
CONTINUOUS
 62
     7
 10
381.45
 20
163.0010659715526
 11
382.0309242720409
 21
163.5819902435935
  0
LINE
  8
0
  6
CONTINUOUS
 62
     7
 10
382.3888370029295
 20
156.4292069510459
 11
381.45
 21
163.0010659715526
  0
LINE
  8
0
  6
CONTINUOUS
 62
     7
 10
382.0309242720409
 20
206.4180097564065
 11
381.45
 21
206.9989340284473
  0
LINE
  8
0
  6
CONTINUOUS
 62
     7
 10
381.45
 20
206.9989340284473
 11
382.3888370029295
 21
213.5707930489541
  0
LINE
  8
0
  6
CONTINUOUS
 62
     7
 10
468.55
 20
189.0
 11
468.55
 21
206.9989340284473
  0
LINE
  8
0
  6
CONTINUOUS
 62
     7
 10
468.55
 20
163.0010659715526
 11
468.55
 21
181.0
  0
LINE
  8
0
  6
CONTINUOUS
 62
     7
 10
381.45
 20
163.0010659715526
 11
381.45
 21
181.0
  0
LINE
  8
0
  6
CONTINUOUS
 62
     7
 10
381.45
 20
189.0
 11
381.45
 21
206.9989340284473
  0
POLYLINE
  8
0
  6
CONTINUOUS
 62
     7
 66
     1
  0
VERTEX
  8
0
  6
CONTINUOUS
 62
     7
 10
467.116264736901
 20
156.0
  0
VERTEX
  8
0
  6
CONTINUOUS
 62
     7
 10
467.2176130289959
 20
156.0103782450855
  0
VERTEX
  8
0
  6
CONTINUOUS
 62
     7
 10
467.3147483700745
 20
156.0410822140758
  0
VERTEX
  8
0
  6
CONTINUOUS
 62
     7
 10
467.4036389967825
 20
156.0908374878394
  0
VERTEX
  8
0
  6
CONTINUOUS
 62
     7
 10
467.4805953563032
 20
156.1575788912587
  0
VERTEX
  8
0
  6
CONTINUOUS
 62
     7
 10
467.5424232473631
 20
156.2385362117467
  0
VERTEX
  8
0
  6
CONTINUOUS
 62
     7
 10
467.5865564008507
 20
156.3303491815123
  0
VERTEX
  8
0
  6
CONTINUOUS
 62
     7
 10
467.6111629970704
 20
156.4292069510459
  0
SEQEND
  8
0
  6
CONTINUOUS
 62
     7
  0
POLYLINE
  8
0
  6
CONTINUOUS
 62
     7
 66
     1
  0
VERTEX
  8
0
  6
CONTINUOUS
 62
     7
 10
467.6111629970704
 20
213.5707930489541
  0
VERTEX
  8
0
  6
CONTINUOUS
 62
     7
 10
467.5865564008507
 20
213.6696508184877
  0
VERTEX
  8
0
  6
CONTINUOUS
 62
     7
 10
467.5424232473631
 20
213.7614637882534
  0
VERTEX
  8
0
  6
CONTINUOUS
 62
     7
 10
467.4805953563032
 20
213.8424211087413
  0
VERTEX
  8
0
  6
CONTINUOUS
 62
     7
 10
467.4036389967825
 20
213.9091625121606
  0
VERTEX
  8
0
  6
CONTINUOUS
 62
     7
 10
467.3147483700745
 20
213.9589177859242
  0
VERTEX
  8
0
  6
CONTINUOUS
 62
     7
 10
467.2176130289959
 20
213.9896217549145
  0
VERTEX
  8
0
  6
CONTINUOUS
 62
     7
 10
467.116264736901
 20
214.0
  0
SEQEND
  8
0
  6
CONTINUOUS
 62
     7
  0
POLYLINE
  8
0
  6
CONTINUOUS
 62
     7
 66
     1
  0
VERTEX
  8
0
  6
CONTINUOUS
 62
     7
 10
382.3888370029296
 20
156.4292069510459
  0
VERTEX
  8
0
  6
CONTINUOUS
 62
     7
 10
382.4134435991492
 20
156.3303491815123
  0
VERTEX
  8
0
  6
CONTINUOUS
 62
     7
 10
382.4575767526368
 20
156.2385362117466
  0
VERTEX
  8
0
  6
CONTINUOUS
 62
     7
 10
382.5194046436967
 20
156.1575788912587
  0
VERTEX
  8
0
  6
CONTINUOUS
 62
     7
 10
382.5963610032175
 20
156.0908374878394
  0
VERTEX
  8
0
  6
CONTINUOUS
 62
     7
 10
382.6852516299255
 20
156.0410822140758
  0
VERTEX
  8
0
  6
CONTINUOUS
 62
     7
 10
382.782386971004
 20
156.0103782450855
  0
VERTEX
  8
0
  6
CONTINUOUS
 62
     7
 10
382.883735263099
 20
156.0
  0
SEQEND
  8
0
  6
CONTINUOUS
 62
     7
  0
POLYLINE
  8
0
  6
CONTINUOUS
 62
     7
 66
     1
  0
VERTEX
  8
0
  6
CONTINUOUS
 62
     7
 10
382.883735263099
 20
214.0
  0
VERTEX
  8
0
  6
CONTINUOUS
 62
     7
 10
382.782386971004
 20
213.9896217549145
  0
VERTEX
  8
0
  6
CONTINUOUS
 62
     7
 10
382.6852516299255
 20
213.9589177859242
  0
VERTEX
  8
0
  6
CONTINUOUS
 62
     7
 10
382.5963610032175
 20
213.9091625121606
  0
VERTEX
  8
0
  6
CONTINUOUS
 62
     7
 10
382.5194046436967
 20
213.8424211087413
  0
VERTEX
  8
0
  6
CONTINUOUS
 62
     7
 10
382.4575767526368
 20
213.7614637882534
  0
VERTEX
  8
0
  6
CONTINUOUS
 62
     7
 10
382.4134435991492
 20
213.6696508184877
  0
VERTEX
  8
0
  6
CONTINUOUS
 62
     7
 10
382.3888370029296
 20
213.5707930489541
  0
SEQEND
  8
0
  6
CONTINUOUS
 62
     7
  0
ENDBLK
  8
0
  0
ENDSEC
  0
SECTION
  2
ENTITIES
  0
INSERT
  8
0
 62
     7
  2
D_FRAME_DRAWING_17
 10
0.0
 20
0.0
 30
0.0
  0
LINE
  8
0
  6
CENTER
 62
     1
 10
560.0
 20
45.25000000000001
 11
560.0
 21
114.75
  0
LINE
  8
0
  6
CENTER
 62
     1
 10
425.0
 20
153.0
 11
425.0
 21
217.0
  0
LINE
  8
0
  6
CENTER
 62
     1
 10
425.0
 20
45.25000000000001
 11
425.0
 21
114.75
  0
INSERT
  8
0
  6
CONTINUOUS
 62
     7
  2
D_FRAME_VIEW_1288
 10
0.0
 20
0.0
 30
0.0
  0
INSERT
  8
0
  6
CONTINUOUS
 62
     7
  2
D_FRAME_VIEW_1925
 10
0.0
 20
0.0
 30
0.0
  0
INSERT
  8
0
  6
CONTINUOUS
 62
     7
  2
D_FRAME_VIEW_1774
 10
0.0
 20
0.0
 30
0.0
  0
TEXT
  8
0
  6
CONTINUOUS
 62
     7
 10
528.846392397149
 20
175.5424534200325
 40
8.0
  1
MIDR-80
  0
ENDSEC
  0
EOF
