  0
SECTION
  2
HEADER
  9
$ACADVER
  1
AC1014
  9
$ACADMAINTVER
 70
     9
  9
$DWGCODEPAGE
  3
ANSI_932
  9
$INSBASE
 10
0.0
 20
0.0
 30
0.0
  9
$EXTMIN
 10
-240.0
 20
206.0397836688759
 30
0.0
  9
$EXTMAX
 10
-105.5
 20
307.5
 30
0.0
  9
$LIMMIN
 10
0.0
 20
0.0
  9
$LIMMAX
 10
12.0
 20
9.0
  9
$ORTHOMODE
 70
     0
  9
$REGENMODE
 70
     1
  9
$FILLMODE
 70
     1
  9
$QTEXTMODE
 70
     0
  9
$MIRRTEXT
 70
     1
  9
$DRAGMODE
 70
     2
  9
$LTSCALE
 40
1.0
  9
$OSMODE
 70
    37
  9
$ATTMODE
 70
     1
  9
$TEXTSIZE
 40
0.2
  9
$TRACEWID
 40
0.05
  9
$TEXTSTYLE
  7
STANDARD
  9
$CLAYER
  8
0
  9
$CELTYPE
  6
BYLAYER
  9
$CECOLOR
 62
   256
  9
$CELTSCALE
 40
1.0
  9
$DELOBJ
 70
     1
  9
$DISPSILH
 70
     0
  9
$DIMSCALE
 40
1.0
  9
$DIMASZ
 40
3.0
  9
$DIMEXO
 40
0.0625
  9
$DIMDLI
 40
0.38
  9
$DIMRND
 40
0.0
  9
$DIMDLE
 40
0.0
  9
$DIMEXE
 40
1.5
  9
$DIMTP
 40
0.0
  9
$DIMTM
 40
0.0
  9
$DIMTXT
 40
3.0
  9
$DIMCEN
 40
0.09
  9
$DIMTSZ
 40
0.0
  9
$DIMTOL
 70
     0
  9
$DIMLIM
 70
     0
  9
$DIMTIH
 70
     1
  9
$DIMTOH
 70
     1
  9
$DIMSE1
 70
     0
  9
$DIMSE2
 70
     0
  9
$DIMTAD
 70
     1
  9
$DIMZIN
 70
     0
  9
$DIMBLK
  1

  9
$DIMASO
 70
     1
  9
$DIMSHO
 70
     1
  9
$DIMPOST
  1

  9
$DIMAPOST
  1

  9
$DIMALT
 70
     0
  9
$DIMALTD
 70
     2
  9
$DIMALTF
 40
25.4
  9
$DIMLFAC
 40
1.0
  9
$DIMTOFL
 70
     0
  9
$DIMTVP
 40
0.0
  9
$DIMTIX
 70
     0
  9
$DIMSOXD
 70
     0
  9
$DIMSAH
 70
     0
  9
$DIMBLK1
  1

  9
$DIMBLK2
  1

  9
$DIMSTYLE
  2
STANDARD
  9
$DIMCLRD
 70
     0
  9
$DIMCLRE
 70
     0
  9
$DIMCLRT
 70
     0
  9
$DIMTFAC
 40
1.0
  9
$DIMGAP
 40
1.5
  9
$DIMJUST
 70
     0
  9
$DIMSD1
 70
     0
  9
$DIMSD2
 70
     0
  9
$DIMTOLJ
 70
     1
  9
$DIMTZIN
 70
     0
  9
$DIMALTZ
 70
     0
  9
$DIMALTTZ
 70
     0
  9
$DIMFIT
 70
     3
  9
$DIMUPT
 70
     0
  9
$DIMUNIT
 70
     2
  9
$DIMDEC
 70
     2
  9
$DIMTDEC
 70
     4
  9
$DIMALTU
 70
     2
  9
$DIMALTTD
 70
     2
  9
$DIMTXSTY
  7
ＭＳ_ゴシック
  9
$DIMAUNIT
 70
     0
  9
$LUNITS
 70
     2
  9
$LUPREC
 70
     4
  9
$SKETCHINC
 40
0.1
  9
$FILLETRAD
 40
0.5
  9
$AUNITS
 70
     0
  9
$AUPREC
 70
     0
  9
$MENU
  1
.
  9
$ELEVATION
 40
0.0
  9
$PELEVATION
 40
0.0
  9
$THICKNESS
 40
0.0
  9
$LIMCHECK
 70
     0
  9
$CHAMFERA
 40
0.0
  9
$CHAMFERB
 40
0.0
  9
$CHAMFERC
 40
0.0
  9
$CHAMFERD
 40
0.0
  9
$SKPOLY
 70
     0
  9
$TDCREATE
 40
2459233.574397512
  9
$TDUPDATE
 40
2459233.57439787
  9
$TDINDWG
 40
0.0000000116
  9
$TDUSRTIMER
 40
0.0000000116
  9
$USRTIMER
 70
     1
  9
$ANGBASE
 50
0.0
  9
$ANGDIR
 70
     0
  9
$PDMODE
 70
     0
  9
$PDSIZE
 40
0.0
  9
$PLINEWID
 40
0.0
  9
$COORDS
 70
     1
  9
$SPLFRAME
 70
     0
  9
$SPLINETYPE
 70
     6
  9
$SPLINESEGS
 70
     8
  9
$ATTDIA
 70
     0
  9
$ATTREQ
 70
     1
  9
$HANDLING
 70
     1
  9
$HANDSEED
  5
240
  9
$SURFTAB1
 70
     6
  9
$SURFTAB2
 70
     6
  9
$SURFTYPE
 70
     6
  9
$SURFU
 70
     6
  9
$SURFV
 70
     6
  9
$UCSNAME
  2

  9
$UCSORG
 10
0.0
 20
0.0
 30
0.0
  9
$UCSXDIR
 10
1.0
 20
0.0
 30
0.0
  9
$UCSYDIR
 10
0.0
 20
1.0
 30
0.0
  9
$PUCSNAME
  2

  9
$PUCSORG
 10
0.0
 20
0.0
 30
0.0
  9
$PUCSXDIR
 10
1.0
 20
0.0
 30
0.0
  9
$PUCSYDIR
 10
0.0
 20
1.0
 30
0.0
  9
$USERI1
 70
     0
  9
$USERI2
 70
     0
  9
$USERI3
 70
     0
  9
$USERI4
 70
     0
  9
$USERI5
 70
     0
  9
$USERR1
 40
0.0
  9
$USERR2
 40
0.0
  9
$USERR3
 40
0.0
  9
$USERR4
 40
0.0
  9
$USERR5
 40
0.0
  9
$WORLDVIEW
 70
     1
  9
$SHADEDGE
 70
     3
  9
$SHADEDIF
 70
    70
  9
$TILEMODE
 70
     1
  9
$MAXACTVP
 70
    64
  9
$PINSBASE
 10
0.0
 20
0.0
 30
0.0
  9
$PLIMCHECK
 70
     0
  9
$PEXTMIN
 10
1.000000000000000E+20
 20
1.000000000000000E+20
 30
1.000000000000000E+20
  9
$PEXTMAX
 10
-1.000000000000000E+20
 20
-1.000000000000000E+20
 30
-1.000000000000000E+20
  9
$PLIMMIN
 10
0.0
 20
0.0
  9
$PLIMMAX
 10
12.0
 20
9.0
  9
$UNITMODE
 70
     0
  9
$VISRETAIN
 70
     1
  9
$PLINEGEN
 70
     0
  9
$PSLTSCALE
 70
     1
  9
$TREEDEPTH
 70
  3020
  9
$PICKSTYLE
 70
     1
  9
$CMLSTYLE
  2
STANDARD
  9
$CMLJUST
 70
     0
  9
$CMLSCALE
 40
1.0
  9
$PROXYGRAPHICS
 70
     1
  9
$MEASUREMENT
 70
     1
  0
ENDSEC
  0
SECTION
  2
CLASSES
  0
CLASS
  1
ACDBDICTIONARYWDFLT
  2
AcDbDictionaryWithDefault
  3
ObjectDBX Classes
 90
        0
280
     0
281
     0
  0
CLASS
  1
VISUALSTYLE
  2
AcDbVisualStyle
  3
ObjectDBX Classes
 90
     4095
280
     0
281
     0
  0
CLASS
  1
MATERIAL
  2
AcDbMaterial
  3
ObjectDBX Classes
 90
     1153
280
     0
281
     0
  0
CLASS
  1
SCALE
  2
AcDbScale
  3
ObjectDBX Classes
 90
     1153
280
     0
281
     0
  0
CLASS
  1
TABLESTYLE
  2
AcDbTableStyle
  3
ObjectDBX Classes
 90
     4095
280
     0
281
     0
  0
CLASS
  1
MLEADERSTYLE
  2
AcDbMLeaderStyle
  3
ACDB_MLEADERSTYLE_CLASS
 90
     4095
280
     0
281
     0
  0
CLASS
  1
SUN
  2
AcDbSun
  3
SCENEOE
 90
     1153
280
     0
281
     0
  0
CLASS
  1
DICTIONARYVAR
  2
AcDbDictionaryVar
  3
ObjectDBX Classes
 90
        0
280
     0
281
     0
  0
CLASS
  1
XRECORD
  2
AcDbXrecord
  3
ObjectDBX Classes
 90
        0
280
     0
281
     0
  0
CLASS
  1
LWPOLYLINE
  2
AcDbPolyline
  3
ObjectDBX Classes
 90
        0
280
     0
281
     1
  0
CLASS
  1
HATCH
  2
AcDbHatch
  3
ObjectDBX Classes
 90
        0
280
     0
281
     1
  0
CLASS
  1
ACDBPLACEHOLDER
  2
AcDbPlaceHolder
  3
ObjectDBX Classes
 90
        0
280
     0
281
     0
  0
CLASS
  1
LAYOUT
  2
AcDbLayout
  3
ObjectDBX Classes
 90
        0
280
     0
281
     0
  0
ENDSEC
  0
SECTION
  2
TABLES
  0
TABLE
  2
VPORT
  5
8
102
{ACAD_XDICTIONARY
360
235
102
}
330
0
100
AcDbSymbolTable
 70
     1
  0
VPORT
  5
29
330
8
100
AcDbSymbolTableRecord
100
AcDbViewportTableRecord
  2
*ACTIVE
 70
     0
 10
0.0
 20
0.0
 11
1.0
 21
1.0
 12
-172.75
 22
256.7698918344379
 13
0.0
 23
0.0
 14
0.5
 24
0.5
 15
0.5
 25
0.5
 16
0.0
 26
0.0
 36
1.0
 17
0.0
 27
0.0
 37
0.0
 40
101.4602163311241
 41
1.6
 42
50.0
 43
0.0
 44
0.0
 50
0.0
 51
0.0
 71
     0
 72
   100
 73
     1
 74
     3
 75
     0
 76
     0
 77
     0
 78
     0
  0
ENDTAB
  0
TABLE
  2
LTYPE
  5
5
330
0
100
AcDbSymbolTable
 70
     2
  0
LTYPE
  5
14
330
5
100
AcDbSymbolTableRecord
100
AcDbLinetypeTableRecord
  2
BYBLOCK
 70
     0
  3

 72
    65
 73
     0
 40
0.0
  0
LTYPE
  5
15
330
5
100
AcDbSymbolTableRecord
100
AcDbLinetypeTableRecord
  2
BYLAYER
 70
     0
  3

 72
    65
 73
     0
 40
0.0
  0
LTYPE
  5
16
330
5
100
AcDbSymbolTableRecord
100
AcDbLinetypeTableRecord
  2
CONTINUOUS
 70
     0
  3
Solid line
 72
    65
 73
     0
 40
0.0
  0
LTYPE
  5
1B4
330
5
100
AcDbSymbolTableRecord
100
AcDbLinetypeTableRecord
  2
CENTER
 70
     0
  3

 72
    65
 73
     0
 40
0.0
  0
ENDTAB
  0
TABLE
  2
LAYER
  5
2
330
0
100
AcDbSymbolTable
 70
     1
  0
LAYER
  5
10
330
2
100
AcDbSymbolTableRecord
100
AcDbLayerTableRecord
  2
0
 70
     0
 62
     7
  6
CONTINUOUS
  0
ENDTAB
  0
TABLE
  2
STYLE
  5
3
330
0
100
AcDbSymbolTable
 70
     2
  0
STYLE
  5
11
330
3
100
AcDbSymbolTableRecord
100
AcDbTextStyleTableRecord
  2
STANDARD
 70
     0
 40
0.0
 41
1.0
 50
0.0
 71
     0
 42
0.2
  3
txt
  4

  0
STYLE
  5
6E
330
3
100
AcDbSymbolTableRecord
100
AcDbTextStyleTableRecord
  2
ＭＳ_ゴシック
 70
     0
 40
0.0
 41
1.0
 50
0.0
 71
     0
 42
0.2
  3
ＭＳ ゴシック.shx
  4

  0
ENDTAB
  0
TABLE
  2
VIEW
  5
6
330
0
100
AcDbSymbolTable
 70
     0
  0
ENDTAB
  0
TABLE
  2
UCS
  5
7
330
0
100
AcDbSymbolTable
 70
     0
  0
ENDTAB
  0
TABLE
  2
APPID
  5
9
330
0
100
AcDbSymbolTable
 70
     2
  0
APPID
  5
12
330
9
100
AcDbSymbolTableRecord
100
AcDbRegAppTableRecord
  2
ACAD
 70
     0
  0
APPID
  5
23F
330
9
100
AcDbSymbolTableRecord
100
AcDbRegAppTableRecord
  2
ACAD_MLEADERVER
 70
     0
  0
ENDTAB
  0
TABLE
  2
DIMSTYLE
  5
A
330
0
100
AcDbSymbolTable
 70
     1
  0
DIMSTYLE
105
27
330
A
100
AcDbSymbolTableRecord
100
AcDbDimStyleTableRecord
  2
STANDARD
 70
     0
  3

  4

  5

  6

  7

 40
1.0
 41
0.18
 42
0.0625
 43
0.38
 44
0.18
 45
0.0
 46
0.0
 47
0.0
 48
0.0
140
0.18
141
0.09
142
0.0
143
25.4
144
1.0
145
0.0
146
1.0
147
0.09
 71
     0
 72
     0
 73
     1
 74
     1
 75
     0
 76
     0
 77
     0
 78
     0
170
     0
171
     2
172
     0
173
     0
174
     0
175
     0
176
     0
177
     0
178
     0
270
     2
271
     4
272
     4
273
     2
274
     2
340
11
275
     0
280
     0
281
     0
282
     0
283
     1
284
     0
285
     0
286
     0
287
     3
288
     0
  0
ENDTAB
  0
TABLE
  2
BLOCK_RECORD
  5
1
330
0
100
AcDbSymbolTable
 70
     0
  0
BLOCK_RECORD
  5
1F
330
1
100
AcDbSymbolTableRecord
100
AcDbBlockTableRecord
  2
*MODEL_SPACE
  0
BLOCK_RECORD
  5
1B
330
1
100
AcDbSymbolTableRecord
100
AcDbBlockTableRecord
  2
*PAPER_SPACE
  0
ENDTAB
  0
ENDSEC
  0
SECTION
  2
BLOCKS
  0
BLOCK
  5
20
330
1F
100
AcDbEntity
  8
0
100
AcDbBlockBegin
  2
*MODEL_SPACE
 70
     0
 10
0.0
 20
0.0
 30
0.0
  3
*MODEL_SPACE
  1

  0
ENDBLK
  5
21
330
1F
100
AcDbEntity
  8
0
100
AcDbBlockEnd
  0
BLOCK
  5
1C
330
1B
100
AcDbEntity
 67
     1
  8
0
100
AcDbBlockBegin
  2
*PAPER_SPACE
 70
     0
 10
0.0
 20
0.0
 30
0.0
  3
*PAPER_SPACE
  1

  0
ENDBLK
  5
1D
330
1B
100
AcDbEntity
 67
     1
  8
0
100
AcDbBlockEnd
  0
ENDSEC
  0
SECTION
  2
ENTITIES
  0
MTEXT
  5
6F
330
1F
100
AcDbEntity
  8
0
 62
     1
100
AcDbMText
 10
-204.2871483056146
 20
208.6988745779668
 30
0.0
 40
3.0
 41
0.0
 71
     1
 72
     1
  1
{\fＭＳ ゴシック;MIDS-40}
  0
ARC
  5
70
330
1F
100
AcDbEntity
  8
0
  6
CONTINUOUS
 62
     7
100
AcDbCircle
 10
-235.9566671164259
 20
218.6467058326413
 30
0.0
 40
0.9999999999999968
100
AcDbArc
 50
108.3328689878575
 51
179.0000000000001
  0
LINE
  5
71
330
1F
100
AcDbEntity
  8
0
  6
CONTINUOUS
 62
     7
100
AcDbLine
 10
-163.0434851884177
 20
218.6641582390786
 30
0.0
 11
-163.0432295078187
 21
218.64951030737
 31
0.0
  0
LINE
  5
72
330
1F
100
AcDbEntity
  8
0
  6
CONTINUOUS
 62
     7
100
AcDbLine
 10
-222.3713310884658
 20
247.9962291010392
 30
0.0
 11
-216.5381388591306
 21
248.8517251805422
 31
0.0
  0
LINE
  5
73
330
1F
100
AcDbEntity
  8
0
  6
CONTINUOUS
 62
     7
100
AcDbLine
 10
-166.5680507219411
 20
219.8728934631224
 30
0.0
 11
-164.9105279442433
 21
219.8728934631224
 31
0.0
  0
ARC
  5
74
330
1F
100
AcDbEntity
  8
0
  6
CONTINUOUS
 62
     7
100
AcDbCircle
 10
216.2479233631051
 20
246.8728934631224
 30
0.0
 40
1.999999999999986
210
0.0
220
0.0
230
-1.0
100
AcDbArc
 50
81.65648131428316
 51
89.99999999999999
  0
LINE
  5
75
330
1F
100
AcDbEntity
  8
0
  6
CONTINUOUS
 62
     7
100
AcDbLine
 10
-176.7739289643906
 20
247.0242656487666
 30
0.0
 11
-176.3355303137906
 21
221.9084237769129
 31
0.0
  0
LINE
  5
76
330
1F
100
AcDbEntity
  8
0
  6
CONTINUOUS
 62
   253
100
AcDbLine
 10
-236.6639218824238
 20
218.6443986158726
 30
0.0
 11
-236.9567704921813
 21
218.64951030737
 31
0.0
  0
LINE
  5
77
330
1F
100
AcDbEntity
  8
0
  6
CONTINUOUS
 62
     7
100
AcDbLine
 10
-183.4618611408694
 20
248.8517251805422
 30
0.0
 11
-177.6286689115342
 21
247.9962291010392
 31
0.0
  0
LINE
  5
78
330
1F
100
AcDbEntity
  8
0
  6
CONTINUOUS
 62
     7
100
AcDbLine
 10
-163.0432295078187
 20
218.64951030737
 30
0.0
 11
-163.0
 21
216.1728934631223
 31
0.0
  0
LINE
  5
79
330
1F
100
AcDbEntity
  8
0
  6
CONTINUOUS
 62
     7
100
AcDbLine
 10
-163.0
 20
216.1728934631223
 30
0.0
 11
-163.2929378346645
 21
216.1728934631223
 31
0.0
  0
ARC
  5
7A
330
1F
100
AcDbEntity
  8
0
  6
CONTINUOUS
 62
     7
100
AcDbCircle
 10
-173.8857864376269
 20
220.8728934631224
 30
0.0
 40
1.0
100
AcDbArc
 50
226.2126585005304
 51
268.7873414994701
  0
LINE
  5
7B
330
1F
100
AcDbEntity
  8
0
  6
CONTINUOUS
 62
     7
100
AcDbLine
 10
-164.4114101958114
 20
219.8221386558473
 30
0.0
 11
-163.7287958204345
 21
219.5959510253663
 31
0.0
  0
ARC
  5
7C
330
1F
100
AcDbEntity
  8
0
  6
CONTINUOUS
 62
     7
100
AcDbCircle
 10
222.226223340453
 20
247.0068132423293
 30
0.0
 40
0.9999999999999836
210
0.0
220
0.0
230
-1.0
100
AcDbArc
 50
0.9999999999998436
 51
81.65648131428306
  0
LINE
  5
7D
330
1F
100
AcDbEntity
  8
0
  6
CONTINUOUS
 62
     7
100
AcDbLine
 10
-223.6644696862095
 20
221.9084237769129
 30
0.0
 11
-223.2260710356094
 21
247.0242656487666
 31
0.0
  0
ARC
  5
7E
330
1F
100
AcDbEntity
  8
0
  6
CONTINUOUS
 62
     7
100
AcDbCircle
 10
-226.1142135623731
 20
220.8728934631224
 30
0.0
 40
1.000000000000001
100
AcDbArc
 50
313.7873414994696
 51
315.0
  0
ARC
  5
7F
330
1F
100
AcDbEntity
  8
0
  6
CONTINUOUS
 62
     7
100
AcDbCircle
 10
183.7520766368949
 20
246.8728934631224
 30
0.0
 40
2.000000000000002
210
0.0
220
0.0
230
-1.0
100
AcDbArc
 50
90.0
 51
98.34351868571687
  0
ARC
  5
80
330
1F
100
AcDbEntity
  8
0
  6
CONTINUOUS
 62
     7
100
AcDbCircle
 10
-164.7259472589511
 20
218.8728934631224
 30
0.0
 40
0.9999999999999968
100
AcDbArc
 50
71.6671310121421
 51
89.99999999999962
  0
LINE
  5
81
330
1F
100
AcDbEntity
  8
0
  6
CONTINUOUS
 62
     7
100
AcDbLine
 10
-235.0894720557567
 20
219.8728934631224
 30
0.0
 11
-233.4319492780589
 21
219.8728934631224
 31
0.0
  0
LINE
  5
82
330
1F
100
AcDbEntity
  8
0
  6
CONTINUOUS
 62
     7
100
AcDbLine
 10
-236.7070621653355
 20
216.1728934631223
 30
0.0
 11
-237.0
 21
216.1728934631223
 31
0.0
  0
LINE
  5
83
330
1F
100
AcDbEntity
  8
0
  6
CONTINUOUS
 62
   253
100
AcDbLine
 10
-163.0432295078187
 20
218.64951030737
 30
0.0
 11
-163.3360781175762
 21
218.6443986158726
 31
0.0
  0
ARC
  5
84
330
1F
100
AcDbEntity
  8
0
  6
CONTINUOUS
 62
     7
100
AcDbCircle
 10
177.773776659547
 20
247.0068132423293
 30
0.0
 40
0.999999999999995
210
0.0
220
0.0
230
-1.0
100
AcDbArc
 50
98.34351868571697
 51
179.0000000000002
  0
LINE
  5
85
330
1F
100
AcDbEntity
  8
0
  6
CONTINUOUS
 62
     7
100
AcDbLine
 10
-216.2479233631051
 20
248.8728934631224
 30
0.0
 11
-183.7520766368949
 21
248.8728934631224
 31
0.0
  0
LINE
  5
86
330
1F
100
AcDbEntity
  8
0
  6
CONTINUOUS
 62
     7
100
AcDbLine
 10
-164.9105279442433
 20
219.8728934631224
 30
0.0
 11
-164.7259472589511
 21
219.8728934631224
 31
0.0
  0
ARC
  5
87
330
1F
100
AcDbEntity
  8
0
  6
CONTINUOUS
 62
     7
100
AcDbCircle
 10
-235.274052741049
 20
218.8728934631224
 30
0.0
 40
1.000000000000001
100
AcDbArc
 50
90.00000000000043
 51
108.3328689878575
  0
LINE
  5
88
330
1F
100
AcDbEntity
  8
0
  6
CONTINUOUS
 62
     7
100
AcDbLine
 10
-235.274052741049
 20
219.8728934631224
 30
0.0
 11
-235.0894720557567
 21
219.8728934631224
 31
0.0
  0
ARC
  5
89
330
1F
100
AcDbEntity
  8
0
  6
CONTINUOUS
 62
     7
100
AcDbCircle
 10
-226.1142135623731
 20
220.8728934631224
 30
0.0
 40
1.0
100
AcDbArc
 50
271.21265850053
 51
313.7873414994696
  0
LINE
  5
8A
330
1F
100
AcDbEntity
  8
0
  6
CONTINUOUS
 62
     7
100
AcDbLine
 10
-236.2712041795655
 20
219.5959510253663
 30
0.0
 11
-235.5885898041886
 21
219.8221386558473
 31
0.0
  0
LINE
  5
8B
330
1F
100
AcDbEntity
  8
0
  6
CONTINUOUS
 62
     7
100
AcDbLine
 10
-237.0
 20
216.1728934631223
 30
0.0
 11
-236.9567704921813
 21
218.64951030737
 31
0.0
  0
ARC
  5
8C
330
1F
100
AcDbEntity
  8
0
  6
CONTINUOUS
 62
     7
100
AcDbCircle
 10
-164.0433328835741
 20
218.6467058326413
 30
0.0
 40
0.9999999999999836
100
AcDbArc
 50
0.999999999999996
 51
71.66713101214256
  0
LINE
  5
8D
330
1F
100
AcDbEntity
  8
0
  6
CONTINUOUS
 62
     7
100
AcDbLine
 10
-236.9567704921813
 20
218.64951030737
 30
0.0
 11
-236.9565148115823
 21
218.6641582390786
 31
0.0
  0
LINE
  5
8E
330
1F
100
AcDbEntity
  8
0
  6
CONTINUOUS
 62
   253
100
AcDbLine
 10
-174.0179426623636
 20
290.5130315292843
 30
0.0
 11
-174.0179426623636
 21
291.1967900555148
 31
0.0
  0
ELLIPSE
  5
8F
330
1F
100
AcDbEntity
  8
0
  6
CONTINUOUS
 62
   253
100
AcDbEllipse
 10
-173.8857864376269
 20
296.8377223398316
 30
0.0
 11
0.0
 21
-5.999999999999997
 31
0.0
210
0.0
220
0.0
230
1.0
 40
0.1666666666666667
 41
3.141592653589793
 42
3.162757537126325
  0
LINE
  5
90
330
1F
100
AcDbEntity
  8
0
  6
CONTINUOUS
 62
   253
100
AcDbLine
 10
-173.8857864376269
 20
302.8377223398316
 30
0.0
 11
-173.8857864376269
 21
302.0
 31
0.0
  0
ELLIPSE
  5
91
330
1F
100
AcDbEntity
  8
0
  6
CONTINUOUS
 62
   253
100
AcDbEllipse
 10
-226.1142135623731
 20
296.8377223398315
 30
0.0
 11
-0.716856703686433
 21
-5.999421603100516
 31
0.0
210
0.0
220
0.0
230
1.0
 40
0.1162146245680949
 41
3.155477971886504
 42
3.176642855423046
  0
ELLIPSE
  5
92
330
1F
100
AcDbEntity
  8
0
  6
CONTINUOUS
 62
   253
100
AcDbEllipse
 10
-173.8857864376269
 20
298.1622776601683
 30
0.0
 11
0.0
 21
5.999999999999994
 31
0.0
210
0.0
220
0.0
230
1.0
 40
0.1666666666666668
 41
3.120427770053246
 42
3.141592653589793
  0
ELLIPSE
  5
93
330
1F
100
AcDbEntity
  8
0
  6
CONTINUOUS
 62
   253
100
AcDbEllipse
 10
-226.0718869555153
 20
292.1636214668891
 30
0.0
 11
0.06337647022624886
 21
-0.9979896908393627
 31
0.0
210
0.0
220
0.0
230
-1.0
 40
0.0211207776439508
 41
1.249715800678942
 42
1.572137582666657
  0
LINE
  5
94
330
1F
100
AcDbEntity
  8
0
  6
CONTINUOUS
 62
   253
100
AcDbLine
 10
-226.1142135623731
 20
302.0
 30
0.0
 11
-226.1142135623731
 21
302.8377223398316
 31
0.0
  0
LINE
  5
95
330
1F
100
AcDbEntity
  8
0
  6
CONTINUOUS
 62
   253
100
AcDbLine
 10
-173.8857864376269
 20
293.0
 30
0.0
 11
-173.8857864376269
 21
292.1622776601684
 31
0.0
  0
ELLIPSE
  5
96
330
1F
100
AcDbEntity
  8
0
  6
CONTINUOUS
 62
   253
100
AcDbEllipse
 10
-226.1142135623731
 20
296.8377223398316
 30
0.0
 11
0.0
 21
-5.999999999999997
 31
0.0
210
0.0
220
0.0
230
1.0
 40
0.1666666666666667
 41
3.120427770053249
 42
3.141592653589793
  0
LINE
  5
97
330
1F
100
AcDbEntity
  8
0
  6
CONTINUOUS
 62
   253
100
AcDbLine
 10
-173.9281130444847
 20
291.8473937008723
 30
0.0
 11
-174.0179426623636
 21
291.1967900555148
 31
0.0
  0
ELLIPSE
  5
98
330
1F
100
AcDbEntity
  8
0
  6
CONTINUOUS
 62
   253
100
AcDbEllipse
 10
-173.9281130444847
 20
292.1636214668891
 30
0.0
 11
0.06337647022625253
 21
0.9979896908394179
 31
0.0
210
0.0
220
0.0
230
-1.0
 40
0.0211207776439508
 41
1.569455070923139
 42
1.891876852910853
  0
LINE
  5
99
330
1F
100
AcDbEntity
  8
0
  6
CONTINUOUS
 62
   253
100
AcDbLine
 10
-174.0179426623636
 20
303.8032099444851
 30
0.0
 11
-173.9281130444847
 21
303.1526062991276
 31
0.0
  0
ELLIPSE
  5
9A
330
1F
100
AcDbEntity
  8
0
  6
CONTINUOUS
 62
   253
100
AcDbEllipse
 10
-173.9281130444847
 20
302.8363785331109
 30
0.0
 11
-0.06337647022626017
 21
0.9979896908393621
 31
0.0
210
0.0
220
0.0
230
-1.0
 40
0.0211207776439495
 41
1.249715800678963
 42
1.57213758266666
  0
LINE
  5
9B
330
1F
100
AcDbEntity
  8
0
  6
CONTINUOUS
 62
     7
100
AcDbLine
 10
-226.1142135623731
 20
302.0
 30
0.0
 11
-225.4071067811865
 21
302.4550898605635
 31
0.0
  0
LINE
  5
9C
330
1F
100
AcDbEntity
  8
0
  6
CONTINUOUS
 62
     7
100
AcDbLine
 10
-174.5928932188135
 20
302.4550898605635
 30
0.0
 11
-173.8857864376269
 21
302.0
 31
0.0
  0
LINE
  5
9D
330
1F
100
AcDbEntity
  8
0
  6
CONTINUOUS
 62
   253
100
AcDbLine
 10
-226.1142135623731
 20
292.1622776601684
 30
0.0
 11
-226.1142135623731
 21
293.0
 31
0.0
  0
ELLIPSE
  5
9E
330
1F
100
AcDbEntity
  8
0
  6
CONTINUOUS
 62
   253
100
AcDbEllipse
 10
-226.0718869555153
 20
302.8363785331109
 30
0.0
 11
-0.063376470226242
 21
-0.9979896908394186
 31
0.0
210
0.0
220
0.0
230
-1.0
 40
0.0211207776439473
 41
1.569455070923129
 42
1.891876852910858
  0
LINE
  5
9F
330
1F
100
AcDbEntity
  8
0
  6
CONTINUOUS
 62
   253
100
AcDbLine
 10
-174.0179426623636
 20
304.4869684707157
 30
0.0
 11
-174.0179426623636
 21
303.8032099444851
 31
0.0
  0
LINE
  5
A0
330
1F
100
AcDbEntity
  8
0
  6
CONTINUOUS
 62
   253
100
AcDbLine
 10
-225.9820573376365
 20
291.1967900555148
 30
0.0
 11
-225.9820573376365
 21
290.5130315292843
 31
0.0
  0
LINE
  5
A1
330
1F
100
AcDbEntity
  8
0
  6
CONTINUOUS
 62
   253
100
AcDbLine
 10
-173.8857864376269
 20
292.1622776601684
 30
0.0
 11
-173.8857864376269
 21
291.8460498941515
 31
0.0
  0
ELLIPSE
  5
A2
330
1F
100
AcDbEntity
  8
0
  6
CONTINUOUS
 62
   253
100
AcDbEllipse
 10
-173.8857864376269
 20
297.8460498941515
 30
0.0
 11
0.0
 21
5.999999999999994
 31
0.0
210
0.0
220
0.0
230
-1.0
 40
0.3333333333333336
 41
3.141592653589793
 42
3.162757537126336
  0
LINE
  5
A3
330
1F
100
AcDbEntity
  8
0
  6
CONTINUOUS
 62
     7
100
AcDbLine
 10
-225.4071067811865
 20
292.5449101394365
 30
0.0
 11
-226.1142135623731
 21
293.0
 31
0.0
  0
LINE
  5
A4
330
1F
100
AcDbEntity
  8
0
  6
CONTINUOUS
 62
   253
100
AcDbLine
 10
-225.9820573376365
 20
291.1967900555148
 30
0.0
 11
-226.0718869555153
 21
291.8473937008723
 31
0.0
  0
ELLIPSE
  5
A5
330
1F
100
AcDbEntity
  8
0
  6
CONTINUOUS
 62
   253
100
AcDbEllipse
 10
-226.1142135623731
 20
298.1622776601683
 30
0.0
 11
0.0
 21
5.999999999999994
 31
0.0
210
0.0
220
0.0
230
1.0
 40
0.1666666666666668
 41
3.141592653589793
 42
3.162757537126328
  0
ELLIPSE
  5
A6
330
1F
100
AcDbEntity
  8
0
  6
CONTINUOUS
 62
   253
100
AcDbEllipse
 10
-235.956922797025
 20
293.914213562373
 30
0.0
 11
0.0
 21
-1.000000000000001
 31
0.0
210
0.0
220
0.0
230
-1.0
 40
0.9998476951563913
 41
0.7853981633974877
 42
1.570796326794897
  0
ELLIPSE
  5
A7
330
1F
100
AcDbEntity
  8
0
  6
CONTINUOUS
 62
   253
100
AcDbEllipse
 10
-164.0430772029751
 20
301.0857864376269
 30
0.0
 11
0.0
 21
1.000000000000001
 31
0.0
210
0.0
220
0.0
230
-1.0
 40
0.9998476951563913
 41
0.7853981633974598
 42
1.570796326794869
  0
ELLIPSE
  5
A8
330
1F
100
AcDbEntity
  8
0
  6
CONTINUOUS
 62
   253
100
AcDbEllipse
 10
-235.956922797025
 20
301.0857864376269
 30
0.0
 11
0.0
 21
-1.000000000000001
 31
0.0
210
0.0
220
0.0
230
-1.0
 40
0.9998476951563913
 41
1.570796326794897
 42
2.356194490192306
  0
LINE
  5
A9
330
1F
100
AcDbEntity
  8
0
  6
CONTINUOUS
 62
   253
100
AcDbLine
 10
-237.0
 20
293.914213562373
 30
0.0
 11
-236.9567704921813
 21
293.914213562373
 31
0.0
  0
LINE
  5
AA
330
1F
100
AcDbEntity
  8
0
  6
CONTINUOUS
 62
     7
100
AcDbLine
 10
-163.2929378346645
 20
293.2071067811866
 30
0.0
 11
-165.7075700657043
 21
290.7928423103311
 31
0.0
  0
ELLIPSE
  5
AB
330
1F
100
AcDbEntity
  8
0
  6
CONTINUOUS
 62
   253
100
AcDbEllipse
 10
-173.8857864376269
 20
297.1539501058484
 30
0.0
 11
0.0
 21
-5.999999999999997
 31
0.0
210
0.0
220
0.0
230
-1.0
 40
0.3333333333333334
 41
3.120427770053248
 42
3.141592653589793
  0
LINE
  5
AC
330
1F
100
AcDbEntity
  8
0
  6
CONTINUOUS
 62
   253
100
AcDbLine
 10
-165.7378233756786
 20
290.8058071494133
 30
0.0
 11
-165.7075700657043
 21
290.7928423103311
 31
0.0
  0
ELLIPSE
  5
AD
330
1F
100
AcDbEntity
  8
0
  6
CONTINUOUS
 62
   253
100
AcDbEllipse
 10
-165.7489566593199
 20
304.2420500718174
 30
0.0
 11
1.526279219337666
 21
-1.53062436816339
 31
0.0
210
0.0
220
0.0
230
1.0
 40
0.0119882254469487
 41
4.731704688479304
 42
4.83666609795716
  0
LINE
  5
AE
330
1F
100
AcDbEntity
  8
0
  6
CONTINUOUS
 62
     7
100
AcDbLine
 10
-165.7075700657043
 20
304.2071576896689
 30
0.0
 11
-163.2929378346645
 21
301.7928932188134
 31
0.0
  0
LINE
  5
AF
330
1F
100
AcDbEntity
  8
0
  6
CONTINUOUS
 62
   253
100
AcDbLine
 10
-163.3360781175762
 20
301.7928932188134
 30
0.0
 11
-163.2929378346645
 21
301.7928932188134
 31
0.0
  0
LINE
  5
B0
330
1F
100
AcDbEntity
  8
0
  6
CONTINUOUS
 62
   253
100
AcDbLine
 10
-165.7075700657043
 20
304.2071576896689
 30
0.0
 11
-165.7378233756786
 21
304.1941928505867
 31
0.0
  0
LINE
  5
B1
330
1F
100
AcDbEntity
  8
0
  6
CONTINUOUS
 62
   253
100
AcDbLine
 10
-163.525656244235
 20
293.0178405911737
 30
0.0
 11
-165.5779709164758
 21
290.9658384963981
 31
0.0
  0
LINE
  5
B2
330
1F
100
AcDbEntity
  8
0
  6
CONTINUOUS
 62
   253
100
AcDbLine
 10
-165.5779709164758
 20
304.0341615036019
 30
0.0
 11
-163.525656244235
 21
301.9821594088262
 31
0.0
  0
LINE
  5
B3
330
1F
100
AcDbEntity
  8
0
  6
CONTINUOUS
 62
   253
100
AcDbLine
 10
-236.9567704921813
 20
301.0857864376269
 30
0.0
 11
-237.0
 21
301.0857864376269
 31
0.0
  0
ELLIPSE
  5
B4
330
1F
100
AcDbEntity
  8
0
  6
CONTINUOUS
 62
   253
100
AcDbEllipse
 10
-236.6862017623828
 20
293.1927374634625
 30
0.0
 11
-1.53551644327512
 21
1.530623767791792
 31
0.0
210
0.0
220
0.0
230
1.0
 40
0.0119487703230576
 41
4.585895632726956
 42
4.709789936663109
  0
LINE
  5
B5
330
1F
100
AcDbEntity
  8
0
  6
CONTINUOUS
 62
     7
100
AcDbLine
 10
-163.0
 20
301.0857864376269
 30
0.0
 11
-163.0
 21
293.914213562373
 31
0.0
  0
LINE
  5
B6
330
1F
100
AcDbEntity
  8
0
  6
CONTINUOUS
 62
   253
100
AcDbLine
 10
-236.474343755765
 20
301.9821594088262
 30
0.0
 11
-234.4220290835242
 21
304.0341615036019
 31
0.0
  0
LINE
  5
B7
330
1F
100
AcDbEntity
  8
0
  6
CONTINUOUS
 62
   253
100
AcDbLine
 10
-163.0432295078187
 20
293.914213562373
 30
0.0
 11
-163.0
 21
293.914213562373
 31
0.0
  0
LINE
  5
B8
330
1F
100
AcDbEntity
  8
0
  6
CONTINUOUS
 62
     7
100
AcDbLine
 10
-234.2924299342957
 20
290.7928423103311
 30
0.0
 11
-236.7070621653355
 21
293.2071067811866
 31
0.0
  0
ELLIPSE
  5
B9
330
1F
100
AcDbEntity
  8
0
  6
CONTINUOUS
 62
   253
100
AcDbEllipse
 10
-165.7489566593198
 20
290.7579499281825
 30
0.0
 11
1.526279219337666
 21
1.53062436816339
 31
0.0
210
0.0
220
0.0
230
1.0
 40
0.0119882254469489
 41
1.446519209222427
 42
1.551480618700285
  0
LINE
  5
BA
330
1F
100
AcDbEntity
  8
0
  6
CONTINUOUS
 62
   253
100
AcDbLine
 10
-163.0434851884177
 20
300.8318521415204
 30
0.0
 11
-163.0434851884177
 21
294.1681478584795
 31
0.0
  0
LINE
  5
BB
330
1F
100
AcDbEntity
  8
0
  6
CONTINUOUS
 62
   253
100
AcDbLine
 10
-173.8857864376269
 20
303.1539501058484
 30
0.0
 11
-173.8857864376269
 21
302.8377223398316
 31
0.0
  0
ELLIPSE
  5
BC
330
1F
100
AcDbEntity
  8
0
  6
CONTINUOUS
 62
   253
100
AcDbEllipse
 10
-236.9935054845056
 20
301.1061077216341
 30
0.0
 11
0.004687678761194696
 21
-2.164784399126659
 31
0.0
210
0.0
220
0.0
230
1.0
 40
0.0169496996736616
 41
1.443728693804968
 42
1.561372276431436
  0
LINE
  5
BD
330
1F
100
AcDbEntity
  8
0
  6
CONTINUOUS
 62
   253
100
AcDbLine
 10
-234.4220290835242
 20
290.9658384963981
 30
0.0
 11
-236.474343755765
 21
293.0178405911737
 31
0.0
  0
LINE
  5
BE
330
1F
100
AcDbEntity
  8
0
  6
CONTINUOUS
 62
   253
100
AcDbLine
 10
-236.9565148115823
 20
294.1681478584795
 30
0.0
 11
-236.9565148115823
 21
300.8318521415204
 31
0.0
  0
ELLIPSE
  5
BF
330
1F
100
AcDbEntity
  8
0
  6
CONTINUOUS
 62
   253
100
AcDbEllipse
 10
-166.4448224610775
 20
303.4870860694001
 30
0.0
 11
-0.3938970911280295
 21
0.9191545471795557
 31
0.0
210
0.0
220
0.0
230
-1.0
 40
0.9999116610793213
 41
0.404899611119944
 42
1.19022009908427
  0
ELLIPSE
  5
C0
330
1F
100
AcDbEntity
  8
0
  6
CONTINUOUS
 62
   253
100
AcDbEllipse
 10
-234.2510433406801
 20
304.2420500718174
 30
0.0
 11
-1.526279219337666
 21
-1.53062436816339
 31
0.0
210
0.0
220
0.0
230
1.0
 40
0.0119882254469488
 41
1.446519209222428
 42
1.551480618700281
  0
ELLIPSE
  5
C1
330
1F
100
AcDbEntity
  8
0
  6
CONTINUOUS
 62
   253
100
AcDbEllipse
 10
-164.0430772029751
 20
293.914213562373
 30
0.0
 11
0.0
 21
1.000000000000001
 31
0.0
210
0.0
220
0.0
230
-1.0
 40
0.9998476951563913
 41
1.570796326794897
 42
2.356194490192306
  0
LINE
  5
C2
330
1F
100
AcDbEntity
  8
0
  6
CONTINUOUS
 62
     7
100
AcDbLine
 10
-237.0
 20
301.0857864376269
 30
0.0
 11
-237.0
 21
293.914213562373
 31
0.0
  0
CIRCLE
  5
C3
330
1F
100
AcDbEntity
  8
0
  6
CONTINUOUS
 62
     7
100
AcDbCircle
 10
-170.0
 20
297.5
 30
0.0
 40
2.500000000000002
  0
LINE
  5
C4
330
1F
100
AcDbEntity
  8
0
  6
CONTINUOUS
 62
   253
100
AcDbLine
 10
-163.0
 20
301.0857864376269
 30
0.0
 11
-163.0432295078187
 21
301.0857864376269
 31
0.0
  0
ELLIPSE
  5
C5
330
1F
100
AcDbEntity
  8
0
  6
CONTINUOUS
 62
   253
100
AcDbEllipse
 10
-163.3137982376172
 20
293.1927374634625
 30
0.0
 11
1.535516443275118
 21
1.53062376779179
 31
0.0
210
0.0
220
0.0
230
1.0
 40
0.0119487703230576
 41
1.573395370516478
 42
1.697289674452629
  0
LINE
  5
C6
330
1F
100
AcDbEntity
  8
0
  6
CONTINUOUS
 62
   253
100
AcDbLine
 10
-236.6639218824238
 20
293.2071067811866
 30
0.0
 11
-236.7070621653355
 21
293.2071067811866
 31
0.0
  0
LINE
  5
C7
330
1F
100
AcDbEntity
  8
0
  6
CONTINUOUS
 62
   253
100
AcDbLine
 10
-234.2924299342957
 20
290.7928423103311
 30
0.0
 11
-234.2621766243214
 21
290.8058071494133
 31
0.0
  0
LINE
  5
C8
330
1F
100
AcDbEntity
  8
0
  6
CONTINUOUS
 62
   253
100
AcDbLine
 10
-163.2929378346645
 20
293.2071067811866
 30
0.0
 11
-163.3360781175762
 21
293.2071067811866
 31
0.0
  0
ELLIPSE
  5
C9
330
1F
100
AcDbEntity
  8
0
  6
CONTINUOUS
 62
   253
100
AcDbEllipse
 10
-163.3137982376172
 20
301.8072625365374
 30
0.0
 11
-1.535516443275119
 21
1.530623767791791
 31
0.0
210
0.0
220
0.0
230
1.0
 40
0.0119487703230575
 41
1.444302979137165
 42
1.568197283073312
  0
ELLIPSE
  5
CA
330
1F
100
AcDbEntity
  8
0
  6
CONTINUOUS
 62
   253
100
AcDbEllipse
 10
-236.9935054845056
 20
293.8938922783659
 30
0.0
 11
-0.004687678761194685
 21
-2.164784399126659
 31
0.0
210
0.0
220
0.0
230
1.0
 40
0.0169496996736616
 41
1.580220377158359
 42
1.697863959784824
  0
CIRCLE
  5
CB
330
1F
100
AcDbEntity
  8
0
  6
CONTINUOUS
 62
     7
100
AcDbCircle
 10
-230.0
 20
297.5
 30
0.0
 40
2.500000000000002
  0
ELLIPSE
  5
CC
330
1F
100
AcDbEntity
  8
0
  6
CONTINUOUS
 62
   253
100
AcDbEllipse
 10
-163.0064945154944
 20
301.1061077216341
 30
0.0
 11
-0.004687678761194703
 21
-2.16478439912666
 31
0.0
210
0.0
220
0.0
230
1.0
 40
0.0169496996736616
 41
4.721813030748152
 42
4.839456613374617
  0
ELLIPSE
  5
CD
330
1F
100
AcDbEntity
  8
0
  6
CONTINUOUS
 62
   253
100
AcDbEllipse
 10
-233.5551775389226
 20
291.5129139305998
 30
0.0
 11
0.3938970911280369
 21
-0.9191545471795521
 31
0.0
210
0.0
220
0.0
230
-1.0
 40
0.9999116610793215
 41
0.4048996111199716
 42
1.19022009908425
  0
ELLIPSE
  5
CE
330
1F
100
AcDbEntity
  8
0
  6
CONTINUOUS
 62
   253
100
AcDbEllipse
 10
-236.6862017623828
 20
301.8072625365373
 30
0.0
 11
1.535516443275119
 21
1.530623767791791
 31
0.0
210
0.0
220
0.0
230
1.0
 40
0.0119487703230576
 41
4.714988024106274
 42
4.838882328042421
  0
ELLIPSE
  5
CF
330
1F
100
AcDbEntity
  8
0
  6
CONTINUOUS
 62
   253
100
AcDbEllipse
 10
-234.2510433406802
 20
290.7579499281825
 30
0.0
 11
-1.526279219337666
 21
1.530624368163391
 31
0.0
210
0.0
220
0.0
230
1.0
 40
0.0119882254469489
 41
4.731704688479296
 42
4.836666097957159
  0
ELLIPSE
  5
D0
330
1F
100
AcDbEntity
  8
0
  6
CONTINUOUS
 62
   253
100
AcDbEllipse
 10
-163.0064945154944
 20
293.8938922783659
 30
0.0
 11
0.004687678761194696
 21
-2.16478439912666
 31
0.0
210
0.0
220
0.0
230
1.0
 40
0.0169496996736616
 41
4.58532134739476
 42
4.702964930021228
  0
ELLIPSE
  5
D1
330
1F
100
AcDbEntity
  8
0
  6
CONTINUOUS
 62
   253
100
AcDbEllipse
 10
-166.4448224610775
 20
291.5129139305998
 30
0.0
 11
0.393897091128073
 21
0.9191545471795606
 31
0.0
210
0.0
220
0.0
230
-1.0
 40
0.9999116610793213
 41
1.951372554505473
 42
2.736693042469799
  0
ELLIPSE
  5
D2
330
1F
100
AcDbEntity
  8
0
  6
CONTINUOUS
 62
   253
100
AcDbEllipse
 10
-233.5551775389226
 20
303.4870860694001
 30
0.0
 11
-0.3938970911280031
 21
-0.9191545471795667
 31
0.0
210
0.0
220
0.0
230
-1.0
 40
0.9999116610793213
 41
1.951372554505524
 42
2.736693042469794
  0
ELLIPSE
  5
D3
330
1F
100
AcDbEntity
  8
0
  6
CONTINUOUS
 62
     7
100
AcDbEllipse
 10
-235.9998476719561
 20
301.0857864376269
 30
0.0
 11
1.000152328043902
 21
0.0
 31
0.0
210
0.0
220
0.0
230
-1.0
 40
0.999847695156398
 41
3.141592653589793
 42
3.926990816987237
  0
ELLIPSE
  5
D4
330
1F
100
AcDbEntity
  8
0
  6
CONTINUOUS
 62
     7
100
AcDbEllipse
 10
-166.414719932818
 20
291.5000137079405
 30
0.0
 11
-0.9192357514736728
 21
0.3939318906460862
 31
0.0
210
0.0
220
0.0
230
-1.0
 40
0.9999116610793308
 41
3.522168881300386
 42
4.307489369264719
  0
LINE
  5
D5
330
1F
100
AcDbEntity
  8
0
  6
CONTINUOUS
 62
   253
100
AcDbLine
 10
-225.9820573376365
 20
218.6617094807415
 30
0.0
 11
-233.2582046158222
 21
218.6617094807415
 31
0.0
  0
LINE
  5
D6
330
1F
100
AcDbEntity
  8
0
  6
CONTINUOUS
 62
     7
100
AcDbLine
 10
-222.0
 20
216.1728934631223
 30
0.0
 11
-220.779265030713
 21
217.3830217233419
 31
0.0
  0
LINE
  5
D7
330
1F
100
AcDbEntity
  8
0
  6
CONTINUOUS
 62
     7
100
AcDbLine
 10
-233.5853440414015
 20
216.1728934631223
 30
0.0
 11
-234.2924299342957
 21
216.1728934631223
 31
0.0
  0
LINE
  5
D8
330
1F
100
AcDbEntity
  8
0
  6
CONTINUOUS
 62
     7
100
AcDbLine
 10
-183.2883868903757
 20
245.6234119989075
 30
0.0
 11
-180.1572758456606
 21
245.047576015246
 31
0.0
  0
LINE
  5
D9
330
1F
100
AcDbEntity
  8
0
  6
CONTINUOUS
 62
   253
100
AcDbLine
 10
-236.7070621653355
 20
301.7928932188134
 30
0.0
 11
-236.6639218824238
 21
301.7928932188134
 31
0.0
  0
ELLIPSE
  5
DA
330
1F
100
AcDbEntity
  8
0
  6
CONTINUOUS
 62
     7
100
AcDbEllipse
 10
-233.5852800671821
 20
303.4999862920595
 30
0.0
 11
-0.9192357514736931
 21
0.3939318906460949
 31
0.0
210
0.0
220
0.0
230
-1.0
 40
0.9999116610793307
 41
0.3805762277105989
 42
1.165896715674925
  0
LINE
  5
DB
330
1F
100
AcDbEntity
  8
0
  6
CONTINUOUS
 62
   253
100
AcDbLine
 10
-234.2621766243214
 20
304.1941928505867
 30
0.0
 11
-234.2924299342957
 21
304.2071576896689
 31
0.0
  0
ELLIPSE
  5
DC
330
1F
100
AcDbEntity
  8
0
  6
CONTINUOUS
 62
   253
100
AcDbEllipse
 10
-166.4714586286969
 20
216.5498384299571
 30
0.0
 11
-1.770197133563416
 21
1.426491234767965
 31
0.0
210
0.0
220
0.0
230
1.0
 40
0.879721428583136
 41
5.316795809490066
 42
5.453981696834845
  0
ELLIPSE
  5
DD
330
1F
100
AcDbEntity
  8
0
  6
CONTINUOUS
 62
   253
100
AcDbEllipse
 10
-233.5551775389226
 20
218.6366319918188
 30
0.0
 11
0.9999253657629604
 21
-0.01221731982905287
 31
0.0
210
0.0
220
0.0
230
1.0
 40
0.0052355730599659
 41
1.570860296239693
 42
2.356180784203615
  0
LINE
  5
DE
330
1F
100
AcDbEntity
  8
0
  6
CONTINUOUS
 62
   253
100
AcDbLine
 10
-175.3591809868696
 20
219.2184069195465
 30
0.0
 11
-178.0465151411686
 21
221.9123906091514
 31
0.0
  0
LINE
  5
DF
330
1F
100
AcDbEntity
  8
0
  6
CONTINUOUS
 62
   253
100
AcDbLine
 10
-216.3407053743013
 20
247.201480234624
 30
0.0
 11
-221.5682724023374
 21
246.4334503414061
 31
0.0
  0
LINE
  5
E0
330
1F
100
AcDbEntity
  8
0
  6
CONTINUOUS
 62
     7
100
AcDbLine
 10
-220.2522678494027
 20
244.5601861936977
 30
0.0
 11
-220.4833178321048
 21
218.0844805634668
 31
0.0
  0
LINE
  5
E1
330
1F
100
AcDbEntity
  8
0
  6
CONTINUOUS
 62
     7
100
AcDbLine
 10
-179.220734969287
 20
217.3830217233419
 30
0.0
 11
-178.0
 21
216.1728934631223
 31
0.0
  0
ELLIPSE
  5
E2
330
1F
100
AcDbEntity
  8
0
  6
CONTINUOUS
 62
   253
100
AcDbEllipse
 10
-226.0709079919558
 20
220.773580531526
 30
0.0
 11
-0.8044472003066986
 21
1.972157008538444
 31
0.0
210
0.0
220
0.0
230
-1.0
 40
0.9390027043491079
 41
2.764308668825801
 42
3.50737706515016
  0
ELLIPSE
  5
E3
330
1F
100
AcDbEntity
  8
0
  6
CONTINUOUS
 62
   253
100
AcDbEllipse
 10
-216.1952223935817
 20
246.1556032629464
 30
0.0
 11
-0.07567395015912401
 21
1.053502087839804
 31
0.0
210
0.0
220
0.0
230
1.0
 40
0.9467755654726859
 41
6.21528217006187
 42
6.353418978635174
  0
ELLIPSE
  5
E4
330
1F
100
AcDbEntity
  8
0
  6
CONTINUOUS
 62
     7
100
AcDbEllipse
 10
-235.9998476719561
 20
293.914213562373
 30
0.0
 11
1.000152328043902
 21
0.0
 31
0.0
210
0.0
220
0.0
230
-1.0
 40
0.999847695156398
 41
2.356194490192348
 42
3.141592653589793
  0
ELLIPSE
  5
E5
330
1F
100
AcDbEntity
  8
0
  6
CONTINUOUS
 62
   253
100
AcDbEllipse
 10
-183.8047776064183
 20
246.1556032629464
 30
0.0
 11
0.07567395015908449
 21
1.053502087839807
 31
0.0
210
0.0
220
0.0
230
1.0
 40
0.9467755654726866
 41
6.212951635723963
 42
6.351088444297264
  0
LINE
  5
E6
330
1F
100
AcDbEntity
  8
0
  6
CONTINUOUS
 62
   253
100
AcDbLine
 10
-166.7417953841778
 20
218.6617094807415
 30
0.0
 11
-174.0179426623636
 21
218.6617094807415
 31
0.0
  0
ELLIPSE
  5
E7
330
1F
100
AcDbEntity
  8
0
  6
CONTINUOUS
 62
     7
100
AcDbEllipse
 10
-164.0001523280439
 20
293.914213562373
 30
0.0
 11
1.00015232804393
 21
0.0
 31
0.0
210
0.0
220
0.0
230
-1.0
 40
0.9998476951563703
 41
0.0
 42
0.7853981633974454
  0
ARC
  5
E8
330
1F
100
AcDbEntity
  8
0
  6
CONTINUOUS
 62
     7
100
AcDbCircle
 10
216.1689895108117
 20
242.6728934631223
 30
0.0
 40
3.000000000000002
210
0.0
220
0.0
230
-1.0
100
AcDbArc
 50
79.57929698978617
 51
89.99999999999999
  0
ELLIPSE
  5
E9
330
1F
100
AcDbEntity
  8
0
  6
CONTINUOUS
 62
   253
100
AcDbEllipse
 10
-173.9290920080442
 20
220.773580531526
 30
0.0
 11
0.8044472003067215
 21
1.972157008538436
 31
0.0
210
0.0
220
0.0
230
-1.0
 40
0.9390027043491069
 41
2.775808242029416
 42
3.518876638353773
  0
ELLIPSE
  5
EA
330
1F
100
AcDbEntity
  8
0
  6
CONTINUOUS
 62
     7
100
AcDbEllipse
 10
-166.414719932818
 20
303.4999862920595
 30
0.0
 11
-0.9192357514736729
 21
-0.3939318906460861
 31
0.0
210
0.0
220
0.0
230
-1.0
 40
0.9999116610793308
 41
1.975695937914868
 42
2.761016425879198
  0
LINE
  5
EB
330
1F
100
AcDbEntity
  8
0
  6
CONTINUOUS
 62
     7
100
AcDbLine
 10
-166.4146559585986
 20
216.1728934631223
 30
0.0
 11
-178.0
 21
216.1728934631223
 31
0.0
  0
ARC
  5
EC
330
1F
100
AcDbEntity
  8
0
  6
CONTINUOUS
 62
     7
100
AcDbCircle
 10
-178.516720244831
 20
218.0932070989652
 30
0.0
 40
1.000000000000001
100
AcDbArc
 50
180.5000000000005
 51
225.2499999999999
  0
LINE
  5
ED
330
1F
100
AcDbEntity
  8
0
  6
CONTINUOUS
 62
     7
100
AcDbLine
 10
-165.7075700657043
 20
216.1728934631223
 30
0.0
 11
-166.4146559585986
 21
216.1728934631223
 31
0.0
  0
LINE
  5
EE
330
1F
100
AcDbEntity
  8
0
  6
CONTINUOUS
 62
   253
100
AcDbLine
 10
-178.4317275976625
 20
246.4334503414061
 30
0.0
 11
-183.6592946256987
 21
247.201480234624
 31
0.0
  0
ARC
  5
EF
330
1F
100
AcDbEntity
  8
0
  6
CONTINUOUS
 62
     7
100
AcDbCircle
 10
183.8310104891883
 20
242.6728934631223
 30
0.0
 40
3.000000000000002
210
0.0
220
0.0
230
-1.0
100
AcDbArc
 50
90.0
 51
100.4207030102138
  0
ELLIPSE
  5
F0
330
1F
100
AcDbEntity
  8
0
  6
CONTINUOUS
 62
   253
100
AcDbEllipse
 10
-233.5285413713031
 20
216.5498384299571
 30
0.0
 11
1.770197133563413
 21
1.426491234767967
 31
0.0
210
0.0
220
0.0
230
1.0
 40
0.8797214285831364
 41
0.8292036103447437
 42
0.9663894976895135
  0
ELLIPSE
  5
F1
330
1F
100
AcDbEntity
  8
0
  6
CONTINUOUS
 62
   253
100
AcDbEllipse
 10
-166.4448224610775
 20
218.6366319918188
 30
0.0
 11
0.9999253657629603
 21
0.01221731982905317
 31
0.0
210
0.0
220
0.0
230
1.0
 40
0.0052355730599663
 41
0.7854118693860165
 42
1.57073235735013
  0
LINE
  5
F2
330
1F
100
AcDbEntity
  8
0
  6
CONTINUOUS
 62
     7
100
AcDbLine
 10
-222.0
 20
216.1728934631223
 30
0.0
 11
-233.5853440414015
 21
216.1728934631223
 31
0.0
  0
LINE
  5
F3
330
1F
100
AcDbEntity
  8
0
  6
CONTINUOUS
 62
     7
100
AcDbLine
 10
-222.8948580131351
 20
222.3067538073703
 30
0.0
 11
-222.895998830882
 21
222.3072280903812
 31
0.0
  0
ELLIPSE
  5
F4
330
1F
100
AcDbEntity
  8
0
  6
CONTINUOUS
 62
     7
100
AcDbEllipse
 10
-164.0001523280439
 20
301.0857864376269
 30
0.0
 11
1.00015232804393
 21
0.0
 31
0.0
210
0.0
220
0.0
230
-1.0
 40
0.9998476951563703
 41
5.497787143782136
 42
6.283185307179586
  0
LINE
  5
F5
330
1F
100
AcDbEntity
  8
0
  6
CONTINUOUS
 62
   253
100
AcDbLine
 10
-178.0465151411686
 20
221.9123906091514
 30
0.0
 11
-178.4317275976625
 21
246.4334503414061
 31
0.0
  0
ELLIPSE
  5
F6
330
1F
100
AcDbEntity
  8
0
  6
CONTINUOUS
 62
   253
100
AcDbEllipse
 10
-236.6862017623828
 20
216.5446420876835
 30
0.0
 11
-0.424872297294152
 21
-2.094698891007238
 31
0.0
210
0.0
220
0.0
230
1.0
 40
0.7044826794153092
 41
3.283523615613395
 42
3.407417919549548
  0
LINE
  5
F7
330
1F
100
AcDbEntity
  8
0
  6
CONTINUOUS
 62
   253
100
AcDbLine
 10
-221.9534848588314
 20
221.9123906091514
 30
0.0
 11
-224.6408190131304
 21
219.2184069195465
 31
0.0
  0
LINE
  5
F8
330
1F
100
AcDbEntity
  8
0
  6
CONTINUOUS
 62
   253
100
AcDbLine
 10
-221.5682724023374
 20
246.4334503414061
 30
0.0
 11
-221.9534848588314
 21
221.9123906091514
 31
0.0
  0
LINE
  5
F9
330
1F
100
AcDbEntity
  8
0
  6
CONTINUOUS
 62
     7
100
AcDbLine
 10
-179.5166821678952
 20
218.0844805634668
 30
0.0
 11
-179.7477321505973
 21
244.5601861936977
 31
0.0
  0
LINE
  5
FA
330
1F
100
AcDbEntity
  8
0
  6
CONTINUOUS
 62
     7
100
AcDbLine
 10
-183.8310104891883
 20
245.6728934631223
 30
0.0
 11
-216.1689895108117
 21
245.6728934631223
 31
0.0
  0
ELLIPSE
  5
FB
330
1F
100
AcDbEntity
  8
0
  6
CONTINUOUS
 62
     7
100
AcDbEllipse
 10
-233.585280067182
 20
291.5000137079405
 30
0.0
 11
-0.9192357514737163
 21
-0.3939318906461047
 31
0.0
210
0.0
220
0.0
230
-1.0
 40
0.9999116610793054
 41
5.11728859150466
 42
5.902609079468986
  0
LINE
  5
FC
330
1F
100
AcDbEntity
  8
0
  6
CONTINUOUS
 62
     7
100
AcDbLine
 10
-236.7070621653355
 20
301.7928932188134
 30
0.0
 11
-234.2924299342957
 21
304.2071576896689
 31
0.0
  0
LINE
  5
FD
330
1F
100
AcDbEntity
  8
0
  6
CONTINUOUS
 62
   253
100
AcDbLine
 10
-183.7969546421492
 20
247.2115387883386
 30
0.0
 11
-216.2030453578508
 21
247.2115387883386
 31
0.0
  0
LINE
  5
FE
330
1F
100
AcDbEntity
  8
0
  6
CONTINUOUS
 62
     7
100
AcDbLine
 10
-219.8427241543394
 20
245.047576015246
 30
0.0
 11
-216.7116131096243
 21
245.6234119989075
 31
0.0
  0
ARC
  5
FF
330
1F
100
AcDbEntity
  8
0
  6
CONTINUOUS
 62
     7
100
AcDbCircle
 10
-221.483279755169
 20
218.0932070989652
 30
0.0
 40
1.000000000000001
100
AcDbArc
 50
314.7500000000001
 51
359.4999999999995
  0
ELLIPSE
  5
100
330
1F
100
AcDbEntity
  8
0
  6
CONTINUOUS
 62
   253
100
AcDbEllipse
 10
-234.2510433406802
 20
216.5446420876835
 30
0.0
 11
-0.3446002547588347
 21
2.101884966972299
 31
0.0
210
0.0
220
0.0
230
1.0
 40
0.7074516804323684
 41
6.062754413340679
 42
6.167715822818541
  0
ARC
  5
101
330
1F
100
AcDbEntity
  8
0
  6
CONTINUOUS
 62
     7
100
AcDbCircle
 10
-173.8857864376269
 20
220.8728934631224
 30
0.0
 40
1.000000000000001
100
AcDbArc
 50
225.0
 51
226.2126585005304
  0
LINE
  5
102
330
1F
100
AcDbEntity
  8
0
  6
CONTINUOUS
 62
     7
100
AcDbLine
 10
-173.8857864376269
 20
219.8728934631224
 30
0.0
 11
-167.0145462049788
 21
219.8728934631224
 31
0.0
  0
LINE
  5
103
330
1F
100
AcDbEntity
  8
0
  6
CONTINUOUS
 62
   253
100
AcDbLine
 10
-163.525656244235
 20
218.6606177533322
 30
0.0
 11
-165.5779709164758
 21
218.6606177533322
 31
0.0
  0
ELLIPSE
  5
104
330
1F
100
AcDbEntity
  8
0
  6
CONTINUOUS
 62
   253
100
AcDbEllipse
 10
-163.3137982376172
 20
216.5446420876835
 30
0.0
 11
0.4248722972941508
 21
-2.094698891007237
 31
0.0
210
0.0
220
0.0
230
1.0
 40
0.7044826794153092
 41
2.875767387630038
 42
2.999661691566192
  0
LINE
  5
105
330
1F
100
AcDbEntity
  8
0
  6
CONTINUOUS
 62
   253
100
AcDbLine
 10
-234.4220290835242
 20
218.6606177533322
 30
0.0
 11
-236.474343755765
 21
218.6606177533322
 31
0.0
  0
ELLIPSE
  5
106
330
1F
100
AcDbEntity
  8
0
  6
CONTINUOUS
 62
   253
100
AcDbEllipse
 10
-165.7489566593198
 20
216.5446420876835
 30
0.0
 11
0.3446002547588334
 21
2.101884966972298
 31
0.0
210
0.0
220
0.0
230
1.0
 40
0.7074516804323684
 41
0.1154694843610427
 42
0.2204308938389007
  0
LINE
  5
107
330
1F
100
AcDbEntity
  8
0
  6
CONTINUOUS
 62
     7
100
AcDbLine
 10
-232.9854537950212
 20
219.8728934631224
 30
0.0
 11
-226.1142135623731
 21
219.8728934631224
 31
0.0
  0
ARC
  5
108
330
1F
100
AcDbEntity
  8
0
  6
CONTINUOUS
 62
     7
100
AcDbCircle
 10
-173.8857864376269
 20
220.8728934631224
 30
0.0
 40
1.0
100
AcDbArc
 50
268.7873414994701
 51
270.0
  0
ARC
  5
109
330
1F
100
AcDbEntity
  8
0
  6
CONTINUOUS
 62
     7
100
AcDbCircle
 10
-226.1142135623731
 20
220.8728934631224
 30
0.0
 40
1.0
100
AcDbArc
 50
270.0
 51
271.21265850053
  0
LINE
  5
10A
330
1F
100
AcDbEntity
  8
0
  6
CONTINUOUS
 62
     7
100
AcDbLine
 10
-163.2929378346645
 20
216.1728934631223
 30
0.0
 11
-165.7075700657043
 21
216.1728934631223
 31
0.0
  0
LINE
  5
10B
330
1F
100
AcDbEntity
  8
0
  6
CONTINUOUS
 62
     7
100
AcDbLine
 10
-234.2924299342957
 20
216.1728934631223
 30
0.0
 11
-236.7070621653355
 21
216.1728934631223
 31
0.0
  0
LINE
  5
10C
330
1F
100
AcDbEntity
  8
0
  6
CONTINUOUS
 62
     7
100
AcDbLine
 10
-167.0145462049788
 20
219.8728934631224
 30
0.0
 11
-166.5680507219411
 21
219.8728934631224
 31
0.0
  0
LINE
  5
10D
330
1F
100
AcDbEntity
  8
0
  6
CONTINUOUS
 62
     7
100
AcDbLine
 10
-233.4319492780589
 20
219.8728934631224
 30
0.0
 11
-232.9854537950212
 21
219.8728934631224
 31
0.0
  0
LINE
  5
10E
330
1F
100
AcDbEntity
  8
0
  6
CONTINUOUS
 62
     7
100
AcDbLine
 10
-176.3355303137906
 20
221.908423776913
 30
0.0
 11
-174.5928932188135
 21
220.1657866819358
 31
0.0
  0
LINE
  5
10F
330
1F
100
AcDbEntity
  8
0
  6
CONTINUOUS
 62
   253
100
AcDbLine
 10
-173.8857864376269
 20
302.0
 30
0.0
 11
-176.4482168740932
 21
302.0
 31
0.0
  0
LINE
  5
110
330
1F
100
AcDbEntity
  8
0
  6
CONTINUOUS
 62
   253
100
AcDbLine
 10
-176.4482168740932
 20
293.0
 30
0.0
 11
-173.8857864376269
 21
293.0
 31
0.0
  0
LINE
  5
111
330
1F
100
AcDbEntity
  8
0
  6
CONTINUOUS
 62
   253
100
AcDbLine
 10
-226.0718869555153
 20
303.1526062991276
 30
0.0
 11
-225.8858507072628
 21
304.5
 31
0.0
  0
LINE
  5
112
330
1F
100
AcDbEntity
  8
0
  6
CONTINUOUS
 62
     7
100
AcDbLine
 10
-225.4071067811865
 20
220.1657866819358
 30
0.0
 11
-223.6644696862095
 21
221.9084237769129
 31
0.0
  0
LINE
  5
113
330
1F
100
AcDbEntity
  8
0
  6
CONTINUOUS
 62
   253
100
AcDbLine
 10
-223.5227684251062
 20
302.0
 30
0.0
 11
-226.1142135623731
 21
302.0
 31
0.0
  0
LINE
  5
114
330
1F
100
AcDbEntity
  8
0
  6
CONTINUOUS
 62
   253
100
AcDbLine
 10
-226.1142135623731
 20
293.0
 30
0.0
 11
-223.5302649013086
 21
293.0
 31
0.0
  0
LINE
  5
115
330
1F
100
AcDbEntity
  8
0
  6
CONTINUOUS
 62
   253
100
AcDbLine
 10
-183.4618611408697
 20
301.1754446796632
 30
0.0
 11
-183.4618611408694
 21
293.8245553203367
 31
0.0
  0
LINE
  5
116
330
1F
100
AcDbEntity
  8
0
  6
CONTINUOUS
 62
     7
100
AcDbLine
 10
-108.1920997883031
 20
248.7702600592234
 30
0.0
 11
-106.3462779783061
 21
248.1549861225577
 31
0.0
  0
ELLIPSE
  5
117
330
1F
100
AcDbEntity
  8
0
  6
CONTINUOUS
 62
   253
100
AcDbEllipse
 10
-216.2479233631052
 20
301.1754446796632
 30
0.0
 11
0.0
 21
-2.000000000000001
 31
0.0
210
0.0
220
0.0
230
-1.0
 40
0.1451077480127595
 41
1.570796326794897
 42
1.892546881191534
  0
LINE
  5
118
330
1F
100
AcDbEntity
  8
0
  6
CONTINUOUS
 62
     7
100
AcDbLine
 10
-119.341554646737
 20
246.4334503414061
 30
0.0
 11
-119.3375332148699
 21
247.201480234624
 31
0.0
  0
LINE
  5
119
330
1F
100
AcDbEntity
  8
0
  6
CONTINUOUS
 62
   253
100
AcDbLine
 10
-222.3713310884658
 20
293.8245553203367
 30
0.0
 11
-216.5381388591306
 21
293.8245553203367
 31
0.0
  0
LINE
  5
11A
330
1F
100
AcDbEntity
  8
0
  6
CONTINUOUS
 62
     7
100
AcDbLine
 10
-118.6537220216939
 20
248.1549861225577
 30
0.0
 11
-116.8079002116969
 21
248.7702600592234
 31
0.0
  0
ARC
  5
11B
330
1F
100
AcDbEntity
  8
0
  6
CONTINUOUS
 62
     7
100
AcDbCircle
 10
118.337494255677
 20
247.2063028245072
 30
0.0
 40
0.9999999999999883
210
0.0
220
0.0
230
-1.0
100
AcDbArc
 50
0.300000000000035
 51
71.56505117707789
  0
LINE
  5
11C
330
1F
100
AcDbEntity
  8
0
  6
CONTINUOUS
 62
   253
100
AcDbLine
 10
-116.8079002116969
 20
248.7501780630911
 30
0.0
 11
-118.6537746886393
 21
248.134886570777
 31
0.0
  0
LINE
  5
11D
330
1F
100
AcDbEntity
  8
0
  6
CONTINUOUS
 62
   253
100
AcDbLine
 10
-183.5216333287412
 20
303.6537746886393
 30
0.0
 11
-183.4767540429804
 21
301.8079002116969
 31
0.0
  0
LINE
  5
11E
330
1F
100
AcDbEntity
  8
0
  6
CONTINUOUS
 62
   253
100
AcDbLine
 10
-183.4767540429801
 20
293.192099788303
 30
0.0
 11
-183.5216333287412
 21
291.3462253113607
 31
0.0
  0
LINE
  5
11F
330
1F
100
AcDbEntity
  8
0
  6
CONTINUOUS
 62
     7
100
AcDbLine
 10
-105.6624667851301
 20
247.201480234624
 30
0.0
 11
-105.658445353263
 21
246.4334503414061
 31
0.0
  0
ELLIPSE
  5
120
330
1F
100
AcDbEntity
  8
0
  6
CONTINUOUS
 62
   253
100
AcDbEllipse
 10
-216.2479233631051
 20
293.8245553203367
 30
0.0
 11
0.0
 21
-2.000000000000002
 31
0.0
210
0.0
220
0.0
230
-1.0
 40
0.1451077480127595
 41
1.249045772398259
 42
1.570796326794897
  0
ELLIPSE
  5
121
330
1F
100
AcDbEntity
  8
0
  6
CONTINUOUS
 62
   253
100
AcDbEllipse
 10
-118.3375469226224
 20
247.1962442707926
 30
0.0
 11
-0.9999862922474292
 21
0.005235963831419786
 31
0.0
210
0.0
220
0.0
230
-1.0
 40
0.9893787262936682
 41
0.0
 42
1.243865299954608
  0
LINE
  5
122
330
1F
100
AcDbEntity
  8
0
  6
CONTINUOUS
 62
     7
100
AcDbLine
 10
-116.1754446796632
 20
248.8728934631224
 30
0.0
 11
-108.8245553203368
 21
248.8728934631224
 31
0.0
  0
LINE
  5
123
330
1F
100
AcDbEntity
  8
0
  6
CONTINUOUS
 62
   253
100
AcDbLine
 10
-106.3462253113607
 20
248.134886570777
 30
0.0
 11
-106.3462779783061
 21
248.1549861225577
 31
0.0
  0
LINE
  5
124
330
1F
100
AcDbEntity
  8
0
  6
CONTINUOUS
 62
   253
100
AcDbLine
 10
-216.5381388591306
 20
293.8245553203367
 30
0.0
 11
-216.2479233631051
 21
293.8245553203367
 31
0.0
  0
LINE
  5
125
330
1F
100
AcDbEntity
  8
0
  6
CONTINUOUS
 62
   253
100
AcDbLine
 10
-183.7520766368949
 20
293.8245553203367
 30
0.0
 11
-183.4618611408694
 21
293.8245553203367
 31
0.0
  0
LINE
  5
126
330
1F
100
AcDbEntity
  8
0
  6
CONTINUOUS
 62
   253
100
AcDbLine
 10
-118.6537220216939
 20
248.1549861225577
 30
0.0
 11
-118.6537746886393
 21
248.134886570777
 31
0.0
  0
LINE
  5
127
330
1F
100
AcDbEntity
  8
0
  6
CONTINUOUS
 62
     7
100
AcDbLine
 10
-105.6625194520755
 20
247.2115387883386
 30
0.0
 11
-105.6624667851301
 21
247.201480234624
 31
0.0
  0
LINE
  5
128
330
1F
100
AcDbEntity
  8
0
  6
CONTINUOUS
 62
   253
100
AcDbLine
 10
-216.2479233631051
 20
293.8245553203367
 30
0.0
 11
-183.7520766368949
 21
293.8245553203367
 31
0.0
  0
LINE
  5
129
330
1F
100
AcDbEntity
  8
0
  6
CONTINUOUS
 62
   253
100
AcDbLine
 10
-108.8245553203368
 20
248.8517251805422
 30
0.0
 11
-108.8245553203368
 21
248.8728934631224
 31
0.0
  0
ARC
  5
12A
330
1F
100
AcDbEntity
  8
0
  6
CONTINUOUS
 62
     7
100
AcDbCircle
 10
108.8245553203368
 20
246.8728934631224
 30
0.0
 40
2.000000000000002
210
0.0
220
0.0
230
-1.0
100
AcDbArc
 50
90.0
 51
108.434948822922
  0
LINE
  5
12B
330
1F
100
AcDbEntity
  8
0
  6
CONTINUOUS
 62
     7
100
AcDbLine
 10
-119.3375332148699
 20
247.201480234624
 30
0.0
 11
-119.3374805479245
 21
247.2115387883386
 31
0.0
  0
LINE
  5
12C
330
1F
100
AcDbEntity
  8
0
  6
CONTINUOUS
 62
   253
100
AcDbLine
 10
-216.2479233631052
 20
301.1754446796632
 30
0.0
 11
-216.5381388591307
 21
301.1754446796632
 31
0.0
  0
ARC
  5
12D
330
1F
100
AcDbEntity
  8
0
  6
CONTINUOUS
 62
     7
100
AcDbCircle
 10
106.662505744323
 20
247.2063028245072
 30
0.0
 40
0.9999999999999925
210
0.0
220
0.0
230
-1.0
100
AcDbArc
 50
108.434948822922
 51
179.6999999999998
  0
ELLIPSE
  5
12E
330
1F
100
AcDbEntity
  8
0
  6
CONTINUOUS
 62
   253
100
AcDbEllipse
 10
-183.7520766368949
 20
293.8245553203367
 30
0.0
 11
0.0
 21
2.000000000000002
 31
0.0
210
0.0
220
0.0
230
-1.0
 40
0.1451077480127593
 41
1.570796326794897
 42
1.892546881191534
  0
LINE
  5
12F
330
1F
100
AcDbEntity
  8
0
  6
CONTINUOUS
 62
   253
100
AcDbLine
 10
-177.6286689115342
 20
301.1754446796632
 30
0.0
 11
-183.4618611408697
 21
301.1754446796632
 31
0.0
  0
ARC
  5
130
330
1F
100
AcDbEntity
  8
0
  6
CONTINUOUS
 62
     7
100
AcDbCircle
 10
116.1754446796632
 20
246.8728934631224
 30
0.0
 40
1.999999999999989
210
0.0
220
0.0
230
-1.0
100
AcDbArc
 50
71.565051177078
 51
90.00000000000001
  0
ELLIPSE
  5
131
330
1F
100
AcDbEntity
  8
0
  6
CONTINUOUS
 62
   253
100
AcDbEllipse
 10
-183.7520766368953
 20
301.1754446796632
 30
0.0
 11
0.0
 21
2.000000000000002
 31
0.0
210
0.0
220
0.0
230
-1.0
 40
0.1451077480127632
 41
1.24904577239825
 42
1.570796326794897
  0
ELLIPSE
  5
132
330
1F
100
AcDbEntity
  8
0
  6
CONTINUOUS
 62
   253
100
AcDbEllipse
 10
-116.1754446796632
 20
246.8728934631224
 30
0.0
 11
-0.6324555320336754
 21
1.897366596101016
 31
0.0
210
0.0
220
0.0
230
1.0
 40
0.0230594810870052
 41
0.0
 42
0.1381368085732787
  0
LINE
  5
133
330
1F
100
AcDbEntity
  8
0
  6
CONTINUOUS
 62
   253
100
AcDbLine
 10
-216.5381388591306
 20
293.8245553203367
 30
0.0
 11
-216.5381388591307
 21
301.1754446796632
 31
0.0
  0
LINE
  5
134
330
1F
100
AcDbEntity
  8
0
  6
CONTINUOUS
 62
   253
100
AcDbLine
 10
-183.7520766368953
 20
301.1754446796632
 30
0.0
 11
-216.2479233631052
 21
301.1754446796632
 31
0.0
  0
LINE
  5
135
330
1F
100
AcDbEntity
  8
0
  6
CONTINUOUS
 62
   253
100
AcDbLine
 10
-216.5381388591307
 20
301.1754446796632
 30
0.0
 11
-222.3713310884657
 21
301.1754446796632
 31
0.0
  0
ELLIPSE
  5
136
330
1F
100
AcDbEntity
  8
0
  6
CONTINUOUS
 62
   253
100
AcDbEllipse
 10
-106.6624530773776
 20
247.1962442707926
 30
0.0
 11
-0.9999862922474287
 21
-0.005235963831444267
 31
0.0
210
0.0
220
0.0
230
-1.0
 40
0.9893787262936682
 41
1.897727353635172
 42
3.141592653589793
  0
LINE
  5
137
330
1F
100
AcDbEntity
  8
0
  6
CONTINUOUS
 62
   253
100
AcDbLine
 10
-116.1754446796632
 20
248.8728934631224
 30
0.0
 11
-116.1754446796632
 21
248.8517251805422
 31
0.0
  0
LINE
  5
138
330
1F
100
AcDbEntity
  8
0
  6
CONTINUOUS
 62
   253
100
AcDbLine
 10
-183.4618611408697
 20
301.1754446796632
 30
0.0
 11
-183.7520766368953
 21
301.1754446796632
 31
0.0
  0
LINE
  5
139
330
1F
100
AcDbEntity
  8
0
  6
CONTINUOUS
 62
   253
100
AcDbLine
 10
-183.4618611408694
 20
293.8245553203367
 30
0.0
 11
-177.6286689115342
 21
293.8245553203367
 31
0.0
  0
ELLIPSE
  5
13A
330
1F
100
AcDbEntity
  8
0
  6
CONTINUOUS
 62
   253
100
AcDbEllipse
 10
-108.8245553203368
 20
246.8728934631224
 30
0.0
 11
-0.6324555320336768
 21
-1.897366596101039
 31
0.0
210
0.0
220
0.0
230
1.0
 40
0.0230594810870026
 41
3.003455845016722
 42
3.14159265358998
  0
LINE
  5
13B
330
1F
100
AcDbEntity
  8
0
  6
CONTINUOUS
 62
     7
100
AcDbLine
 10
-222.0
 20
290.5
 30
0.0
 11
-233.5853440414015
 21
290.5
 31
0.0
  0
LINE
  5
13C
330
1F
100
AcDbEntity
  8
0
  6
CONTINUOUS
 62
   253
100
AcDbLine
 10
-233.5551775389226
 20
290.5129276383524
 30
0.0
 11
-233.5853440414015
 21
290.5
 31
0.0
  0
LINE
  5
13D
330
1F
100
AcDbEntity
  8
0
  6
CONTINUOUS
 62
   253
100
AcDbLine
 10
-216.2030453578508
 20
304.3374805479245
 30
0.0
 11
-183.7969546421492
 21
304.3374805479245
 31
0.0
  0
ELLIPSE
  5
13E
330
1F
100
AcDbEntity
  8
0
  6
CONTINUOUS
 62
   253
100
AcDbEllipse
 10
-233.5285413713031
 20
290.5019736972677
 30
0.0
 11
2.169886936044375
 21
0.00137768231573982
 31
0.0
210
0.0
220
0.0
230
1.0
 40
0.0050563346285925
 41
1.445882908648172
 42
1.583068795992942
  0
LINE
  5
13F
330
1F
100
AcDbEntity
  8
0
  6
CONTINUOUS
 62
   253
100
AcDbLine
 10
-216.3407053743013
 20
304.3375332148698
 30
0.0
 11
-216.2030453578508
 21
304.3374805479245
 31
0.0
  0
LINE
  5
140
330
1F
100
AcDbEntity
  8
0
  6
CONTINUOUS
 62
   253
100
AcDbLine
 10
-183.7969546421492
 20
290.6625194520755
 30
0.0
 11
-216.2030453578508
 21
290.6625194520755
 31
0.0
  0
LINE
  5
141
330
1F
100
AcDbEntity
  8
0
  6
CONTINUOUS
 62
   253
100
AcDbLine
 10
-216.2030453578508
 20
290.6625194520755
 30
0.0
 11
-216.3407053743013
 21
290.6624667851301
 31
0.0
  0
ELLIPSE
  5
142
330
1F
100
AcDbEntity
  8
0
  6
CONTINUOUS
 62
   253
100
AcDbEllipse
 10
-183.6592946256987
 20
303.3375469226224
 30
0.0
 11
0.0007692738621382302
 21
-0.9999997041088559
 31
0.0
210
0.0
220
0.0
230
1.0
 40
0.1453587172449732
 41
1.892435157043489
 42
3.136300456998141
  0
ELLIPSE
  5
143
330
1F
100
AcDbEntity
  8
0
  6
CONTINUOUS
 62
   253
100
AcDbEllipse
 10
-216.3407053743013
 20
291.6624530773775
 30
0.0
 11
0.0007692738621347279
 21
-0.9999997041088003
 31
0.0
210
0.0
220
0.0
230
-1.0
 40
0.1453587172449727
 41
0.0052921965915969
 42
1.249157496546278
  0
ELLIPSE
  5
144
330
1F
100
AcDbEntity
  8
0
  6
CONTINUOUS
 62
   253
100
AcDbEllipse
 10
-183.6592946256987
 20
291.6624530773775
 30
0.0
 11
-0.0007692738621347277
 21
-0.9999997041088001
 31
0.0
210
0.0
220
0.0
230
1.0
 40
0.1453587172449728
 41
0.0052921965916247
 42
1.249157496546243
  0
ELLIPSE
  5
145
330
1F
100
AcDbEntity
  8
0
  6
CONTINUOUS
 62
   253
100
AcDbEllipse
 10
-216.3407053743013
 20
303.3375469226224
 30
0.0
 11
-0.0007692738621309574
 21
-0.9999997041088559
 31
0.0
210
0.0
220
0.0
230
-1.0
 40
0.1453587172449718
 41
1.892435157043489
 42
3.136300456998196
  0
LINE
  5
146
330
1F
100
AcDbEntity
  8
0
  6
CONTINUOUS
 62
   253
100
AcDbLine
 10
-221.5682724023374
 20
304.3415546467369
 30
0.0
 11
-216.3407053743013
 21
304.3375332148698
 31
0.0
  0
LINE
  5
147
330
1F
100
AcDbEntity
  8
0
  6
CONTINUOUS
 62
   253
100
AcDbLine
 10
-216.5232459570201
 20
301.8079002116969
 30
0.0
 11
-216.4783666712588
 21
303.6537746886393
 31
0.0
  0
LINE
  5
148
330
1F
100
AcDbEntity
  8
0
  6
CONTINUOUS
 62
   253
100
AcDbLine
 10
-183.6592946256987
 20
290.6624667851301
 30
0.0
 11
-183.7969546421492
 21
290.6625194520755
 31
0.0
  0
LINE
  5
149
330
1F
100
AcDbEntity
  8
0
  6
CONTINUOUS
 62
   253
100
AcDbLine
 10
-183.7969546421492
 20
304.3374805479245
 30
0.0
 11
-183.6592946256987
 21
304.3375332148698
 31
0.0
  0
LINE
  5
14A
330
1F
100
AcDbEntity
  8
0
  6
CONTINUOUS
 62
   253
100
AcDbLine
 10
-216.4783666712588
 20
291.3462253113607
 30
0.0
 11
-216.52324595702
 21
293.192099788303
 31
0.0
  0
LINE
  5
14B
330
1F
100
AcDbEntity
  8
0
  6
CONTINUOUS
 62
   253
100
AcDbLine
 10
-216.3407053743013
 20
290.6624667851301
 30
0.0
 11
-221.5682724023374
 21
290.658445353263
 31
0.0
  0
LINE
  5
14C
330
1F
100
AcDbEntity
  8
0
  6
CONTINUOUS
 62
   253
100
AcDbLine
 10
-222.3713310884657
 20
301.1754446796632
 30
0.0
 11
-223.2260710356094
 21
301.1754446796632
 31
0.0
  0
LINE
  5
14D
330
1F
100
AcDbEntity
  8
0
  6
CONTINUOUS
 62
   253
100
AcDbLine
 10
-223.2260710356094
 20
293.8245553203367
 30
0.0
 11
-222.3713310884658
 21
293.8245553203367
 31
0.0
  0
LINE
  5
14E
330
1F
100
AcDbEntity
  8
0
  6
CONTINUOUS
 62
   253
100
AcDbLine
 10
-176.7739289643906
 20
301.1754446796632
 30
0.0
 11
-177.6286689115342
 21
301.1754446796632
 31
0.0
  0
LINE
  5
14F
330
1F
100
AcDbEntity
  8
0
  6
CONTINUOUS
 62
   253
100
AcDbLine
 10
-178.4317275976625
 20
290.658445353263
 30
0.0
 11
-183.6592946256987
 21
290.6624667851301
 31
0.0
  0
LINE
  5
150
330
1F
100
AcDbEntity
  8
0
  6
CONTINUOUS
 62
   253
100
AcDbLine
 10
-177.6286689115342
 20
293.8245553203367
 30
0.0
 11
-176.7739289643906
 21
293.8245553203367
 31
0.0
  0
LINE
  5
151
330
1F
100
AcDbEntity
  8
0
  6
CONTINUOUS
 62
   253
100
AcDbLine
 10
-183.6592946256987
 20
304.3375332148698
 30
0.0
 11
-178.4317275976625
 21
304.3415546467369
 31
0.0
  0
LINE
  5
152
330
1F
100
AcDbEntity
  8
0
  6
CONTINUOUS
 62
   253
100
AcDbLine
 10
-223.6914247839796
 20
293.8245553203367
 30
0.0
 11
-223.2260710356094
 21
293.8245553203367
 31
0.0
  0
LINE
  5
153
330
1F
100
AcDbEntity
  8
0
  6
CONTINUOUS
 62
     7
100
AcDbLine
 10
-180.1572758456606
 20
290.6511888659462
 30
0.0
 11
-179.7477321505973
 21
290.6486368754867
 31
0.0
  0
LINE
  5
154
330
1F
100
AcDbEntity
  8
0
  6
CONTINUOUS
 62
     7
100
AcDbLine
 10
-179.5166821678952
 20
304.4899908618792
 30
0.0
 11
-179.7477321505973
 21
304.3513631245133
 31
0.0
  0
LINE
  5
155
330
1F
100
AcDbEntity
  8
0
  6
CONTINUOUS
 62
     7
100
AcDbLine
 10
-222.0
 20
304.5
 30
0.0
 11
-233.5853440414015
 21
304.5
 31
0.0
  0
LINE
  5
156
330
1F
100
AcDbEntity
  8
0
  6
CONTINUOUS
 62
   253
100
AcDbLine
 10
-225.9820573376365
 20
290.5130315292843
 30
0.0
 11
-233.2582046158222
 21
290.5130315292843
 31
0.0
  0
LINE
  5
157
330
1F
100
AcDbEntity
  8
0
  6
CONTINUOUS
 62
     7
100
AcDbLine
 10
-220.4833178321048
 20
304.4899908618792
 30
0.0
 11
-220.779265030713
 21
304.493663725342
 31
0.0
  0
LINE
  5
158
330
1F
100
AcDbEntity
  8
0
  6
CONTINUOUS
 62
     7
100
AcDbLine
 10
-224.6408190131304
 20
304.4840535831045
 30
0.0
 11
-221.9534848588314
 21
304.4699477885845
 31
0.0
  0
LINE
  5
159
330
1F
100
AcDbEntity
  8
0
  6
CONTINUOUS
 62
     7
100
AcDbLine
 10
-166.4146559585986
 20
304.5
 30
0.0
 11
-178.0
 21
304.5
 31
0.0
  0
LINE
  5
15A
330
1F
100
AcDbEntity
  8
0
  6
CONTINUOUS
 62
   253
100
AcDbLine
 10
-176.3085752160204
 20
293.8245553203367
 30
0.0
 11
-176.3085752160204
 21
301.1754446796632
 31
0.0
  0
LINE
  5
15B
330
1F
100
AcDbEntity
  8
0
  6
CONTINUOUS
 62
   253
100
AcDbLine
 10
-223.6914247839796
 20
301.1754446796632
 30
0.0
 11
-223.6914247839796
 21
293.8245553203367
 31
0.0
  0
LINE
  5
15C
330
1F
100
AcDbEntity
  8
0
  6
CONTINUOUS
 62
     7
100
AcDbLine
 10
-219.8427241543394
 20
290.6511888659462
 30
0.0
 11
-216.7116131096243
 21
290.6542039636597
 31
0.0
  0
LINE
  5
15D
330
1F
100
AcDbEntity
  8
0
  6
CONTINUOUS
 62
     7
100
AcDbLine
 10
-221.9534848588314
 20
290.5300522114154
 30
0.0
 11
-224.6408190131304
 21
290.5159464168955
 31
0.0
  0
LINE
  5
15E
330
1F
100
AcDbEntity
  8
0
  6
CONTINUOUS
 62
     7
100
AcDbLine
 10
-216.7116131096243
 20
290.6542039636597
 30
0.0
 11
-216.1689895108117
 21
290.6544630503681
 31
0.0
  0
ELLIPSE
  5
15F
330
1F
100
AcDbEntity
  8
0
  6
CONTINUOUS
 62
   253
100
AcDbEllipse
 10
-166.4714586286969
 20
304.4980263027322
 30
0.0
 11
-2.169886936044375
 21
-0.001377682315739785
 31
0.0
210
0.0
220
0.0
230
1.0
 40
0.0050563346285923
 41
1.445882908648172
 42
1.583068795992952
  0
LINE
  5
160
330
1F
100
AcDbEntity
  8
0
  6
CONTINUOUS
 62
     7
100
AcDbLine
 10
-183.2883868903757
 20
290.6542039636597
 30
0.0
 11
-180.1572758456606
 21
290.6511888659462
 31
0.0
  0
LINE
  5
161
330
1F
100
AcDbEntity
  8
0
  6
CONTINUOUS
 62
     7
100
AcDbLine
 10
-219.8427241543394
 20
304.3488111340537
 30
0.0
 11
-220.2522678494027
 21
304.3513631245133
 31
0.0
  0
LINE
  5
162
330
1F
100
AcDbEntity
  8
0
  6
CONTINUOUS
 62
     7
100
AcDbLine
 10
-183.2883868903757
 20
304.3457960363402
 30
0.0
 11
-183.8310104891883
 21
304.3455369496318
 31
0.0
  0
ELLIPSE
  5
163
330
1F
100
AcDbEntity
  8
0
  6
CONTINUOUS
 62
   253
100
AcDbEllipse
 10
-221.6909678114481
 20
293.8245553203367
 30
0.0
 11
2.000456972531572
 21
0.0
 31
0.0
210
0.0
220
0.0
230
1.0
 40
0.9997715659282618
 41
3.141592653589793
 42
3.463343207986433
  0
ELLIPSE
  5
164
330
1F
100
AcDbEntity
  8
0
  6
CONTINUOUS
 62
   253
100
AcDbEllipse
 10
-178.3090321885519
 20
301.1754446796632
 30
0.0
 11
2.000456972531572
 21
0.0
 31
0.0
210
0.0
220
0.0
230
1.0
 40
0.9997715659282618
 41
0.0
 42
0.3217505543966416
  0
LINE
  5
165
330
1F
100
AcDbEntity
  8
0
  6
CONTINUOUS
 62
     7
100
AcDbLine
 10
-223.1045625503702
 20
303.1539501058484
 30
0.0
 11
-223.2105714929558
 21
302.8377223398316
 31
0.0
  0
LINE
  5
166
330
1F
100
AcDbEntity
  8
0
  6
CONTINUOUS
 62
     7
100
AcDbLine
 10
-175.3591809868696
 20
290.5159464168955
 30
0.0
 11
-178.0465151411686
 21
290.5300522114154
 31
0.0
  0
LINE
  5
167
330
1F
100
AcDbEntity
  8
0
  6
CONTINUOUS
 62
   253
100
AcDbLine
 10
-221.9534848588314
 20
304.4699477885845
 30
0.0
 11
-221.5682724023374
 21
304.3415546467369
 31
0.0
  0
ELLIPSE
  5
168
330
1F
100
AcDbEntity
  8
0
  6
CONTINUOUS
 62
   253
100
AcDbEllipse
 10
-233.5285413713031
 20
304.4980263027322
 30
0.0
 11
2.169886936044375
 21
-0.001377682315739782
 31
0.0
210
0.0
220
0.0
230
1.0
 40
0.0050563346285923
 41
4.700116511186628
 42
4.837302398531412
  0
LINE
  5
169
330
1F
100
AcDbEntity
  8
0
  6
CONTINUOUS
 62
   253
100
AcDbLine
 10
-221.5682724023374
 20
290.658445353263
 30
0.0
 11
-221.9534848588314
 21
290.5300522114154
 31
0.0
  0
LINE
  5
16A
330
1F
100
AcDbEntity
  8
0
  6
CONTINUOUS
 62
     7
100
AcDbLine
 10
-183.8310104891883
 20
290.6544630503681
 30
0.0
 11
-216.1689895108117
 21
290.6544630503681
 31
0.0
  0
LINE
  5
16B
330
1F
100
AcDbEntity
  8
0
  6
CONTINUOUS
 62
   253
100
AcDbLine
 10
-178.0465151411686
 20
290.5300522114154
 30
0.0
 11
-178.4317275976625
 21
290.658445353263
 31
0.0
  0
LINE
  5
16C
330
1F
100
AcDbEntity
  8
0
  6
CONTINUOUS
 62
     7
100
AcDbLine
 10
-179.5166821678952
 20
290.5100091381208
 30
0.0
 11
-179.220734969287
 21
290.5063362746579
 31
0.0
  0
LINE
  5
16D
330
1F
100
AcDbEntity
  8
0
  6
CONTINUOUS
 62
     7
100
AcDbLine
 10
-179.220734969287
 20
304.493663725342
 30
0.0
 11
-179.5166821678952
 21
304.4899908618792
 31
0.0
  0
LINE
  5
16E
330
1F
100
AcDbEntity
  8
0
  6
CONTINUOUS
 62
     7
100
AcDbLine
 10
-222.0
 20
290.5
 30
0.0
 11
-220.779265030713
 21
290.5063362746579
 31
0.0
  0
LINE
  5
16F
330
1F
100
AcDbEntity
  8
0
  6
CONTINUOUS
 62
     7
100
AcDbLine
 10
-178.0465151411686
 20
304.4699477885845
 30
0.0
 11
-175.3591809868696
 21
304.4840535831045
 31
0.0
  0
LINE
  5
170
330
1F
100
AcDbEntity
  8
0
  6
CONTINUOUS
 62
     7
100
AcDbLine
 10
-179.220734969287
 20
290.5063362746579
 30
0.0
 11
-178.0
 21
290.5
 31
0.0
  0
LINE
  5
171
330
1F
100
AcDbEntity
  8
0
  6
CONTINUOUS
 62
     7
100
AcDbLine
 10
-166.4146559585986
 20
290.5
 30
0.0
 11
-178.0
 21
290.5
 31
0.0
  0
LINE
  5
172
330
1F
100
AcDbEntity
  8
0
  6
CONTINUOUS
 62
     7
100
AcDbLine
 10
-216.7116131096243
 20
304.3457960363402
 30
0.0
 11
-219.8427241543394
 21
304.3488111340537
 31
0.0
  0
LINE
  5
173
330
1F
100
AcDbEntity
  8
0
  6
CONTINUOUS
 62
   253
100
AcDbLine
 10
-166.7417953841778
 20
290.5130315292843
 30
0.0
 11
-174.0179426623636
 21
290.5130315292843
 31
0.0
  0
LINE
  5
174
330
1F
100
AcDbEntity
  8
0
  6
CONTINUOUS
 62
     7
100
AcDbLine
 10
-180.1572758456606
 20
304.3488111340537
 30
0.0
 11
-183.2883868903757
 21
304.3457960363402
 31
0.0
  0
LINE
  5
175
330
1F
100
AcDbEntity
  8
0
  6
CONTINUOUS
 62
     7
100
AcDbLine
 10
-179.7477321505973
 20
304.3513631245133
 30
0.0
 11
-180.1572758456606
 21
304.3488111340537
 31
0.0
  0
LINE
  5
176
330
1F
100
AcDbEntity
  8
0
  6
CONTINUOUS
 62
   253
100
AcDbLine
 10
-166.4448224610775
 20
304.4870723616476
 30
0.0
 11
-166.4146559585986
 21
304.5
 31
0.0
  0
ELLIPSE
  5
177
330
1F
100
AcDbEntity
  8
0
  6
CONTINUOUS
 62
   253
100
AcDbEllipse
 10
-173.9290920080442
 20
304.4759106386991
 30
0.0
 11
2.019040264300693
 21
-0.0004866297325698647
 31
0.0
210
0.0
220
0.0
230
-1.0
 40
0.0054714704284673
 41
3.925298668821258
 42
4.668367065145665
  0
LINE
  5
178
330
1F
100
AcDbEntity
  8
0
  6
CONTINUOUS
 62
   253
100
AcDbLine
 10
-178.4317275976625
 20
304.3415546467369
 30
0.0
 11
-178.0465151411686
 21
304.4699477885845
 31
0.0
  0
ELLIPSE
  5
179
330
1F
100
AcDbEntity
  8
0
  6
CONTINUOUS
 62
   253
100
AcDbEllipse
 10
-226.0709079919558
 20
304.4759106386991
 30
0.0
 11
-2.019040264300691
 21
-0.0004866297325698478
 31
0.0
210
0.0
220
0.0
230
-1.0
 40
0.0054714704284673
 41
1.614818242033921
 42
2.357886638358306
  0
LINE
  5
17A
330
1F
100
AcDbEntity
  8
0
  6
CONTINUOUS
 62
     7
100
AcDbLine
 10
-220.779265030713
 20
304.493663725342
 30
0.0
 11
-222.0
 21
304.5
 31
0.0
  0
LINE
  5
17B
330
1F
100
AcDbEntity
  8
0
  6
CONTINUOUS
 62
     7
100
AcDbLine
 10
-183.8310104891883
 20
304.3455369496318
 30
0.0
 11
-216.1689895108117
 21
304.3455369496318
 31
0.0
  0
LINE
  5
17C
330
1F
100
AcDbEntity
  8
0
  6
CONTINUOUS
 62
     7
100
AcDbLine
 10
-220.2522678494027
 20
304.3513631245133
 30
0.0
 11
-220.4833178321048
 21
304.4899908618792
 31
0.0
  0
LINE
  5
17D
330
1F
100
AcDbEntity
  8
0
  6
CONTINUOUS
 62
   253
100
AcDbLine
 10
-176.7739289643906
 20
293.8245553203367
 30
0.0
 11
-176.3085752160204
 21
293.8245553203367
 31
0.0
  0
LINE
  5
17E
330
1F
100
AcDbEntity
  8
0
  6
CONTINUOUS
 62
     7
100
AcDbLine
 10
-179.5166821678952
 20
290.5100091381208
 30
0.0
 11
-179.7477321505973
 21
290.6486368754867
 31
0.0
  0
LINE
  5
17F
330
1F
100
AcDbEntity
  8
0
  6
CONTINUOUS
 62
   253
100
AcDbLine
 10
-166.4146559585986
 20
290.5
 30
0.0
 11
-166.4448224610775
 21
290.5129276383524
 31
0.0
  0
LINE
  5
180
330
1F
100
AcDbEntity
  8
0
  6
CONTINUOUS
 62
     7
100
AcDbLine
 10
-183.8310104891883
 20
290.6544630503681
 30
0.0
 11
-183.2883868903757
 21
290.6542039636597
 31
0.0
  0
LINE
  5
181
330
1F
100
AcDbEntity
  8
0
  6
CONTINUOUS
 62
     7
100
AcDbLine
 10
-220.2522678494027
 20
290.6486368754867
 30
0.0
 11
-219.8427241543394
 21
290.6511888659462
 31
0.0
  0
ELLIPSE
  5
182
330
1F
100
AcDbEntity
  8
0
  6
CONTINUOUS
 62
   253
100
AcDbEllipse
 10
-173.9290920080442
 20
290.5240893613008
 30
0.0
 11
2.019040264300692
 21
0.0004866297325698736
 31
0.0
210
0.0
220
0.0
230
-1.0
 40
0.0054714704284674
 41
1.614818242033923
 42
2.357886638358315
  0
LINE
  5
183
330
1F
100
AcDbEntity
  8
0
  6
CONTINUOUS
 62
     7
100
AcDbLine
 10
-178.0
 20
304.5
 30
0.0
 11
-179.220734969287
 21
304.493663725342
 31
0.0
  0
LINE
  5
184
330
1F
100
AcDbEntity
  8
0
  6
CONTINUOUS
 62
   253
100
AcDbLine
 10
-233.2582046158222
 20
304.4869684707157
 30
0.0
 11
-225.9820573376365
 21
304.4869684707157
 31
0.0
  0
ELLIPSE
  5
185
330
1F
100
AcDbEntity
  8
0
  6
CONTINUOUS
 62
   253
100
AcDbEllipse
 10
-166.4714586286969
 20
290.5019736972677
 30
0.0
 11
-2.169886936044376
 21
0.001377682315739826
 31
0.0
210
0.0
220
0.0
230
1.0
 40
0.0050563346285924
 41
4.700116511186642
 42
4.837302398531414
  0
LINE
  5
186
330
1F
100
AcDbEntity
  8
0
  6
CONTINUOUS
 62
     7
100
AcDbLine
 10
-220.2522678494027
 20
290.6486368754867
 30
0.0
 11
-220.4833178321048
 21
290.5100091381208
 31
0.0
  0
LINE
  5
187
330
1F
100
AcDbEntity
  8
0
  6
CONTINUOUS
 62
   253
100
AcDbLine
 10
-233.5853440414015
 20
304.5
 30
0.0
 11
-233.5551775389226
 21
304.4870723616476
 31
0.0
  0
LINE
  5
188
330
1F
100
AcDbEntity
  8
0
  6
CONTINUOUS
 62
   253
100
AcDbLine
 10
-176.3085752160204
 20
301.1754446796632
 30
0.0
 11
-176.7739289643906
 21
301.1754446796632
 31
0.0
  0
ELLIPSE
  5
189
330
1F
100
AcDbEntity
  8
0
  6
CONTINUOUS
 62
   253
100
AcDbEllipse
 10
-178.3090321885519
 20
293.8245553203367
 30
0.0
 11
2.000456972531572
 21
0.0
 31
0.0
210
0.0
220
0.0
230
1.0
 40
0.9997715659282618
 41
5.961434752782945
 42
6.283185307179586
  0
ELLIPSE
  5
18A
330
1F
100
AcDbEntity
  8
0
  6
CONTINUOUS
 62
   253
100
AcDbEllipse
 10
-226.0709079919558
 20
290.5240893613008
 30
0.0
 11
-2.019040264300692
 21
0.0004866297325698575
 31
0.0
210
0.0
220
0.0
230
-1.0
 40
0.0054714704284674
 41
3.925298668821249
 42
4.668367065145667
  0
LINE
  5
18B
330
1F
100
AcDbEntity
  8
0
  6
CONTINUOUS
 62
     7
100
AcDbLine
 10
-220.779265030713
 20
290.5063362746579
 30
0.0
 11
-220.4833178321048
 21
290.5100091381208
 31
0.0
  0
LINE
  5
18C
330
1F
100
AcDbEntity
  8
0
  6
CONTINUOUS
 62
     7
100
AcDbLine
 10
-216.1689895108117
 20
304.3455369496318
 30
0.0
 11
-216.7116131096243
 21
304.3457960363402
 31
0.0
  0
LINE
  5
18D
330
1F
100
AcDbEntity
  8
0
  6
CONTINUOUS
 62
   253
100
AcDbLine
 10
-174.0179426623636
 20
304.4869684707157
 30
0.0
 11
-166.7417953841778
 21
304.4869684707157
 31
0.0
  0
ELLIPSE
  5
18E
330
1F
100
AcDbEntity
  8
0
  6
CONTINUOUS
 62
   253
100
AcDbEllipse
 10
-221.6909678114481
 20
301.1754446796632
 30
0.0
 11
2.000456972531572
 21
0.0
 31
0.0
210
0.0
220
0.0
230
1.0
 40
0.9997715659282618
 41
2.819842099193149
 42
3.141592653589793
  0
LINE
  5
18F
330
1F
100
AcDbEntity
  8
0
  6
CONTINUOUS
 62
   253
100
AcDbLine
 10
-223.2260710356094
 20
301.1754446796632
 30
0.0
 11
-223.6914247839796
 21
301.1754446796632
 31
0.0
  0
LINE
  5
190
330
1F
100
AcDbEntity
  8
0
  6
CONTINUOUS
 62
     7
100
AcDbLine
 10
-222.895998830882
 20
303.7841811555791
 30
0.0
 11
-223.1045625503702
 21
303.1539501058484
 31
0.0
  0
LINE
  5
191
330
1F
100
AcDbEntity
  8
0
  6
CONTINUOUS
 62
     7
100
AcDbLine
 10
-177.104001169118
 20
291.2158188444209
 30
0.0
 11
-176.8954374496298
 21
291.8460498941515
 31
0.0
  0
LINE
  5
192
330
1F
100
AcDbEntity
  8
0
  6
CONTINUOUS
 62
     7
100
AcDbLine
 10
-225.2
 20
292.5
 30
0.0
 11
-225.4071067811861
 21
292.5449101394375
 31
0.0
  0
ELLIPSE
  5
193
330
1F
100
AcDbEntity
  8
0
  6
CONTINUOUS
 62
     7
100
AcDbEllipse
 10
-221.9296330149535
 20
303.4620115634553
 30
0.0
 11
-0.9459998643292449
 21
0.3779869778280459
 31
0.0
210
0.0
220
0.0
230
-1.0
 40
0.9815608384066502
 41
6.223756948358836
 42
6.227368042534603
  0
LINE
  5
194
330
1F
100
AcDbEntity
  8
0
  6
CONTINUOUS
 62
   253
100
AcDbLine
 10
-176.4225624310096
 20
293.1581138830084
 30
0.0
 11
-176.4112320702425
 21
293.192099788303
 31
0.0
  0
LINE
  5
195
330
1F
100
AcDbEntity
  8
0
  6
CONTINUOUS
 62
     7
100
AcDbLine
 10
-225.4071067811861
 20
302.4550898605624
 30
0.0
 11
-225.2
 21
302.5
 31
0.0
  0
LINE
  5
196
330
1F
100
AcDbEntity
  8
0
  6
CONTINUOUS
 62
     7
100
AcDbLine
 10
-174.8
 20
302.5
 30
0.0
 11
-174.5928932188139
 21
302.4550898605624
 31
0.0
  0
LINE
  5
197
330
1F
100
AcDbEntity
  8
0
  6
CONTINUOUS
 62
   253
100
AcDbLine
 10
-223.5774375689904
 20
301.8418861169916
 30
0.0
 11
-223.5887679297575
 21
301.8079002116969
 31
0.0
  0
LINE
  5
198
330
1F
100
AcDbEntity
  8
0
  6
CONTINUOUS
 62
   253
100
AcDbLine
 10
-176.4112320702425
 20
301.8079002116969
 30
0.0
 11
-176.4225624310096
 21
301.8418861169916
 31
0.0
  0
LINE
  5
199
330
1F
100
AcDbEntity
  8
0
  6
CONTINUOUS
 62
     7
100
AcDbLine
 10
-175.9686926322928
 20
292.5
 30
0.0
 11
-174.8
 21
292.5
 31
0.0
  0
ELLIPSE
  5
19A
330
1F
100
AcDbEntity
  8
0
  6
CONTINUOUS
 62
     7
100
AcDbEllipse
 10
-175.948293026515
 20
302.0
 30
0.0
 11
0.0
 21
-0.5000000000000003
 31
0.0
210
0.0
220
0.0
230
1.0
 40
0.9998476951563913
 41
3.141592653589793
 42
5.034139534781314
  0
ELLIPSE
  5
19B
330
1F
100
AcDbEntity
  8
0
  6
CONTINUOUS
 62
   253
100
AcDbEllipse
 10
-175.948293026515
 20
293.0
 30
0.0
 11
0.0
 21
-0.5000000000000004
 31
0.0
210
0.0
220
0.0
230
1.0
 40
0.9998476951563913
 41
4.390638425988065
 42
6.283185307179586
  0
LINE
  5
19C
330
1F
100
AcDbEntity
  8
0
  6
CONTINUOUS
 62
   253
100
AcDbLine
 10
-176.4225624310096
 20
301.8418861169916
 30
0.0
 11
-176.4515345743014
 21
301.8418861169916
 31
0.0
  0
ELLIPSE
  5
19D
330
1F
100
AcDbEntity
  8
0
  6
CONTINUOUS
 62
     7
100
AcDbEllipse
 10
-178.0703669850465
 20
291.5379884365446
 30
0.0
 11
-0.9459998643292429
 21
0.3779869778280496
 31
0.0
210
0.0
220
0.0
230
-1.0
 40
0.9815608384066509
 41
3.082164294769039
 42
3.085775388944808
  0
LINE
  5
19E
330
1F
100
AcDbEntity
  8
0
  6
CONTINUOUS
 62
     7
100
AcDbLine
 10
-176.8954374496298
 20
303.1539501058484
 30
0.0
 11
-177.1040011691179
 21
303.7841811555791
 31
0.0
  0
ELLIPSE
  5
19F
330
1F
100
AcDbEntity
  8
0
  6
CONTINUOUS
 62
     7
100
AcDbEllipse
 10
-178.0703669850465
 20
303.4620115634553
 30
0.0
 11
-0.9459998643292443
 21
-0.3779869778280471
 31
0.0
210
0.0
220
0.0
230
-1.0
 40
0.9815608384066504
 41
3.197409918234772
 42
3.201021012410544
  0
LINE
  5
1A0
330
1F
100
AcDbEntity
  8
0
  6
CONTINUOUS
 62
     7
100
AcDbLine
 10
-224.0313073677072
 20
292.5
 30
0.0
 11
-225.2
 21
292.5
 31
0.0
  0
LINE
  5
1A1
330
1F
100
AcDbEntity
  8
0
  6
CONTINUOUS
 62
     7
100
AcDbLine
 10
-176.4515345743014
 20
293.1581138830084
 30
0.0
 11
-176.7894285070442
 21
292.1622776601683
 31
0.0
  0
LINE
  5
1A2
330
1F
100
AcDbEntity
  8
0
  6
CONTINUOUS
 62
     7
100
AcDbLine
 10
-176.8954374496298
 20
291.8460498941515
 30
0.0
 11
-176.7894285070442
 21
292.1622776601683
 31
0.0
  0
LINE
  5
1A3
330
1F
100
AcDbEntity
  8
0
  6
CONTINUOUS
 62
     7
100
AcDbLine
 10
-224.0313073677072
 20
302.5
 30
0.0
 11
-225.2
 21
302.5
 31
0.0
  0
LINE
  5
1A4
330
1F
100
AcDbEntity
  8
0
  6
CONTINUOUS
 62
     7
100
AcDbLine
 10
-174.5928932188139
 20
292.5449101394375
 30
0.0
 11
-174.8
 21
292.5
 31
0.0
  0
LINE
  5
1A5
330
1F
100
AcDbEntity
  8
0
  6
CONTINUOUS
 62
     7
100
AcDbLine
 10
-175.9686926322928
 20
302.5
 30
0.0
 11
-174.8
 21
302.5
 31
0.0
  0
LINE
  5
1A6
330
1F
100
AcDbEntity
  8
0
  6
CONTINUOUS
 62
   253
100
AcDbLine
 10
-223.5484654256986
 20
301.8418861169916
 30
0.0
 11
-223.5774375689904
 21
301.8418861169916
 31
0.0
  0
LINE
  5
1A7
330
1F
100
AcDbEntity
  8
0
  6
CONTINUOUS
 62
     7
100
AcDbLine
 10
-173.8857864376269
 20
293.0
 30
0.0
 11
-174.5928932188135
 21
292.5449101394365
 31
0.0
  0
LINE
  5
1A8
330
1F
100
AcDbEntity
  8
0
  6
CONTINUOUS
 62
     7
100
AcDbLine
 10
-176.7894285070442
 20
302.8377223398316
 30
0.0
 11
-176.4515345743014
 21
301.8418861169916
 31
0.0
  0
LINE
  5
1A9
330
1F
100
AcDbEntity
  8
0
  6
CONTINUOUS
 62
     7
100
AcDbLine
 10
-223.5484654256986
 20
301.8418861169916
 30
0.0
 11
-223.2105714929558
 21
302.8377223398316
 31
0.0
  0
LINE
  5
1AA
330
1F
100
AcDbEntity
  8
0
  6
CONTINUOUS
 62
     7
100
AcDbLine
 10
-176.7894285070442
 20
302.8377223398317
 30
0.0
 11
-176.8954374496298
 21
303.1539501058484
 31
0.0
  0
LINE
  5
1AB
330
1F
100
AcDbEntity
  8
0
  6
CONTINUOUS
 62
     7
100
AcDbLine
 10
-223.1045625503702
 20
291.8460498941515
 30
0.0
 11
-222.895998830882
 21
291.2158188444209
 31
0.0
  0
LINE
  5
1AC
330
1F
100
AcDbEntity
  8
0
  6
CONTINUOUS
 62
   253
100
AcDbLine
 10
-223.5774375689904
 20
293.1581138830084
 30
0.0
 11
-223.5484654256986
 21
293.1581138830084
 31
0.0
  0
LINE
  5
1AD
330
1F
100
AcDbEntity
  8
0
  6
CONTINUOUS
 62
     7
100
AcDbLine
 10
-223.2105714929558
 20
292.1622776601684
 30
0.0
 11
-223.1045625503702
 21
291.8460498941515
 31
0.0
  0
LINE
  5
1AE
330
1F
100
AcDbEntity
  8
0
  6
CONTINUOUS
 62
   253
100
AcDbLine
 10
-223.5887679297575
 20
293.192099788303
 30
0.0
 11
-223.5774375689904
 21
293.1581138830084
 31
0.0
  0
LINE
  5
1AF
330
1F
100
AcDbEntity
  8
0
  6
CONTINUOUS
 62
   253
100
AcDbLine
 10
-176.4515345743014
 20
293.1581138830084
 30
0.0
 11
-176.4225624310096
 21
293.1581138830084
 31
0.0
  0
LINE
  5
1B0
330
1F
100
AcDbEntity
  8
0
  6
CONTINUOUS
 62
     7
100
AcDbLine
 10
-223.2105714929558
 20
292.1622776601684
 30
0.0
 11
-223.5484654256986
 21
293.1581138830084
 31
0.0
  0
ELLIPSE
  5
1B1
330
1F
100
AcDbEntity
  8
0
  6
CONTINUOUS
 62
     7
100
AcDbEllipse
 10
-221.9296330149535
 20
291.5379884365446
 30
0.0
 11
-0.9459998643292434
 21
-0.377986977828048
 31
0.0
210
0.0
220
0.0
230
-1.0
 40
0.9815608384066504
 41
0.0558172646449838
 42
0.0594283588207519
  0
LINE
  5
1B2
330
1F
100
AcDbEntity
  8
0
  6
CONTINUOUS
 62
     7
100
AcDbLine
 10
-115.5507821889616
 20
219.8728934631224
 30
0.0
 11
-109.4492178110384
 21
219.8728934631224
 31
0.0
  0
LINE
  5
1B3
330
1F
100
AcDbEntity
  8
0
  6
CENTER
 62
     1
100
AcDbLine
 10
-112.5
 20
252.5
 30
0.0
 11
-112.5
 21
212.5
 31
0.0
  0
LINE
  5
1B5
330
1F
100
AcDbEntity
  8
0
  6
CONTINUOUS
 62
     7
100
AcDbLine
 10
-108.2071067811866
 20
216.1728934631223
 30
0.0
 11
-108.9142135623731
 21
216.1728934631223
 31
0.0
  0
LINE
  5
1B6
330
1F
100
AcDbEntity
  8
0
  6
CENTER
 62
     1
100
AcDbLine
 10
-160.0
 20
297.5040282008536
 30
0.0
 11
-240.0
 21
297.5040282008536
 31
0.0
  0
LINE
  5
1B7
330
1F
100
AcDbEntity
  8
0
  6
CENTER
 62
     1
100
AcDbLine
 10
-200.0
 20
252.5
 30
0.0
 11
-200.0
 21
212.5
 31
0.0
  0
LINE
  5
1B8
330
1F
100
AcDbEntity
  8
0
  6
CONTINUOUS
 62
     7
100
AcDbLine
 10
-116.7928932188134
 20
216.1728934631223
 30
0.0
 11
-119.2071576896689
 21
216.1728934631223
 31
0.0
  0
LINE
  5
1B9
330
1F
100
AcDbEntity
  8
0
  6
CONTINUOUS
 62
     7
100
AcDbLine
 10
-105.7928423103311
 20
216.1728934631223
 30
0.0
 11
-108.2071067811865
 21
216.1728934631223
 31
0.0
  0
LINE
  5
1BA
330
1F
100
AcDbEntity
  8
0
  6
CONTINUOUS
 62
     7
100
AcDbLine
 10
-108.9142135623731
 20
216.1728934631223
 30
0.0
 11
-116.0857864376269
 21
216.1728934631223
 31
0.0
  0
LINE
  5
1BB
330
1F
100
AcDbEntity
  8
0
  6
CENTER
 62
     1
100
AcDbLine
 10
-200.0000000000001
 20
287.5
 30
0.0
 11
-200.0000000000003
 21
307.5
 31
0.0
  0
LINE
  5
1BC
330
1F
100
AcDbEntity
  8
0
  6
CONTINUOUS
 62
     7
100
AcDbLine
 10
-116.0857864376269
 20
216.1728934631223
 30
0.0
 11
-116.7928932188134
 21
216.1728934631223
 31
0.0
  0
LINE
  5
1BD
330
1F
100
AcDbEntity
  8
0
  6
CONTINUOUS
 62
     7
100
AcDbLine
 10
-106.8460498941515
 20
219.8215767611728
 30
0.0
 11
-106.1967900555149
 21
219.6051568149607
 31
0.0
  0
LINE
  5
1BE
330
1F
100
AcDbEntity
  8
0
  6
CONTINUOUS
 62
     7
100
AcDbLine
 10
-107.3467945517747
 20
219.8728934631224
 30
0.0
 11
-107.1622776601684
 21
219.8728934631224
 31
0.0
  0
ARC
  5
1BF
330
1F
100
AcDbEntity
  8
0
  6
CONTINUOUS
 62
     7
100
AcDbCircle
 10
-106.5130178215317
 20
218.6564735169101
 30
0.0
 40
1.000000000000002
100
AcDbArc
 50
0.2999999999999604
 51
71.56505117707782
  0
LINE
  5
1C0
330
1F
100
AcDbEntity
  8
0
  6
CONTINUOUS
 62
     7
100
AcDbLine
 10
-109.4492178110384
 20
219.8728934631224
 30
0.0
 11
-109.004064880725
 21
219.8728934631224
 31
0.0
  0
LINE
  5
1C1
330
1F
100
AcDbEntity
  8
0
  6
CONTINUOUS
 62
     7
100
AcDbLine
 10
-109.004064880725
 20
219.8728934631224
 30
0.0
 11
-107.3467945517747
 21
219.8728934631224
 31
0.0
  0
LINE
  5
1C2
330
1F
100
AcDbEntity
  8
0
  6
CONTINUOUS
 62
     7
100
AcDbLine
 10
-115.995935119275
 20
219.8728934631224
 30
0.0
 11
-115.5507821889616
 21
219.8728934631224
 31
0.0
  0
LINE
  5
1C3
330
1F
100
AcDbEntity
  8
0
  6
CONTINUOUS
 62
     7
100
AcDbLine
 10
-119.5
 20
216.1728934631223
 30
0.0
 11
-119.4870723616476
 21
218.6418679556503
 31
0.0
  0
LINE
  5
1C4
330
1F
100
AcDbEntity
  8
0
  6
CONTINUOUS
 62
     7
100
AcDbLine
 10
-118.8032099444851
 20
219.6051568149607
 30
0.0
 11
-118.1539501058485
 21
219.8215767611728
 31
0.0
  0
ARC
  5
1C5
330
1F
100
AcDbEntity
  8
0
  6
CONTINUOUS
 62
     7
100
AcDbCircle
 10
-107.1622776601684
 20
218.8728934631224
 30
0.0
 40
0.9999999999999925
100
AcDbArc
 50
71.56505117707773
 51
90.0
  0
LINE
  5
1C6
330
1F
100
AcDbEntity
  8
0
  6
CONTINUOUS
 62
     7
100
AcDbLine
 10
-105.5130315292843
 20
218.6617094807416
 30
0.0
 11
-105.5159464168955
 21
219.2184069195465
 31
0.0
  0
LINE
  5
1C7
330
1F
100
AcDbEntity
  8
0
  6
CONTINUOUS
 62
     7
100
AcDbLine
 10
-119.4840535831045
 20
219.2184069195465
 30
0.0
 11
-119.4869684707157
 21
218.6617094807415
 31
0.0
  0
ARC
  5
1C8
330
1F
100
AcDbEntity
  8
0
  6
CONTINUOUS
 62
     7
100
AcDbCircle
 10
118.4869821784683
 20
218.6564735169101
 30
0.0
 40
1.000000000000002
210
0.0
220
0.0
230
-1.0
100
AcDbArc
 50
0.300000000000035
 51
71.56505117707803
  0
LINE
  5
1C9
330
1F
100
AcDbEntity
  8
0
  6
CONTINUOUS
 62
   253
100
AcDbLine
 10
-107.1636214668892
 20
219.8731174309091
 30
0.0
 11
-107.1622776601684
 21
219.8728934631224
 31
0.0
  0
ELLIPSE
  5
1CA
330
1F
100
AcDbEntity
  8
0
  6
CONTINUOUS
 62
   253
100
AcDbEllipse
 10
-117.8363785331108
 20
218.8733413986959
 30
0.0
 11
0.3162277660168351
 21
-0.9486832980505068
 31
0.0
210
0.0
220
0.0
230
1.0
 40
0.9977670707721059
 41
2.819170871602046
 42
3.141592653589785
  0
ELLIPSE
  5
1CB
330
1F
100
AcDbEntity
  8
0
  6
CONTINUOUS
 62
   253
100
AcDbEllipse
 10
-112.1539501058485
 20
221.5437138563723
 30
0.0
 11
5.990818577133234
 21
1.490256035770263
 31
0.0
210
0.0
220
0.0
230
-1.0
 40
0.2226478581442103
 41
3.175756380640195
 42
3.196921264176741
  0
LINE
  5
1CC
330
1F
100
AcDbEntity
  8
0
  6
CONTINUOUS
 62
   253
100
AcDbLine
 10
-117.8377223398316
 20
219.8728934631224
 30
0.0
 11
-117.8363785331108
 21
219.8731174309091
 31
0.0
  0
ELLIPSE
  5
1CD
330
1F
100
AcDbEntity
  8
0
  6
CONTINUOUS
 62
     7
100
AcDbEllipse
 10
-107.1622776601684
 20
220.9229846819745
 30
0.0
 11
-0.3875023567707212
 21
-1.458362170721006
 31
0.0
210
0.0
220
0.0
230
-1.0
 40
0.6321260460746895
 41
2.743671935117069
 42
3.065422489513713
  0
LINE
  5
1CE
330
1F
100
AcDbEntity
  8
0
  6
CONTINUOUS
 62
     7
100
AcDbLine
 10
-107.5
 20
221.5415860954151
 30
0.0
 11
-107.5
 21
220.3728934631224
 31
0.0
  0
ARC
  5
1CF
330
1F
100
AcDbEntity
  8
0
  6
CONTINUOUS
 62
     7
100
AcDbCircle
 10
117.8377223398316
 20
218.8728934631224
 30
0.0
 40
0.9999999999999925
210
0.0
220
0.0
230
-1.0
100
AcDbArc
 50
71.56505117707798
 51
90.0
  0
LINE
  5
1D0
330
1F
100
AcDbEntity
  8
0
  6
CONTINUOUS
 62
     7
100
AcDbLine
 10
-107.1622776601684
 20
222.3623219701666
 30
0.0
 11
-108.1581138830084
 21
222.0244280374237
 31
0.0
  0
LINE
  5
1D1
330
1F
100
AcDbEntity
  8
0
  6
CONTINUOUS
 62
     7
100
AcDbLine
 10
-105.5
 20
216.1728934631223
 30
0.0
 11
-105.7928423103311
 21
216.1728934631223
 31
0.0
  0
LINE
  5
1D2
330
1F
100
AcDbEntity
  8
0
  6
CONTINUOUS
 62
     7
100
AcDbLine
 10
-105.5129276383525
 20
218.6418679556503
 30
0.0
 11
-105.5
 21
216.1728934631223
 31
0.0
  0
LINE
  5
1D3
330
1F
100
AcDbEntity
  8
0
  6
CONTINUOUS
 62
     7
100
AcDbLine
 10
-119.4870723616476
 20
218.6418679556503
 30
0.0
 11
-119.4869684707157
 21
218.6617094807415
 31
0.0
  0
LINE
  5
1D4
330
1F
100
AcDbEntity
  8
0
  6
CONTINUOUS
 62
     7
100
AcDbLine
 10
-117.6532054482253
 20
219.8728934631224
 30
0.0
 11
-115.995935119275
 21
219.8728934631224
 31
0.0
  0
LINE
  5
1D5
330
1F
100
AcDbEntity
  8
0
  6
CONTINUOUS
 62
     7
100
AcDbLine
 10
-119.2071576896689
 20
216.1728934631223
 30
0.0
 11
-119.5
 21
216.1728934631223
 31
0.0
  0
LINE
  5
1D6
330
1F
100
AcDbEntity
  8
0
  6
CONTINUOUS
 62
     7
100
AcDbLine
 10
-105.5130315292843
 20
218.6617094807415
 30
0.0
 11
-105.5129276383525
 21
218.6418679556503
 31
0.0
  0
LINE
  5
1D7
330
1F
100
AcDbEntity
  8
0
  6
CONTINUOUS
 62
     7
100
AcDbLine
 10
-117.8377223398316
 20
219.8728934631224
 30
0.0
 11
-117.6532054482253
 21
219.8728934631224
 31
0.0
  0
ELLIPSE
  5
1D8
330
1F
100
AcDbEntity
  8
0
  6
CONTINUOUS
 62
   253
100
AcDbEllipse
 10
-107.1636214668891
 20
218.8733413986959
 30
0.0
 11
0.3162277660167706
 21
0.9486832980505333
 31
0.0
210
0.0
220
0.0
230
1.0
 40
0.9977670707721048
 41
0.0
 42
0.3224217819876862
  0
LINE
  5
1D9
330
1F
100
AcDbEntity
  8
0
  6
CONTINUOUS
 62
     7
100
AcDbLine
 10
-117.4550898605624
 20
220.1657866819363
 30
0.0
 11
-117.5
 21
220.3728934631224
 31
0.0
  0
LINE
  5
1DA
330
1F
100
AcDbEntity
  8
0
  6
CONTINUOUS
 62
     7
100
AcDbLine
 10
-116.8418861169916
 20
222.0244280374237
 30
0.0
 11
-117.8377223398316
 21
222.3623219701666
 31
0.0
  0
ELLIPSE
  5
1DB
330
1F
100
AcDbEntity
  8
0
  6
CONTINUOUS
 62
   253
100
AcDbEllipse
 10
-108.8245553203368
 20
246.1405807166927
 30
0.0
 11
2.0
 21
0.0
 31
0.0
210
0.0
220
0.0
230
-1.0
 40
0.9278241921732606
 41
4.712388980384688
 42
5.034139534781328
  0
LINE
  5
1DC
330
1F
100
AcDbEntity
  8
0
  6
CONTINUOUS
 62
     7
100
AcDbLine
 10
-119.4699477885846
 20
221.9123906091514
 30
0.0
 11
-119.341554646737
 21
246.4334503414061
 31
0.0
  0
LINE
  5
1DD
330
1F
100
AcDbEntity
  8
0
  6
CONTINUOUS
 62
     7
100
AcDbLine
 10
-107.5
 20
220.3728934631224
 30
0.0
 11
-107.5449101394376
 21
220.1657866819363
 31
0.0
  0
LINE
  5
1DE
330
1F
100
AcDbEntity
  8
0
  6
CONTINUOUS
 62
   253
100
AcDbLine
 10
-116.1754446796632
 20
219.8728934631224
 30
0.0
 11
-116.1754446796632
 21
220.3641672599037
 31
0.0
  0
ELLIPSE
  5
1DF
330
1F
100
AcDbEntity
  8
0
  6
CONTINUOUS
 62
   253
100
AcDbEllipse
 10
-118.3415683544896
 20
246.4282143775747
 30
0.0
 11
-0.999986292247429
 21
0.005235963831426728
 31
0.0
210
0.0
220
0.0
230
-1.0
 40
0.9893787262936675
 41
0.0
 42
1.243865299954621
  0
LINE
  5
1E0
330
1F
100
AcDbEntity
  8
0
  6
CONTINUOUS
 62
   253
100
AcDbLine
 10
-116.1754446796632
 20
247.9962291010392
 30
0.0
 11
-108.8245553203368
 21
247.9962291010392
 31
0.0
  0
LINE
  5
1E1
330
1F
100
AcDbEntity
  8
0
  6
CONTINUOUS
 62
     7
100
AcDbLine
 10
-118.7841811555791
 20
222.3072280903812
 30
0.0
 11
-118.1539501058485
 21
222.3957581368789
 31
0.0
  0
LWPOLYLINE
  5
1E2
330
1F
100
AcDbEntity
  8
0
  6
CONTINUOUS
 62
     7
100
AcDbPolyline
 90
        5
 70
     0
 43
0.0
 10
-105.5300522114154
 20
221.9123906091514
 10
-105.5660279308828
 20
222.0229531025894
 10
-105.6483953372616
 20
222.1091448722232
 10
-105.7458216328924
 20
222.1711244632558
 42
0.0836832236925199
 10
-106.2123916552328
 20
222.3067536651066
  0
LINE
  5
1E3
330
1F
100
AcDbEntity
  8
0
  6
CONTINUOUS
 62
     7
100
AcDbLine
 10
-117.5
 20
221.5415860954151
 30
0.0
 11
-117.5
 21
220.3728934631224
 31
0.0
  0
LINE
  5
1E4
330
1F
100
AcDbEntity
  8
0
  6
CONTINUOUS
 62
   253
100
AcDbLine
 10
-116.1754446796632
 20
247.9962291010392
 30
0.0
 11
-116.1754446796632
 21
247.0242656487666
 31
0.0
  0
ELLIPSE
  5
1E5
330
1F
100
AcDbEntity
  8
0
  6
CONTINUOUS
 62
   253
100
AcDbEllipse
 10
-116.1754446796632
 20
246.1405807166927
 30
0.0
 11
-2.0
 21
0.0
 31
0.0
210
0.0
220
0.0
230
-1.0
 40
0.9278241921732606
 41
1.249045772398256
 42
1.570796326794897
  0
LINE
  5
1E6
330
1F
100
AcDbEntity
  8
0
  6
CONTINUOUS
 62
   253
100
AcDbLine
 10
-116.8418861169916
 20
222.0244280374237
 30
0.0
 11
-116.8418861169916
 21
220.3646150598734
 31
0.0
  0
ELLIPSE
  5
1E7
330
1F
100
AcDbEntity
  8
0
  6
CONTINUOUS
 62
   253
100
AcDbEllipse
 10
-117.0
 20
220.3728934631224
 30
0.0
 11
0.0
 21
-0.5000000000000004
 31
0.0
210
0.0
220
0.0
230
-1.0
 40
0.3162711183475447
 41
4.728946543422825
 42
6.283185307179586
  0
LINE
  5
1E8
330
1F
100
AcDbEntity
  8
0
  6
CONTINUOUS
 62
     7
100
AcDbLine
 10
-119.4840535831045
 20
219.2184069195465
 30
0.0
 11
-119.4699477885846
 21
221.9123906091514
 31
0.0
  0
LINE
  5
1E9
330
1F
100
AcDbEntity
  8
0
  6
CONTINUOUS
 62
   253
100
AcDbLine
 10
-108.1581138830084
 20
220.3646150598734
 30
0.0
 11
-108.1581138830084
 21
222.0244280374237
 31
0.0
  0
ELLIPSE
  5
1EA
330
1F
100
AcDbEntity
  8
0
  6
CONTINUOUS
 62
     7
100
AcDbEllipse
 10
-118.4620115634554
 20
223.4254661084982
 30
0.0
 11
0.7787438898775922
 21
1.017132941573778
 31
0.0
210
0.0
220
0.0
230
-1.0
 40
0.6207513787465554
 41
2.579230910154523
 42
2.582842004330293
  0
LINE
  5
1EB
330
1F
100
AcDbEntity
  8
0
  6
CONTINUOUS
 62
   253
100
AcDbLine
 10
-116.1754446796632
 20
247.0242656487666
 30
0.0
 11
-116.1754446796632
 21
220.3641672599037
 31
0.0
  0
LINE
  5
1EC
330
1F
100
AcDbEntity
  8
0
  6
CONTINUOUS
 62
   253
100
AcDbLine
 10
-108.1920997883031
 20
247.9010033459767
 30
0.0
 11
-106.3422038794936
 21
247.3668566775591
 31
0.0
  0
LINE
  5
1ED
330
1F
100
AcDbEntity
  8
0
  6
CONTINUOUS
 62
   253
100
AcDbLine
 10
-118.6577961205064
 20
247.3668566775591
 30
0.0
 11
-116.8079002116969
 21
247.9010033459767
 31
0.0
  0
ELLIPSE
  5
1EE
330
1F
100
AcDbEntity
  8
0
  6
CONTINUOUS
 62
   253
100
AcDbEllipse
 10
-106.6584316455104
 20
246.4282143775747
 30
0.0
 11
-0.9999862922474289
 21
-0.005235963831425092
 31
0.0
210
0.0
220
0.0
230
-1.0
 40
0.9893787262936689
 41
1.897727353635185
 42
3.141592653589793
  0
LINE
  5
1EF
330
1F
100
AcDbEntity
  8
0
  6
CONTINUOUS
 62
   253
100
AcDbLine
 10
-108.8245553203368
 20
247.9962291010392
 30
0.0
 11
-108.8245553203368
 21
248.8517251805422
 31
0.0
  0
ELLIPSE
  5
1F0
330
1F
100
AcDbEntity
  8
0
  6
CONTINUOUS
 62
   253
100
AcDbEllipse
 10
-108.8245553203368
 20
246.8728934631224
 30
0.0
 11
2.000000000000002
 21
0.0
 31
0.0
210
0.0
220
0.0
230
1.0
 40
0.9894158587099077
 41
1.249045772398273
 42
1.570796326794911
  0
LWPOLYLINE
  5
1F1
330
1F
100
AcDbEntity
  8
0
  6
CONTINUOUS
 62
     7
100
AcDbPolyline
 90
        5
 70
     0
 43
0.0
 10
119.4699477885846
 20
221.9123906091514
 10
119.4339720691172
 20
222.0229531025894
 10
119.3516046627384
 20
222.1091448722232
 10
119.2541783671076
 20
222.1711244632558
 42
0.0836832236925314
 10
118.7876083447672
 20
222.3067536651066
210
0.0
220
0.0
230
-1.0
  0
ELLIPSE
  5
1F2
330
1F
100
AcDbEntity
  8
0
  6
CONTINUOUS
 62
     7
100
AcDbEllipse
 10
-106.5379884365446
 20
223.4254661084982
 30
0.0
 11
-0.7787438898775922
 21
1.017132941573778
 31
0.0
210
0.0
220
0.0
230
-1.0
 40
0.6207513787465554
 41
3.700343302849289
 42
3.703954397025062
  0
ELLIPSE
  5
1F3
330
1F
100
AcDbEntity
  8
0
  6
CONTINUOUS
 62
   253
100
AcDbEllipse
 10
-108.0
 20
220.3728934631224
 30
0.0
 11
0.0
 21
0.5000000000000004
 31
0.0
210
0.0
220
0.0
230
-1.0
 40
0.316271118347547
 41
3.141592653589793
 42
4.695831417346554
  0
LINE
  5
1F4
330
1F
100
AcDbEntity
  8
0
  6
CONTINUOUS
 62
   253
100
AcDbLine
 10
-108.8245553203368
 20
247.0242656487666
 30
0.0
 11
-108.8245553203368
 21
247.9962291010392
 31
0.0
  0
LINE
  5
1F5
330
1F
100
AcDbEntity
  8
0
  6
CONTINUOUS
 62
     7
100
AcDbLine
 10
-105.5300522114154
 20
221.9123906091514
 30
0.0
 11
-105.5159464168955
 21
219.2184069195465
 31
0.0
  0
ELLIPSE
  5
1F6
330
1F
100
AcDbEntity
  8
0
  6
CONTINUOUS
 62
     7
100
AcDbEllipse
 10
-117.8377223398316
 20
220.9229846819745
 30
0.0
 11
0.3875023567707214
 21
-1.458362170721006
 31
0.0
210
0.0
220
0.0
230
-1.0
 40
0.6321260460746897
 41
3.217762817665872
 42
3.539513372062517
  0
LINE
  5
1F7
330
1F
100
AcDbEntity
  8
0
  6
CONTINUOUS
 62
     7
100
AcDbLine
 10
-105.658445353263
 20
246.4334503414061
 30
0.0
 11
-105.5300522114154
 21
221.9123906091514
 31
0.0
  0
LINE
  5
1F8
330
1F
100
AcDbEntity
  8
0
  6
CONTINUOUS
 62
     7
100
AcDbLine
 10
-106.8460498941515
 20
222.3957581368789
 30
0.0
 11
-106.2158188444209
 21
222.3072280903812
 31
0.0
  0
LINE
  5
1F9
330
1F
100
AcDbEntity
  8
0
  6
CONTINUOUS
 62
   253
100
AcDbLine
 10
-108.8245553203368
 20
220.3641672599037
 30
0.0
 11
-108.8245553203368
 21
247.0242656487666
 31
0.0
  0
LINE
  5
1FA
330
1F
100
AcDbEntity
  8
0
  6
CONTINUOUS
 62
   253
100
AcDbLine
 10
-108.8245553203368
 20
220.3641672599037
 30
0.0
 11
-108.8245553203368
 21
219.8728934631224
 31
0.0
  0
LINE
  5
1FB
330
1F
100
AcDbEntity
  8
0
  6
CONTINUOUS
 62
   253
100
AcDbLine
 10
-108.8245553203368
 20
248.8517251805422
 30
0.0
 11
-116.1754446796632
 21
248.8517251805422
 31
0.0
  0
LINE
  5
1FC
330
1F
100
AcDbEntity
  8
0
  6
CONTINUOUS
 62
   253
100
AcDbLine
 10
-106.3462253113607
 20
248.134886570777
 30
0.0
 11
-108.1920997883031
 21
248.7501780630912
 31
0.0
  0
ELLIPSE
  5
1FD
330
1F
100
AcDbEntity
  8
0
  6
CONTINUOUS
 62
   253
100
AcDbEllipse
 10
-116.1754446796632
 20
246.8728934631224
 30
0.0
 11
2.000000000000001
 21
0.0
 31
0.0
210
0.0
220
0.0
230
1.0
 40
0.9894158587099089
 41
1.570796326794897
 42
1.892546881191534
  0
LINE
  5
1FE
330
1F
100
AcDbEntity
  8
0
  6
CONTINUOUS
 62
   253
100
AcDbLine
 10
-116.1754446796632
 20
248.8517251805422
 30
0.0
 11
-116.1754446796632
 21
247.9962291010392
 31
0.0
  0
LWPOLYLINE
  5
1FF
330
1F
100
AcDbEntity
  8
0
  6
CONTINUOUS
 62
     7
100
AcDbPolyline
 90
       18
 70
     0
 43
0.0
 10
117.0
 20
219.8728934631224
 10
117.0036514756023
 20
219.8729067965742
 10
117.0482230293476
 20
219.8752243469698
 10
117.0925680522257
 20
219.8815370184638
 10
117.1333070105157
 20
219.8909915229738
 10
117.173506481209
 20
219.9039628187038
 10
117.2129170476168
 20
219.9204928322274
 10
117.242594935806
 20
219.9356884276391
 10
117.2716095663922
 20
219.9530962310613
 10
117.2998027561292
 20
219.9727442021383
 10
117.3270163217709
 20
219.9946603005144
 10
117.3515569651384
 20
220.0173544837916
 10
117.3749902877381
 20
220.042162877796
 10
117.3971244139857
 20
220.0690971500826
 10
117.413162456094
 20
220.0912974038264
 10
117.428252204066
 20
220.1148245876367
 10
117.4422694186423
 20
220.1396604356333
 10
117.4550898605635
 20
220.1657866819358
210
0.0
220
0.0
230
-1.0
  0
LWPOLYLINE
  5
200
330
1F
100
AcDbEntity
  8
0
  6
CONTINUOUS
 62
     7
100
AcDbPolyline
 90
       29
 70
     0
 43
0.0
 10
-222.8948576636788
 20
291.2123916552328
 10
-222.8798027035949
 20
291.1705470331576
 10
-222.8629156275061
 20
291.1294134306106
 10
-222.8442298354838
 20
291.0890722036099
 10
-222.8237822851868
 20
291.0496031409754
 10
-222.8016134187638
 20
291.0110843065183
 10
-222.7777670828657
 20
290.9735918846429
 10
-222.7522904419228
 20
290.9372000296651
 10
-222.7252338848616
 20
290.9019807191467
 10
-222.6966509254425
 20
290.8680036115348
 10
-222.6665980964179
 20
290.8353359083877
 10
-222.6351348377191
 20
290.8040422214606
 10
-222.6023233788932
 20
290.7741844449131
 10
-222.5682286160221
 20
290.7458216328924
 10
-222.5329179833685
 20
290.7190098827329
 10
-222.4964613200005
 20
290.6938022240041
 10
-222.4589307316613
 20
290.6702485136265
 10
-222.4204004481543
 20
290.6483953372615
 10
-222.3809466765281
 20
290.6282859171732
 10
-222.3406474503506
 20
290.60996002674
 10
-222.2995824753706
 20
290.5934539117899
 10
-222.2578329718715
 20
290.5788002189112
 10
-222.21548151403
 20
290.5660279308827
 10
-222.1726118665974
 20
290.5551623093505
 10
-222.1293088192251
 20
290.5462248448634
 10
-222.0856580187639
 20
290.5392332143689
 10
-222.0417457998671
 20
290.5342012462501
 10
-221.9976590142343
 20
290.5311388929758
 10
-221.9534848588314
 20
290.5300522114154
  0
LWPOLYLINE
  5
201
330
1F
100
AcDbEntity
  8
0
  6
CONTINUOUS
 62
     7
100
AcDbPolyline
 90
       41
 70
     0
 43
0.0
 10
117.5
 20
221.5415860954151
 10
117.4994404585031
 20
221.5656578829874
 10
117.4977630863593
 20
221.5896757939035
 10
117.4949716378058
 20
221.6135860720921
 10
117.4910723605679
 20
221.6373352023818
 10
117.4860739818752
 20
221.6608700302769
 10
117.4799876889288
 20
221.6841378809262
 10
117.4728271038628
 20
221.7070866770178
 10
117.4646082532549
 20
221.7296650553367
 10
117.4553495322572
 20
221.7518224817245
 10
117.445071663424
 20
221.7735093641832
 10
117.4337976503317
 20
221.79467716387
 10
117.421552726093
 20
221.8152785037358
 10
117.4083642968809
 20
221.8352672745621
 10
117.3942618805891
 20
221.8545987381623
 10
117.379277040766
 20
221.8732296275117
 10
117.3634433159704
 20
221.8911182435877
 10
117.3467961447067
 20
221.9082245486981
 10
117.3293727861074
 20
221.9245102560928
 10
117.311212236541
 20
221.9399389156552
 10
117.2923551423319
 20
221.9544759954844
 10
117.272843708787
 20
221.9680889591827
 10
117.2527216057332
 20
221.9807473386778
 10
117.2320338697772
 20
221.9924228024153
 10
117.2108268035059
 20
222.0030892187692
 10
117.1891478718538
 20
222.0127227145294
 10
117.1670455958683
 20
222.0213017283333
 10
117.1445694441118
 20
222.0288070589239
 10
117.1217697219426
 20
222.0352219081257
 10
117.0986974589235
 20
222.0405319184413
 10
117.0754042946088
 20
222.0447252051862
 10
117.0519423629666
 20
222.0477923830887
 10
117.0283641756943
 20
222.0497265872956
 10
117.0047225046888
 20
222.0505234887366
 10
116.9810702639338
 20
222.0501813038143
 10
116.9574603910702
 20
222.0487007983951
 10
116.9339457289125
 20
222.046085286096
 10
116.9105789071777
 20
222.0423406208677
 10
116.8874122246913
 20
222.0374751838924
 10
116.8644975323343
 20
222.0314998648258
 10
116.8418861169916
 20
222.0244280374237
210
0.0
220
0.0
230
-1.0
  0
LWPOLYLINE
  5
202
330
1F
100
AcDbEntity
  8
0
  6
CONTINUOUS
 62
     7
100
AcDbPolyline
 90
       41
 70
     0
 43
0.0
 10
223.5484654256986
 20
293.1581138830084
 10
223.5413935982965
 20
293.1355024676657
 10
223.5354182792299
 20
293.1125877753086
 10
223.5305528422547
 20
293.0894210928223
 10
223.5268081770263
 20
293.0660542710875
 10
223.5241926647272
 20
293.0425396089297
 10
223.522712159308
 20
293.0189297360662
 10
223.5223699743857
 20
292.9952774953113
 10
223.5231668758268
 20
292.9716358243056
 10
223.5251010800336
 20
292.9480576370333
 10
223.5281682579361
 20
292.9245957053911
 10
223.532361544681
 20
292.9013025410764
 10
223.5376715549966
 20
292.8782302780573
 10
223.5440864041984
 20
292.8554305558882
 10
223.551591734789
 20
292.8329544041317
 10
223.5601707485929
 20
292.8108521281462
 10
223.5698042443531
 20
292.7891731964941
 10
223.5804706607071
 20
292.7679661302228
 10
223.5921461244445
 20
292.7472783942668
 10
223.6048045039396
 20
292.727156291213
 10
223.6184174676379
 20
292.7076448576681
 10
223.6329545474671
 20
292.688787763459
 10
223.6483832070296
 20
292.6706272138926
 10
223.6646689144242
 20
292.6532038552933
 10
223.6817752195346
 20
292.6365566840295
 10
223.6996638356106
 20
292.6207229592339
 10
223.7182947249601
 20
292.6057381194109
 10
223.7376261885602
 20
292.591635703119
 10
223.7576149593866
 20
292.5784472739069
 10
223.7782162992523
 20
292.5662023496683
 10
223.7993840989392
 20
292.554928336576
 10
223.8210709813979
 20
292.5446504677428
 10
223.8432284077857
 20
292.535391746745
 10
223.8658067861046
 20
292.5271728961372
 10
223.8887555821961
 20
292.5200123110711
 10
223.9120234328454
 20
292.5139260181248
 10
223.9355582607406
 20
292.5089276394321
 10
223.9593073910303
 20
292.5050283621941
 10
223.9832176692188
 20
292.5022369136406
 10
224.007235580135
 20
292.5005595414968
 10
224.0313073677072
 20
292.5
210
0.0
220
0.0
230
-1.0
  0
LWPOLYLINE
  5
203
330
1F
100
AcDbEntity
  8
0
  6
CONTINUOUS
 62
     7
100
AcDbPolyline
 90
       41
 70
     0
 43
0.0
 10
176.4515345743014
 20
301.8418861169916
 10
176.4586064017035
 20
301.8644975323343
 10
176.4645817207701
 20
301.8874122246913
 10
176.4694471577453
 20
301.9105789071776
 10
176.4731918229737
 20
301.9339457289125
 10
176.4758073352728
 20
301.9574603910702
 10
176.4772878406919
 20
301.9810702639338
 10
176.4776300256143
 20
302.0047225046887
 10
176.4768331241733
 20
302.0283641756943
 10
176.4748989199664
 20
302.0519423629666
 10
176.4718317420639
 20
302.0754042946088
 10
176.467638455319
 20
302.0986974589235
 10
176.4623284450034
 20
302.1217697219426
 10
176.4559135958016
 20
302.1445694441118
 10
176.448408265211
 20
302.1670455958683
 10
176.4398292514071
 20
302.1891478718537
 10
176.4301957556469
 20
302.2108268035059
 10
176.4195293392929
 20
302.2320338697771
 10
176.4078538755555
 20
302.2527216057332
 10
176.3951954960604
 20
302.272843708787
 10
176.3815825323621
 20
302.2923551423319
 10
176.3670454525329
 20
302.3112122365409
 10
176.3516167929704
 20
302.3293727861074
 10
176.3353310855758
 20
302.3467961447067
 10
176.3182247804654
 20
302.3634433159704
 10
176.3003361643894
 20
302.379277040766
 10
176.2817052750399
 20
302.3942618805891
 10
176.2623738114398
 20
302.408364296881
 10
176.2423850406134
 20
302.4215527260931
 10
176.2217837007477
 20
302.4337976503317
 10
176.2006159010608
 20
302.4450716634239
 10
176.1789290186022
 20
302.4553495322572
 10
176.1567715922143
 20
302.4646082532549
 10
176.1341932138954
 20
302.4728271038628
 10
176.1112444178039
 20
302.4799876889289
 10
176.0879765671546
 20
302.4860739818752
 10
176.0644417392595
 20
302.4910723605679
 10
176.0406926089697
 20
302.4949716378059
 10
176.0167823307812
 20
302.4977630863593
 10
175.9927644198651
 20
302.4994404585031
 10
175.9686926322928
 20
302.5
210
0.0
220
0.0
230
-1.0
  0
LWPOLYLINE
  5
204
330
1F
100
AcDbEntity
  8
0
  6
CONTINUOUS
 62
     7
100
AcDbPolyline
 90
       29
 70
     0
 43
0.0
 10
222.8948576636788
 20
303.7876083447672
 10
222.879802703595
 20
303.8294529668423
 10
222.8629156275061
 20
303.8705865693894
 10
222.8442298354838
 20
303.9109277963901
 10
222.8237822851868
 20
303.9503968590246
 10
222.8016134187638
 20
303.9889156934817
 10
222.7777670828657
 20
304.0264081153571
 10
222.7522904419228
 20
304.0627999703349
 10
222.7252338848616
 20
304.0980192808533
 10
222.6966509254425
 20
304.1319963884652
 10
222.6665980964179
 20
304.1646640916122
 10
222.6351348377191
 20
304.1959577785394
 10
222.6023233788932
 20
304.2258155550869
 10
222.5682286160221
 20
304.2541783671076
 10
222.5329179833685
 20
304.280990117267
 10
222.4964613200005
 20
304.3061977759958
 10
222.4589307316613
 20
304.3297514863735
 10
222.4204004481543
 20
304.3516046627384
 10
222.3809466765281
 20
304.3717140828268
 10
222.3406474503507
 20
304.3900399732599
 10
222.2995824753706
 20
304.4065460882101
 10
222.2578329718715
 20
304.4211997810888
 10
222.21548151403
 20
304.4339720691172
 10
222.1726118665974
 20
304.4448376906494
 10
222.1293088192251
 20
304.4537751551365
 10
222.0856580187639
 20
304.4607667856311
 10
222.0417457998671
 20
304.4657987537498
 10
221.9976590142343
 20
304.4688611070242
 10
221.9534848588314
 20
304.4699477885845
210
0.0
220
0.0
230
-1.0
  0
LWPOLYLINE
  5
205
330
1F
100
AcDbEntity
  8
0
  6
CONTINUOUS
 62
     7
100
AcDbPolyline
 90
       41
 70
     0
 43
0.0
 10
108.1581138830084
 20
222.0244280374237
 10
108.1355024676657
 20
222.0314998648258
 10
108.1125877753087
 20
222.0374751838924
 10
108.0894210928223
 20
222.0423406208677
 10
108.0660542710875
 20
222.046085286096
 10
108.0425396089297
 20
222.0487007983951
 10
108.0189297360662
 20
222.0501813038143
 10
107.9952774953112
 20
222.0505234887366
 10
107.9716358243057
 20
222.0497265872956
 10
107.9480576370334
 20
222.0477923830887
 10
107.9245957053912
 20
222.0447252051862
 10
107.9013025410765
 20
222.0405319184413
 10
107.8782302780574
 20
222.0352219081257
 10
107.8554305558882
 20
222.0288070589239
 10
107.8329544041317
 20
222.0213017283333
 10
107.8108521281462
 20
222.0127227145294
 10
107.7891731964941
 20
222.0030892187692
 10
107.7679661302228
 20
221.9924228024153
 10
107.7472783942668
 20
221.9807473386778
 10
107.727156291213
 20
221.9680889591827
 10
107.7076448576681
 20
221.9544759954844
 10
107.688787763459
 20
221.9399389156552
 10
107.6706272138926
 20
221.9245102560928
 10
107.6532038552933
 20
221.9082245486981
 10
107.6365566840296
 20
221.8911182435877
 10
107.620722959234
 20
221.8732296275117
 10
107.6057381194109
 20
221.8545987381622
 10
107.5916357031191
 20
221.8352672745621
 10
107.578447273907
 20
221.8152785037358
 10
107.5662023496683
 20
221.79467716387
 10
107.554928336576
 20
221.7735093641832
 10
107.5446504677428
 20
221.7518224817245
 10
107.5353917467451
 20
221.7296650553367
 10
107.5271728961372
 20
221.7070866770178
 10
107.5200123110712
 20
221.6841378809262
 10
107.5139260181248
 20
221.6608700302769
 10
107.5089276394321
 20
221.6373352023818
 10
107.5050283621941
 20
221.6135860720921
 10
107.5022369136407
 20
221.5896757939035
 10
107.5005595414969
 20
221.5656578829874
 10
107.5
 20
221.5415860954151
210
0.0
220
0.0
230
-1.0
  0
LWPOLYLINE
  5
206
330
1F
100
AcDbEntity
  8
0
  6
CONTINUOUS
 62
     7
100
AcDbPolyline
 90
       29
 70
     0
 43
0.0
 10
178.0465151411686
 20
304.4699477885845
 10
178.0023409857657
 20
304.4688611070242
 10
177.9582542001329
 20
304.4657987537498
 10
177.9143419812361
 20
304.4607667856311
 10
177.8706911807749
 20
304.4537751551365
 10
177.8273881334026
 20
304.4448376906494
 10
177.78451848597
 20
304.4339720691172
 10
177.7421670281285
 20
304.4211997810888
 10
177.7004175246294
 20
304.4065460882101
 10
177.6593525496494
 20
304.3900399732599
 10
177.619053323472
 20
304.3717140828268
 10
177.5795995518458
 20
304.3516046627384
 10
177.5410692683387
 20
304.3297514863735
 10
177.5035386799995
 20
304.3061977759958
 10
177.4670820166316
 20
304.280990117267
 10
177.4317713839779
 20
304.2541783671076
 10
177.3976766211068
 20
304.2258155550869
 10
177.3648651622809
 20
304.1959577785394
 10
177.3334019035821
 20
304.1646640916122
 10
177.3033490745576
 20
304.1319963884652
 10
177.2747661151384
 20
304.0980192808533
 10
177.2477095580772
 20
304.0627999703349
 10
177.2222329171343
 20
304.0264081153571
 10
177.1983865812362
 20
303.9889156934816
 10
177.1762177148132
 20
303.9503968590246
 10
177.1557701645162
 20
303.9109277963901
 10
177.1370843724939
 20
303.8705865693894
 10
177.1201972964051
 20
303.8294529668423
 10
177.1051423363212
 20
303.7876083447672
210
0.0
220
0.0
230
-1.0
  0
LWPOLYLINE
  5
207
330
1F
100
AcDbEntity
  8
0
  6
CONTINUOUS
 62
     7
100
AcDbPolyline
 90
       41
 70
     0
 43
0.0
 10
175.9686926322928
 20
292.5
 10
175.9927644198651
 20
292.5005595414968
 10
176.0167823307812
 20
292.5022369136406
 10
176.0406926089697
 20
292.5050283621941
 10
176.0644417392595
 20
292.5089276394321
 10
176.0879765671546
 20
292.5139260181248
 10
176.1112444178039
 20
292.5200123110711
 10
176.1341932138954
 20
292.5271728961372
 10
176.1567715922143
 20
292.535391746745
 10
176.1789290186022
 20
292.5446504677428
 10
176.2006159010608
 20
292.554928336576
 10
176.2217837007477
 20
292.5662023496683
 10
176.2423850406134
 20
292.578447273907
 10
176.2623738114398
 20
292.591635703119
 10
176.2817052750399
 20
292.6057381194109
 10
176.3003361643894
 20
292.6207229592339
 10
176.3182247804654
 20
292.6365566840295
 10
176.3353310855758
 20
292.6532038552933
 10
176.3516167929704
 20
292.6706272138926
 10
176.3670454525329
 20
292.688787763459
 10
176.3815825323621
 20
292.7076448576681
 10
176.3951954960604
 20
292.727156291213
 10
176.4078538755555
 20
292.7472783942668
 10
176.4195293392929
 20
292.7679661302228
 10
176.4301957556469
 20
292.7891731964941
 10
176.4398292514071
 20
292.8108521281462
 10
176.448408265211
 20
292.8329544041317
 10
176.4559135958016
 20
292.8554305558882
 10
176.4623284450034
 20
292.8782302780573
 10
176.467638455319
 20
292.9013025410764
 10
176.4718317420639
 20
292.9245957053911
 10
176.4748989199664
 20
292.9480576370333
 10
176.4768331241733
 20
292.9716358243056
 10
176.4776300256143
 20
292.9952774953113
 10
176.4772878406919
 20
293.0189297360662
 10
176.4758073352728
 20
293.0425396089297
 10
176.4731918229737
 20
293.0660542710875
 10
176.4694471577453
 20
293.0894210928223
 10
176.4645817207701
 20
293.1125877753086
 10
176.4586064017035
 20
293.1355024676657
 10
176.4515345743014
 20
293.1581138830084
210
0.0
220
0.0
230
-1.0
  0
LWPOLYLINE
  5
208
330
1F
100
AcDbEntity
  8
0
  6
CONTINUOUS
 62
     7
100
AcDbPolyline
 90
       29
 70
     0
 43
0.0
 10
-178.0465151411686
 20
290.5300522114154
 10
-178.0023409857657
 20
290.5311388929758
 10
-177.9582542001329
 20
290.5342012462501
 10
-177.9143419812361
 20
290.5392332143689
 10
-177.8706911807749
 20
290.5462248448634
 10
-177.8273881334026
 20
290.5551623093505
 10
-177.78451848597
 20
290.5660279308827
 10
-177.7421670281285
 20
290.5788002189112
 10
-177.7004175246294
 20
290.5934539117899
 10
-177.6593525496494
 20
290.60996002674
 10
-177.619053323472
 20
290.6282859171732
 10
-177.5795995518458
 20
290.6483953372615
 10
-177.5410692683387
 20
290.6702485136265
 10
-177.5035386799995
 20
290.6938022240041
 10
-177.4670820166316
 20
290.7190098827329
 10
-177.4317713839779
 20
290.7458216328924
 10
-177.3976766211068
 20
290.7741844449131
 10
-177.3648651622809
 20
290.8040422214606
 10
-177.3334019035821
 20
290.8353359083877
 10
-177.3033490745576
 20
290.8680036115348
 10
-177.2747661151384
 20
290.9019807191467
 10
-177.2477095580772
 20
290.9372000296651
 10
-177.2222329171343
 20
290.9735918846429
 10
-177.1983865812362
 20
291.0110843065183
 10
-177.1762177148132
 20
291.0496031409754
 10
-177.1557701645162
 20
291.0890722036099
 10
-177.1370843724939
 20
291.1294134306106
 10
-177.1201972964051
 20
291.1705470331576
 10
-177.1051423363212
 20
291.2123916552328
  0
LWPOLYLINE
  5
209
330
1F
100
AcDbEntity
  8
0
  6
CONTINUOUS
 62
     7
100
AcDbPolyline
 90
       41
 70
     0
 43
0.0
 10
224.0313073677072
 20
302.5
 10
224.0072355801349
 20
302.4994404585031
 10
223.9832176692188
 20
302.4977630863593
 10
223.9593073910303
 20
302.4949716378059
 10
223.9355582607406
 20
302.4910723605679
 10
223.9120234328454
 20
302.4860739818752
 10
223.8887555821961
 20
302.4799876889289
 10
223.8658067861046
 20
302.4728271038628
 10
223.8432284077857
 20
302.4646082532549
 10
223.8210709813979
 20
302.4553495322572
 10
223.7993840989392
 20
302.4450716634239
 10
223.7782162992523
 20
302.4337976503317
 10
223.7576149593866
 20
302.421552726093
 10
223.7376261885602
 20
302.408364296881
 10
223.7182947249601
 20
302.3942618805891
 10
223.6996638356106
 20
302.379277040766
 10
223.6817752195346
 20
302.3634433159704
 10
223.6646689144242
 20
302.3467961447067
 10
223.6483832070296
 20
302.3293727861073
 10
223.6329545474671
 20
302.3112122365409
 10
223.6184174676379
 20
302.2923551423319
 10
223.6048045039396
 20
302.272843708787
 10
223.5921461244445
 20
302.2527216057332
 10
223.5804706607071
 20
302.2320338697771
 10
223.5698042443531
 20
302.2108268035059
 10
223.5601707485929
 20
302.1891478718537
 10
223.551591734789
 20
302.1670455958683
 10
223.5440864041984
 20
302.1445694441117
 10
223.5376715549966
 20
302.1217697219426
 10
223.532361544681
 20
302.0986974589235
 10
223.5281682579361
 20
302.0754042946088
 10
223.5251010800336
 20
302.0519423629666
 10
223.5231668758268
 20
302.0283641756943
 10
223.5223699743857
 20
302.0047225046887
 10
223.522712159308
 20
301.9810702639338
 10
223.5241926647272
 20
301.9574603910702
 10
223.5268081770263
 20
301.9339457289125
 10
223.5305528422547
 20
301.9105789071776
 10
223.5354182792299
 20
301.8874122246913
 10
223.5413935982965
 20
301.8644975323342
 10
223.5484654256986
 20
301.8418861169915
210
0.0
220
0.0
230
-1.0
  0
LWPOLYLINE
  5
20A
330
1F
100
AcDbEntity
  8
0
  6
CONTINUOUS
 62
     7
100
AcDbPolyline
 90
       20
 70
     0
 43
0.0
 10
107.5449101394365
 20
220.1657866819358
 10
107.5573343042171
 20
220.1404133123585
 10
107.5708746693226
 20
220.1162780883471
 10
107.5855449205122
 20
220.0932025881326
 10
107.601144239762
 20
220.0713738409969
 10
107.6179408910912
 20
220.0503553047814
 10
107.6355271204477
 20
220.0306077344235
 10
107.6539318511171
 20
220.0120100044105
 10
107.6729836782291
 20
219.9946603005144
 10
107.6993795649294
 20
219.9733594180749
 10
107.7266756717335
 20
219.954212425126
 10
107.7549586759156
 20
219.9370553947124
 10
107.7839114286279
 20
219.9219990970869
 10
107.8140551347177
 20
219.9087549571744
 10
107.8446866246973
 20
219.8976274792227
 10
107.8759039472156
 20
219.8885380252559
 10
107.9074319477743
 20
219.8815370184638
 10
107.9517172539624
 20
219.8752301467778
 10
107.9963485243977
 20
219.8729067965742
 10
108.0
 20
219.8728934631224
210
0.0
220
0.0
230
-1.0
  0
LWPOLYLINE
  5
20B
330
1F
100
AcDbEntity
  8
0
  6
CONTINUOUS
 62
     7
100
AcDbPolyline
 90
       29
 70
     0
 43
0.0
 10
180.1572758456606
 20
245.047576015246
 10
180.1331556978427
 20
245.0425226268236
 10
180.1093138412653
 20
245.036286911929
 10
180.0858081943083
 20
245.0288840188163
 10
180.0626958586066
 20
245.0203319311345
 10
180.0400329803348
 20
245.0106514242396
 10
180.0178746138125
 20
244.9998660147264
 10
179.9962745877625
 20
244.9880019032995
 10
179.9752853745464
 20
244.9750879111254
 10
179.9549579626943
 20
244.9611554098173
 10
179.9353417330403
 20
244.9462382452252
 10
179.9164843387626
 20
244.9303726552154
 10
179.8984315896211
 20
244.9135971816381
 10
179.8812273406731
 20
244.8959525766996
 10
179.8649133857369
 20
244.8774817039631
 10
179.849529355864
 20
244.8582294342222
 10
179.8351126230635
 20
244.8382425364973
 10
179.8216982095162
 20
244.8175695644206
 10
179.8093187024955
 20
244.7962607382861
 10
179.7980041752043
 20
244.7743678230512
 10
179.7877821137189
 20
244.7519440025852
 10
179.778677350218
 20
244.7290437504709
 10
179.7707120026583
 20
244.7057226976739
 10
179.763905421044
 20
244.6820374973996
 10
179.7582741404204
 20
244.658045687467
 10
179.753831840706
 20
244.6338055505335
 10
179.7505893134596
 20
244.6093759725109
 10
179.7485544356655
 20
244.584816299515
 10
179.7477321505973
 20
244.5601861936977
210
0.0
220
0.0
230
-1.0
  0
LWPOLYLINE
  5
20C
330
1F
100
AcDbEntity
  8
0
  6
CONTINUOUS
 62
     7
100
AcDbPolyline
 90
       29
 70
     0
 43
0.0
 10
220.2522678494027
 20
244.5601861936977
 10
220.2514455643346
 20
244.584816299515
 10
220.2494106865404
 20
244.6093759725109
 10
220.2461681592941
 20
244.6338055505335
 10
220.2417258595796
 20
244.658045687467
 10
220.236094578956
 20
244.6820374973996
 10
220.2292879973417
 20
244.7057226976739
 10
220.221322649782
 20
244.7290437504709
 10
220.2122178862811
 20
244.7519440025852
 10
220.2019958247958
 20
244.7743678230512
 10
220.1906812975046
 20
244.7962607382861
 10
220.1783017904838
 20
244.8175695644206
 10
220.1648873769365
 20
244.8382425364973
 10
220.150470644136
 20
244.8582294342222
 10
220.1350866142631
 20
244.8774817039631
 10
220.118772659327
 20
244.8959525766996
 10
220.1015684103789
 20
244.9135971816381
 10
220.0835156612374
 20
244.9303726552154
 10
220.0646582669597
 20
244.9462382452252
 10
220.0450420373057
 20
244.9611554098173
 10
220.0247146254536
 20
244.9750879111254
 10
220.0037254122375
 20
244.9880019032995
 10
219.9821253861876
 20
244.9998660147264
 10
219.9599670196653
 20
245.0106514242396
 10
219.9373041413934
 20
245.0203319311345
 10
219.9141918056918
 20
245.0288840188163
 10
219.8906861587348
 20
245.036286911929
 10
219.8668443021573
 20
245.0425226268236
 10
219.8427241543394
 20
245.047576015246
210
0.0
220
0.0
230
-1.0
  0
ENDSEC
  0
SECTION
  2
OBJECTS
  0
DICTIONARY
  5
C
330
0
100
AcDbDictionary
  3
ACAD_GROUP
350
D
  3
ACAD_LAYOUT
350
1A
  3
ACAD_MATERIAL
350
43
  3
ACAD_MLEADERSTYLE
350
6B
  3
ACAD_MLINESTYLE
350
17
  3
ACAD_PLOTSETTINGS
350
19
  3
ACAD_SCALELIST
350
47
  3
ACAD_VISUALSTYLE
350
2A
  3
ACDBHEADERROUNDTRIPXREC
350
20D
  3
ACDBVARIABLEDICTIONARY
350
22E
  0
DICTIONARY
  5
235
330
8
100
AcDbDictionary
280
     1
  3
ACAD_XREC_ROUNDTRIP
360
236
  0
DICTIONARY
  5
D
102
{ACAD_REACTORS
330
C
102
}
330
C
100
AcDbDictionary
  0
DICTIONARY
  5
1A
102
{ACAD_REACTORS
330
C
102
}
330
C
100
AcDbDictionary
  0
DICTIONARY
  5
43
102
{ACAD_REACTORS
330
C
102
}
330
C
100
AcDbDictionary
  3
BYBLOCK
350
45
  3
BYLAYER
350
44
  3
GLOBAL
350
46
  0
DICTIONARY
  5
6B
102
{ACAD_REACTORS
330
C
102
}
330
C
100
AcDbDictionary
  3
STANDARD
350
6C
  0
DICTIONARY
  5
17
102
{ACAD_REACTORS
330
C
102
}
330
C
100
AcDbDictionary
  3
STANDARD
350
18
  0
DICTIONARY
  5
19
102
{ACAD_REACTORS
330
C
102
}
330
C
100
AcDbDictionary
  0
DICTIONARY
  5
47
102
{ACAD_REACTORS
330
C
102
}
330
C
100
AcDbDictionary
  3
A0
350
48
  3
A1
350
49
  3
A2
350
4A
  3
A3
350
4B
  3
A4
350
4C
  3
A5
350
4D
  3
A6
350
4E
  3
A7
350
4F
  3
A8
350
50
  3
A9
350
51
  3
B0
350
52
  3
B1
350
53
  3
B2
350
54
  3
B3
350
55
  3
B4
350
56
  3
B5
350
57
  3
B6
350
58
  3
B7
350
59
  3
B8
350
5A
  3
B9
350
5B
  3
C0
350
5C
  3
C1
350
5D
  3
C2
350
5E
  3
C3
350
5F
  3
C4
350
60
  3
C5
350
61
  3
C6
350
62
  3
C7
350
63
  3
C8
350
64
  3
C9
350
65
  3
D0
350
66
  3
D1
350
67
  3
D2
350
68
  0
DICTIONARY
  5
2A
102
{ACAD_REACTORS
330
C
102
}
330
C
100
AcDbDictionary
  3
2DWIREFRAME
350
2F
  3
BASIC
350
32
  3
BRIGHTEN
350
36
  3
COLORCHANGE
350
3A
  3
CONCEPTUAL
350
34
  3
DIM
350
35
  3
EDGECOLOROFF
350
3D
  3
FACEPATTERN
350
39
  3
FLAT
350
2B
  3
FLATWITHEDGES
350
2C
  3
GOURAUD
350
2D
  3
GOURAUDWITHEDGES
350
2E
  3
HIDDEN
350
31
  3
JITTEROFF
350
3B
  3
LINEPATTERN
350
38
  3
OVERHANGOFF
350
3C
  3
REALISTIC
350
33
  3
SHADED
350
42
  3
SHADED_WITH_EDGES
350
41
  3
SHADES_OF_GRAY
350
3E
  3
SKETCHY
350
3F
  3
THICKEN
350
37
  3
WIREFRAME
350
30
  3
X-RAY
350
40
  0
DICTIONARY
  5
20D
102
{ACAD_REACTORS
330
C
102
}
330
C
100
AcDbDictionary
  3
CEPSNID
350
217
  3
CEPSNTYPE
350
216
  3
DIMSTYLEDATA
350
22D
  3
FINGERPRINTGUID
350
218
  3
HYPERLINKBASE
350
210
  3
INSUNITS
350
215
  3
LAYOUTDICT
350
212
  3
LWETCUNION
350
214
  3
PLOTSETDICT
350
213
  3
PSVPSCALE
350
21A
  3
PUCSBASE
350
21D
  3
PUCSORGBACK
350
223
  3
PUCSORGBOTTOM
350
21F
  3
PUCSORGFRONT
350
222
  3
PUCSORGLEFT
350
220
  3
PUCSORGRIGHT
350
221
  3
PUCSORGTOP
350
21E
  3
PUCSORTHOREF
350
21B
  3
PUCSORTHOVIEW
350
21C
  3
STYLESHEET
350
211
  3
TSTACKALIGN
350
20E
  3
TSTACKSIZE
350
20F
  3
UCSBASE
350
226
  3
UCSORGBACK
350
22C
  3
UCSORGBOTTOM
350
228
  3
UCSORGFRONT
350
22B
  3
UCSORGLEFT
350
229
  3
UCSORGRIGHT
350
22A
  3
UCSORGTOP
350
227
  3
UCSORTHOREF
350
224
  3
UCSORTHOVIEW
350
225
  3
VERSIONGUID
350
219
  0
DICTIONARY
  5
22E
102
{ACAD_REACTORS
330
C
102
}
330
C
100
AcDbDictionary
  3
CANNOSCALE
350
237
  3
CMLEADERSTYLE
350
230
  3
CTABLESTYLE
350
22F
  3
DIMASSOC
350
233
  3
HIDETEXT
350
234
  3
MSLTSCALE
350
238
  0
XRECORD
  5
236
102
{ACAD_REACTORS
330
235
102
}
330
235
100
AcDbXrecord
102
VTR_0.000_0.000_1.000_1.000_VISUALSTYLE
340
2F
102
VTR_0.000_0.000_1.000_1.000_GRIDDISPLAY
 70
     3
102
VTR_0.000_0.000_1.000_1.000_GRIDMAJOR
 70
     5
102
VTR_0.000_0.000_1.000_1.000_DEFAULTLIGHTING
280
     1
102
VTR_0.000_0.000_1.000_1.000_DEFAULTLIGHTINGTYPE
 70
     1
102
VTR_0.000_0.000_1.000_1.000_BRIGHTNESS
141
0.0
102
VTR_0.000_0.000_1.000_1.000_CONTRAST
142
0.0
  0
MATERIAL
  5
45
102
{ACAD_REACTORS
330
43
102
}
102
{ACAD_XDICTIONARY
360
23B
102
}
330
43
100
AcDbMaterial
  1
BYBLOCK
  0
MATERIAL
  5
44
102
{ACAD_REACTORS
330
43
102
}
102
{ACAD_XDICTIONARY
360
239
102
}
330
43
100
AcDbMaterial
  1
BYLAYER
  0
MATERIAL
  5
46
102
{ACAD_REACTORS
330
43
102
}
102
{ACAD_XDICTIONARY
360
23D
102
}
330
43
100
AcDbMaterial
  1
GLOBAL
  0
ACAD_PROXY_OBJECT
  5
6C
102
{ACAD_REACTORS
330
6B
102
}
330
6B
100
AcDbProxyObject
 90
      499
 91
      505
 93
      610
310
40901902A4063FBFFFFFE056BD1B81E855B9FC0AD7A3703D0AD73F4214DD185B99185C9900AD7A3703D0AC73F90141901A02B5E8DC0F42B1CFC02B5E8DC0F42B1CFE5764000000000000300FC0
340
14
340
0
340
11
340
0
 94
        0
1001
ACAD_MLEADERVER
1070
     2
  0
MLINESTYLE
  5
18
102
{ACAD_REACTORS
330
17
102
}
330
17
100
AcDbMlineStyle
  2
Standard
 70
     0
  3

 62
   256
 51
90.0
 52
90.0
 71
     2
 49
0.5
 62
   256
  6
BYLAYER
 49
-0.5
 62
   256
  6
BYLAYER
  0
ACAD_PROXY_OBJECT
  5
48
102
{ACAD_REACTORS
330
47
102
}
330
47
100
AcDbProxyObject
 90
      499
 91
      503
 93
       41
310
903313A31580
  0
ACAD_PROXY_OBJECT
  5
49
102
{ACAD_REACTORS
330
47
102
}
330
47
100
AcDbProxyObject
 90
      499
 91
      503
 93
      105
310
903313A324000000000000004000
  0
ACAD_PROXY_OBJECT
  5
4A
102
{ACAD_REACTORS
330
47
102
}
330
47
100
AcDbProxyObject
 90
      499
 91
      503
 93
      105
310
903313A344000000000000104000
  0
ACAD_PROXY_OBJECT
  5
4B
102
{ACAD_REACTORS
330
47
102
}
330
47
100
AcDbProxyObject
 90
      499
 91
      503
 93
      105
310
903313A354000000000000144000
  0
ACAD_PROXY_OBJECT
  5
4C
102
{ACAD_REACTORS
330
47
102
}
330
47
100
AcDbProxyObject
 90
      499
 91
      503
 93
      105
310
903313A384000000000000204000
  0
ACAD_PROXY_OBJECT
  5
4D
102
{ACAD_REACTORS
330
47
102
}
330
47
100
AcDbProxyObject
 90
      499
 91
      503
 93
      113
310
904313A31304000000000000244000
  0
ACAD_PROXY_OBJECT
  5
4E
102
{ACAD_REACTORS
330
47
102
}
330
47
100
AcDbProxyObject
 90
      499
 91
      503
 93
      113
310
904313A31364000000000000304000
  0
ACAD_PROXY_OBJECT
  5
4F
102
{ACAD_REACTORS
330
47
102
}
330
47
100
AcDbProxyObject
 90
      499
 91
      503
 93
      113
310
904313A32304000000000000344000
  0
ACAD_PROXY_OBJECT
  5
50
102
{ACAD_REACTORS
330
47
102
}
330
47
100
AcDbProxyObject
 90
      499
 91
      503
 93
      113
310
904313A333040000000000003E4000
  0
ACAD_PROXY_OBJECT
  5
51
102
{ACAD_REACTORS
330
47
102
}
330
47
100
AcDbProxyObject
 90
      499
 91
      503
 93
      113
310
904313A34304000000000000444000
  0
ACAD_PROXY_OBJECT
  5
52
102
{ACAD_REACTORS
330
47
102
}
330
47
100
AcDbProxyObject
 90
      499
 91
      503
 93
      113
310
904313A35304000000000000494000
  0
ACAD_PROXY_OBJECT
  5
53
102
{ACAD_REACTORS
330
47
102
}
330
47
100
AcDbProxyObject
 90
      499
 91
      503
 93
      121
310
905313A3130304000000000000594000
  0
ACAD_PROXY_OBJECT
  5
54
102
{ACAD_REACTORS
330
47
102
}
330
47
100
AcDbProxyObject
 90
      499
 91
      503
 93
      105
310
903323A310000000000000010100
  0
ACAD_PROXY_OBJECT
  5
55
102
{ACAD_REACTORS
330
47
102
}
330
47
100
AcDbProxyObject
 90
      499
 91
      503
 93
      105
310
903343A310000000000000410100
  0
ACAD_PROXY_OBJECT
  5
56
102
{ACAD_REACTORS
330
47
102
}
330
47
100
AcDbProxyObject
 90
      499
 91
      503
 93
      105
310
903383A310000000000000810100
  0
ACAD_PROXY_OBJECT
  5
57
102
{ACAD_REACTORS
330
47
102
}
330
47
100
AcDbProxyObject
 90
      499
 91
      503
 93
      113
310
90431303A310000000000000910100
  0
ACAD_PROXY_OBJECT
  5
58
102
{ACAD_REACTORS
330
47
102
}
330
47
100
AcDbProxyObject
 90
      499
 91
      503
 93
      121
310
9053130303A310000000000001650100
  0
ACAD_PROXY_OBJECT
  5
59
102
{ACAD_REACTORS
330
47
102
}
330
47
100
AcDbProxyObject
 90
      499
 91
      503
 93
      257
310
90E312F31323822203D2031272D3022000000000000200FC000000000000284000
  0
ACAD_PROXY_OBJECT
  5
5A
102
{ACAD_REACTORS
330
47
102
}
330
47
100
AcDbProxyObject
 90
      499
 91
      503
 93
      249
310
90D312F363422203D2031272D3022000000000000240FC000000000000284000
  0
ACAD_PROXY_OBJECT
  5
5B
102
{ACAD_REACTORS
330
47
102
}
330
47
100
AcDbProxyObject
 90
      499
 91
      503
 93
      249
310
90D312F333222203D2031272D3022000000000000280FC000000000000284000
  0
ACAD_PROXY_OBJECT
  5
5C
102
{ACAD_REACTORS
330
47
102
}
330
47
100
AcDbProxyObject
 90
      499
 91
      503
 93
      249
310
90D312F313622203D2031272D30220000000000002C0FC000000000000284000
  0
ACAD_PROXY_OBJECT
  5
5D
102
{ACAD_REACTORS
330
47
102
}
330
47
100
AcDbProxyObject
 90
      499
 91
      503
 93
      249
310
90D332F333222203D2031272D30220000000000002E0FC000000000000284000
  0
ACAD_PROXY_OBJECT
  5
5E
102
{ACAD_REACTORS
330
47
102
}
330
47
100
AcDbProxyObject
 90
      499
 91
      503
 93
      241
310
90C312F3822203D2031272D3022000000000000300FC000000000000284000
  0
ACAD_PROXY_OBJECT
  5
5F
102
{ACAD_REACTORS
330
47
102
}
330
47
100
AcDbProxyObject
 90
      499
 91
      503
 93
      249
310
90D332F313622203D2031272D3022000000000000320FC000000000000284000
  0
ACAD_PROXY_OBJECT
  5
60
102
{ACAD_REACTORS
330
47
102
}
330
47
100
AcDbProxyObject
 90
      499
 91
      503
 93
      241
310
90C312F3422203D2031272D3022000000000000340FC000000000000284000
  0
ACAD_PROXY_OBJECT
  5
61
102
{ACAD_REACTORS
330
47
102
}
330
47
100
AcDbProxyObject
 90
      499
 91
      503
 93
      241
310
90C332F3822203D2031272D3022000000000000360FC000000000000284000
  0
ACAD_PROXY_OBJECT
  5
62
102
{ACAD_REACTORS
330
47
102
}
330
47
100
AcDbProxyObject
 90
      499
 91
      503
 93
      241
310
90C312F3222203D2031272D3022000000000000380FC000000000000284000
  0
ACAD_PROXY_OBJECT
  5
63
102
{ACAD_REACTORS
330
47
102
}
330
47
100
AcDbProxyObject
 90
      499
 91
      503
 93
      241
310
90C332F3422203D2031272D30220000000000003A0FC000000000000284000
  0
ACAD_PROXY_OBJECT
  5
64
102
{ACAD_REACTORS
330
47
102
}
330
47
100
AcDbProxyObject
 90
      499
 91
      503
 93
      161
310
90A3122203D2031272D30224000000000000284000
  0
ACAD_PROXY_OBJECT
  5
65
102
{ACAD_REACTORS
330
47
102
}
330
47
100
AcDbProxyObject
 90
      499
 91
      503
 93
      257
310
90E312D312F3222203D2031272D30220000000000003E0FC000000000000284000
  0
ACAD_PROXY_OBJECT
  5
66
102
{ACAD_REACTORS
330
47
102
}
330
47
100
AcDbProxyObject
 90
      499
 91
      503
 93
      225
310
90A3322203D2031272D302200000000000002100000000000000284000
  0
ACAD_PROXY_OBJECT
  5
67
102
{ACAD_REACTORS
330
47
102
}
330
47
100
AcDbProxyObject
 90
      499
 91
      503
 93
      225
310
90A3622203D2031272D302200000000000006100000000000000284000
  0
ACAD_PROXY_OBJECT
  5
68
102
{ACAD_REACTORS
330
47
102
}
330
47
100
AcDbProxyObject
 90
      499
 91
      503
 93
      249
310
90D31272D3022203D2031272D30220000000000000A100000000000000284000
  0
ACAD_PROXY_OBJECT
  5
2F
102
{ACAD_REACTORS
330
2A
102
}
330
2A
100
AcDbProxyObject
 90
      499
 91
      501
 93
      436
310
42CC9915DA5C99599C985B595049028333333333333E33F0000000000000F90107901411070040501600405405064090741402480A0340
1001
ACAD
1000
AcDbSavedByObjectVersion
1070
     0
  0
ACAD_PROXY_OBJECT
  5
32
102
{ACAD_REACTORS
330
2A
102
}
330
2A
100
AcDbProxyObject
 90
      499
 91
      501
 93
      388
310
4150985CDA58D07406404333333333333E33F0000000000000F90107A41107004050150841D405064090741402480A0350
1001
ACAD
1000
AcDbSavedByObjectVersion
1070
     0
  0
ACAD_PROXY_OBJECT
  5
36
102
{ACAD_REACTORS
330
2A
102
}
330
2A
100
AcDbProxyObject
 90
      499
 91
      501
 93
      428
310
42109C9A59DA1D195B90C409028333333333333E33F0000000000000F9010790141107004050150841D405064090741402480A029950
1001
ACAD
1000
AcDbSavedByObjectVersion
1070
     0
  0
ACAD_PROXY_OBJECT
  5
3A
102
{ACAD_REACTORS
330
2A
102
}
330
2A
100
AcDbProxyObject
 90
      499
 91
      501
 93
      452
310
42D0DBDB1BDC90DA185B99D95104090240C333333333333E33F0000000000000F90108901411070040501508421405064090741402480A0350
1001
ACAD
1000
AcDbSavedByObjectVersion
1070
     0
  0
ACAD_PROXY_OBJECT
  5
34
102
{ACAD_REACTORS
330
2A
102
}
330
2A
100
AcDbProxyObject
 90
      499
 91
      501
 93
      500
310
4290DBDB98D95C1D1D585B10940D028333333333333E33F0000000000000F90107902409070040501000000000018199010841D405064090740C02480A0340
1001
ACAD
1000
AcDbSavedByObjectVersion
1070
     0
  0
ACAD_PROXY_OBJECT
  5
35
102
{ACAD_REACTORS
330
2A
102
}
330
2A
100
AcDbProxyObject
 90
      499
 91
      501
 93
      412
310
40D11A5B50B409028333333333333E33F0000000000000F9010790141107004050150841D405064090741402480A02677FFFFFD0
1001
ACAD
1000
AcDbSavedByObjectVersion
1070
     0
  0
ACAD_PROXY_OBJECT
  5
3D
102
{ACAD_REACTORS
330
2A
102
}
330
2A
100
AcDbProxyObject
 90
      499
 91
      501
 93
      452
310
43115919D950DBDB1BDC93D999916409028333333333333E33F0000000000000F9010790141107004050150841D405064090741402480A0350
1001
ACAD
1000
AcDbSavedByObjectVersion
1070
     0
  0
ACAD_PROXY_OBJECT
  5
39
102
{ACAD_REACTORS
330
2A
102
}
330
2A
100
AcDbProxyObject
 90
      499
 91
      501
 93
      444
310
42D19858D95C185D1D195C9B90F409028333333333333E33F0000000000000F9010790141107004050150841D405064090741402480A0350
1001
ACAD
1000
AcDbSavedByObjectVersion
1070
     0
  0
ACAD_PROXY_OBJECT
  5
2B
102
{ACAD_REACTORS
330
2A
102
}
330
2A
100
AcDbProxyObject
 90
      499
 91
      501
 93
      380
310
41119B185D240901404333333333333E33F0000000000000F9010740A907004050150841D405064090741402480A1B50
1001
ACAD
1000
AcDbSavedByObjectVersion
1070
     0
  0
ACAD_PROXY_OBJECT
  5
2C
102
{ACAD_REACTORS
330
2A
102
}
330
2A
100
AcDbProxyObject
 90
      499
 91
      501
 93
      468
310
43519B185D15DA5D1A115919D95CD0140901404333333333333E33F0000000000000F90107409019070040501600405405064090741402480A1B50
1001
ACAD
1000
AcDbSavedByObjectVersion
1070
     0
  0
ACAD_PROXY_OBJECT
  5
2D
102
{ACAD_REACTORS
330
2A
102
}
330
2A
100
AcDbProxyObject
 90
      499
 91
      501
 93
      404
310
41D1DBDD5C985D5910240902404333333333333E33F0000000000000F9010740A9070040501641D405064090741402480A1B50
1001
ACAD
1000
AcDbSavedByObjectVersion
1070
     0
  0
ACAD_PROXY_OBJECT
  5
2E
102
{ACAD_REACTORS
330
2A
102
}
330
2A
100
AcDbProxyObject
 90
      499
 91
      501
 93
      492
310
4411DBDD5C985D5915DA5D1A115919D95CD0340902404333333333333E33F0000000000000F90107409019070040501600405405064090741402480A1B50
1001
ACAD
1000
AcDbSavedByObjectVersion
1070
     0
  0
ACAD_PROXY_OBJECT
  5
31
102
{ACAD_REACTORS
330
2A
102
}
330
2A
100
AcDbProxyObject
 90
      499
 91
      501
 93
      476
310
41921A5919195B90640502408333333333333E33F0000000000000F901079024090700405020000000000001110200405405064090740C02480A0340
1001
ACAD
1000
AcDbSavedByObjectVersion
1070
     0
  0
ACAD_PROXY_OBJECT
  5
3B
102
{ACAD_REACTORS
330
2A
102
}
330
2A
100
AcDbProxyObject
 90
      499
 91
      501
 93
      428
310
42529A5D1D195C93D999914409028333333333333E33F0000000000000F9010790141107004050150A41D405064090741402480A0350
1001
ACAD
1000
AcDbSavedByObjectVersion
1070
     0
  0
ACAD_PROXY_OBJECT
  5
38
102
{ACAD_REACTORS
330
2A
102
}
330
2A
100
AcDbProxyObject
 90
      499
 91
      501
 93
      444
310
42D31A5B995C185D1D195C9B90E409028333333333333E33F0000000000000F9010790141107004050750841D405064090741402483A0350
1001
ACAD
1000
AcDbSavedByObjectVersion
1070
     0
  0
ACAD_PROXY_OBJECT
  5
3C
102
{ACAD_REACTORS
330
2A
102
}
330
2A
100
AcDbProxyObject
 90
      499
 91
      501
 93
      444
310
42D3DD995C9A185B99D3D999915409028333333333333E33F0000000000000F9010790141107004050150941D405064090741402480A0350
1001
ACAD
1000
AcDbSavedByObjectVersion
1070
     0
  0
ACAD_PROXY_OBJECT
  5
33
102
{ACAD_REACTORS
330
2A
102
}
330
2A
100
AcDbProxyObject
 90
      499
 91
      501
 93
      428
310
425499585B1A5CDD1A58D08409038333333333333E33F0000000000000F9010740A907004050150800405405064090740C02480A1B40
1001
ACAD
1000
AcDbSavedByObjectVersion
1070
     0
  0
ACAD_PROXY_OBJECT
  5
42
102
{ACAD_REACTORS
330
2A
102
}
330
2A
100
AcDbProxyObject
 90
      499
 91
      501
 93
      420
310
4194DA1859195911B40902404333333333333E33F0000000000000F9010740A41107004050150800405405064090840C02480A0B40
1001
ACAD
1000
AcDbSavedByObjectVersion
1070
     0
  0
ACAD_PROXY_OBJECT
  5
41
102
{ACAD_REACTORS
330
2A
102
}
330
2A
100
AcDbProxyObject
 90
      499
 91
      501
 93
      516
310
4454DA18591959081DDA5D1A08195919D95CD1A40902404333333333333E33F0000000000000F901074090142907004050250800405405064090740C02480A0B40
1001
ACAD
1000
AcDbSavedByObjectVersion
1070
     0
  0
ACAD_PROXY_OBJECT
  5
3E
102
{ACAD_REACTORS
330
2A
102
}
330
2A
100
AcDbProxyObject
 90
      499
 91
      501
 93
      532
310
4394DA1859195CC81BD98811DC985E5174090240C333333333333E33F0000000000000F901079024090741D01000000000000111010841D405064090740C02480A0340
1001
ACAD
1000
AcDbSavedByObjectVersion
1070
     0
  0
ACAD_PROXY_OBJECT
  5
3F
102
{ACAD_REACTORS
330
2A
102
}
330
2A
100
AcDbProxyObject
 90
      499
 91
      501
 93
      476
310
41D4DAD95D18DA1E51840502408333333333333E33F0000000000000F901079024090741D01000000000000111010B41D405064090741802480A0340
1001
ACAD
1000
AcDbSavedByObjectVersion
1070
     0
  0
ACAD_PROXY_OBJECT
  5
37
102
{ACAD_REACTORS
330
2A
102
}
330
2A
100
AcDbProxyObject
 90
      499
 91
      501
 93
      412
310
41D51A1A58DAD95B90D409028333333333333E33F0000000000000F9010790141107004050150C41D405064090741402480A0350
1001
ACAD
1000
AcDbSavedByObjectVersion
1070
     0
  0
ACAD_PROXY_OBJECT
  5
30
102
{ACAD_REACTORS
330
2A
102
}
330
2A
100
AcDbProxyObject
 90
      499
 91
      501
 93
      420
310
4255DA5C99599C985B595059028333333333333E33F0000000000000F90107901411070040501600405405064090740C02480A0340
1001
ACAD
1000
AcDbSavedByObjectVersion
1070
     0
  0
ACAD_PROXY_OBJECT
  5
40
102
{ACAD_REACTORS
330
2A
102
}
330
2A
100
AcDbProxyObject
 90
      499
 91
      501
 93
      404
310
41560B54985E51940902404000000000000E03F0000000000000F9010740501907004050150841D405064090740C02480A1B40
1001
ACAD
1000
AcDbSavedByObjectVersion
1070
     0
  0
XRECORD
  5
217
102
{ACAD_REACTORS
330
20D
102
}
330
20D
100
AcDbXrecord
340
0
  0
XRECORD
  5
216
102
{ACAD_REACTORS
330
20D
102
}
330
20D
100
AcDbXrecord
 90
        0
  0
XRECORD
  5
22D
102
{ACAD_REACTORS
330
20D
102
}
330
20D
100
AcDbXrecord
1000
DSTYLE
1002
{
1070
   179
 70
     2
1070
   171
 70
     2
1070
   143
 40
25.4
1070
   274
 70
     2
1070
    41
 40
3.0
1070
   141
 40
0.09
1070
    43
 40
0.38
1070
   278
 70
    46
1070
    44
 40
1.5
1070
    42
 40
0.0625
1070
   147
 40
1.5
1070
   272
 70
     4
1070
    73
 70
     1
1070
   172
 70
     0
1070
    74
 70
     1
1070
   283
 70
     1
1070
   340
340
6E
1070
   140
 40
3.0
1070
   284
 70
     0
1070
    78
 70
     0
1002
}
  0
XRECORD
  5
218
102
{ACAD_REACTORS
330
20D
102
}
330
20D
100
AcDbXrecord
  1
{B3D58A53-2E61-4249-AFB8-0768AA25AA57}
  0
XRECORD
  5
210
102
{ACAD_REACTORS
330
20D
102
}
330
20D
100
AcDbXrecord
  1

  0
XRECORD
  5
215
102
{ACAD_REACTORS
330
20D
102
}
330
20D
100
AcDbXrecord
 90
        4
  0
XRECORD
  5
212
102
{ACAD_REACTORS
330
20D
102
}
330
20D
100
AcDbXrecord
340
1A
  0
XRECORD
  5
214
102
{ACAD_REACTORS
330
20D
102
}
330
20D
100
AcDbXrecord
 90
    10269
  0
XRECORD
  5
213
102
{ACAD_REACTORS
330
20D
102
}
330
20D
100
AcDbXrecord
340
19
  0
XRECORD
  5
21A
102
{ACAD_REACTORS
330
20D
102
}
330
20D
100
AcDbXrecord
 40
0.0
  0
XRECORD
  5
21D
102
{ACAD_REACTORS
330
20D
102
}
330
20D
100
AcDbXrecord
340
0
  0
XRECORD
  5
223
102
{ACAD_REACTORS
330
20D
102
}
330
20D
100
AcDbXrecord
 10
0.0
 20
0.0
 30
0.0
  0
XRECORD
  5
21F
102
{ACAD_REACTORS
330
20D
102
}
330
20D
100
AcDbXrecord
 10
0.0
 20
0.0
 30
0.0
  0
XRECORD
  5
222
102
{ACAD_REACTORS
330
20D
102
}
330
20D
100
AcDbXrecord
 10
0.0
 20
0.0
 30
0.0
  0
XRECORD
  5
220
102
{ACAD_REACTORS
330
20D
102
}
330
20D
100
AcDbXrecord
 10
0.0
 20
0.0
 30
0.0
  0
XRECORD
  5
221
102
{ACAD_REACTORS
330
20D
102
}
330
20D
100
AcDbXrecord
 10
0.0
 20
0.0
 30
0.0
  0
XRECORD
  5
21E
102
{ACAD_REACTORS
330
20D
102
}
330
20D
100
AcDbXrecord
 10
0.0
 20
0.0
 30
0.0
  0
XRECORD
  5
21B
102
{ACAD_REACTORS
330
20D
102
}
330
20D
100
AcDbXrecord
340
0
  0
XRECORD
  5
21C
102
{ACAD_REACTORS
330
20D
102
}
330
20D
100
AcDbXrecord
 70
     0
  0
XRECORD
  5
211
102
{ACAD_REACTORS
330
20D
102
}
330
20D
100
AcDbXrecord
  1

  0
XRECORD
  5
20E
102
{ACAD_REACTORS
330
20D
102
}
330
20D
100
AcDbXrecord
 90
        1
  0
XRECORD
  5
20F
102
{ACAD_REACTORS
330
20D
102
}
330
20D
100
AcDbXrecord
 90
       70
  0
XRECORD
  5
226
102
{ACAD_REACTORS
330
20D
102
}
330
20D
100
AcDbXrecord
340
0
  0
XRECORD
  5
22C
102
{ACAD_REACTORS
330
20D
102
}
330
20D
100
AcDbXrecord
 10
0.0
 20
0.0
 30
0.0
  0
XRECORD
  5
228
102
{ACAD_REACTORS
330
20D
102
}
330
20D
100
AcDbXrecord
 10
0.0
 20
0.0
 30
0.0
  0
XRECORD
  5
22B
102
{ACAD_REACTORS
330
20D
102
}
330
20D
100
AcDbXrecord
 10
0.0
 20
0.0
 30
0.0
  0
XRECORD
  5
229
102
{ACAD_REACTORS
330
20D
102
}
330
20D
100
AcDbXrecord
 10
0.0
 20
0.0
 30
0.0
  0
XRECORD
  5
22A
102
{ACAD_REACTORS
330
20D
102
}
330
20D
100
AcDbXrecord
 10
0.0
 20
0.0
 30
0.0
  0
XRECORD
  5
227
102
{ACAD_REACTORS
330
20D
102
}
330
20D
100
AcDbXrecord
 10
0.0
 20
0.0
 30
0.0
  0
XRECORD
  5
224
102
{ACAD_REACTORS
330
20D
102
}
330
20D
100
AcDbXrecord
340
0
  0
XRECORD
  5
225
102
{ACAD_REACTORS
330
20D
102
}
330
20D
100
AcDbXrecord
 70
     0
  0
XRECORD
  5
219
102
{ACAD_REACTORS
330
20D
102
}
330
20D
100
AcDbXrecord
  1
{FAEB1C32-E019-11D5-929B-00C0DF256EC4}
  0
DICTIONARYVAR
  5
237
102
{ACAD_REACTORS
330
22E
102
}
330
22E
100
DictionaryVariables
280
     0
  1
1:1
  0
DICTIONARYVAR
  5
230
102
{ACAD_REACTORS
330
22E
102
}
330
22E
100
DictionaryVariables
280
     0
  1
Standard
  0
DICTIONARYVAR
  5
22F
102
{ACAD_REACTORS
330
22E
102
}
330
22E
100
DictionaryVariables
280
     0
  1
Standard
  0
DICTIONARYVAR
  5
233
102
{ACAD_REACTORS
330
22E
102
}
330
22E
100
DictionaryVariables
280
     0
  1
2
  0
DICTIONARYVAR
  5
234
102
{ACAD_REACTORS
330
22E
102
}
330
22E
100
DictionaryVariables
280
     0
  1
1
  0
DICTIONARYVAR
  5
238
102
{ACAD_REACTORS
330
22E
102
}
330
22E
100
DictionaryVariables
280
     0
  1
1
  0
DICTIONARY
  5
23B
330
45
100
AcDbDictionary
280
     1
  3
ACAD_XREC_ROUNDTRIP
360
23C
  0
DICTIONARY
  5
239
330
44
100
AcDbDictionary
280
     1
  3
ACAD_XREC_ROUNDTRIP
360
23A
  0
DICTIONARY
  5
23D
330
46
100
AcDbDictionary
280
     1
  3
ACAD_XREC_ROUNDTRIP
360
23E
  0
XRECORD
  5
23C
102
{ACAD_REACTORS
330
23B
102
}
330
23B
100
AcDbXrecord
102
MATERIAL
148
0.0
149
0.0
149
0.0
 93
        0
 94
      127
282
     0
 72
     1
 77
     1
171
     1
175
     1
179
     1
273
     0
  0
XRECORD
  5
23A
102
{ACAD_REACTORS
330
239
102
}
330
239
100
AcDbXrecord
102
MATERIAL
148
0.0
149
0.0
149
0.0
 93
        0
 94
      127
282
     0
 72
     1
 77
     1
171
     1
175
     1
179
     1
273
     0
  0
XRECORD
  5
23E
102
{ACAD_REACTORS
330
23D
102
}
330
23D
100
AcDbXrecord
102
MATERIAL
148
0.0
149
0.0
149
0.0
 93
        0
 94
      127
282
     0
 72
     1
 77
     1
171
     1
175
     1
179
     1
273
     0
  0
ENDSEC
  0
EOF
