  0
SECTION
  2
HEADER
  9
$ACADVER
  1
AC1014
  9
$ACADMAINTVER
 70
     9
  9
$DWGCODEPAGE
  3
ANSI_932
  9
$INSBASE
 10
0.0
 20
0.0
 30
0.0
  9
$EXTMIN
 10
577.5
 20
35.08298737026386
 30
0.0
  9
$EXTMAX
 10
773.0
 20
185.0
 30
0.0
  9
$LIMMIN
 10
0.0
 20
0.0
  9
$LIMMAX
 10
12.0
 20
9.0
  9
$ORTHOMODE
 70
     0
  9
$REGENMODE
 70
     1
  9
$FILLMODE
 70
     1
  9
$QTEXTMODE
 70
     0
  9
$MIRRTEXT
 70
     1
  9
$DRAGMODE
 70
     2
  9
$LTSCALE
 40
1.0
  9
$OSMODE
 70
    37
  9
$ATTMODE
 70
     1
  9
$TEXTSIZE
 40
0.2
  9
$TRACEWID
 40
0.05
  9
$TEXTSTYLE
  7
STANDARD
  9
$CLAYER
  8
0
  9
$CELTYPE
  6
BYLAYER
  9
$CECOLOR
 62
   256
  9
$CELTSCALE
 40
1.0
  9
$DELOBJ
 70
     1
  9
$DISPSILH
 70
     0
  9
$DIMSCALE
 40
1.0
  9
$DIMASZ
 40
3.0
  9
$DIMEXO
 40
0.0625
  9
$DIMDLI
 40
0.38
  9
$DIMRND
 40
0.0
  9
$DIMDLE
 40
0.0
  9
$DIMEXE
 40
1.5
  9
$DIMTP
 40
0.0
  9
$DIMTM
 40
0.0
  9
$DIMTXT
 40
3.0
  9
$DIMCEN
 40
0.09
  9
$DIMTSZ
 40
0.0
  9
$DIMTOL
 70
     0
  9
$DIMLIM
 70
     0
  9
$DIMTIH
 70
     1
  9
$DIMTOH
 70
     1
  9
$DIMSE1
 70
     0
  9
$DIMSE2
 70
     0
  9
$DIMTAD
 70
     1
  9
$DIMZIN
 70
     0
  9
$DIMBLK
  1

  9
$DIMASO
 70
     1
  9
$DIMSHO
 70
     1
  9
$DIMPOST
  1

  9
$DIMAPOST
  1

  9
$DIMALT
 70
     0
  9
$DIMALTD
 70
     2
  9
$DIMALTF
 40
25.4
  9
$DIMLFAC
 40
1.0
  9
$DIMTOFL
 70
     0
  9
$DIMTVP
 40
0.0
  9
$DIMTIX
 70
     0
  9
$DIMSOXD
 70
     0
  9
$DIMSAH
 70
     0
  9
$DIMBLK1
  1

  9
$DIMBLK2
  1

  9
$DIMSTYLE
  2
STANDARD
  9
$DIMCLRD
 70
     0
  9
$DIMCLRE
 70
     0
  9
$DIMCLRT
 70
     0
  9
$DIMTFAC
 40
1.0
  9
$DIMGAP
 40
1.5
  9
$DIMJUST
 70
     0
  9
$DIMSD1
 70
     0
  9
$DIMSD2
 70
     0
  9
$DIMTOLJ
 70
     1
  9
$DIMTZIN
 70
     0
  9
$DIMALTZ
 70
     0
  9
$DIMALTTZ
 70
     0
  9
$DIMFIT
 70
     3
  9
$DIMUPT
 70
     0
  9
$DIMUNIT
 70
     2
  9
$DIMDEC
 70
     2
  9
$DIMTDEC
 70
     4
  9
$DIMALTU
 70
     2
  9
$DIMALTTD
 70
     2
  9
$DIMTXSTY
  7
ＭＳ_ゴシック
  9
$DIMAUNIT
 70
     0
  9
$LUNITS
 70
     2
  9
$LUPREC
 70
     4
  9
$SKETCHINC
 40
0.1
  9
$FILLETRAD
 40
0.5
  9
$AUNITS
 70
     0
  9
$AUPREC
 70
     0
  9
$MENU
  1
.
  9
$ELEVATION
 40
0.0
  9
$PELEVATION
 40
0.0
  9
$THICKNESS
 40
0.0
  9
$LIMCHECK
 70
     0
  9
$CHAMFERA
 40
0.0
  9
$CHAMFERB
 40
0.0
  9
$CHAMFERC
 40
0.0
  9
$CHAMFERD
 40
0.0
  9
$SKPOLY
 70
     0
  9
$TDCREATE
 40
2459233.574584479
  9
$TDUPDATE
 40
2459233.574584664
  9
$TDINDWG
 40
0.0000000116
  9
$TDUSRTIMER
 40
0.0000000116
  9
$USRTIMER
 70
     1
  9
$ANGBASE
 50
0.0
  9
$ANGDIR
 70
     0
  9
$PDMODE
 70
     0
  9
$PDSIZE
 40
0.0
  9
$PLINEWID
 40
0.0
  9
$COORDS
 70
     1
  9
$SPLFRAME
 70
     0
  9
$SPLINETYPE
 70
     6
  9
$SPLINESEGS
 70
     8
  9
$ATTDIA
 70
     0
  9
$ATTREQ
 70
     1
  9
$HANDLING
 70
     1
  9
$HANDSEED
  5
1F9
  9
$SURFTAB1
 70
     6
  9
$SURFTAB2
 70
     6
  9
$SURFTYPE
 70
     6
  9
$SURFU
 70
     6
  9
$SURFV
 70
     6
  9
$UCSNAME
  2

  9
$UCSORG
 10
0.0
 20
0.0
 30
0.0
  9
$UCSXDIR
 10
1.0
 20
0.0
 30
0.0
  9
$UCSYDIR
 10
0.0
 20
1.0
 30
0.0
  9
$PUCSNAME
  2

  9
$PUCSORG
 10
0.0
 20
0.0
 30
0.0
  9
$PUCSXDIR
 10
1.0
 20
0.0
 30
0.0
  9
$PUCSYDIR
 10
0.0
 20
1.0
 30
0.0
  9
$USERI1
 70
     0
  9
$USERI2
 70
     0
  9
$USERI3
 70
     0
  9
$USERI4
 70
     0
  9
$USERI5
 70
     0
  9
$USERR1
 40
0.0
  9
$USERR2
 40
0.0
  9
$USERR3
 40
0.0
  9
$USERR4
 40
0.0
  9
$USERR5
 40
0.0
  9
$WORLDVIEW
 70
     1
  9
$SHADEDGE
 70
     3
  9
$SHADEDIF
 70
    70
  9
$TILEMODE
 70
     1
  9
$MAXACTVP
 70
    64
  9
$PINSBASE
 10
0.0
 20
0.0
 30
0.0
  9
$PLIMCHECK
 70
     0
  9
$PEXTMIN
 10
1.000000000000000E+20
 20
1.000000000000000E+20
 30
1.000000000000000E+20
  9
$PEXTMAX
 10
-1.000000000000000E+20
 20
-1.000000000000000E+20
 30
-1.000000000000000E+20
  9
$PLIMMIN
 10
0.0
 20
0.0
  9
$PLIMMAX
 10
12.0
 20
9.0
  9
$UNITMODE
 70
     0
  9
$VISRETAIN
 70
     1
  9
$PLINEGEN
 70
     0
  9
$PSLTSCALE
 70
     1
  9
$TREEDEPTH
 70
  3020
  9
$PICKSTYLE
 70
     1
  9
$CMLSTYLE
  2
STANDARD
  9
$CMLJUST
 70
     0
  9
$CMLSCALE
 40
1.0
  9
$PROXYGRAPHICS
 70
     1
  9
$MEASUREMENT
 70
     1
  0
ENDSEC
  0
SECTION
  2
CLASSES
  0
CLASS
  1
ACDBDICTIONARYWDFLT
  2
AcDbDictionaryWithDefault
  3
ObjectDBX Classes
 90
        0
280
     0
281
     0
  0
CLASS
  1
VISUALSTYLE
  2
AcDbVisualStyle
  3
ObjectDBX Classes
 90
     4095
280
     0
281
     0
  0
CLASS
  1
MATERIAL
  2
AcDbMaterial
  3
ObjectDBX Classes
 90
     1153
280
     0
281
     0
  0
CLASS
  1
SCALE
  2
AcDbScale
  3
ObjectDBX Classes
 90
     1153
280
     0
281
     0
  0
CLASS
  1
TABLESTYLE
  2
AcDbTableStyle
  3
ObjectDBX Classes
 90
     4095
280
     0
281
     0
  0
CLASS
  1
MLEADERSTYLE
  2
AcDbMLeaderStyle
  3
ACDB_MLEADERSTYLE_CLASS
 90
     4095
280
     0
281
     0
  0
CLASS
  1
SUN
  2
AcDbSun
  3
SCENEOE
 90
     1153
280
     0
281
     0
  0
CLASS
  1
DICTIONARYVAR
  2
AcDbDictionaryVar
  3
ObjectDBX Classes
 90
        0
280
     0
281
     0
  0
CLASS
  1
XRECORD
  2
AcDbXrecord
  3
ObjectDBX Classes
 90
        0
280
     0
281
     0
  0
CLASS
  1
LWPOLYLINE
  2
AcDbPolyline
  3
ObjectDBX Classes
 90
        0
280
     0
281
     1
  0
CLASS
  1
HATCH
  2
AcDbHatch
  3
ObjectDBX Classes
 90
        0
280
     0
281
     1
  0
CLASS
  1
ACDBPLACEHOLDER
  2
AcDbPlaceHolder
  3
ObjectDBX Classes
 90
        0
280
     0
281
     0
  0
CLASS
  1
LAYOUT
  2
AcDbLayout
  3
ObjectDBX Classes
 90
        0
280
     0
281
     0
  0
ENDSEC
  0
SECTION
  2
TABLES
  0
TABLE
  2
VPORT
  5
8
102
{ACAD_XDICTIONARY
360
1EE
102
}
330
0
100
AcDbSymbolTable
 70
     1
  0
VPORT
  5
29
330
8
100
AcDbSymbolTableRecord
100
AcDbViewportTableRecord
  2
*ACTIVE
 70
     0
 10
0.0
 20
0.0
 11
1.0
 21
1.0
 12
675.25
 22
110.0414936851319
 13
0.0
 23
0.0
 14
0.5
 24
0.5
 15
0.5
 25
0.5
 16
0.0
 26
0.0
 36
1.0
 17
0.0
 27
0.0
 37
0.0
 40
149.9170126297361
 41
1.6
 42
50.0
 43
0.0
 44
0.0
 50
0.0
 51
0.0
 71
     0
 72
   100
 73
     1
 74
     3
 75
     0
 76
     0
 77
     0
 78
     0
  0
ENDTAB
  0
TABLE
  2
LTYPE
  5
5
330
0
100
AcDbSymbolTable
 70
     2
  0
LTYPE
  5
14
330
5
100
AcDbSymbolTableRecord
100
AcDbLinetypeTableRecord
  2
BYBLOCK
 70
     0
  3

 72
    65
 73
     0
 40
0.0
  0
LTYPE
  5
15
330
5
100
AcDbSymbolTableRecord
100
AcDbLinetypeTableRecord
  2
BYLAYER
 70
     0
  3

 72
    65
 73
     0
 40
0.0
  0
LTYPE
  5
16
330
5
100
AcDbSymbolTableRecord
100
AcDbLinetypeTableRecord
  2
CONTINUOUS
 70
     0
  3
Solid line
 72
    65
 73
     0
 40
0.0
  0
LTYPE
  5
14A
330
5
100
AcDbSymbolTableRecord
100
AcDbLinetypeTableRecord
  2
CENTER
 70
     0
  3

 72
    65
 73
     0
 40
0.0
  0
ENDTAB
  0
TABLE
  2
LAYER
  5
2
330
0
100
AcDbSymbolTable
 70
     2
  0
LAYER
  5
10
330
2
100
AcDbSymbolTableRecord
100
AcDbLayerTableRecord
  2
0
 70
     0
 62
     7
  6
CONTINUOUS
  0
LAYER
  5
6E
330
2
100
AcDbSymbolTableRecord
100
AcDbLayerTableRecord
  2
2
 70
     0
 62
     7
  6
CONTINUOUS
  0
ENDTAB
  0
TABLE
  2
STYLE
  5
3
330
0
100
AcDbSymbolTable
 70
     2
  0
STYLE
  5
11
330
3
100
AcDbSymbolTableRecord
100
AcDbTextStyleTableRecord
  2
STANDARD
 70
     0
 40
0.0
 41
1.0
 50
0.0
 71
     0
 42
0.2
  3
txt
  4

  0
STYLE
  5
6F
330
3
100
AcDbSymbolTableRecord
100
AcDbTextStyleTableRecord
  2
ＭＳ_ゴシック
 70
     0
 40
0.0
 41
1.0
 50
0.0
 71
     0
 42
0.2
  3
ＭＳ ゴシック.shx
  4

  0
ENDTAB
  0
TABLE
  2
VIEW
  5
6
330
0
100
AcDbSymbolTable
 70
     0
  0
ENDTAB
  0
TABLE
  2
UCS
  5
7
330
0
100
AcDbSymbolTable
 70
     0
  0
ENDTAB
  0
TABLE
  2
APPID
  5
9
330
0
100
AcDbSymbolTable
 70
     2
  0
APPID
  5
12
330
9
100
AcDbSymbolTableRecord
100
AcDbRegAppTableRecord
  2
ACAD
 70
     0
  0
APPID
  5
1F8
330
9
100
AcDbSymbolTableRecord
100
AcDbRegAppTableRecord
  2
ACAD_MLEADERVER
 70
     0
  0
ENDTAB
  0
TABLE
  2
DIMSTYLE
  5
A
330
0
100
AcDbSymbolTable
 70
     1
  0
DIMSTYLE
105
27
330
A
100
AcDbSymbolTableRecord
100
AcDbDimStyleTableRecord
  2
STANDARD
 70
     0
  3

  4

  5

  6

  7

 40
1.0
 41
0.18
 42
0.0625
 43
0.38
 44
0.18
 45
0.0
 46
0.0
 47
0.0
 48
0.0
140
0.18
141
0.09
142
0.0
143
25.4
144
1.0
145
0.0
146
1.0
147
0.09
 71
     0
 72
     0
 73
     1
 74
     1
 75
     0
 76
     0
 77
     0
 78
     0
170
     0
171
     2
172
     0
173
     0
174
     0
175
     0
176
     0
177
     0
178
     0
270
     2
271
     4
272
     4
273
     2
274
     2
340
11
275
     0
280
     0
281
     0
282
     0
283
     1
284
     0
285
     0
286
     0
287
     3
288
     0
  0
ENDTAB
  0
TABLE
  2
BLOCK_RECORD
  5
1
330
0
100
AcDbSymbolTable
 70
     0
  0
BLOCK_RECORD
  5
1F
330
1
100
AcDbSymbolTableRecord
100
AcDbBlockTableRecord
  2
*MODEL_SPACE
  0
BLOCK_RECORD
  5
1B
330
1
100
AcDbSymbolTableRecord
100
AcDbBlockTableRecord
  2
*PAPER_SPACE
  0
ENDTAB
  0
ENDSEC
  0
SECTION
  2
BLOCKS
  0
BLOCK
  5
20
330
1F
100
AcDbEntity
  8
0
100
AcDbBlockBegin
  2
*MODEL_SPACE
 70
     0
 10
0.0
 20
0.0
 30
0.0
  3
*MODEL_SPACE
  1

  0
ENDBLK
  5
21
330
1F
100
AcDbEntity
  8
0
100
AcDbBlockEnd
  0
BLOCK
  5
1C
330
1B
100
AcDbEntity
 67
     1
  8
0
100
AcDbBlockBegin
  2
*PAPER_SPACE
 70
     0
 10
0.0
 20
0.0
 30
0.0
  3
*PAPER_SPACE
  1

  0
ENDBLK
  5
1D
330
1B
100
AcDbEntity
 67
     1
  8
0
100
AcDbBlockEnd
  0
ENDSEC
  0
SECTION
  2
ENTITIES
  0
LWPOLYLINE
  5
70
330
1F
100
AcDbEntity
  8
2
  6
CONTINUOUS
 62
     7
100
AcDbPolyline
 90
       37
 70
     0
 43
0.0
 10
-756.0
 20
81.3652070141277
 10
-756.0006029849654
 20
81.39019527290424
 10
-756.0024104854983
 20
81.41512326150335
 10
-756.005418142016
 20
81.43993085511568
 10
-756.0096187002318
 20
81.4645582193173
 10
-756.015002028652
 20
81.48894595438679
 10
-756.0215551430123
 20
81.51303523857383
 10
-756.0292622375947
 20
81.53676796997365
 10
-756.0381047233507
 20
81.56008690666533
 10
-756.0480612727364
 20
81.58293580477594
 10
-756.0591078711534
 20
81.60525955413735
 10
-756.0712178748709
 20
81.62700431120857
 10
-756.0843620752878
 20
81.64811762894327
 10
-756.0985087693834
 20
81.66854858328877
 10
-756.1136238361823
 20
81.68824789601189
 10
-756.1296708190524
 20
81.70716805355502
 10
-756.146611013636
 20
81.72526342163597
 10
-756.1644035612024
 20
81.74249035531517
 10
-756.1830055471971
 20
81.7588073042646
 10
-756.2023721047486
 20
81.77417491298462
 10
-756.2224565228845
 20
81.78855611572722
 10
-756.2432103591963
 20
81.80191622589622
 10
-756.2645835566786
 20
81.81422301970936
 10
-756.286524564465
 20
81.82544681392008
 10
-756.3089804621636
 20
81.8355605374117
 10
-756.3318970875
 20
81.84453979649139
 10
-756.355219166952
 20
81.85236293372624
 10
-756.3788904490664
 20
81.85901108017973
 10
-756.4028538401343
 20
81.86446820092242
 10
-756.4270515418976
 20
81.86872113370721
 10
-756.4514251909549
 20
81.87175962071605
 10
-756.4759159995303
 20
81.87357633330099
 10
-756.5004648972666
 20
81.8741668896605
 10
-756.5250126736985
 20
81.87352986540817
 10
-756.5495001210658
 20
81.8716667970082
 10
-756.5738681771179
 20
81.86858217806953
 10
-756.598058067569
 20
81.8642834485075
210
0.0
220
0.0
230
-1.0
  0
LWPOLYLINE
  5
71
330
1F
100
AcDbEntity
  8
2
  6
CONTINUOUS
 62
     7
100
AcDbPolyline
 90
       29
 70
     0
 43
0.0
 10
-603.3652623237192
 20
161.5367276375557
 10
-603.3166947856363
 20
161.5380315354352
 10
-603.2682434444667
 20
161.5417247619966
 10
-603.2200242191252
 20
161.5477984812652
 10
-603.1721524731936
 20
161.5562381619831
 10
-603.1247427389155
 20
161.5670236123741
 10
-603.0779084431812
 20
161.5801290284529
 10
-603.0317616361544
 20
161.5955230557601
 10
-602.9864127231956
 20
161.6131688643774
 10
-602.9419702007186
 20
161.6330242370425
 10
-602.8985403966152
 20
161.655041670153
 10
-602.856227215868
 20
161.6791684874178
 10
-602.8151318919589
 20
161.7053469658844
 10
-602.775352744671
 20
161.7335144740398
 10
-602.7369849448593
 20
161.7636036216549
 10
-602.700120286757
 20
161.7955424210151
 10
-602.6648469683591
 20
161.8292544591488
 10
-602.6312493804111
 20
161.8646590806442
 10
-602.5994079045042
 20
161.9016715806162
 10
-602.569398720766
 20
161.9402034073608
 10
-602.5412936255987
 20
161.9801623742135
 10
-602.5151598599097
 20
162.0214528801042
 10
-602.4910599482373
 20
162.0639761382809
 10
-602.4690515491632
 20
162.1076304126552
 10
-602.4491873173645
 20
162.1523112612038
 10
-602.431514777639
 20
162.1979117858442
 10
-602.4160762112027
 20
162.2443228881864
 10
-602.4029085545329
 20
162.2914335305485
 10
-602.3920433109984
 20
162.3391310016124
210
0.0
220
0.0
230
-1.0
  0
LWPOLYLINE
  5
72
330
1F
100
AcDbEntity
  8
2
  6
CONTINUOUS
 62
     7
100
AcDbPolyline
 90
       20
 70
     0
 43
0.0
 10
-769.9550898605635
 20
78.81846819668903
 10
-769.94267941352
 20
78.79312081713499
 10
-769.9290969453667
 20
78.76891214169359
 10
-769.9144683595566
 20
78.74590377999064
 10
-769.8987119713893
 20
78.72386524341066
 10
-769.8820721813938
 20
78.70305234579381
 10
-769.8644465247711
 20
78.68326118822893
 10
-769.846080340291
 20
78.66470325819662
 10
-769.8270163217709
 20
78.6473418152676
 10
-769.8006468574491
 20
78.62606093919108
 10
-769.7732713620363
 20
78.60685936711951
 10
-769.7450657297874
 20
78.58975071503129
 10
-769.7158294203956
 20
78.57455650675529
 10
-769.6859687567946
 20
78.56144609330117
 10
-769.6552654848603
 20
78.55029334640737
 10
-769.6241189369903
 20
78.5412254248868
 10
-769.5925680522256
 20
78.53421853321706
 10
-769.5482827460376
 20
78.52791166153102
 10
-769.5036514756023
 20
78.52558831132744
 10
-769.5
 20
78.52557497787558
210
0.0
220
0.0
230
-1.0
  0
LWPOLYLINE
  5
73
330
1F
100
AcDbEntity
  8
2
  6
CONTINUOUS
 62
     7
100
AcDbPolyline
 90
       29
 70
     0
 43
0.0
 10
603.3652623237192
 20
181.4632723624444
 10
603.3166947856363
 20
181.4619684645648
 10
603.2682434444667
 20
181.4582752380035
 10
603.2200242191252
 20
181.4522015187348
 10
603.1721524731936
 20
181.4437618380169
 10
603.1247427389155
 20
181.4329763876259
 10
603.0779084431812
 20
181.4198709715471
 10
603.0317616361544
 20
181.4044769442399
 10
602.9864127231956
 20
181.3868311356226
 10
602.9419702007186
 20
181.3669757629575
 10
602.8985403966152
 20
181.344958329847
 10
602.856227215868
 20
181.3208315125822
 10
602.8151318919589
 20
181.2946530341156
 10
602.775352744671
 20
181.2664855259602
 10
602.7369849448593
 20
181.2363963783451
 10
602.700120286757
 20
181.2044575789849
 10
602.6648469683591
 20
181.1707455408513
 10
602.6312493804111
 20
181.1353409193559
 10
602.5994079045042
 20
181.0983284193838
 10
602.569398720766
 20
181.0597965926392
 10
602.5412936255987
 20
181.0198376257866
 10
602.5151598599097
 20
180.9785471198958
 10
602.4910599482373
 20
180.9360238617191
 10
602.4690515491632
 20
180.8923695873449
 10
602.4491873173645
 20
180.8476887387963
 10
602.431514777639
 20
180.8020882141558
 10
602.4160762112027
 20
180.7556771118136
 10
602.4029085545329
 20
180.7085664694515
 10
602.3920433109984
 20
180.6608689983876
  0
LWPOLYLINE
  5
74
330
1F
100
AcDbEntity
  8
2
  6
CONTINUOUS
 62
     7
100
AcDbPolyline
 90
       37
 70
     0
 43
0.0
 10
-669.6603679637482
 20
164.5
 10
-669.6353797049717
 20
164.5006029849654
 10
-669.6104517163725
 20
164.5024104854983
 10
-669.5856441227602
 20
164.505418142016
 10
-669.5610167585586
 20
164.5096187002318
 10
-669.5366290234891
 20
164.515002028652
 10
-669.512539739302
 20
164.5215551430123
 10
-669.4888070079022
 20
164.5292622375947
 10
-669.4654880712105
 20
164.5381047233506
 10
-669.4426391730999
 20
164.5480612727364
 10
-669.4203154237384
 20
164.5591078711534
 10
-669.3985706666673
 20
164.5712178748708
 10
-669.3774573489326
 20
164.5843620752878
 10
-669.357026394587
 20
164.5985087693834
 10
-669.337327081864
 20
164.6136238361824
 10
-669.3184069243208
 20
164.6296708190524
 10
-669.3003115562399
 20
164.646611013636
 10
-669.2830846225606
 20
164.6644035612025
 10
-669.2667676736113
 20
164.6830055471972
 10
-669.2514000648912
 20
164.7023721047486
 10
-669.2370188621486
 20
164.7224565228845
 10
-669.2236587519797
 20
164.7432103591962
 10
-669.2113519581665
 20
164.7645835566787
 10
-669.2001281639558
 20
164.786524564465
 10
-669.1900144404641
 20
164.8089804621637
 10
-669.1810351813845
 20
164.8318970875001
 10
-669.1732120441495
 20
164.855219166952
 10
-669.1665638976962
 20
164.8788904490664
 10
-669.1611067769534
 20
164.9028538401343
 10
-669.1568538441686
 20
164.9270515418976
 10
-669.1538153571598
 20
164.9514251909549
 10
-669.1519986445749
 20
164.9759159995304
 10
-669.1514080882154
 20
165.0004648972666
 10
-669.1520451124677
 20
165.0250126736986
 10
-669.1539081808676
 20
165.0495001210658
 10
-669.1569927998063
 20
165.0738681771179
 10
-669.1612915293683
 20
165.0980580675691
210
0.0
220
0.0
230
-1.0
  0
LWPOLYLINE
  5
75
330
1F
100
AcDbEntity
  8
2
  6
CONTINUOUS
 62
     7
100
AcDbPolyline
 90
       29
 70
     0
 43
0.0
 10
-668.6079566890021
 20
162.3391310016124
 10
-668.5970914454675
 20
162.2914335305485
 10
-668.5839237887977
 20
162.2443228881864
 10
-668.5684852223615
 20
162.1979117858442
 10
-668.550812682636
 20
162.1523112612038
 10
-668.5309484508373
 20
162.1076304126552
 10
-668.5089400517631
 20
162.0639761382809
 10
-668.4848401400909
 20
162.0214528801042
 10
-668.4587063744017
 20
161.9801623742135
 10
-668.4306012792346
 20
161.9402034073608
 10
-668.4005920954962
 20
161.9016715806162
 10
-668.3687506195894
 20
161.8646590806442
 10
-668.3351530316412
 20
161.8292544591488
 10
-668.2998797132435
 20
161.7955424210151
 10
-668.2630150551413
 20
161.7636036216549
 10
-668.2246472553296
 20
161.7335144740398
 10
-668.1848681080415
 20
161.7053469658844
 10
-668.1437727841326
 20
161.6791684874178
 10
-668.1014596033853
 20
161.655041670153
 10
-668.0580297992819
 20
161.6330242370425
 10
-668.013587276805
 20
161.6131688643774
 10
-667.968238363846
 20
161.5955230557601
 10
-667.9220915568193
 20
161.5801290284529
 10
-667.8752572610848
 20
161.5670236123741
 10
-667.8278475268069
 20
161.5562381619831
 10
-667.7799757808752
 20
161.5477984812652
 10
-667.7317565555337
 20
161.5417247619966
 10
-667.6833052143643
 20
161.5380315354352
 10
-667.6347376762812
 20
161.5367276375557
210
0.0
220
0.0
230
-1.0
  0
LWPOLYLINE
  5
76
330
1F
100
AcDbEntity
  8
2
  6
CONTINUOUS
 62
     7
100
AcDbPolyline
 90
       20
 70
     0
 43
0.0
 10
-756.5
 20
78.52557497787558
 10
-756.4963485243977
 20
78.52558831132744
 10
-756.4517769706524
 20
78.52790586172303
 10
-756.4074319477744
 20
78.53421853321706
 10
-756.3769349581617
 20
78.54095657595781
 10
-756.3466203537054
 20
78.54968138453785
 10
-756.3166764423229
 20
78.56039493402092
 10
-756.2868213466493
 20
78.57329749763164
 10
-756.2575322970055
 20
78.58829999230639
 10
-756.22853386338
 20
78.60568662111828
 10
-756.2003495609093
 20
78.62531304569525
 10
-756.1729836782291
 20
78.64734181526761
 10
-756.1545362882441
 20
78.66411291366992
 10
-756.1366366079585
 20
78.68211162555849
 10
-756.1194106613646
 20
78.7013038639647
 10
-756.1027356006042
 20
78.72196171528154
 10
-756.0869075359107
 20
78.74387546400918
 10
-756.0718238937142
 20
78.7673789377326
 10
-756.0578078826716
 20
78.79219517718009
 10
-756.0449101394365
 20
78.81846819668903
210
0.0
220
0.0
230
-1.0
  0
LWPOLYLINE
  5
77
330
1F
100
AcDbEntity
  8
2
  6
CONTINUOUS
 62
     7
100
AcDbPolyline
 90
       29
 70
     0
 43
0.0
 10
-665.2654710341701
 20
113.1051799957147
 10
-665.2892488444584
 20
113.0998271397327
 10
-665.3127375534011
 20
113.0933219201768
 10
-665.3358813483187
 20
113.0856797944201
 10
-665.3586252360985
 20
113.0769189212945
 10
-665.3809151738673
 20
113.0670601179427
 10
-665.4026981974046
 20
113.0561268103534
 10
-665.4239225469939
 20
113.0441449776982
 10
-665.4445377904113
 20
113.0311430906004
 10
-665.4644949427604
 20
113.0171520434852
 10
-665.4837465828673
 20
113.0022050811697
 10
-665.5022469659605
 20
112.9863377198681
 10
-665.5199521323672
 20
112.9695876628002
 10
-665.5368200119683
 20
112.9519947106027
 10
-665.5528105241634
 20
112.9336006667568
 10
-665.5678856731079
 20
112.9144492382573
 10
-665.5820096379967
 20
112.894585931758
 10
-665.5951488581804
 20
112.874057945441
 10
-665.60727211291
 20
112.852914056867
 10
-665.618350595522
 20
112.8312045070724
 10
-665.6283579818875
 20
112.8089808811892
 10
-665.6372704929621
 20
112.7862959858707
 10
-665.6450669512888
 20
112.7632037238155
 10
-665.6517288313185
 20
112.7397589656863
 10
-665.6572403034295
 20
112.7160174197292
 10
-665.6615882715412
 20
112.6920354994022
 10
-665.664762404232
 20
112.6678701893291
 10
-665.6667551592886
 20
112.6435789098949
 10
-665.6675618016277
 20
112.6192193808067
210
0.0
220
0.0
230
-1.0
  0
LWPOLYLINE
  5
78
330
1F
100
AcDbEntity
  8
2
  6
CONTINUOUS
 62
     7
100
AcDbPolyline
 90
       37
 70
     0
 43
0.0
 10
-669.1612915293683
 20
177.9019419324309
 10
-669.1569927998063
 20
177.9261318228821
 10
-669.1539081808676
 20
177.9504998789342
 10
-669.1520451124677
 20
177.9749873263014
 10
-669.1514080882154
 20
177.9995351027334
 10
-669.1519986445749
 20
178.0240840004697
 10
-669.1538153571598
 20
178.0485748090451
 10
-669.1568538441686
 20
178.0729484581024
 10
-669.1611067769534
 20
178.0971461598657
 10
-669.1665638976962
 20
178.1211095509337
 10
-669.1732120441495
 20
178.144780833048
 10
-669.1810351813845
 20
178.1681029125
 10
-669.1900144404641
 20
178.1910195378364
 10
-669.2001281639558
 20
178.2134754355351
 10
-669.2113519581665
 20
178.2354164433213
 10
-669.2236587519797
 20
178.2567896408038
 10
-669.2370188621486
 20
178.2775434771155
 10
-669.2514000648912
 20
178.2976278952514
 10
-669.2667676736113
 20
178.3169944528028
 10
-669.2830846225606
 20
178.3355964387975
 10
-669.3003115562399
 20
178.353388986364
 10
-669.3184069243208
 20
178.3703291809476
 10
-669.337327081864
 20
178.3863761638176
 10
-669.357026394587
 20
178.4014912306166
 10
-669.3774573489326
 20
178.4156379247122
 10
-669.3985706666673
 20
178.4287821251292
 10
-669.4203154237384
 20
178.4408921288466
 10
-669.4426391730999
 20
178.4519387272637
 10
-669.4654880712105
 20
178.4618952766494
 10
-669.4888070079022
 20
178.4707377624054
 10
-669.512539739302
 20
178.4784448569878
 10
-669.5366290234891
 20
178.484997971348
 10
-669.5610167585586
 20
178.4903812997682
 10
-669.5856441227602
 20
178.4945818579841
 10
-669.6104517163725
 20
178.4975895145017
 10
-669.6353797049717
 20
178.4993970150346
 10
-669.6603679637482
 20
178.5
210
0.0
220
0.0
230
-1.0
  0
LWPOLYLINE
  5
79
330
1F
100
AcDbEntity
  8
2
  6
CONTINUOUS
 62
     7
100
AcDbPolyline
 90
       37
 70
     0
 43
0.0
 10
-601.3396320362524
 20
178.5
 10
-601.3646202950289
 20
178.4993970150346
 10
-601.389548283628
 20
178.4975895145017
 10
-601.4143558772404
 20
178.4945818579841
 10
-601.438983241442
 20
178.4903812997682
 10
-601.4633709765114
 20
178.484997971348
 10
-601.4874602606985
 20
178.4784448569878
 10
-601.5111929920984
 20
178.4707377624054
 10
-601.53451192879
 20
178.4618952766494
 10
-601.5573608269005
 20
178.4519387272637
 10
-601.579684576262
 20
178.4408921288466
 10
-601.6014293333333
 20
178.4287821251292
 10
-601.622542651068
 20
178.4156379247122
 10
-601.6429736054134
 20
178.4014912306166
 10
-601.6626729181365
 20
178.3863761638176
 10
-601.6815930756796
 20
178.3703291809476
 10
-601.6996884437607
 20
178.353388986364
 10
-601.7169153774398
 20
178.3355964387975
 10
-601.7332323263893
 20
178.3169944528028
 10
-601.7485999351093
 20
178.2976278952514
 10
-601.7629811378519
 20
178.2775434771155
 10
-601.7763412480209
 20
178.2567896408038
 10
-601.7886480418341
 20
178.2354164433213
 10
-601.7998718360448
 20
178.2134754355351
 10
-601.8099855595364
 20
178.1910195378364
 10
-601.8189648186161
 20
178.1681029125
 10
-601.8267879558508
 20
178.144780833048
 10
-601.8334361023044
 20
178.1211095509337
 10
-601.8388932230471
 20
178.0971461598657
 10
-601.8431461558318
 20
178.0729484581024
 10
-601.8461846428406
 20
178.0485748090451
 10
-601.8480013554257
 20
178.0240840004697
 10
-601.8485919117852
 20
177.9995351027334
 10
-601.8479548875329
 20
177.9749873263015
 10
-601.8460918191329
 20
177.9504998789342
 10
-601.8430072001943
 20
177.9261318228821
 10
-601.8387084706321
 20
177.9019419324309
210
0.0
220
0.0
230
-1.0
  0
LWPOLYLINE
  5
7A
330
1F
100
AcDbEntity
  8
2
  6
CONTINUOUS
 62
     7
100
AcDbPolyline
 90
       37
 70
     0
 43
0.0
 10
-769.4019419324309
 20
81.8642834485075
 10
-769.4261318228821
 20
81.86858217806953
 10
-769.4504998789342
 20
81.8716667970082
 10
-769.4749873263015
 20
81.87352986540817
 10
-769.4995351027334
 20
81.8741668896605
 10
-769.5240840004697
 20
81.87357633330097
 10
-769.5485748090451
 20
81.87175962071605
 10
-769.5729484581024
 20
81.86872113370721
 10
-769.5971461598657
 20
81.86446820092242
 10
-769.6211095509336
 20
81.85901108017973
 10
-769.644780833048
 20
81.85236293372624
 10
-769.6681029125
 20
81.84453979649139
 10
-769.6910195378364
 20
81.8355605374117
 10
-769.713475435535
 20
81.82544681392008
 10
-769.7354164433214
 20
81.81422301970936
 10
-769.7567896408037
 20
81.80191622589622
 10
-769.7775434771155
 20
81.78855611572722
 10
-769.7976278952514
 20
81.7741749129846
 10
-769.8169944528028
 20
81.7588073042646
 10
-769.8355964387974
 20
81.74249035531517
 10
-769.853388986364
 20
81.72526342163597
 10
-769.8703291809476
 20
81.70716805355501
 10
-769.8863761638175
 20
81.68824789601187
 10
-769.9014912306166
 20
81.66854858328877
 10
-769.9156379247123
 20
81.64811762894327
 10
-769.9287821251293
 20
81.62700431120857
 10
-769.9408921288466
 20
81.60525955413733
 10
-769.9519387272636
 20
81.58293580477593
 10
-769.9618952766493
 20
81.56008690666533
 10
-769.9707377624054
 20
81.53676796997364
 10
-769.9784448569877
 20
81.51303523857383
 10
-769.984997971348
 20
81.48894595438679
 10
-769.9903812997682
 20
81.4645582193173
 10
-769.994581857984
 20
81.43993085511566
 10
-769.9975895145017
 20
81.41512326150335
 10
-769.9993970150346
 20
81.39019527290424
 10
-770.0
 20
81.36520701412769
210
0.0
220
0.0
230
-1.0
  0
LWPOLYLINE
  5
7B
330
1F
100
AcDbEntity
  8
2
  6
CONTINUOUS
 62
     7
100
AcDbPolyline
 90
       37
 70
     0
 43
0.0
 10
-601.8387084706321
 20
165.0980580675691
 10
-601.8430072001943
 20
165.0738681771179
 10
-601.8460918191329
 20
165.0495001210658
 10
-601.8479548875329
 20
165.0250126736986
 10
-601.8485919117852
 20
165.0004648972666
 10
-601.8480013554257
 20
164.9759159995303
 10
-601.8461846428406
 20
164.9514251909549
 10
-601.8431461558318
 20
164.9270515418976
 10
-601.8388932230471
 20
164.9028538401343
 10
-601.8334361023044
 20
164.8788904490664
 10
-601.8267879558508
 20
164.855219166952
 10
-601.8189648186161
 20
164.8318970875001
 10
-601.8099855595364
 20
164.8089804621637
 10
-601.7998718360448
 20
164.786524564465
 10
-601.7886480418341
 20
164.7645835566787
 10
-601.7763412480209
 20
164.7432103591962
 10
-601.7629811378519
 20
164.7224565228845
 10
-601.7485999351093
 20
164.7023721047486
 10
-601.7332323263893
 20
164.6830055471972
 10
-601.7169153774398
 20
164.6644035612025
 10
-601.6996884437607
 20
164.646611013636
 10
-601.6815930756796
 20
164.6296708190524
 10
-601.6626729181365
 20
164.6136238361824
 10
-601.6429736054134
 20
164.5985087693834
 10
-601.622542651068
 20
164.5843620752878
 10
-601.6014293333333
 20
164.5712178748708
 10
-601.579684576262
 20
164.5591078711534
 10
-601.5573608269005
 20
164.5480612727364
 10
-601.53451192879
 20
164.5381047233506
 10
-601.5111929920984
 20
164.5292622375947
 10
-601.4874602606985
 20
164.5215551430123
 10
-601.4633709765114
 20
164.515002028652
 10
-601.438983241442
 20
164.5096187002318
 10
-601.4143558772404
 20
164.505418142016
 10
-601.389548283628
 20
164.5024104854983
 10
-601.3646202950289
 20
164.5006029849654
 10
-601.3396320362524
 20
164.5
210
0.0
220
0.0
230
-1.0
  0
LWPOLYLINE
  5
7C
330
1F
100
AcDbEntity
  8
2
  6
CONTINUOUS
 62
     7
100
AcDbPolyline
 90
       29
 70
     0
 43
0.0
 10
-605.3324381983729
 20
112.6192193808067
 10
-605.3332448407119
 20
112.6435789098949
 10
-605.3352375957686
 20
112.6678701893291
 10
-605.3384117284594
 20
112.6920354994022
 10
-605.342759696571
 20
112.7160174197292
 10
-605.348271168682
 20
112.7397589656863
 10
-605.3549330487118
 20
112.7632037238155
 10
-605.3627295070385
 20
112.7862959858707
 10
-605.3716420181132
 20
112.8089808811892
 10
-605.3816494044786
 20
112.8312045070724
 10
-605.3927278870905
 20
112.852914056867
 10
-605.40485114182
 20
112.874057945441
 10
-605.4179903620038
 20
112.894585931758
 10
-605.4321143268927
 20
112.9144492382573
 10
-605.447189475837
 20
112.9336006667568
 10
-605.4631799880323
 20
112.9519947106026
 10
-605.4800478676334
 20
112.9695876628002
 10
-605.4977530340401
 20
112.9863377198681
 10
-605.5162534171332
 20
113.0022050811697
 10
-605.53550505724
 20
113.0171520434852
 10
-605.5554622095892
 20
113.0311430906004
 10
-605.5760774530066
 20
113.0441449776982
 10
-605.597301802596
 20
113.0561268103534
 10
-605.6190848261332
 20
113.0670601179426
 10
-605.641374763902
 20
113.0769189212945
 10
-605.6641186516819
 20
113.0856797944201
 10
-605.6872624465994
 20
113.0933219201768
 10
-605.7107511555422
 20
113.0998271397326
 10
-605.7345289658305
 20
113.1051799957147
210
0.0
220
0.0
230
-1.0
  0
LWPOLYLINE
  5
7D
330
1F
100
AcDbEntity
  8
2
  6
CONTINUOUS
 62
     7
100
AcDbPolyline
 90
       29
 70
     0
 43
0.0
 10
668.6079566890021
 20
180.6608689983876
 10
668.5970914454675
 20
180.7085664694515
 10
668.5839237887977
 20
180.7556771118136
 10
668.5684852223615
 20
180.8020882141558
 10
668.550812682636
 20
180.8476887387963
 10
668.5309484508373
 20
180.8923695873449
 10
668.5089400517631
 20
180.9360238617191
 10
668.4848401400909
 20
180.9785471198958
 10
668.4587063744017
 20
181.0198376257866
 10
668.4306012792346
 20
181.0597965926392
 10
668.4005920954962
 20
181.0983284193838
 10
668.3687506195894
 20
181.1353409193559
 10
668.3351530316412
 20
181.1707455408513
 10
668.2998797132435
 20
181.2044575789849
 10
668.2630150551413
 20
181.2363963783451
 10
668.2246472553296
 20
181.2664855259602
 10
668.1848681080415
 20
181.2946530341156
 10
668.1437727841326
 20
181.3208315125822
 10
668.1014596033853
 20
181.344958329847
 10
668.0580297992819
 20
181.3669757629575
 10
668.013587276805
 20
181.3868311356226
 10
667.968238363846
 20
181.4044769442399
 10
667.9220915568193
 20
181.4198709715471
 10
667.8752572610848
 20
181.4329763876259
 10
667.8278475268069
 20
181.4437618380169
 10
667.7799757808752
 20
181.4522015187348
 10
667.7317565555337
 20
181.4582752380034
 10
667.6833052143643
 20
181.4619684645648
 10
667.6347376762812
 20
181.4632723624444
  0
MTEXT
  5
7E
330
1F
100
AcDbEntity
  8
2
 62
     1
100
AcDbMText
 10
670.859009628611
 20
37.74207827935476
 30
0.0
 40
3.0
 41
0.0
 71
     1
 72
     1
  1
{\fＭＳ ゴシック;MIDS-60}
  0
ELLIPSE
  5
7F
330
1F
100
AcDbEntity
  8
2
  6
CONTINUOUS
 62
   253
100
AcDbEllipse
 10
666.4908154834044
 20
176.2029414592216
 30
0.0
 11
3.00060930057548
 21
0.0
 31
0.0
210
0.0
220
0.0
230
1.0
 40
0.9997969410494856
 41
0.0
 42
0.1973955598498811
  0
LINE
  5
80
330
1F
100
AcDbEntity
  8
2
  6
CONTINUOUS
 62
     7
100
AcDbLine
 10
661.1399574339185
 20
181.2936832385242
 30
0.0
 11
660.1610554931732
 21
181.2931765935749
 31
0.0
  0
ELLIPSE
  5
81
330
1F
100
AcDbEntity
  8
2
  6
CONTINUOUS
 62
   253
100
AcDbEllipse
 10
604.5091845165961
 20
176.2029414592216
 30
0.0
 11
3.00060930057548
 21
0.0
 31
0.0
210
0.0
220
0.0
230
1.0
 40
0.9997969410494856
 41
2.944197093739912
 42
3.141592653589793
  0
LINE
  5
82
330
1F
100
AcDbEntity
  8
2
  6
CONTINUOUS
 62
   253
100
AcDbLine
 10
601.5085752160206
 20
176.2029414592216
 30
0.0
 11
601.5085752160206
 21
166.7970585407784
 31
0.0
  0
ELLIPSE
  5
83
330
1F
100
AcDbEntity
  8
2
  6
CONTINUOUS
 62
     7
100
AcDbEllipse
 10
601.9264080114469
 20
164.2970585407784
 30
0.0
 11
0.6111151171770174
 21
-2.999963778147591
 31
0.0
210
0.0
220
0.0
230
-1.0
 40
0.0241232943223978
 41
4.717303036774239
 42
4.91469859662412
  0
LINE
  5
84
330
1F
100
AcDbEntity
  8
2
  6
CONTINUOUS
 62
     7
100
AcDbLine
 10
669.6603679637482
 20
178.5
 30
0.0
 11
672.0000000000002
 21
178.5
 31
0.0
  0
LINE
  5
85
330
1F
100
AcDbEntity
  8
2
  6
CONTINUOUS
 62
   253
100
AcDbLine
 10
601.5668450211533
 20
166.2087101353638
 30
0.0
 11
601.7890092714036
 21
165.0980580675691
 31
0.0
  0
LINE
  5
86
330
1F
100
AcDbEntity
  8
2
  6
CONTINUOUS
 62
   253
100
AcDbLine
 10
669.4914247839798
 20
176.2029414592216
 30
0.0
 11
668.8580993326915
 21
176.2029414592216
 31
0.0
  0
ELLIPSE
  5
87
330
1F
100
AcDbEntity
  8
2
  6
CONTINUOUS
 62
     7
100
AcDbEllipse
 10
669.0735919885536
 20
178.7029414592217
 30
0.0
 11
0.6111151171770189
 21
-2.999963778147593
 31
0.0
210
0.0
220
0.0
230
-1.0
 40
0.0241232943223977
 41
1.575710383184447
 42
1.77310594303433
  0
LINE
  5
88
330
1F
100
AcDbEntity
  8
2
  6
CONTINUOUS
 62
     7
100
AcDbLine
 10
669.6603679637482
 20
164.5
 30
0.0
 11
672.0000000000002
 21
164.5
 31
0.0
  0
LINE
  5
89
330
1F
100
AcDbEntity
  8
2
  6
CONTINUOUS
 62
     7
100
AcDbLine
 10
601.3396320362524
 20
178.5
 30
0.0
 11
599.0000000000003
 21
178.5
 31
0.0
  0
ELLIPSE
  5
8A
330
1F
100
AcDbEntity
  8
2
  6
CONTINUOUS
 62
     7
100
AcDbEllipse
 10
667.6106431379732
 20
162.5444029949156
 30
0.0
 11
-0.9750984509255146
 21
0.2937032493021143
 31
0.0
210
0.0
220
0.0
230
-1.0
 40
0.9819559702243748
 41
3.046773454420271
 42
3.050384508117661
  0
LINE
  5
8B
330
1F
100
AcDbEntity
  8
2
  6
CONTINUOUS
 62
     7
100
AcDbLine
 10
666.2792650307132
 20
181.493663725342
 30
0.0
 11
665.983317832105
 21
181.4899908618792
 31
0.0
  0
LINE
  5
8C
330
1F
100
AcDbEntity
  8
2
  6
CONTINUOUS
 62
   253
100
AcDbLine
 10
669.2109907285968
 20
177.9019419324309
 30
0.0
 11
669.1612915293683
 21
177.9019419324309
 31
0.0
  0
LINE
  5
8D
330
1F
100
AcDbEntity
  8
2
  6
CONTINUOUS
 62
   253
100
AcDbLine
 10
669.4331549788471
 20
176.7912898646362
 30
0.0
 11
669.2109907285968
 21
177.9019419324309
 31
0.0
  0
LINE
  5
8E
330
1F
100
AcDbEntity
  8
2
  6
CONTINUOUS
 62
   253
100
AcDbLine
 10
601.7890092714036
 20
177.9019419324309
 30
0.0
 11
601.5668450211533
 21
176.7912898646362
 31
0.0
  0
LINE
  5
8F
330
1F
100
AcDbEntity
  8
2
  6
CONTINUOUS
 62
   253
100
AcDbLine
 10
669.1612915293683
 20
165.0980580675691
 30
0.0
 11
669.2109907285968
 21
165.0980580675691
 31
0.0
  0
LINE
  5
90
330
1F
100
AcDbEntity
  8
2
  6
CONTINUOUS
 62
   253
100
AcDbLine
 10
601.8387084706321
 20
177.9019419324309
 30
0.0
 11
601.7890092714036
 21
177.9019419324309
 31
0.0
  0
LINE
  5
91
330
1F
100
AcDbEntity
  8
2
  6
CONTINUOUS
 62
     7
100
AcDbLine
 10
668.6086667183124
 20
162.342672808655
 30
0.0
 11
668.8799061241841
 21
163.7087101353638
 31
0.0
  0
LINE
  5
92
330
1F
100
AcDbEntity
  8
2
  6
CONTINUOUS
 62
   253
100
AcDbLine
 10
601.7890092714036
 20
165.0980580675691
 30
0.0
 11
601.8387084706321
 21
165.0980580675691
 31
0.0
  0
LINE
  5
93
330
1F
100
AcDbEntity
  8
2
  6
CONTINUOUS
 62
     7
100
AcDbLine
 10
605.0166821678955
 20
181.4899908618792
 30
0.0
 11
604.7207349692874
 21
181.493663725342
 31
0.0
  0
LINE
  5
94
330
1F
100
AcDbEntity
  8
2
  6
CONTINUOUS
 62
     7
100
AcDbLine
 10
602.1200938758165
 20
163.7087101353638
 30
0.0
 11
602.3913332816882
 21
162.342672808655
 31
0.0
  0
LINE
  5
95
330
1F
100
AcDbEntity
  8
2
  6
CONTINUOUS
 62
   253
100
AcDbLine
 10
669.4914247839798
 20
166.7970585407784
 30
0.0
 11
669.4914247839798
 21
176.2029414592216
 31
0.0
  0
ELLIPSE
  5
96
330
1F
100
AcDbEntity
  8
2
  6
CONTINUOUS
 62
     7
100
AcDbEllipse
 10
669.0735919885536
 20
164.2970585407784
 30
0.0
 11
0.6111151171770182
 21
2.999963778147593
 31
0.0
210
0.0
220
0.0
230
-1.0
 40
0.0241232943223977
 41
4.510079364145254
 42
4.707474923995139
  0
LINE
  5
97
330
1F
100
AcDbEntity
  8
2
  6
CONTINUOUS
 62
     7
100
AcDbLine
 10
602.0017791889038
 20
164.2970585407784
 30
0.0
 11
601.8387084706321
 21
165.0980580675691
 31
0.0
  0
LINE
  5
98
330
1F
100
AcDbEntity
  8
2
  6
CONTINUOUS
 62
     7
100
AcDbLine
 10
609.8600425660819
 20
181.2936832385242
 30
0.0
 11
605.7345289658303
 21
181.2979958144728
 31
0.0
  0
LINE
  5
99
330
1F
100
AcDbEntity
  8
2
  6
CONTINUOUS
 62
     7
100
AcDbLine
 10
668.8799061241841
 20
179.2912898646363
 30
0.0
 11
668.6086667183124
 21
180.657327191345
 31
0.0
  0
LINE
  5
9A
330
1F
100
AcDbEntity
  8
2
  6
CONTINUOUS
 62
     7
100
AcDbLine
 10
665.983317832105
 20
181.4899908618792
 30
0.0
 11
665.6675618016277
 21
181.3005403215554
 31
0.0
  0
LINE
  5
9B
330
1F
100
AcDbEntity
  8
2
  6
CONTINUOUS
 62
     7
100
AcDbLine
 10
601.8387084706321
 20
177.9019419324309
 30
0.0
 11
602.0017791889038
 21
178.7029414592217
 31
0.0
  0
LINE
  5
9C
330
1F
100
AcDbEntity
  8
2
  6
CONTINUOUS
 62
     7
100
AcDbLine
 10
598.7928932188141
 20
178.4550898605624
 30
0.0
 11
599.0000000000003
 21
178.5
 31
0.0
  0
ELLIPSE
  5
9D
330
1F
100
AcDbEntity
  8
2
  6
CONTINUOUS
 62
     7
100
AcDbEllipse
 10
667.6106431379733
 20
180.4555970050844
 30
0.0
 11
-0.9750984509255148
 21
-0.2937032493021132
 31
0.0
210
0.0
220
0.0
230
-1.0
 40
0.981955970224375
 41
3.232800799061921
 42
3.236411852759313
  0
LINE
  5
9E
330
1F
100
AcDbEntity
  8
2
  6
CONTINUOUS
 62
     7
100
AcDbLine
 10
665.2654710341701
 20
181.2979958144728
 30
0.0
 11
661.1399574339185
 21
181.2936832385242
 31
0.0
  0
LINE
  5
9F
330
1F
100
AcDbEntity
  8
2
  6
CONTINUOUS
 62
   253
100
AcDbLine
 10
669.2109907285968
 20
165.0980580675691
 30
0.0
 11
669.4331549788471
 21
166.2087101353638
 31
0.0
  0
LINE
  5
A0
330
1F
100
AcDbEntity
  8
2
  6
CONTINUOUS
 62
     7
100
AcDbLine
 10
665.6675618016277
 20
181.3005403215554
 30
0.0
 11
665.2654710341701
 21
181.2979958144728
 31
0.0
  0
LINE
  5
A1
330
1F
100
AcDbEntity
  8
2
  6
CONTINUOUS
 62
     7
100
AcDbLine
 10
599.0000000000003
 20
164.5
 30
0.0
 11
598.7928932188141
 21
164.5449101394375
 31
0.0
  0
LINE
  5
A2
330
1F
100
AcDbEntity
  8
2
  6
CONTINUOUS
 62
     7
100
AcDbLine
 10
601.3396320362524
 20
164.5
 30
0.0
 11
599.0000000000003
 21
164.5
 31
0.0
  0
LINE
  5
A3
330
1F
100
AcDbEntity
  8
2
  6
CONTINUOUS
 62
   253
100
AcDbLine
 10
668.8580993326915
 20
166.7970585407784
 30
0.0
 11
669.4914247839798
 21
166.7970585407784
 31
0.0
  0
LINE
  5
A4
330
1F
100
AcDbEntity
  8
2
  6
CONTINUOUS
 62
     7
100
AcDbLine
 10
668.9982208110966
 20
178.7029414592217
 30
0.0
 11
669.1612915293683
 21
177.9019419324309
 31
0.0
  0
LINE
  5
A5
330
1F
100
AcDbEntity
  8
2
  6
CONTINUOUS
 62
     7
100
AcDbLine
 10
604.7207349692874
 20
181.493663725342
 30
0.0
 11
603.5000000000002
 21
181.5
 31
0.0
  0
LINE
  5
A6
330
1F
100
AcDbEntity
  8
2
  6
CONTINUOUS
 62
     7
100
AcDbLine
 10
605.7345289658303
 20
181.2979958144728
 30
0.0
 11
605.3324381983728
 21
181.3005403215554
 31
0.0
  0
LINE
  5
A7
330
1F
100
AcDbEntity
  8
2
  6
CONTINUOUS
 62
     7
100
AcDbLine
 10
667.5000000000002
 20
181.5
 30
0.0
 11
666.2792650307132
 21
181.493663725342
 31
0.0
  0
LINE
  5
A8
330
1F
100
AcDbEntity
  8
2
  6
CONTINUOUS
 62
     7
100
AcDbLine
 10
602.3913332816882
 20
180.657327191345
 30
0.0
 11
602.1200938758165
 21
179.2912898646362
 31
0.0
  0
ELLIPSE
  5
A9
330
1F
100
AcDbEntity
  8
2
  6
CONTINUOUS
 62
     7
100
AcDbEllipse
 10
603.3893568620273
 20
162.5444029949156
 30
0.0
 11
-0.9750984509255148
 21
-0.2937032493021139
 31
0.0
210
0.0
220
0.0
230
-1.0
 40
0.9819559702243743
 41
0.0912081454721355
 42
0.0948191991695197
  0
LINE
  5
AA
330
1F
100
AcDbEntity
  8
2
  6
CONTINUOUS
 62
     7
100
AcDbLine
 10
610.8389445068273
 20
181.2931765935749
 30
0.0
 11
609.8600425660819
 21
181.2936832385242
 31
0.0
  0
ELLIPSE
  5
AB
330
1F
100
AcDbEntity
  8
2
  6
CONTINUOUS
 62
   253
100
AcDbEllipse
 10
666.4908154834044
 20
166.7970585407784
 30
0.0
 11
3.00060930057548
 21
0.0
 31
0.0
210
0.0
220
0.0
230
1.0
 40
0.9997969410494856
 41
6.085789747329706
 42
6.283185307179586
  0
LINE
  5
AC
330
1F
100
AcDbEntity
  8
2
  6
CONTINUOUS
 62
     7
100
AcDbLine
 10
605.3324381983728
 20
181.3005403215554
 30
0.0
 11
605.0166821678955
 21
181.4899908618792
 31
0.0
  0
LINE
  5
AD
330
1F
100
AcDbEntity
  8
2
  6
CONTINUOUS
 62
     7
100
AcDbLine
 10
672.2071067811864
 20
164.5449101394375
 30
0.0
 11
672.0000000000002
 21
164.5
 31
0.0
  0
ELLIPSE
  5
AE
330
1F
100
AcDbEntity
  8
2
  6
CONTINUOUS
 62
   253
100
AcDbEllipse
 10
604.5091845165961
 20
166.7970585407784
 30
0.0
 11
3.00060930057548
 21
0.0
 31
0.0
210
0.0
220
0.0
230
1.0
 40
0.9997969410494856
 41
3.141592653589792
 42
3.338988213439672
  0
LINE
  5
AF
330
1F
100
AcDbEntity
  8
2
  6
CONTINUOUS
 62
     7
100
AcDbLine
 10
603.5000000000002
 20
181.5
 30
0.0
 11
589.6648082866427
 21
181.5
 31
0.0
  0
LINE
  5
B0
330
1F
100
AcDbEntity
  8
2
  6
CONTINUOUS
 62
     7
100
AcDbLine
 10
660.1610554931732
 20
181.2931765935749
 30
0.0
 11
610.8389445068273
 21
181.2931765935749
 31
0.0
  0
LINE
  5
B1
330
1F
100
AcDbEntity
  8
2
  6
CONTINUOUS
 62
   253
100
AcDbLine
 10
602.1419006673091
 20
176.2029414592216
 30
0.0
 11
601.5085752160206
 21
176.2029414592216
 31
0.0
  0
ELLIPSE
  5
B2
330
1F
100
AcDbEntity
  8
2
  6
CONTINUOUS
 62
     7
100
AcDbEllipse
 10
603.3893568620273
 20
180.4555970050844
 30
0.0
 11
-0.9750984509255151
 21
0.2937032493021126
 31
0.0
210
0.0
220
0.0
230
-1.0
 40
0.9819559702243745
 41
6.188366108010068
 42
6.191977161707451
  0
ELLIPSE
  5
B3
330
1F
100
AcDbEntity
  8
2
  6
CONTINUOUS
 62
     7
100
AcDbEllipse
 10
601.9264080114469
 20
178.7029414592217
 30
0.0
 11
0.6111151171770174
 21
2.999963778147591
 31
0.0
210
0.0
220
0.0
230
-1.0
 40
0.0241232943223978
 41
1.368486710555465
 42
1.565882270405347
  0
LINE
  5
B4
330
1F
100
AcDbEntity
  8
2
  6
CONTINUOUS
 62
   253
100
AcDbLine
 10
601.5085752160206
 20
166.7970585407784
 30
0.0
 11
602.1419006673091
 21
166.7970585407784
 31
0.0
  0
LINE
  5
B5
330
1F
100
AcDbEntity
  8
2
  6
CONTINUOUS
 62
     7
100
AcDbLine
 10
672.0000000000002
 20
178.5
 30
0.0
 11
672.2071067811864
 21
178.4550898605625
 31
0.0
  0
LINE
  5
B6
330
1F
100
AcDbEntity
  8
2
  6
CONTINUOUS
 62
     7
100
AcDbLine
 10
669.1612915293683
 20
165.0980580675691
 30
0.0
 11
668.9982208110966
 21
164.2970585407783
 31
0.0
  0
LINE
  5
B7
330
1F
100
AcDbEntity
  8
2
  6
CONTINUOUS
 62
     7
100
AcDbLine
 10
598.0857864376272
 20
178.0
 30
0.0
 11
598.7928932188137
 21
178.4550898605634
 31
0.0
  0
LINE
  5
B8
330
1F
100
AcDbEntity
  8
2
  6
CONTINUOUS
 62
     7
100
AcDbLine
 10
598.7928932188137
 20
164.5449101394366
 30
0.0
 11
598.0857864376272
 21
165.0
 31
0.0
  0
LINE
  5
B9
330
1F
100
AcDbEntity
  8
2
  6
CONTINUOUS
 62
   253
100
AcDbLine
 10
669.701206392849
 20
165.0
 30
0.0
 11
672.9142135623733
 21
165.0
 31
0.0
  0
LINE
  5
BA
330
1F
100
AcDbEntity
  8
2
  6
CONTINUOUS
 62
   253
100
AcDbLine
 10
601.2987936071514
 20
178.0
 30
0.0
 11
601.7890092714036
 21
177.9019419324309
 31
0.0
  0
ELLIPSE
  5
BB
330
1F
100
AcDbEntity
  8
2
  6
CONTINUOUS
 62
     7
100
AcDbEllipse
 10
586.2501523280442
 20
177.0857864376269
 30
0.0
 11
1.000152328043846
 21
0.0
 31
0.0
210
0.0
220
0.0
230
-1.0
 40
0.9998476951564536
 41
3.141592653589793
 42
3.92699081698724
  0
LINE
  5
BC
330
1F
100
AcDbEntity
  8
2
  6
CONTINUOUS
 62
     7
100
AcDbLine
 10
772.7071576896689
 20
74.52557497787558
 30
0.0
 11
769.2928932188134
 21
74.52557497787558
 31
0.0
  0
LINE
  5
BD
330
1F
100
AcDbEntity
  8
2
  6
CONTINUOUS
 62
     7
100
AcDbLine
 10
757.4142135623731
 20
74.52557497787558
 30
0.0
 11
768.5857864376269
 21
74.52557497787558
 31
0.0
  0
LINE
  5
BE
330
1F
100
AcDbEntity
  8
2
  6
CONTINUOUS
 62
     7
100
AcDbLine
 10
672.2071067811869
 20
178.4550898605634
 30
0.0
 11
672.9142135623733
 21
178.0
 31
0.0
  0
LINE
  5
BF
330
1F
100
AcDbEntity
  8
2
  6
CONTINUOUS
 62
     7
100
AcDbLine
 10
585.5429378346648
 20
177.7928932188135
 30
0.0
 11
588.9577223937484
 21
181.2071576896689
 31
0.0
  0
LINE
  5
C0
330
1F
100
AcDbEntity
  8
2
  6
CONTINUOUS
 62
     7
100
AcDbLine
 10
757.4142135623731
 20
74.52557497787558
 30
0.0
 11
756.7071067811866
 21
74.52557497787558
 31
0.0
  0
LINE
  5
C1
330
1F
100
AcDbEntity
  8
2
  6
CONTINUOUS
 62
     7
100
AcDbLine
 10
758.0441105945163
 20
78.52557497787558
 30
0.0
 11
758.3206346760652
 21
78.52557497787558
 31
0.0
  0
LINE
  5
C2
330
1F
100
AcDbEntity
  8
2
  6
CONTINUOUS
 62
   253
100
AcDbLine
 10
672.9142135623733
 20
178.7029414592216
 30
0.0
 11
672.9142135623733
 21
178.0
 31
0.0
  0
LINE
  5
C3
330
1F
100
AcDbEntity
  8
2
  6
CONTINUOUS
 62
     7
100
AcDbLine
 10
773.0
 20
74.52557497787558
 30
0.0
 11
772.7071576896689
 21
74.52557497787558
 31
0.0
  0
LINE
  5
C4
330
1F
100
AcDbEntity
  8
2
  6
CONTINUOUS
 62
     7
100
AcDbLine
 10
767.9558894054838
 20
78.52557497787558
 30
0.0
 11
770.0883595430772
 21
78.52557497787558
 31
0.0
  0
ELLIPSE
  5
C5
330
1F
100
AcDbEntity
  8
2
  6
CONTINUOUS
 62
   253
100
AcDbEllipse
 10
672.9142135623733
 20
158.7029414592216
 30
0.0
 11
0.0
 21
19.99999999999999
 31
0.0
210
0.0
220
0.0
230
1.0
 40
0.0500000000000001
 41
0.0
 42
0.0080304778636624
  0
LINE
  5
C6
330
1F
100
AcDbEntity
  8
2
  6
CONTINUOUS
 62
   253
100
AcDbLine
 10
672.9142135623733
 20
164.2970585407784
 30
0.0
 11
672.9142135623733
 21
163.7087101353638
 31
0.0
  0
LINE
  5
C7
330
1F
100
AcDbEntity
  8
2
  6
CONTINUOUS
 62
   253
100
AcDbLine
 10
598.0857864376272
 20
164.2970585407784
 30
0.0
 11
598.0857864376272
 21
165.0
 31
0.0
  0
ELLIPSE
  5
C8
330
1F
100
AcDbEntity
  8
2
  6
CONTINUOUS
 62
   253
100
AcDbEllipse
 10
672.9142135623733
 20
159.2912898646362
 30
0.0
 11
0.0
 21
19.99999999999999
 31
0.0
210
0.0
220
0.0
230
-1.0
 40
0.2000000000000001
 41
6.275154829315924
 42
6.283185307179586
  0
ELLIPSE
  5
C9
330
1F
100
AcDbEntity
  8
2
  6
CONTINUOUS
 62
     7
100
AcDbEllipse
 10
586.2501523280442
 20
165.9142135623731
 30
0.0
 11
1.000152328043846
 21
0.0
 31
0.0
210
0.0
220
0.0
230
-1.0
 40
0.9998476951564536
 41
2.356194490192348
 42
3.141592653589793
  0
LINE
  5
CA
330
1F
100
AcDbEntity
  8
2
  6
CONTINUOUS
 62
     7
100
AcDbLine
 10
588.9577223937484
 20
161.7928423103311
 30
0.0
 11
585.5429378346648
 21
165.2071067811866
 31
0.0
  0
LINE
  5
CB
330
1F
100
AcDbEntity
  8
2
  6
CONTINUOUS
 62
   253
100
AcDbLine
 10
669.2109907285968
 20
177.9019419324309
 30
0.0
 11
669.701206392849
 21
178.0
 31
0.0
  0
ELLIPSE
  5
CC
330
1F
100
AcDbEntity
  8
2
  6
CONTINUOUS
 62
     7
100
AcDbEllipse
 10
684.7498476719563
 20
165.9142135623731
 30
0.0
 11
1.000152328043846
 21
0.0
 31
0.0
210
0.0
220
0.0
230
-1.0
 40
0.9998476951564536
 41
0.0
 42
0.7853981633974454
  0
ELLIPSE
  5
CD
330
1F
100
AcDbEntity
  8
2
  6
CONTINUOUS
 62
   253
100
AcDbEllipse
 10
598.1179080038335
 20
178.7022965769401
 30
0.0
 11
0.1203627670075115
 21
2.997584494942253
 31
0.0
210
0.0
220
0.0
230
1.0
 40
0.0080239261509072
 41
1.373561798023139
 42
1.571118513516257
  0
LINE
  5
CE
330
1F
100
AcDbEntity
  8
2
  6
CONTINUOUS
 62
     7
100
AcDbLine
 10
772.9859987927489
 20
77.19958415304025
 30
0.0
 11
773.0
 21
74.52557497787558
 31
0.0
  0
LINE
  5
CF
330
1F
100
AcDbEntity
  8
2
  6
CONTINUOUS
 62
   253
100
AcDbLine
 10
672.8820919961671
 20
163.7093550176454
 30
0.0
 11
672.7668238907708
 21
162.3179459008622
 31
0.0
  0
LINE
  5
D0
330
1F
100
AcDbEntity
  8
2
  6
CONTINUOUS
 62
   253
100
AcDbLine
 10
672.9142135623733
 20
178.7029414592216
 30
0.0
 11
672.9142135623733
 21
179.2912898646362
 31
0.0
  0
ELLIPSE
  5
D1
330
1F
100
AcDbEntity
  8
2
  6
CONTINUOUS
 62
     7
100
AcDbEllipse
 10
681.3351277391384
 20
162.5000137079405
 30
0.0
 11
-0.9192357514736778
 21
0.3939318906460882
 31
0.0
210
0.0
220
0.0
230
-1.0
 40
0.9999116610793869
 41
3.522168881300386
 42
4.307489369264718
  0
ELLIPSE
  5
D2
330
1F
100
AcDbEntity
  8
2
  6
CONTINUOUS
 62
   253
100
AcDbEllipse
 10
672.9142135623733
 20
184.2970585407781
 30
0.0
 11
-0.7079901101666338
 21
-19.99998437506679
 31
0.0
210
0.0
220
0.0
230
1.0
 40
0.0353111449545572
 41
0.0012499973958434
 42
0.0092804752594939
  0
ELLIPSE
  5
D3
330
1F
100
AcDbEntity
  8
2
  6
CONTINUOUS
 62
     7
100
AcDbEllipse
 10
681.3351277391384
 20
180.4999862920595
 30
0.0
 11
-0.9192357514736827
 21
-0.3939318906460905
 31
0.0
210
0.0
220
0.0
230
-1.0
 40
0.9999116610793818
 41
1.975695937914868
 42
2.761016425879196
  0
LINE
  5
D4
330
1F
100
AcDbEntity
  8
2
  6
CONTINUOUS
 62
     7
100
AcDbLine
 10
672.9142135623733
 20
165.0
 30
0.0
 11
672.2071067811869
 21
164.5449101394366
 31
0.0
  0
LINE
  5
D5
330
1F
100
AcDbEntity
  8
2
  6
CONTINUOUS
 62
     7
100
AcDbLine
 10
769.2928932188134
 20
74.52557497787558
 30
0.0
 11
768.5857864376269
 21
74.52557497787558
 31
0.0
  0
LINE
  5
D6
330
1F
100
AcDbEntity
  8
2
  6
CONTINUOUS
 62
   253
100
AcDbLine
 10
672.9142135623733
 20
165.0
 30
0.0
 11
672.9142135623733
 21
164.2970585407784
 31
0.0
  0
LINE
  5
D7
330
1F
100
AcDbEntity
  8
2
  6
CONTINUOUS
 62
   253
100
AcDbLine
 10
598.0857864376272
 20
165.0
 30
0.0
 11
601.2987936071514
 21
165.0
 31
0.0
  0
LINE
  5
D8
330
1F
100
AcDbEntity
  8
2
  6
CONTINUOUS
 62
     7
100
AcDbLine
 10
756.7071067811866
 20
74.52557497787558
 30
0.0
 11
753.2928423103311
 21
74.52557497787558
 31
0.0
  0
CIRCLE
  5
D9
330
1F
100
AcDbEntity
  8
2
  6
CONTINUOUS
 62
     7
100
AcDbCircle
 10
-677.5000000000003
 20
171.5
 30
0.0
 40
2.499999999999947
210
0.0
220
0.0
230
-1.0
  0
LINE
  5
DA
330
1F
100
AcDbEntity
  8
2
  6
CONTINUOUS
 62
     7
100
AcDbLine
 10
685.7500000000002
 20
165.9142135623731
 30
0.0
 11
685.7500000000002
 21
177.0857864376269
 31
0.0
  0
ELLIPSE
  5
DB
330
1F
100
AcDbEntity
  8
2
  6
CONTINUOUS
 62
   253
100
AcDbEllipse
 10
672.9142135623733
 20
183.7087101353638
 30
0.0
 11
0.0
 21
-19.99999999999999
 31
0.0
210
0.0
220
0.0
230
-1.0
 40
0.2000000000000001
 41
0.0
 42
0.0080304778636525
  0
ELLIPSE
  5
DC
330
1F
100
AcDbEntity
  8
2
  6
CONTINUOUS
 62
   253
100
AcDbEllipse
 10
598.0857864376272
 20
184.2970585407784
 30
0.0
 11
0.0
 21
-19.99999999999999
 31
0.0
210
0.0
220
0.0
230
1.0
 40
0.0500000000000001
 41
0.0
 42
0.0080304778636485
  0
LINE
  5
DD
330
1F
100
AcDbEntity
  8
2
  6
CONTINUOUS
 62
   253
100
AcDbLine
 10
598.0857864376272
 20
163.7087101353638
 30
0.0
 11
598.0857864376272
 21
164.2970585407784
 31
0.0
  0
LINE
  5
DE
330
1F
100
AcDbEntity
  8
2
  6
CONTINUOUS
 62
   253
100
AcDbLine
 10
669.701206392849
 20
165.0
 30
0.0
 11
669.2109907285968
 21
165.0980580675691
 31
0.0
  0
LINE
  5
DF
330
1F
100
AcDbEntity
  8
2
  6
CONTINUOUS
 62
   253
100
AcDbLine
 10
598.2331761092297
 20
162.3179459008622
 30
0.0
 11
598.1179080038335
 21
163.7093550176454
 31
0.0
  0
ELLIPSE
  5
E0
330
1F
100
AcDbEntity
  8
2
  6
CONTINUOUS
 62
     7
100
AcDbEllipse
 10
589.6648722608621
 20
162.5000137079405
 30
0.0
 11
-0.9192357514736829
 21
-0.3939318906460905
 31
0.0
210
0.0
220
0.0
230
-1.0
 40
0.9999116610793818
 41
5.117288591504666
 42
5.902609079468996
  0
LINE
  5
E1
330
1F
100
AcDbEntity
  8
2
  6
CONTINUOUS
 62
   253
100
AcDbLine
 10
598.0857864376272
 20
178.0
 30
0.0
 11
598.0857864376272
 21
178.7029414592216
 31
0.0
  0
ELLIPSE
  5
E2
330
1F
100
AcDbEntity
  8
2
  6
CONTINUOUS
 62
   253
100
AcDbEllipse
 10
672.9142135623733
 20
184.2970585407784
 30
0.0
 11
0.0
 21
-19.99999999999999
 31
0.0
210
0.0
220
0.0
230
1.0
 40
0.0500000000000001
 41
6.275154829315928
 42
6.283185307179586
  0
LINE
  5
E3
330
1F
100
AcDbEntity
  8
2
  6
CONTINUOUS
 62
     7
100
AcDbLine
 10
685.4570621653356
 20
165.2071067811866
 30
0.0
 11
682.042277606252
 21
161.7928423103311
 31
0.0
  0
LINE
  5
E4
330
1F
100
AcDbEntity
  8
2
  6
CONTINUOUS
 62
   253
100
AcDbLine
 10
601.7890092714036
 20
165.0980580675691
 30
0.0
 11
601.2987936071514
 21
165.0
 31
0.0
  0
LINE
  5
E5
330
1F
100
AcDbEntity
  8
2
  6
CONTINUOUS
 62
   253
100
AcDbLine
 10
672.7668238907708
 20
180.6820540991378
 30
0.0
 11
672.8820919961671
 21
179.2906449823547
 31
0.0
  0
LINE
  5
E6
330
1F
100
AcDbEntity
  8
2
  6
CONTINUOUS
 62
   253
100
AcDbLine
 10
598.2331761092297
 20
181.4859242562471
 30
0.0
 11
598.2331761092297
 21
180.6820540991378
 31
0.0
  0
LINE
  5
E7
330
1F
100
AcDbEntity
  8
2
  6
CONTINUOUS
 62
   253
100
AcDbLine
 10
598.1179080038335
 20
179.2906449823547
 30
0.0
 11
598.2331761092297
 21
180.6820540991378
 31
0.0
  0
ELLIPSE
  5
E8
330
1F
100
AcDbEntity
  8
2
  6
CONTINUOUS
 62
     7
100
AcDbEllipse
 10
589.6648722608621
 20
180.4999862920595
 30
0.0
 11
-0.9192357514736728
 21
0.3939318906460863
 31
0.0
210
0.0
220
0.0
230
-1.0
 40
0.9999116610793927
 41
0.3805762277105912
 42
1.165896715674918
  0
CIRCLE
  5
E9
330
1F
100
AcDbEntity
  8
2
  6
CONTINUOUS
 62
     7
100
AcDbCircle
 10
-593.5000000000002
 20
171.5
 30
0.0
 40
2.500000000000058
210
0.0
220
0.0
230
-1.0
  0
LINE
  5
EA
330
1F
100
AcDbEntity
  8
2
  6
CONTINUOUS
 62
     7
100
AcDbLine
 10
758.3206346760652
 20
78.52557497787558
 30
0.0
 11
767.6793653239348
 21
78.52557497787558
 31
0.0
  0
LINE
  5
EB
330
1F
100
AcDbEntity
  8
2
  6
CONTINUOUS
 62
     7
100
AcDbLine
 10
585.2500000000002
 20
165.9142135623731
 30
0.0
 11
585.2500000000002
 21
177.0857864376269
 31
0.0
  0
ELLIPSE
  5
EC
330
1F
100
AcDbEntity
  8
2
  6
CONTINUOUS
 62
   253
100
AcDbEllipse
 10
598.0857864376272
 20
183.7087101353638
 30
0.0
 11
0.0
 21
-19.99999999999999
 31
0.0
210
0.0
220
0.0
230
-1.0
 40
0.2000000000000001
 41
6.275154829315933
 42
6.283185307179586
  0
LINE
  5
ED
330
1F
100
AcDbEntity
  8
2
  6
CONTINUOUS
 62
     7
100
AcDbLine
 10
767.6793653239348
 20
78.52557497787558
 30
0.0
 11
767.9558894054838
 21
78.52557497787558
 31
0.0
  0
LINE
  5
EE
330
1F
100
AcDbEntity
  8
2
  6
CONTINUOUS
 62
     7
100
AcDbLine
 10
682.042277606252
 20
181.2071576896689
 30
0.0
 11
685.4570621653356
 21
177.7928932188135
 31
0.0
  0
LINE
  5
EF
330
1F
100
AcDbEntity
  8
2
  6
CONTINUOUS
 62
   253
100
AcDbLine
 10
601.2987936071514
 20
178.0
 30
0.0
 11
598.0857864376272
 21
178.0
 31
0.0
  0
LINE
  5
F0
330
1F
100
AcDbEntity
  8
2
  6
CONTINUOUS
 62
   253
100
AcDbLine
 10
672.7668238907708
 20
180.6820540991378
 30
0.0
 11
672.7668238907708
 21
181.4859242562471
 31
0.0
  0
LINE
  5
F1
330
1F
100
AcDbEntity
  8
2
  6
CONTINUOUS
 62
   253
100
AcDbLine
 10
672.7668238907708
 20
162.3179459008622
 30
0.0
 11
672.7668238907708
 21
161.514075743753
 31
0.0
  0
LINE
  5
F2
330
1F
100
AcDbEntity
  8
2
  6
CONTINUOUS
 62
   253
100
AcDbLine
 10
672.9142135623733
 20
178.0
 30
0.0
 11
669.701206392849
 21
178.0
 31
0.0
  0
ELLIPSE
  5
F3
330
1F
100
AcDbEntity
  8
2
  6
CONTINUOUS
 62
   253
100
AcDbEllipse
 10
598.0857864376272
 20
158.7029414592217
 30
0.0
 11
0.0
 21
19.99999999999999
 31
0.0
210
0.0
220
0.0
230
1.0
 40
0.0500000000000001
 41
6.275154829315928
 42
6.283185307179586
  0
LINE
  5
F4
330
1F
100
AcDbEntity
  8
2
  6
CONTINUOUS
 62
   253
100
AcDbLine
 10
598.2331761092297
 20
161.5140757437529
 30
0.0
 11
598.2331761092297
 21
162.3179459008622
 31
0.0
  0
LINE
  5
F5
330
1F
100
AcDbEntity
  8
2
  6
CONTINUOUS
 62
     7
100
AcDbLine
 10
755.9116404569228
 20
78.52557497787558
 30
0.0
 11
758.0441105945162
 21
78.52557497787558
 31
0.0
  0
ELLIPSE
  5
F6
330
1F
100
AcDbEntity
  8
2
  6
CONTINUOUS
 62
     7
100
AcDbEllipse
 10
684.7498476719563
 20
177.0857864376269
 30
0.0
 11
1.000152328043846
 21
0.0
 31
0.0
210
0.0
220
0.0
230
-1.0
 40
0.9998476951564536
 41
5.497787143782138
 42
6.283185307179586
  0
LINE
  5
F7
330
1F
100
AcDbEntity
  8
2
  6
CONTINUOUS
 62
   253
100
AcDbLine
 10
770.2022965769402
 20
78.52560722198966
 30
0.0
 11
770.2029414592216
 21
78.52557497787558
 31
0.0
  0
LINE
  5
F8
330
1F
100
AcDbEntity
  8
2
  6
CONTINUOUS
 62
     7
100
AcDbLine
 10
756.598058067569
 20
81.86428344850752
 30
0.0
 11
755.7970585407784
 21
82.02735416677919
 31
0.0
  0
LINE
  5
F9
330
1F
100
AcDbEntity
  8
2
  6
CONTINUOUS
 62
     7
100
AcDbLine
 10
770.0883595430772
 20
78.52557497787558
 30
0.0
 11
770.2029414592216
 21
78.52557497787558
 31
0.0
  0
LINE
  5
FA
330
1F
100
AcDbEntity
  8
2
  6
CONTINUOUS
 62
   253
100
AcDbLine
 10
767.7029414592216
 20
115.3000395787565
 30
0.0
 11
767.7029414592216
 21
116.2677110715003
 31
0.0
  0
LINE
  5
FB
330
1F
100
AcDbEntity
  8
2
  6
CONTINUOUS
 62
     7
100
AcDbLine
 10
753.0140012072511
 20
77.19958415304026
 30
0.0
 11
753.0140757437529
 21
77.21381944618852
 31
0.0
  0
LINE
  5
FC
330
1F
100
AcDbEntity
  8
2
  6
CONTINUOUS
 62
   253
100
AcDbLine
 10
756.598058067569
 20
81.86428344850752
 30
0.0
 11
756.598058067569
 21
79.01701823162723
 31
0.0
  0
LINE
  5
FD
330
1F
100
AcDbEntity
  8
2
  6
CONTINUOUS
 62
   253
100
AcDbLine
 10
758.2970585407783
 20
115.3000395787565
 30
0.0
 11
758.2970585407783
 21
79.01684877465695
 31
0.0
  0
ARC
  5
FE
330
1F
100
AcDbEntity
  8
2
  6
CONTINUOUS
 62
     7
100
AcDbCircle
 10
-771.9859379639997
 20
77.2085834823571
 30
0.0
 40
0.9999999999999872
210
0.0
220
0.0
230
-1.0
100
AcDbArc
 50
101.3099324740202
 51
179.6999999999999
  0
LINE
  5
FF
330
1F
100
AcDbEntity
  8
2
  6
CONTINUOUS
 62
     7
100
AcDbLine
 10
753.842672808655
 20
81.94814534130548
 30
0.0
 11
755.2087101353638
 21
82.06327963826168
 31
0.0
  0
LINE
  5
100
330
1F
100
AcDbEntity
  8
2
  6
CONTINUOUS
 62
     7
100
AcDbLine
 10
772.9859242562471
 20
77.21381944618852
 30
0.0
 11
772.9829134676082
 21
77.78883246473504
 31
0.0
  0
ELLIPSE
  5
101
330
1F
100
AcDbEntity
  8
2
  6
CONTINUOUS
 62
     7
100
AcDbEllipse
 10
755.7970585407784
 20
77.70934230220296
 30
0.0
 11
0.7671791554921036
 21
-4.330619946692709
 31
0.0
210
0.0
220
0.0
230
-1.0
 40
0.6697072557873021
 41
3.20279609114076
 42
3.400191650990643
  0
LINE
  5
102
330
1F
100
AcDbEntity
  8
2
  6
CONTINUOUS
 62
   253
100
AcDbLine
 10
758.2970585407783
 20
116.2677110715003
 30
0.0
 11
767.7029414592216
 21
116.2677110715003
 31
0.0
  0
LINE
  5
103
330
1F
100
AcDbEntity
  8
2
  6
CONTINUOUS
 62
     7
100
AcDbLine
 10
770.7912898646362
 20
78.46731700494834
 30
0.0
 11
772.1820540991379
 21
78.18916415804802
 31
0.0
  0
LINE
  5
104
330
1F
100
AcDbEntity
  8
2
  6
CONTINUOUS
 62
     7
100
AcDbLine
 10
772.9859242562471
 20
77.21381944618852
 30
0.0
 11
772.9859987927489
 21
77.19958415304026
 31
0.0
  0
LINE
  5
105
330
1F
100
AcDbEntity
  8
2
  6
CONTINUOUS
 62
     7
100
AcDbLine
 10
753.0
 20
74.52557497787558
 30
0.0
 11
753.0140012072511
 21
77.19958415304025
 31
0.0
  0
LINE
  5
106
330
1F
100
AcDbEntity
  8
2
  6
CONTINUOUS
 62
   253
100
AcDbLine
 10
767.7029414592216
 20
79.01684877465694
 30
0.0
 11
767.7029414592216
 21
78.52557497787558
 31
0.0
  0
LINE
  5
107
330
1F
100
AcDbEntity
  8
2
  6
CONTINUOUS
 62
     7
100
AcDbLine
 10
753.0367276375557
 20
81.53997295401956
 30
0.0
 11
753.2099985412799
 21
114.6319755247451
 31
0.0
  0
LINE
  5
108
330
1F
100
AcDbEntity
  8
2
  6
CONTINUOUS
 62
   253
100
AcDbLine
 10
755.7970585407784
 20
78.52557497787558
 30
0.0
 11
755.7977034230598
 21
78.52560722198966
 31
0.0
  0
ELLIPSE
  5
109
330
1F
100
AcDbEntity
  8
2
  6
CONTINUOUS
 62
     7
100
AcDbEllipse
 10
755.7977034230599
 20
75.52570395433189
 30
0.0
 11
0.5883484054142228
 21
-2.941742027072827
 31
0.0
210
0.0
220
0.0
230
1.0
 40
0.999162665353967
 41
2.944035938096793
 42
3.141592653589902
  0
ELLIPSE
  5
10A
330
1F
100
AcDbEntity
  8
2
  6
CONTINUOUS
 62
     7
100
AcDbEllipse
 10
771.9555970050844
 20
83.00322683471462
 30
0.0
 11
-0.7401566330496723
 21
0.9019075932378731
 31
0.0
210
0.0
220
0.0
230
-1.0
 40
0.748100044791763
 41
3.766789794823856
 42
3.770400848521246
  0
LINE
  5
10B
330
1F
100
AcDbEntity
  8
2
  6
CONTINUOUS
 62
   253
100
AcDbLine
 10
767.7029414592216
 20
79.01684877465694
 30
0.0
 11
767.7029414592216
 21
115.3000395787565
 31
0.0
  0
LINE
  5
10C
330
1F
100
AcDbEntity
  8
2
  6
CONTINUOUS
 62
     7
100
AcDbLine
 10
756.0449101394375
 20
78.8184681966895
 30
0.0
 11
756.0
 21
79.02557497787559
 31
0.0
  0
LINE
  5
10D
330
1F
100
AcDbEntity
  8
2
  6
CONTINUOUS
 62
     7
100
AcDbLine
 10
770.0
 20
79.02557497787559
 30
0.0
 11
769.9550898605625
 21
78.8184681966895
 31
0.0
  0
LINE
  5
10E
330
1F
100
AcDbEntity
  8
2
  6
CONTINUOUS
 62
   253
100
AcDbLine
 10
769.4019419324309
 20
79.01701823162723
 30
0.0
 11
769.4019419324309
 21
81.86428344850752
 31
0.0
  0
LINE
  5
10F
330
1F
100
AcDbEntity
  8
2
  6
CONTINUOUS
 62
     7
100
AcDbLine
 10
753.2928423103311
 20
74.52557497787558
 30
0.0
 11
753.0
 21
74.52557497787558
 31
0.0
  0
LINE
  5
110
330
1F
100
AcDbEntity
  8
2
  6
CONTINUOUS
 62
   253
100
AcDbLine
 10
758.2970585407783
 20
78.52557497787558
 30
0.0
 11
758.2970585407783
 21
79.01684877465694
 31
0.0
  0
ELLIPSE
  5
111
330
1F
100
AcDbEntity
  8
2
  6
CONTINUOUS
 62
     7
100
AcDbEllipse
 10
770.2029414592217
 20
77.70934230220296
 30
0.0
 11
-0.767179155492104
 21
-4.33061994669271
 31
0.0
210
0.0
220
0.0
230
-1.0
 40
0.6697072557873016
 41
2.88299365618894
 42
3.080389216038824
  0
LINE
  5
112
330
1F
100
AcDbEntity
  8
2
  6
CONTINUOUS
 62
     7
100
AcDbLine
 10
770.0
 20
81.3652070141277
 30
0.0
 11
770.0
 21
79.02557497787559
 31
0.0
  0
LINE
  5
113
330
1F
100
AcDbEntity
  8
2
  6
CONTINUOUS
 62
     7
100
AcDbLine
 10
756.0
 20
81.3652070141277
 30
0.0
 11
756.0
 21
79.02557497787559
 31
0.0
  0
ELLIPSE
  5
114
330
1F
100
AcDbEntity
  8
2
  6
CONTINUOUS
 62
   253
100
AcDbEllipse
 10
769.5
 20
79.02557497787559
 30
0.0
 11
0.0
 21
0.5000000000000004
 31
0.0
210
0.0
220
0.0
230
-1.0
 40
0.1961448598734695
 41
3.141592653589571
 42
4.69527465243492
  0
ELLIPSE
  5
115
330
1F
100
AcDbEntity
  8
2
  6
CONTINUOUS
 62
   253
100
AcDbEllipse
 10
758.2970585407783
 20
113.5961851076443
 30
0.0
 11
2.999999999999997
 21
0.0
 31
0.0
210
0.0
220
0.0
230
-1.0
 40
0.8905086546186787
 41
4.514993420534804
 42
4.712388980384685
  0
ELLIPSE
  5
116
330
1F
100
AcDbEntity
  8
2
  6
CONTINUOUS
 62
   253
100
AcDbEllipse
 10
767.7029414592216
 20
113.5961851076443
 30
0.0
 11
-3.000000000000001
 21
0.0
 31
0.0
210
0.0
220
0.0
230
-1.0
 40
0.8905086546186778
 41
1.570796326794899
 42
1.76819188664478
  0
LINE
  5
117
330
1F
100
AcDbEntity
  8
2
  6
CONTINUOUS
 62
     7
100
AcDbLine
 10
753.0170865323918
 20
77.78883246473504
 30
0.0
 11
753.0140757437529
 21
77.21381944618852
 31
0.0
  0
LINE
  5
118
330
1F
100
AcDbEntity
  8
2
  6
CONTINUOUS
 62
     7
100
AcDbLine
 10
753.0170865323918
 20
77.78883246473504
 30
0.0
 11
753.0367276375557
 21
81.53997295401956
 31
0.0
  0
LWPOLYLINE
  5
119
330
1F
100
AcDbEntity
  8
2
  6
CONTINUOUS
 62
     7
100
AcDbPolyline
 90
        5
 70
     0
 43
0.0
 10
-772.1608689983876
 20
81.94785359630444
 42
0.0996320269192068
 10
-772.7664855259602
 20
81.78872309159934
 10
-772.8669757629575
 20
81.71869981453645
 10
-772.9329763876259
 20
81.64165553618793
 10
-772.9632723624443
 20
81.53997295401956
210
0.0
220
0.0
230
-1.0
  0
LWPOLYLINE
  5
11A
330
1F
100
AcDbEntity
  8
2
  6
CONTINUOUS
 62
     7
100
AcDbPolyline
 90
        5
 70
     0
 43
0.0
 10
753.8391310016124
 20
81.94785359630445
 42
0.0996320269191603
 10
753.2335144740397
 20
81.78872309159935
 10
753.1330242370425
 20
81.71869981453646
 10
753.0670236123741
 20
81.64165553618794
 10
753.0367276375557
 20
81.53997295401956
  0
LINE
  5
11B
330
1F
100
AcDbEntity
  8
2
  6
CONTINUOUS
 62
     7
100
AcDbLine
 10
772.7900014587201
 20
114.6319755247451
 30
0.0
 11
772.9632723624443
 21
81.53997295401955
 31
0.0
  0
ARC
  5
11C
330
1F
100
AcDbEntity
  8
2
  6
CONTINUOUS
 62
     7
100
AcDbCircle
 10
755.7970585407784
 20
75.52557497787558
 30
0.0
 40
3.000000000000003
100
AcDbArc
 50
90.0
 51
101.3099324740202
  0
LINE
  5
11D
330
1F
100
AcDbEntity
  8
2
  6
CONTINUOUS
 62
   253
100
AcDbLine
 10
754.0138686983892
 20
115.592733019612
 30
0.0
 11
757.7087101353637
 21
116.2158318424081
 31
0.0
  0
ELLIPSE
  5
11E
330
1F
100
AcDbEntity
  8
2
  6
CONTINUOUS
 62
     7
100
AcDbEllipse
 10
770.2022965769401
 20
75.52570395433189
 30
0.0
 11
-0.5883484054146016
 21
-2.941742027072733
 31
0.0
210
0.0
220
0.0
230
-1.0
 40
0.999162665353967
 41
2.944035938096718
 42
3.141592653589829
  0
LINE
  5
11F
330
1F
100
AcDbEntity
  8
2
  6
CONTINUOUS
 62
     7
100
AcDbLine
 10
772.9632723624443
 20
81.53997295401956
 30
0.0
 11
772.9829134676082
 21
77.78883246473504
 31
0.0
  0
LINE
  5
120
330
1F
100
AcDbEntity
  8
2
  6
CONTINUOUS
 62
     7
100
AcDbLine
 10
753.8179459008621
 20
78.18916415804802
 30
0.0
 11
755.2087101353638
 21
78.46731700494834
 31
0.0
  0
ARC
  5
121
330
1F
100
AcDbEntity
  8
2
  6
CONTINUOUS
 62
     7
100
AcDbCircle
 10
-770.2029414592216
 20
75.52557497787558
 30
0.0
 40
3.000000000000003
210
0.0
220
0.0
230
-1.0
100
AcDbArc
 50
90.00000000000018
 51
101.3099324740204
  0
LINE
  5
122
330
1F
100
AcDbEntity
  8
2
  6
CONTINUOUS
 62
   253
100
AcDbLine
 10
758.2970585407783
 20
115.3000395787565
 30
0.0
 11
758.2970585407783
 21
116.2677110715003
 31
0.0
  0
LINE
  5
123
330
1F
100
AcDbEntity
  8
2
  6
CONTINUOUS
 62
     7
100
AcDbLine
 10
770.7912898646363
 20
82.06327963826169
 30
0.0
 11
772.157327191345
 21
81.94814534130549
 31
0.0
  0
LINE
  5
124
330
1F
100
AcDbEntity
  8
2
  6
CONTINUOUS
 62
   253
100
AcDbLine
 10
768.2912898646363
 20
116.2158318424081
 30
0.0
 11
771.9861313016108
 21
115.592733019612
 31
0.0
  0
ARC
  5
125
330
1F
100
AcDbEntity
  8
2
  6
CONTINUOUS
 62
     7
100
AcDbCircle
 10
754.0140620360004
 20
77.2085834823571
 30
0.0
 40
1.000000000000009
100
AcDbArc
 50
101.3099324740202
 51
179.6999999999999
  0
ELLIPSE
  5
126
330
1F
100
AcDbEntity
  8
2
  6
CONTINUOUS
 62
   253
100
AcDbEllipse
 10
756.5
 20
79.02557497787559
 30
0.0
 11
0.0
 21
-0.5000000000000004
 31
0.0
210
0.0
220
0.0
230
-1.0
 40
0.1961448598734697
 41
4.729503308334237
 42
6.283185307179586
  0
LINE
  5
127
330
1F
100
AcDbEntity
  8
2
  6
CONTINUOUS
 62
     7
100
AcDbLine
 10
755.7970585407784
 20
78.52557497787558
 30
0.0
 11
755.9116404569228
 21
78.52557497787558
 31
0.0
  0
LINE
  5
128
330
1F
100
AcDbEntity
  8
2
  6
CONTINUOUS
 62
     7
100
AcDbLine
 10
770.2029414592217
 20
82.0273541667792
 30
0.0
 11
769.4019419324309
 21
81.86428344850752
 31
0.0
  0
ARC
  5
129
330
1F
100
AcDbEntity
  8
2
  6
CONTINUOUS
 62
     7
100
AcDbCircle
 10
604.0167202448313
 20
76.4458886137184
 30
0.0
 40
1.000000000000001
100
AcDbArc
 50
314.7499999999997
 51
359.4999999999999
  0
ARC
  5
12A
330
1F
100
AcDbEntity
  8
2
  6
CONTINUOUS
 62
     7
100
AcDbCircle
 10
754.2158607318511
 20
115.7489432215273
 30
0.0
 40
1.000000000000001
100
AcDbArc
 50
101.3099324740203
 51
179.7000000000006
  0
LINE
  5
12B
330
1F
100
AcDbEntity
  8
2
  6
CONTINUOUS
 62
     7
100
AcDbLine
 10
758.2970585407783
 20
117.5255749778756
 30
0.0
 11
767.7029414592216
 21
117.5255749778756
 31
0.0
  0
LINE
  5
12C
330
1F
100
AcDbEntity
  8
2
  6
CONTINUOUS
 62
   253
100
AcDbLine
 10
758.2970585407783
 20
117.480946675419
 30
0.0
 11
758.2970585407783
 21
116.2677110715003
 31
0.0
  0
ELLIPSE
  5
12D
330
1F
100
AcDbEntity
  8
2
  6
CONTINUOUS
 62
   253
100
AcDbEllipse
 10
758.2970585407783
 20
114.5255749778756
 30
0.0
 11
-0.5883484054145535
 21
2.941742027072757
 31
0.0
210
0.0
220
0.0
230
1.0
 40
0.0169746760889333
 41
0.0
 42
0.1693409237788665
  0
LINE
  5
12E
330
1F
100
AcDbEntity
  8
2
  6
CONTINUOUS
 62
     7
100
AcDbLine
 10
754.0197445967129
 20
116.7295238972182
 30
0.0
 11
757.7087101353637
 21
117.4673170049483
 31
0.0
  0
ELLIPSE
  5
12F
330
1F
100
AcDbEntity
  8
2
  6
CONTINUOUS
 62
   253
100
AcDbEllipse
 10
771.7900151664727
 20
114.6267395609137
 30
0.0
 11
-0.9999862922474013
 21
-0.005235963831416968
 31
0.0
210
0.0
220
0.0
230
-1.0
 40
0.9850925266890092
 41
1.773349901577337
 42
3.141592653589803
  0
ARC
  5
130
330
1F
100
AcDbEntity
  8
2
  6
CONTINUOUS
 62
     7
100
AcDbCircle
 10
-771.7841392681489
 20
115.7489432215273
 30
0.0
 40
1.000000000000001
210
0.0
220
0.0
230
-1.0
100
AcDbArc
 50
101.3099324740202
 51
179.7000000000002
  0
LINE
  5
131
330
1F
100
AcDbEntity
  8
2
  6
CONTINUOUS
 62
     7
100
AcDbLine
 10
682.042277606252
 20
74.52557497787556
 30
0.0
 11
681.3351917133577
 21
74.52557497787556
 31
0.0
  0
LINE
  5
132
330
1F
100
AcDbEntity
  8
2
  6
CONTINUOUS
 62
     7
100
AcDbLine
 10
772.7841255603963
 20
115.7541791853587
 30
0.0
 11
772.7842784789087
 21
115.724974167671
 31
0.0
  0
LINE
  5
133
330
1F
100
AcDbEntity
  8
2
  6
CONTINUOUS
 62
   253
100
AcDbLine
 10
767.7029414592216
 20
116.2677110715003
 30
0.0
 11
767.7029414592216
 21
117.4809466754191
 31
0.0
  0
LINE
  5
134
330
1F
100
AcDbEntity
  8
2
  6
CONTINUOUS
 62
     7
100
AcDbLine
 10
661.1399574339187
 20
113.9288138044478
 30
0.0
 11
665.2654710341702
 21
113.1051799957147
 31
0.0
  0
LINE
  5
135
330
1F
100
AcDbEntity
  8
2
  6
CONTINUOUS
 62
     7
100
AcDbLine
 10
660.1610554931733
 20
114.0255749778756
 30
0.0
 11
610.8389445068274
 21
114.0255749778756
 31
0.0
  0
ARC
  5
136
330
1F
100
AcDbEntity
  8
2
  6
CONTINUOUS
 62
     7
100
AcDbCircle
 10
-758.2970585407783
 20
114.5255749778756
 30
0.0
 40
2.999999999999997
210
0.0
220
0.0
230
-1.0
100
AcDbArc
 50
78.6900675259798
 51
90.00000000000009
  0
ARC
  5
137
330
1F
100
AcDbEntity
  8
2
  6
CONTINUOUS
 62
     7
100
AcDbCircle
 10
-767.7029414592216
 20
114.5255749778756
 30
0.0
 40
3.000000000000003
210
0.0
220
0.0
230
-1.0
100
AcDbArc
 50
90.0
 51
101.3099324740203
  0
ELLIPSE
  5
138
330
1F
100
AcDbEntity
  8
2
  6
CONTINUOUS
 62
   253
100
AcDbEllipse
 10
681.3025200496144
 20
77.19434818920884
 30
0.0
 11
0.9999253657629604
 21
0.01221731982905262
 31
0.0
210
0.0
220
0.0
230
1.0
 40
0.0052355730599659
 41
0.785411869385644
 42
1.570732357350115
  0
ELLIPSE
  5
139
330
1F
100
AcDbEntity
  8
2
  6
CONTINUOUS
 62
   253
100
AcDbEllipse
 10
589.7226181553059
 20
73.13032757354613
 30
0.0
 11
-3.96087111427486
 21
-1.945551600182519
 31
0.0
210
0.0
220
0.0
230
1.0
 40
0.9064237596939972
 41
4.215784288144781
 42
4.299307772390239
  0
ELLIPSE
  5
13A
330
1F
100
AcDbEntity
  8
2
  6
CONTINUOUS
 62
   253
100
AcDbEllipse
 10
754.2099848335273
 20
114.6267395609137
 30
0.0
 11
0.9999862922474012
 21
-0.005235963831376525
 31
0.0
210
0.0
220
0.0
230
1.0
 40
0.9850925266890075
 41
1.773349901577184
 42
3.141592653589766
  0
LINE
  5
13B
330
1F
100
AcDbEntity
  8
2
  6
CONTINUOUS
 62
   253
100
AcDbLine
 10
767.7029414592216
 20
117.4809466754191
 30
0.0
 11
767.7029414592216
 21
117.5255749778757
 31
0.0
  0
LINE
  5
13C
330
1F
100
AcDbEntity
  8
2
  6
CONTINUOUS
 62
     7
100
AcDbLine
 10
589.6648082866428
 20
74.52557497787556
 30
0.0
 11
588.9577223937486
 21
74.52557497787556
 31
0.0
  0
LINE
  5
13D
330
1F
100
AcDbEntity
  8
2
  6
CONTINUOUS
 62
     7
100
AcDbLine
 10
753.2157215210913
 20
115.724974167671
 30
0.0
 11
753.2158744396037
 21
115.7541791853587
 31
0.0
  0
ELLIPSE
  5
13E
330
1F
100
AcDbEntity
  8
2
  6
CONTINUOUS
 62
     7
100
AcDbEllipse
 10
754.0444029949156
 20
83.00322683471462
 30
0.0
 11
0.7401566330496719
 21
0.9019075932378733
 31
0.0
210
0.0
220
0.0
230
-1.0
 40
0.748100044791763
 41
2.512784458658338
 42
2.516395512355726
  0
LINE
  5
13F
330
1F
100
AcDbEntity
  8
2
  6
CONTINUOUS
 62
   253
100
AcDbLine
 10
758.2970585407783
 20
117.5255749778756
 30
0.0
 11
758.2970585407783
 21
117.480946675419
 31
0.0
  0
LINE
  5
140
330
1F
100
AcDbEntity
  8
2
  6
CONTINUOUS
 62
     7
100
AcDbLine
 10
605.7345289658303
 20
113.1051799957147
 30
0.0
 11
609.8600425660819
 21
113.9288138044478
 31
0.0
  0
LINE
  5
141
330
1F
100
AcDbEntity
  8
2
  6
CONTINUOUS
 62
     7
100
AcDbLine
 10
605.3324381983729
 20
112.6192193808067
 30
0.0
 11
605.0166821678956
 21
76.43716207822006
 31
0.0
  0
LINE
  5
142
330
1F
100
AcDbEntity
  8
2
  6
CONTINUOUS
 62
   253
100
AcDbLine
 10
771.9804083217996
 20
116.6857316625378
 30
0.0
 11
771.9802554032871
 21
116.7295238972182
 31
0.0
  0
LINE
  5
143
330
1F
100
AcDbEntity
  8
2
  6
CONTINUOUS
 62
     7
100
AcDbLine
 10
768.2912898646363
 20
117.4673170049483
 30
0.0
 11
771.9802554032871
 21
116.7295238972182
 31
0.0
  0
ELLIPSE
  5
144
330
1F
100
AcDbEntity
  8
2
  6
CONTINUOUS
 62
   253
100
AcDbEllipse
 10
589.6974799503862
 20
77.19434818920884
 30
0.0
 11
0.9999253657629603
 21
-0.01221731982905287
 31
0.0
210
0.0
220
0.0
230
1.0
 40
0.0052355730599654
 41
1.570860296239679
 42
2.356180784204118
  0
LINE
  5
145
330
1F
100
AcDbEntity
  8
2
  6
CONTINUOUS
 62
   253
100
AcDbLine
 10
598.2331761092297
 20
77.21381944618852
 30
0.0
 11
590.0592744995565
 21
77.21381944618852
 31
0.0
  0
LINE
  5
146
330
1F
100
AcDbEntity
  8
2
  6
CONTINUOUS
 62
     7
100
AcDbLine
 10
772.7842784789087
 20
115.724974167671
 30
0.0
 11
772.7900014587201
 21
114.6319755247451
 31
0.0
  0
LINE
  5
147
330
1F
100
AcDbEntity
  8
2
  6
CONTINUOUS
 62
     7
100
AcDbLine
 10
753.2099985412799
 20
114.6319755247451
 30
0.0
 11
753.2157215210913
 21
115.724974167671
 31
0.0
  0
ARC
  5
148
330
1F
100
AcDbEntity
  8
2
  6
CONTINUOUS
 62
     7
100
AcDbCircle
 10
-660.1610554931733
 20
109.0255749778756
 30
0.0
 40
5.000000000000004
210
0.0
220
0.0
230
-1.0
100
AcDbArc
 50
90.0
 51
101.2903152944297
  0
LINE
  5
149
330
1F
100
AcDbEntity
  8
0
  6
CENTER
 62
     1
100
AcDbLine
 10
593.5000000000002
 20
166.9999999999999
 30
0.0
 11
593.5000000000002
 21
176.0000000000001
 31
0.0
  0
ARC
  5
14B
330
1F
100
AcDbEntity
  8
2
  6
CONTINUOUS
 62
     7
100
AcDbCircle
 10
-610.8389445068274
 20
109.0255749778756
 30
0.0
 40
5.000000000000004
210
0.0
220
0.0
230
-1.0
100
AcDbArc
 50
78.70968470557034
 51
90.00000000000009
  0
LINE
  5
14C
330
1F
100
AcDbEntity
  8
2
  6
CONTINUOUS
 62
   253
100
AcDbLine
 10
609.998793145003
 20
162.5195916782005
 30
0.0
 11
609.9349221997071
 21
166.2087101353638
 31
0.0
  0
LINE
  5
14D
330
1F
100
AcDbEntity
  8
2
  6
CONTINUOUS
 62
   253
100
AcDbLine
 10
661.0750891754226
 20
176.2029414592216
 30
0.0
 11
661.0750891754232
 21
166.7970585407784
 31
0.0
  0
LINE
  5
14E
330
1F
100
AcDbEntity
  8
2
  6
CONTINUOUS
 62
   253
100
AcDbLine
 10
660.8326984003417
 20
161.7157215210912
 30
0.0
 11
660.4956841385592
 21
161.7158744396037
 31
0.0
  0
LINE
  5
14F
330
1F
100
AcDbEntity
  8
0
  6
CENTER
 62
     1
100
AcDbLine
 10
763.0
 20
67.5
 30
0.0
 11
763.0
 21
125.0
 31
0.0
  0
LINE
  5
150
330
1F
100
AcDbEntity
  8
2
  6
CONTINUOUS
 62
   253
100
AcDbLine
 10
610.440447563675
 20
166.7970585407784
 30
0.0
 11
660.5595524363255
 21
166.7970585407784
 31
0.0
  0
LINE
  5
151
330
1F
100
AcDbEntity
  8
2
  6
CONTINUOUS
 62
   253
100
AcDbLine
 10
661.0650778002934
 20
166.2087101353638
 30
0.0
 11
661.0012068549975
 21
162.5195916782005
 31
0.0
  0
LINE
  5
152
330
1F
100
AcDbEntity
  8
2
  6
CONTINUOUS
 62
   253
100
AcDbLine
 10
609.9249108245774
 20
166.7970585407784
 30
0.0
 11
610.440447563675
 21
166.7970585407784
 31
0.0
  0
LINE
  5
153
330
1F
100
AcDbEntity
  8
2
  6
CONTINUOUS
 62
   253
100
AcDbLine
 10
609.9249108245774
 20
176.2029414592217
 30
0.0
 11
602.9699027827663
 21
176.2029414592217
 31
0.0
  0
LINE
  5
154
330
1F
100
AcDbEntity
  8
2
  6
CONTINUOUS
 62
   253
100
AcDbLine
 10
661.0750891754226
 20
176.2029414592216
 30
0.0
 11
660.559552436325
 21
176.2029414592216
 31
0.0
  0
LINE
  5
155
330
1F
100
AcDbEntity
  8
2
  6
CONTINUOUS
 62
   253
100
AcDbLine
 10
609.9349221997072
 20
176.7912898646362
 30
0.0
 11
609.998793145003
 21
180.4804083217995
 31
0.0
  0
ELLIPSE
  5
156
330
1F
100
AcDbEntity
  8
2
  6
CONTINUOUS
 62
   253
100
AcDbEllipse
 10
660.8326984003417
 20
162.7157078133387
 30
0.0
 11
0.0009143486530179201
 21
0.9999995819831855
 31
0.0
210
0.0
220
0.0
230
-1.0
 40
0.1720229710469787
 41
1.76803467873795
 42
3.136277430750388
  0
LINE
  5
157
330
1F
100
AcDbEntity
  8
2
  6
CONTINUOUS
 62
   253
100
AcDbLine
 10
610.5043158614413
 20
181.2841255603963
 30
0.0
 11
660.4956841385592
 21
181.2841255603963
 31
0.0
  0
ELLIPSE
  5
158
330
1F
100
AcDbEntity
  8
2
  6
CONTINUOUS
 62
   253
100
AcDbEllipse
 10
660.5595524363255
 20
166.7970585407784
 30
0.0
 11
0.0
 21
3.000000000000003
 31
0.0
210
0.0
220
0.0
230
-1.0
 40
0.1718455796992152
 41
1.570796326794897
 42
1.768191886644778
  0
LINE
  5
159
330
1F
100
AcDbEntity
  8
2
  6
CONTINUOUS
 62
   253
100
AcDbLine
 10
661.0750891754232
 20
166.7970585407784
 30
0.0
 11
668.0300972172342
 21
166.7970585407784
 31
0.0
  0
ELLIPSE
  5
15A
330
1F
100
AcDbEntity
  8
2
  6
CONTINUOUS
 62
   253
100
AcDbEllipse
 10
660.559552436325
 20
176.2029414592216
 30
0.0
 11
0.0
 21
3.000000000000003
 31
0.0
210
0.0
220
0.0
230
-1.0
 40
0.1718455796992193
 41
1.373400766945009
 42
1.570796326794888
  0
ELLIPSE
  5
15B
330
1F
100
AcDbEntity
  8
2
  6
CONTINUOUS
 62
   253
100
AcDbEllipse
 10
610.440447563675
 20
176.2029414592217
 30
0.0
 11
0.0
 21
-3.000000000000002
 31
0.0
210
0.0
220
0.0
230
-1.0
 40
0.171845579699215
 41
1.570796326794897
 42
1.768191886644778
  0
LINE
  5
15C
330
1F
100
AcDbEntity
  8
0
  6
CENTER
 62
     1
100
AcDbLine
 10
635.5000000000001
 20
155.0
 30
0.0
 11
635.5000000000001
 21
185.0
 31
0.0
  0
LINE
  5
15D
330
1F
100
AcDbEntity
  8
2
  6
CONTINUOUS
 62
   253
100
AcDbLine
 10
668.0300972172342
 20
176.2029414592216
 30
0.0
 11
661.0750891754226
 21
176.2029414592216
 31
0.0
  0
LINE
  5
15E
330
1F
100
AcDbEntity
  8
2
  6
CONTINUOUS
 62
   253
100
AcDbLine
 10
660.4956841385592
 20
161.7158744396037
 30
0.0
 11
610.5043158614413
 21
161.7158744396037
 31
0.0
  0
LINE
  5
15F
330
1F
100
AcDbEntity
  8
2
  6
CONTINUOUS
 62
   253
100
AcDbLine
 10
602.9699027827663
 20
166.7970585407784
 30
0.0
 11
609.9249108245774
 21
166.7970585407784
 31
0.0
  0
ELLIPSE
  5
160
330
1F
100
AcDbEntity
  8
2
  6
CONTINUOUS
 62
   253
100
AcDbEllipse
 10
610.440447563675
 20
166.7970585407784
 30
0.0
 11
0.0
 21
-3.000000000000002
 31
0.0
210
0.0
220
0.0
230
-1.0
 40
0.171845579699214
 41
1.373400766945016
 42
1.570796326794897
  0
LINE
  5
161
330
1F
100
AcDbEntity
  8
0
  6
CENTER
 62
     1
100
AcDbLine
 10
635.5000000000003
 20
125.0
 30
0.0
 11
635.5000000000003
 21
67.5
 31
0.0
  0
ELLIPSE
  5
162
330
1F
100
AcDbEntity
  8
2
  6
CONTINUOUS
 62
   253
100
AcDbEllipse
 10
610.1673015996589
 20
162.7157078133387
 30
0.0
 11
0.0009143486530262806
 21
-0.9999995819831855
 31
0.0
210
0.0
220
0.0
230
-1.0
 40
0.1720229710469719
 41
0.0053152228395156
 42
1.373557974851941
  0
LINE
  5
163
330
1F
100
AcDbEntity
  8
2
  6
CONTINUOUS
 62
     7
100
AcDbLine
 10
660.1610554931732
 20
161.7068234064252
 30
0.0
 11
661.1399574339185
 21
161.7063167614758
 31
0.0
  0
LINE
  5
164
330
1F
100
AcDbEntity
  8
2
  6
CONTINUOUS
 62
   253
100
AcDbLine
 10
610.5043158614413
 20
161.7158744396037
 30
0.0
 11
610.1673015996589
 21
161.7157215210913
 31
0.0
  0
LINE
  5
165
330
1F
100
AcDbEntity
  8
2
  6
CONTINUOUS
 62
   253
100
AcDbLine
 10
660.5595524363255
 20
166.7970585407784
 30
0.0
 11
661.0750891754232
 21
166.7970585407784
 31
0.0
  0
LINE
  5
166
330
1F
100
AcDbEntity
  8
2
  6
CONTINUOUS
 62
   253
100
AcDbLine
 10
660.559552436325
 20
176.2029414592217
 30
0.0
 11
610.440447563675
 21
176.2029414592217
 31
0.0
  0
LINE
  5
167
330
1F
100
AcDbEntity
  8
2
  6
CONTINUOUS
 62
   253
100
AcDbLine
 10
661.0012068549975
 20
180.4804083217995
 30
0.0
 11
661.0650778002929
 21
176.7912898646362
 31
0.0
  0
LINE
  5
168
330
1F
100
AcDbEntity
  8
2
  6
CONTINUOUS
 62
   253
100
AcDbLine
 10
609.9249108245774
 20
166.7970585407784
 30
0.0
 11
609.9249108245774
 21
176.2029414592217
 31
0.0
  0
LINE
  5
169
330
1F
100
AcDbEntity
  8
0
  6
CENTER
 62
     1
100
AcDbLine
 10
577.5
 20
171.5
 30
0.0
 11
692.5
 21
171.5
 31
0.0
  0
LINE
  5
16A
330
1F
100
AcDbEntity
  8
2
  6
CONTINUOUS
 62
   253
100
AcDbLine
 10
610.440447563675
 20
176.2029414592217
 30
0.0
 11
609.9249108245774
 21
176.2029414592217
 31
0.0
  0
LINE
  5
16B
330
1F
100
AcDbEntity
  8
2
  6
CONTINUOUS
 62
     7
100
AcDbLine
 10
685.4570621653357
 20
74.52557497787556
 30
0.0
 11
682.0422776062521
 21
74.52557497787556
 31
0.0
  0
LINE
  5
16C
330
1F
100
AcDbEntity
  8
2
  6
CONTINUOUS
 62
     7
100
AcDbLine
 10
681.3351917133577
 20
161.5
 30
0.0
 11
667.5000000000002
 21
161.5
 31
0.0
  0
LINE
  5
16D
330
1F
100
AcDbEntity
  8
2
  6
CONTINUOUS
 62
     7
100
AcDbLine
 10
666.2792650307132
 20
161.506336274658
 30
0.0
 11
667.5000000000002
 21
161.5
 31
0.0
  0
LINE
  5
16E
330
1F
100
AcDbEntity
  8
2
  6
CONTINUOUS
 62
   253
100
AcDbLine
 10
610.1673015996589
 20
181.2842784789088
 30
0.0
 11
610.5043158614413
 21
181.2841255603963
 31
0.0
  0
LINE
  5
16F
330
1F
100
AcDbEntity
  8
2
  6
CONTINUOUS
 62
   253
100
AcDbLine
 10
660.4956841385592
 20
181.2841255603963
 30
0.0
 11
660.8326984003415
 21
181.2842784789088
 31
0.0
  0
ARC
  5
170
330
1F
100
AcDbEntity
  8
2
  6
CONTINUOUS
 62
     7
100
AcDbCircle
 10
672.9142135623734
 20
79.52557497787558
 30
0.0
 40
1.0
100
AcDbArc
 50
225.460112489061
 51
269.5398875109393
  0
LINE
  5
171
330
1F
100
AcDbEntity
  8
2
  6
CONTINUOUS
 62
     7
100
AcDbLine
 10
665.983317832105
 20
161.5100091381208
 30
0.0
 11
665.6675618016277
 21
161.6994596784446
 31
0.0
  0
LINE
  5
172
330
1F
100
AcDbEntity
  8
2
  6
CONTINUOUS
 62
     7
100
AcDbLine
 10
661.1399574339185
 20
161.7063167614758
 30
0.0
 11
665.2654710341701
 21
161.7020041855273
 31
0.0
  0
LINE
  5
173
330
1F
100
AcDbEntity
  8
2
  6
CONTINUOUS
 62
     7
100
AcDbLine
 10
665.9833178321051
 20
76.43716207822004
 30
0.0
 11
665.6675618016278
 21
112.6192193808067
 31
0.0
  0
LINE
  5
174
330
1F
100
AcDbEntity
  8
2
  6
CONTINUOUS
 62
     7
100
AcDbLine
 10
604.7207349692873
 20
161.506336274658
 30
0.0
 11
605.0166821678955
 21
161.5100091381208
 31
0.0
  0
LINE
  5
175
330
1F
100
AcDbEntity
  8
2
  6
CONTINUOUS
 62
     7
100
AcDbLine
 10
603.5000000000003
 20
74.52557497787556
 30
0.0
 11
589.6648082866428
 21
74.52557497787556
 31
0.0
  0
LINE
  5
176
330
1F
100
AcDbEntity
  8
2
  6
CONTINUOUS
 62
   253
100
AcDbLine
 10
667.091774082353
 20
114.6319755247452
 30
0.0
 11
660.8326984003417
 21
115.724974167671
 31
0.0
  0
ELLIPSE
  5
177
330
1F
100
AcDbEntity
  8
2
  6
CONTINUOUS
 62
   253
100
AcDbEllipse
 10
682.0064908914774
 20
73.12684751262549
 30
0.0
 11
0.4596633080679316
 21
4.074652775178732
 31
0.0
210
0.0
220
0.0
230
1.0
 40
0.7415421186139389
 41
0.0834593617851119
 42
0.1499811016086212
  0
LINE
  5
178
330
1F
100
AcDbEntity
  8
2
  6
CONTINUOUS
 62
     7
100
AcDbLine
 10
588.9577223937486
 20
74.52557497787556
 30
0.0
 11
585.5429378346649
 21
74.52557497787556
 31
0.0
  0
LINE
  5
179
330
1F
100
AcDbEntity
  8
2
  6
CONTINUOUS
 62
     7
100
AcDbLine
 10
603.5000000000002
 20
161.5
 30
0.0
 11
604.7207349692873
 21
161.506336274658
 31
0.0
  0
LINE
  5
17A
330
1F
100
AcDbEntity
  8
2
  6
CONTINUOUS
 62
   253
100
AcDbLine
 10
668.8580993326915
 20
166.7970585407784
 30
0.0
 11
668.0300972172342
 21
166.7970585407784
 31
0.0
  0
ELLIPSE
  5
17B
330
1F
100
AcDbEntity
  8
2
  6
CONTINUOUS
 62
   253
100
AcDbEllipse
 10
598.1997968812296
 20
161.5247663981733
 30
0.0
 11
-2.006865715443639
 21
0.0001778175352979036
 31
0.0
210
0.0
220
0.0
230
-1.0
 40
0.0053263033083288
 41
3.926418016876442
 42
4.695755224546755
  0
LINE
  5
17C
330
1F
100
AcDbEntity
  8
2
  6
CONTINUOUS
 62
     7
100
AcDbLine
 10
665.983317832105
 20
161.5100091381208
 30
0.0
 11
666.2792650307132
 21
161.506336274658
 31
0.0
  0
LINE
  5
17D
330
1F
100
AcDbEntity
  8
2
  6
CONTINUOUS
 62
   253
100
AcDbLine
 10
602.9699027827663
 20
176.2029414592217
 30
0.0
 11
602.1419006673091
 21
176.2029414592216
 31
0.0
  0
LINE
  5
17E
330
1F
100
AcDbEntity
  8
2
  6
CONTINUOUS
 62
     7
100
AcDbLine
 10
681.3351917133577
 20
181.5
 30
0.0
 11
667.5000000000002
 21
181.5
 31
0.0
  0
ARC
  5
17F
330
1F
100
AcDbEntity
  8
2
  6
CONTINUOUS
 62
     7
100
AcDbCircle
 10
598.0857864376272
 20
79.52557497787558
 30
0.0
 40
1.000000000000001
100
AcDbArc
 50
270.46011248906
 51
314.5398875109391
  0
LINE
  5
180
330
1F
100
AcDbEntity
  8
2
  6
CONTINUOUS
 62
   253
100
AcDbLine
 10
671.3803228221053
 20
77.78883246473502
 30
0.0
 11
667.6347376762814
 21
81.53997295401955
 31
0.0
  0
LINE
  5
181
330
1F
100
AcDbEntity
  8
2
  6
CONTINUOUS
 62
     7
100
AcDbLine
 10
605.3324381983728
 20
161.6994596784446
 30
0.0
 11
605.7345289658303
 21
161.7020041855273
 31
0.0
  0
LINE
  5
182
330
1F
100
AcDbEntity
  8
2
  6
CONTINUOUS
 62
     7
100
AcDbLine
 10
603.5000000000002
 20
161.5
 30
0.0
 11
589.6648082866427
 21
161.5
 31
0.0
  0
ARC
  5
183
330
1F
100
AcDbEntity
  8
2
  6
CONTINUOUS
 62
     7
100
AcDbCircle
 10
672.9142135623734
 20
79.52557497787558
 30
0.0
 40
1.000000000000003
100
AcDbArc
 50
225.0000000000003
 51
225.4601124890603
  0
LINE
  5
184
330
1F
100
AcDbEntity
  8
2
  6
CONTINUOUS
 62
   253
100
AcDbLine
 10
602.1419006673091
 20
166.7970585407784
 30
0.0
 11
602.9699027827663
 21
166.7970585407784
 31
0.0
  0
LINE
  5
185
330
1F
100
AcDbEntity
  8
2
  6
CONTINUOUS
 62
     7
100
AcDbLine
 10
603.5000000000003
 20
74.52557497787556
 30
0.0
 11
604.7207349692874
 21
75.73570323809511
 31
0.0
  0
ARC
  5
186
330
1F
100
AcDbEntity
  8
2
  6
CONTINUOUS
 62
     7
100
AcDbCircle
 10
666.9832797551692
 20
76.4458886137184
 30
0.0
 40
1.000000000000001
100
AcDbArc
 50
180.5000000000001
 51
225.25
  0
LINE
  5
187
330
1F
100
AcDbEntity
  8
2
  6
CONTINUOUS
 62
   253
100
AcDbLine
 10
668.8580993326915
 20
176.2029414592216
 30
0.0
 11
668.0300972172342
 21
176.2029414592216
 31
0.0
  0
ELLIPSE
  5
188
330
1F
100
AcDbEntity
  8
2
  6
CONTINUOUS
 62
   253
100
AcDbEllipse
 10
660.8326984003415
 20
180.2842921866614
 30
0.0
 11
0.0009143486530277173
 21
-0.9999995819831855
 31
0.0
210
0.0
220
0.0
230
1.0
 40
0.1720229710469711
 41
1.768034678737846
 42
3.136277430750274
  0
LINE
  5
189
330
1F
100
AcDbEntity
  8
2
  6
CONTINUOUS
 62
     7
100
AcDbLine
 10
605.7345289658303
 20
161.7020041855273
 30
0.0
 11
609.8600425660819
 21
161.7063167614758
 31
0.0
  0
LINE
  5
18A
330
1F
100
AcDbEntity
  8
2
  6
CONTINUOUS
 62
     7
100
AcDbLine
 10
605.3324381983728
 20
161.6994596784446
 30
0.0
 11
605.0166821678955
 21
161.5100091381208
 31
0.0
  0
ELLIPSE
  5
18B
330
1F
100
AcDbEntity
  8
2
  6
CONTINUOUS
 62
   253
100
AcDbEllipse
 10
610.1673015996589
 20
180.2842921866614
 30
0.0
 11
0.0009143486530262528
 21
0.9999995819831855
 31
0.0
210
0.0
220
0.0
230
1.0
 40
0.172022971046971
 41
0.0053152228395156
 42
1.373557974851927
  0
LINE
  5
18C
330
1F
100
AcDbEntity
  8
2
  6
CONTINUOUS
 62
     7
100
AcDbLine
 10
609.8600425660819
 20
161.7063167614758
 30
0.0
 11
610.8389445068273
 21
161.7068234064252
 31
0.0
  0
LINE
  5
18D
330
1F
100
AcDbEntity
  8
2
  6
CONTINUOUS
 62
     7
100
AcDbLine
 10
665.2654710341701
 20
161.7020041855273
 30
0.0
 11
665.6675618016277
 21
161.6994596784446
 31
0.0
  0
LINE
  5
18E
330
1F
100
AcDbEntity
  8
2
  6
CONTINUOUS
 62
     7
100
AcDbLine
 10
660.1610554931732
 20
161.7068234064252
 30
0.0
 11
610.8389445068273
 21
161.7068234064252
 31
0.0
  0
LINE
  5
18F
330
1F
100
AcDbEntity
  8
2
  6
CONTINUOUS
 62
   253
100
AcDbLine
 10
588.787327791353
 20
77.21573251658623
 30
0.0
 11
585.8239493196443
 21
77.21573251658623
 31
0.0
  0
LINE
  5
190
330
1F
100
AcDbEntity
  8
2
  6
CONTINUOUS
 62
     7
100
AcDbLine
 10
661.0750891754232
 20
117.480946675419
 30
0.0
 11
668.0300972172342
 21
116.2677110715003
 31
0.0
  0
LINE
  5
191
330
1F
100
AcDbEntity
  8
2
  6
CONTINUOUS
 62
     7
100
AcDbLine
 10
585.2500000000002
 20
74.52557497787556
 30
0.0
 11
585.2968373939045
 21
77.20888747754134
 31
0.0
  0
LINE
  5
192
330
1F
100
AcDbEntity
  8
2
  6
CONTINUOUS
 62
     7
100
AcDbLine
 10
682.7695556574057
 20
78.52557497787556
 30
0.0
 11
682.8841787262699
 21
78.52557497787556
 31
0.0
  0
ARC
  5
193
330
1F
100
AcDbEntity
  8
2
  6
CONTINUOUS
 62
     7
100
AcDbCircle
 10
-588.1158212737307
 20
75.52557497787556
 30
0.0
 40
3.000000000000001
210
0.0
220
0.0
230
-1.0
100
AcDbArc
 50
78.73007123647986
 51
89.9999999999999
  0
LINE
  5
194
330
1F
100
AcDbEntity
  8
2
  6
CONTINUOUS
 62
   253
100
AcDbLine
 10
667.6347376762814
 20
81.53997295401958
 30
0.0
 11
667.091774082353
 21
114.6319755247452
 31
0.0
  0
LINE
  5
195
330
1F
100
AcDbEntity
  8
2
  6
CONTINUOUS
 62
   253
100
AcDbLine
 10
685.1760506803562
 20
77.21573251658623
 30
0.0
 11
682.2126722086475
 21
77.21573251658623
 31
0.0
  0
LINE
  5
196
330
1F
100
AcDbEntity
  8
2
  6
CONTINUOUS
 62
     7
100
AcDbLine
 10
672.9142135623734
 20
78.52557497787556
 30
0.0
 11
680.3597091643121
 21
78.52557497787556
 31
0.0
  0
ELLIPSE
  5
197
330
1F
100
AcDbEntity
  8
2
  6
CONTINUOUS
 62
   253
100
AcDbEllipse
 10
685.4566730111073
 20
73.12684751262549
 30
0.0
 11
0.622870849157774
 21
-4.062871288089987
 31
0.0
210
0.0
220
0.0
230
1.0
 40
0.7393137507679565
 41
2.952238035082265
 42
3.028731557105885
  0
LINE
  5
198
330
1F
100
AcDbEntity
  8
2
  6
CONTINUOUS
 62
     7
100
AcDbLine
 10
683.4704730745746
 20
78.46772707067193
 30
0.0
 11
684.8985544387506
 21
78.18314761783341
 31
0.0
  0
LINE
  5
199
330
1F
100
AcDbEntity
  8
2
  6
CONTINUOUS
 62
     7
100
AcDbLine
 10
610.4404475636751
 20
117.5255749778756
 30
0.0
 11
660.5595524363255
 21
117.5255749778756
 31
0.0
  0
LINE
  5
19A
330
1F
100
AcDbEntity
  8
2
  6
CONTINUOUS
 62
     7
100
AcDbLine
 10
585.2968373939046
 20
77.20888747754137
 30
0.0
 11
585.2970293155284
 21
77.21988266000525
 31
0.0
  0
LINE
  5
19B
330
1F
100
AcDbEntity
  8
2
  6
CONTINUOUS
 62
     7
100
AcDbLine
 10
685.7031626060958
 20
77.20888747754134
 30
0.0
 11
685.7500000000002
 21
74.52557497787556
 31
0.0
  0
LINE
  5
19C
330
1F
100
AcDbEntity
  8
2
  6
CONTINUOUS
 62
     7
100
AcDbLine
 10
586.10144556125
 20
78.18314761783343
 30
0.0
 11
587.529526925426
 21
78.46772707067194
 31
0.0
  0
LINE
  5
19D
330
1F
100
AcDbEntity
  8
0
  6
CENTER
 62
     1
100
AcDbLine
 10
677.5000000000003
 20
167.0000000000001
 30
0.0
 11
677.5000000000003
 21
176.0
 31
0.0
  0
LINE
  5
19E
330
1F
100
AcDbEntity
  8
2
  6
CONTINUOUS
 62
     7
100
AcDbLine
 10
680.3597091643121
 20
78.52557497787556
 30
0.0
 11
680.6367606848075
 21
78.52557497787556
 31
0.0
  0
ELLIPSE
  5
19F
330
1F
100
AcDbEntity
  8
2
  6
CONTINUOUS
 62
   253
100
AcDbEllipse
 10
585.5433269888932
 20
73.12684751262549
 30
0.0
 11
0.6228708491577722
 21
4.062871288089989
 31
0.0
210
0.0
220
0.0
230
1.0
 40
0.7393137507679566
 41
0.1128610964839051
 42
0.1893546185075285
  0
ELLIPSE
  5
1A0
330
1F
100
AcDbEntity
  8
2
  6
CONTINUOUS
 62
   253
100
AcDbEllipse
 10
598.1997968812296
 20
79.25556538250969
 30
0.0
 11
-0.7671379938424573
 21
1.899408102199814
 31
0.0
210
0.0
220
0.0
230
-1.0
 40
0.976333944464411
 41
2.747859465176218
 42
3.51719667284635
  0
ARC
  5
1A1
330
1F
100
AcDbEntity
  8
2
  6
CONTINUOUS
 62
     7
100
AcDbCircle
 10
-682.8841787262699
 20
75.52557497787556
 30
0.0
 40
2.999999999999999
210
0.0
220
0.0
230
-1.0
100
AcDbArc
 50
90.00000000000016
 51
101.2699287635202
  0
ELLIPSE
  5
1A2
330
1F
100
AcDbEntity
  8
2
  6
CONTINUOUS
 62
   253
100
AcDbEllipse
 10
610.5112918011898
 20
113.7124332490375
 30
0.0
 11
-0.1717677592691526
 21
2.034803340671757
 31
0.0
210
0.0
220
0.0
230
1.0
 40
0.9794124804616942
 41
6.200695892426172
 42
6.370036816204966
  0
LINE
  5
1A3
330
1F
100
AcDbEntity
  8
2
  6
CONTINUOUS
 62
     7
100
AcDbLine
 10
681.3351917133577
 20
74.52557497787556
 30
0.0
 11
667.5000000000002
 21
74.52557497787556
 31
0.0
  0
LINE
  5
1A4
330
1F
100
AcDbEntity
  8
2
  6
CONTINUOUS
 62
   253
100
AcDbLine
 10
610.167301599659
 20
115.7249741676709
 30
0.0
 11
603.9082259176477
 21
114.6319755247451
 31
0.0
  0
ARC
  5
1A5
330
1F
100
AcDbEntity
  8
2
  6
CONTINUOUS
 62
     7
100
AcDbCircle
 10
672.9142135623734
 20
79.52557497787558
 30
0.0
 40
1.0
100
AcDbArc
 50
269.5398875109393
 51
269.9999999999999
  0
LINE
  5
1A6
330
1F
100
AcDbEntity
  8
2
  6
CONTINUOUS
 62
   253
100
AcDbLine
 10
603.9082259176475
 20
114.6319755247451
 30
0.0
 11
603.3652623237192
 21
81.53997295401948
 31
0.0
  0
LINE
  5
1A7
330
1F
100
AcDbEntity
  8
2
  6
CONTINUOUS
 62
   253
100
AcDbLine
 10
660.4956841385592
 20
115.7541791853587
 30
0.0
 11
610.5043158614413
 21
115.7541791853587
 31
0.0
  0
LINE
  5
1A8
330
1F
100
AcDbEntity
  8
2
  6
CONTINUOUS
 62
   253
100
AcDbLine
 10
680.940725500444
 20
77.21381944618852
 30
0.0
 11
672.7668238907708
 21
77.21381944618852
 31
0.0
  0
LINE
  5
1A9
330
1F
100
AcDbEntity
  8
2
  6
CONTINUOUS
 62
     7
100
AcDbLine
 10
680.6367606848075
 20
78.52557497787556
 30
0.0
 11
682.7695556574057
 21
78.52557497787556
 31
0.0
  0
LINE
  5
1AA
330
1F
100
AcDbEntity
  8
2
  6
CONTINUOUS
 62
     7
100
AcDbLine
 10
685.7500000000003
 20
74.52557497787556
 30
0.0
 11
685.4570621653357
 21
74.52557497787556
 31
0.0
  0
LINE
  5
1AB
330
1F
100
AcDbEntity
  8
2
  6
CONTINUOUS
 62
     7
100
AcDbLine
 10
666.2792650307132
 20
75.73570323809511
 30
0.0
 11
667.5000000000002
 21
74.52557497787556
 31
0.0
  0
ARC
  5
1AC
330
1F
100
AcDbEntity
  8
2
  6
CONTINUOUS
 62
     7
100
AcDbCircle
 10
598.0857864376272
 20
79.52557497787558
 30
0.0
 40
1.000000000000003
100
AcDbArc
 50
314.539887510939
 51
314.9999999999998
  0
ARC
  5
1AD
330
1F
100
AcDbEntity
  8
2
  6
CONTINUOUS
 62
     7
100
AcDbCircle
 10
-610.4404475636751
 20
114.5255749778756
 30
0.0
 40
3.000000000000001
210
0.0
220
0.0
230
-1.0
100
AcDbArc
 50
80.1048576754095
 51
90.00000000000004
  0
ARC
  5
1AE
330
1F
100
AcDbEntity
  8
2
  6
CONTINUOUS
 62
     7
100
AcDbCircle
 10
-660.5595524363255
 20
114.5255749778756
 30
0.0
 40
3.000000000000003
210
0.0
220
0.0
230
-1.0
100
AcDbArc
 50
90.0
 51
99.89514232459065
  0
ARC
  5
1AF
330
1F
100
AcDbEntity
  8
2
  6
CONTINUOUS
 62
     7
100
AcDbCircle
 10
-684.7031229893157
 20
77.20243025356795
 30
0.0
 40
0.9999999999999991
210
0.0
220
0.0
230
-1.0
100
AcDbArc
 50
101.2699287635201
 51
179.0000000000001
  0
ARC
  5
1B0
330
1F
100
AcDbEntity
  8
2
  6
CONTINUOUS
 62
     7
100
AcDbCircle
 10
-586.2968770106849
 20
77.20243025356795
 30
0.0
 40
0.9999999999999977
210
0.0
220
0.0
230
-1.0
100
AcDbArc
 50
0.999999999999996
 51
78.73007123647986
  0
LINE
  5
1B1
330
1F
100
AcDbEntity
  8
2
  6
CONTINUOUS
 62
     7
100
AcDbLine
 10
588.1158212737307
 20
78.52557497787556
 30
0.0
 11
588.2304443425949
 21
78.52557497787556
 31
0.0
  0
LINE
  5
1B2
330
1F
100
AcDbEntity
  8
2
  6
CONTINUOUS
 62
   253
100
AcDbLine
 10
585.5896860036622
 20
77.20377578604389
 30
0.0
 11
585.2968373939046
 21
77.20888747754135
 31
0.0
  0
ARC
  5
1B3
330
1F
100
AcDbEntity
  8
2
  6
CONTINUOUS
 62
     7
100
AcDbCircle
 10
598.0857864376272
 20
79.52557497787558
 30
0.0
 40
1.0
100
AcDbArc
 50
270.0
 51
270.4601124890599
  0
LINE
  5
1B4
330
1F
100
AcDbEntity
  8
2
  6
CONTINUOUS
 62
     7
100
AcDbLine
 10
602.9699027827663
 20
116.2677110715003
 30
0.0
 11
609.9249108245774
 21
117.480946675419
 31
0.0
  0
ELLIPSE
  5
1B5
330
1F
100
AcDbEntity
  8
2
  6
CONTINUOUS
 62
   253
100
AcDbEllipse
 10
672.8002031187709
 20
79.25556538250969
 30
0.0
 11
-0.7671379938424731
 21
-1.899408102199807
 31
0.0
210
0.0
220
0.0
230
-1.0
 40
0.976333944464411
 41
5.907581287923021
 42
6.67691849559316
  0
LINE
  5
1B6
330
1F
100
AcDbEntity
  8
2
  6
CONTINUOUS
 62
     7
100
AcDbLine
 10
590.6402908356885
 20
78.52557497787556
 30
0.0
 11
598.0857864376272
 21
78.52557497787556
 31
0.0
  0
ELLIPSE
  5
1B7
330
1F
100
AcDbEntity
  8
2
  6
CONTINUOUS
 62
   253
100
AcDbEllipse
 10
588.9935091085232
 20
73.12684751262549
 30
0.0
 11
0.4596633080679361
 21
-4.074652775178732
 31
0.0
210
0.0
220
0.0
230
1.0
 40
0.7415421186139389
 41
2.991611551981173
 42
3.05813329180468
  0
ELLIPSE
  5
1B8
330
1F
100
AcDbEntity
  8
2
  6
CONTINUOUS
 62
   253
100
AcDbEllipse
 10
660.4887081988109
 20
113.7124332490375
 30
0.0
 11
0.171767759269072
 21
2.034803340671771
 31
0.0
210
0.0
220
0.0
230
1.0
 40
0.9794124804616937
 41
6.196333798154157
 42
6.365674721932953
  0
LINE
  5
1B9
330
1F
100
AcDbEntity
  8
2
  6
CONTINUOUS
 62
     7
100
AcDbLine
 10
601.5532954706862
 20
81.5788704485614
 30
0.0
 11
602.1419006673091
 21
115.3000395787565
 31
0.0
  0
LINE
  5
1BA
330
1F
100
AcDbEntity
  8
2
  6
CONTINUOUS
 62
     7
100
AcDbLine
 10
590.3632393151929
 20
78.52557497787556
 30
0.0
 11
590.6402908356885
 21
78.52557497787556
 31
0.0
  0
ELLIPSE
  5
1BB
330
1F
100
AcDbEntity
  8
2
  6
CONTINUOUS
 62
   253
100
AcDbEllipse
 10
681.2773818446947
 20
73.13032757354613
 30
0.0
 11
-3.960871114274864
 21
1.945551600182516
 31
0.0
210
0.0
220
0.0
230
1.0
 40
0.9064237596939975
 41
5.125470188379137
 42
5.208993672624597
  0
ARC
  5
1BC
330
1F
100
AcDbEntity
  8
2
  6
CONTINUOUS
 62
     7
100
AcDbCircle
 10
667.8582516375351
 20
115.2825871723192
 30
0.0
 40
0.9999999999999978
100
AcDbArc
 50
1.000000000000642
 51
80.1048576754101
  0
LINE
  5
1BD
330
1F
100
AcDbEntity
  8
2
  6
CONTINUOUS
 62
   253
100
AcDbLine
 10
603.3652623237193
 20
81.53997295401949
 30
0.0
 11
599.6196771778954
 21
77.78883246473501
 31
0.0
  0
LINE
  5
1BE
330
1F
100
AcDbEntity
  8
2
  6
CONTINUOUS
 62
   253
100
AcDbLine
 10
685.7031626060958
 20
77.20888747754134
 30
0.0
 11
685.4103139963383
 21
77.20377578604388
 31
0.0
  0
ARC
  5
1BF
330
1F
100
AcDbEntity
  8
2
  6
CONTINUOUS
 62
     7
100
AcDbCircle
 10
-603.1417483624655
 20
115.2825871723192
 30
0.0
 40
0.9999999999999978
210
0.0
220
0.0
230
-1.0
100
AcDbArc
 50
1.000000000000642
 51
80.10485767540978
  0
LINE
  5
1C0
330
1F
100
AcDbEntity
  8
2
  6
CONTINUOUS
 62
     7
100
AcDbLine
 10
685.702970684472
 20
77.21988266000525
 30
0.0
 11
685.7031626060958
 21
77.20888747754135
 31
0.0
  0
LINE
  5
1C1
330
1F
100
AcDbEntity
  8
2
  6
CONTINUOUS
 62
     7
100
AcDbLine
 10
588.2304443425949
 20
78.52557497787556
 30
0.0
 11
590.3632393151929
 21
78.52557497787556
 31
0.0
  0
LINE
  5
1C2
330
1F
100
AcDbEntity
  8
2
  6
CONTINUOUS
 62
     7
100
AcDbLine
 10
668.8580993326915
 20
115.3000395787565
 30
0.0
 11
669.4467045293144
 21
81.57887044856145
 31
0.0
  0
LINE
  5
1C3
330
1F
100
AcDbEntity
  8
2
  6
CONTINUOUS
 62
     7
100
AcDbLine
 10
585.5429378346648
 20
74.52557497787556
 30
0.0
 11
585.2500000000002
 21
74.52557497787556
 31
0.0
  0
LINE
  5
1C4
330
1F
100
AcDbEntity
  8
2
  6
CONTINUOUS
 62
     7
100
AcDbLine
 10
598.7928932188138
 20
78.81846819668903
 30
0.0
 11
601.5532954706862
 21
81.57887044856132
 31
0.0
  0
LINE
  5
1C5
330
1F
100
AcDbEntity
  8
2
  6
CONTINUOUS
 62
     7
100
AcDbLine
 10
669.4467045293144
 20
81.5788704485615
 30
0.0
 11
672.207106781187
 21
78.81846819668903
 31
0.0
  0
ENDSEC
  0
SECTION
  2
OBJECTS
  0
DICTIONARY
  5
C
330
0
100
AcDbDictionary
  3
ACAD_GROUP
350
D
  3
ACAD_LAYOUT
350
1A
  3
ACAD_MATERIAL
350
43
  3
ACAD_MLEADERSTYLE
350
6B
  3
ACAD_MLINESTYLE
350
17
  3
ACAD_PLOTSETTINGS
350
19
  3
ACAD_SCALELIST
350
47
  3
ACAD_VISUALSTYLE
350
2A
  3
ACDBHEADERROUNDTRIPXREC
350
1C6
  3
ACDBVARIABLEDICTIONARY
350
1E7
  0
DICTIONARY
  5
1EE
330
8
100
AcDbDictionary
280
     1
  3
ACAD_XREC_ROUNDTRIP
360
1EF
  0
DICTIONARY
  5
D
102
{ACAD_REACTORS
330
C
102
}
330
C
100
AcDbDictionary
  0
DICTIONARY
  5
1A
102
{ACAD_REACTORS
330
C
102
}
330
C
100
AcDbDictionary
  0
DICTIONARY
  5
43
102
{ACAD_REACTORS
330
C
102
}
330
C
100
AcDbDictionary
  3
BYBLOCK
350
45
  3
BYLAYER
350
44
  3
GLOBAL
350
46
  0
DICTIONARY
  5
6B
102
{ACAD_REACTORS
330
C
102
}
330
C
100
AcDbDictionary
  3
STANDARD
350
6C
  0
DICTIONARY
  5
17
102
{ACAD_REACTORS
330
C
102
}
330
C
100
AcDbDictionary
  3
STANDARD
350
18
  0
DICTIONARY
  5
19
102
{ACAD_REACTORS
330
C
102
}
330
C
100
AcDbDictionary
  0
DICTIONARY
  5
47
102
{ACAD_REACTORS
330
C
102
}
330
C
100
AcDbDictionary
  3
A0
350
48
  3
A1
350
49
  3
A2
350
4A
  3
A3
350
4B
  3
A4
350
4C
  3
A5
350
4D
  3
A6
350
4E
  3
A7
350
4F
  3
A8
350
50
  3
A9
350
51
  3
B0
350
52
  3
B1
350
53
  3
B2
350
54
  3
B3
350
55
  3
B4
350
56
  3
B5
350
57
  3
B6
350
58
  3
B7
350
59
  3
B8
350
5A
  3
B9
350
5B
  3
C0
350
5C
  3
C1
350
5D
  3
C2
350
5E
  3
C3
350
5F
  3
C4
350
60
  3
C5
350
61
  3
C6
350
62
  3
C7
350
63
  3
C8
350
64
  3
C9
350
65
  3
D0
350
66
  3
D1
350
67
  3
D2
350
68
  0
DICTIONARY
  5
2A
102
{ACAD_REACTORS
330
C
102
}
330
C
100
AcDbDictionary
  3
2DWIREFRAME
350
2F
  3
BASIC
350
32
  3
BRIGHTEN
350
36
  3
COLORCHANGE
350
3A
  3
CONCEPTUAL
350
34
  3
DIM
350
35
  3
EDGECOLOROFF
350
3D
  3
FACEPATTERN
350
39
  3
FLAT
350
2B
  3
FLATWITHEDGES
350
2C
  3
GOURAUD
350
2D
  3
GOURAUDWITHEDGES
350
2E
  3
HIDDEN
350
31
  3
JITTEROFF
350
3B
  3
LINEPATTERN
350
38
  3
OVERHANGOFF
350
3C
  3
REALISTIC
350
33
  3
SHADED
350
42
  3
SHADED_WITH_EDGES
350
41
  3
SHADES_OF_GRAY
350
3E
  3
SKETCHY
350
3F
  3
THICKEN
350
37
  3
WIREFRAME
350
30
  3
X-RAY
350
40
  0
DICTIONARY
  5
1C6
102
{ACAD_REACTORS
330
C
102
}
330
C
100
AcDbDictionary
  3
CEPSNID
350
1D0
  3
CEPSNTYPE
350
1CF
  3
DIMSTYLEDATA
350
1E6
  3
FINGERPRINTGUID
350
1D1
  3
HYPERLINKBASE
350
1C9
  3
INSUNITS
350
1CE
  3
LAYOUTDICT
350
1CB
  3
LWETCUNION
350
1CD
  3
PLOTSETDICT
350
1CC
  3
PSVPSCALE
350
1D3
  3
PUCSBASE
350
1D6
  3
PUCSORGBACK
350
1DC
  3
PUCSORGBOTTOM
350
1D8
  3
PUCSORGFRONT
350
1DB
  3
PUCSORGLEFT
350
1D9
  3
PUCSORGRIGHT
350
1DA
  3
PUCSORGTOP
350
1D7
  3
PUCSORTHOREF
350
1D4
  3
PUCSORTHOVIEW
350
1D5
  3
STYLESHEET
350
1CA
  3
TSTACKALIGN
350
1C7
  3
TSTACKSIZE
350
1C8
  3
UCSBASE
350
1DF
  3
UCSORGBACK
350
1E5
  3
UCSORGBOTTOM
350
1E1
  3
UCSORGFRONT
350
1E4
  3
UCSORGLEFT
350
1E2
  3
UCSORGRIGHT
350
1E3
  3
UCSORGTOP
350
1E0
  3
UCSORTHOREF
350
1DD
  3
UCSORTHOVIEW
350
1DE
  3
VERSIONGUID
350
1D2
  0
DICTIONARY
  5
1E7
102
{ACAD_REACTORS
330
C
102
}
330
C
100
AcDbDictionary
  3
CANNOSCALE
350
1F0
  3
CMLEADERSTYLE
350
1E9
  3
CTABLESTYLE
350
1E8
  3
DIMASSOC
350
1EC
  3
HIDETEXT
350
1ED
  3
MSLTSCALE
350
1F1
  0
XRECORD
  5
1EF
102
{ACAD_REACTORS
330
1EE
102
}
330
1EE
100
AcDbXrecord
102
VTR_0.000_0.000_1.000_1.000_VISUALSTYLE
340
2F
102
VTR_0.000_0.000_1.000_1.000_GRIDDISPLAY
 70
     3
102
VTR_0.000_0.000_1.000_1.000_GRIDMAJOR
 70
     5
102
VTR_0.000_0.000_1.000_1.000_DEFAULTLIGHTING
280
     1
102
VTR_0.000_0.000_1.000_1.000_DEFAULTLIGHTINGTYPE
 70
     1
102
VTR_0.000_0.000_1.000_1.000_BRIGHTNESS
141
0.0
102
VTR_0.000_0.000_1.000_1.000_CONTRAST
142
0.0
  0
MATERIAL
  5
45
102
{ACAD_REACTORS
330
43
102
}
102
{ACAD_XDICTIONARY
360
1F4
102
}
330
43
100
AcDbMaterial
  1
BYBLOCK
  0
MATERIAL
  5
44
102
{ACAD_REACTORS
330
43
102
}
102
{ACAD_XDICTIONARY
360
1F2
102
}
330
43
100
AcDbMaterial
  1
BYLAYER
  0
MATERIAL
  5
46
102
{ACAD_REACTORS
330
43
102
}
102
{ACAD_XDICTIONARY
360
1F6
102
}
330
43
100
AcDbMaterial
  1
GLOBAL
  0
ACAD_PROXY_OBJECT
  5
6C
102
{ACAD_REACTORS
330
6B
102
}
330
6B
100
AcDbProxyObject
 90
      499
 91
      505
 93
      610
310
40901902A4063FBFFFFFE056BD1B81E855B9FC0AD7A3703D0AD73F4214DD185B99185C9900AD7A3703D0AC73F90141901A02B5E8DC0F42B1CFC02B5E8DC0F42B1CFE5764000000000000300FC0
340
14
340
0
340
11
340
0
 94
        0
1001
ACAD_MLEADERVER
1070
     2
  0
MLINESTYLE
  5
18
102
{ACAD_REACTORS
330
17
102
}
330
17
100
AcDbMlineStyle
  2
Standard
 70
     0
  3

 62
   256
 51
90.0
 52
90.0
 71
     2
 49
0.5
 62
   256
  6
BYLAYER
 49
-0.5
 62
   256
  6
BYLAYER
  0
ACAD_PROXY_OBJECT
  5
48
102
{ACAD_REACTORS
330
47
102
}
330
47
100
AcDbProxyObject
 90
      499
 91
      503
 93
       41
310
903313A31580
  0
ACAD_PROXY_OBJECT
  5
49
102
{ACAD_REACTORS
330
47
102
}
330
47
100
AcDbProxyObject
 90
      499
 91
      503
 93
      105
310
903313A324000000000000004000
  0
ACAD_PROXY_OBJECT
  5
4A
102
{ACAD_REACTORS
330
47
102
}
330
47
100
AcDbProxyObject
 90
      499
 91
      503
 93
      105
310
903313A344000000000000104000
  0
ACAD_PROXY_OBJECT
  5
4B
102
{ACAD_REACTORS
330
47
102
}
330
47
100
AcDbProxyObject
 90
      499
 91
      503
 93
      105
310
903313A354000000000000144000
  0
ACAD_PROXY_OBJECT
  5
4C
102
{ACAD_REACTORS
330
47
102
}
330
47
100
AcDbProxyObject
 90
      499
 91
      503
 93
      105
310
903313A384000000000000204000
  0
ACAD_PROXY_OBJECT
  5
4D
102
{ACAD_REACTORS
330
47
102
}
330
47
100
AcDbProxyObject
 90
      499
 91
      503
 93
      113
310
904313A31304000000000000244000
  0
ACAD_PROXY_OBJECT
  5
4E
102
{ACAD_REACTORS
330
47
102
}
330
47
100
AcDbProxyObject
 90
      499
 91
      503
 93
      113
310
904313A31364000000000000304000
  0
ACAD_PROXY_OBJECT
  5
4F
102
{ACAD_REACTORS
330
47
102
}
330
47
100
AcDbProxyObject
 90
      499
 91
      503
 93
      113
310
904313A32304000000000000344000
  0
ACAD_PROXY_OBJECT
  5
50
102
{ACAD_REACTORS
330
47
102
}
330
47
100
AcDbProxyObject
 90
      499
 91
      503
 93
      113
310
904313A333040000000000003E4000
  0
ACAD_PROXY_OBJECT
  5
51
102
{ACAD_REACTORS
330
47
102
}
330
47
100
AcDbProxyObject
 90
      499
 91
      503
 93
      113
310
904313A34304000000000000444000
  0
ACAD_PROXY_OBJECT
  5
52
102
{ACAD_REACTORS
330
47
102
}
330
47
100
AcDbProxyObject
 90
      499
 91
      503
 93
      113
310
904313A35304000000000000494000
  0
ACAD_PROXY_OBJECT
  5
53
102
{ACAD_REACTORS
330
47
102
}
330
47
100
AcDbProxyObject
 90
      499
 91
      503
 93
      121
310
905313A3130304000000000000594000
  0
ACAD_PROXY_OBJECT
  5
54
102
{ACAD_REACTORS
330
47
102
}
330
47
100
AcDbProxyObject
 90
      499
 91
      503
 93
      105
310
903323A310000000000000010100
  0
ACAD_PROXY_OBJECT
  5
55
102
{ACAD_REACTORS
330
47
102
}
330
47
100
AcDbProxyObject
 90
      499
 91
      503
 93
      105
310
903343A310000000000000410100
  0
ACAD_PROXY_OBJECT
  5
56
102
{ACAD_REACTORS
330
47
102
}
330
47
100
AcDbProxyObject
 90
      499
 91
      503
 93
      105
310
903383A310000000000000810100
  0
ACAD_PROXY_OBJECT
  5
57
102
{ACAD_REACTORS
330
47
102
}
330
47
100
AcDbProxyObject
 90
      499
 91
      503
 93
      113
310
90431303A310000000000000910100
  0
ACAD_PROXY_OBJECT
  5
58
102
{ACAD_REACTORS
330
47
102
}
330
47
100
AcDbProxyObject
 90
      499
 91
      503
 93
      121
310
9053130303A310000000000001650100
  0
ACAD_PROXY_OBJECT
  5
59
102
{ACAD_REACTORS
330
47
102
}
330
47
100
AcDbProxyObject
 90
      499
 91
      503
 93
      257
310
90E312F31323822203D2031272D3022000000000000200FC000000000000284000
  0
ACAD_PROXY_OBJECT
  5
5A
102
{ACAD_REACTORS
330
47
102
}
330
47
100
AcDbProxyObject
 90
      499
 91
      503
 93
      249
310
90D312F363422203D2031272D3022000000000000240FC000000000000284000
  0
ACAD_PROXY_OBJECT
  5
5B
102
{ACAD_REACTORS
330
47
102
}
330
47
100
AcDbProxyObject
 90
      499
 91
      503
 93
      249
310
90D312F333222203D2031272D3022000000000000280FC000000000000284000
  0
ACAD_PROXY_OBJECT
  5
5C
102
{ACAD_REACTORS
330
47
102
}
330
47
100
AcDbProxyObject
 90
      499
 91
      503
 93
      249
310
90D312F313622203D2031272D30220000000000002C0FC000000000000284000
  0
ACAD_PROXY_OBJECT
  5
5D
102
{ACAD_REACTORS
330
47
102
}
330
47
100
AcDbProxyObject
 90
      499
 91
      503
 93
      249
310
90D332F333222203D2031272D30220000000000002E0FC000000000000284000
  0
ACAD_PROXY_OBJECT
  5
5E
102
{ACAD_REACTORS
330
47
102
}
330
47
100
AcDbProxyObject
 90
      499
 91
      503
 93
      241
310
90C312F3822203D2031272D3022000000000000300FC000000000000284000
  0
ACAD_PROXY_OBJECT
  5
5F
102
{ACAD_REACTORS
330
47
102
}
330
47
100
AcDbProxyObject
 90
      499
 91
      503
 93
      249
310
90D332F313622203D2031272D3022000000000000320FC000000000000284000
  0
ACAD_PROXY_OBJECT
  5
60
102
{ACAD_REACTORS
330
47
102
}
330
47
100
AcDbProxyObject
 90
      499
 91
      503
 93
      241
310
90C312F3422203D2031272D3022000000000000340FC000000000000284000
  0
ACAD_PROXY_OBJECT
  5
61
102
{ACAD_REACTORS
330
47
102
}
330
47
100
AcDbProxyObject
 90
      499
 91
      503
 93
      241
310
90C332F3822203D2031272D3022000000000000360FC000000000000284000
  0
ACAD_PROXY_OBJECT
  5
62
102
{ACAD_REACTORS
330
47
102
}
330
47
100
AcDbProxyObject
 90
      499
 91
      503
 93
      241
310
90C312F3222203D2031272D3022000000000000380FC000000000000284000
  0
ACAD_PROXY_OBJECT
  5
63
102
{ACAD_REACTORS
330
47
102
}
330
47
100
AcDbProxyObject
 90
      499
 91
      503
 93
      241
310
90C332F3422203D2031272D30220000000000003A0FC000000000000284000
  0
ACAD_PROXY_OBJECT
  5
64
102
{ACAD_REACTORS
330
47
102
}
330
47
100
AcDbProxyObject
 90
      499
 91
      503
 93
      161
310
90A3122203D2031272D30224000000000000284000
  0
ACAD_PROXY_OBJECT
  5
65
102
{ACAD_REACTORS
330
47
102
}
330
47
100
AcDbProxyObject
 90
      499
 91
      503
 93
      257
310
90E312D312F3222203D2031272D30220000000000003E0FC000000000000284000
  0
ACAD_PROXY_OBJECT
  5
66
102
{ACAD_REACTORS
330
47
102
}
330
47
100
AcDbProxyObject
 90
      499
 91
      503
 93
      225
310
90A3322203D2031272D302200000000000002100000000000000284000
  0
ACAD_PROXY_OBJECT
  5
67
102
{ACAD_REACTORS
330
47
102
}
330
47
100
AcDbProxyObject
 90
      499
 91
      503
 93
      225
310
90A3622203D2031272D302200000000000006100000000000000284000
  0
ACAD_PROXY_OBJECT
  5
68
102
{ACAD_REACTORS
330
47
102
}
330
47
100
AcDbProxyObject
 90
      499
 91
      503
 93
      249
310
90D31272D3022203D2031272D30220000000000000A100000000000000284000
  0
ACAD_PROXY_OBJECT
  5
2F
102
{ACAD_REACTORS
330
2A
102
}
330
2A
100
AcDbProxyObject
 90
      499
 91
      501
 93
      436
310
42CC9915DA5C99599C985B595049028333333333333E33F0000000000000F90107901411070040501600405405064090741402480A0340
1001
ACAD
1000
AcDbSavedByObjectVersion
1070
     0
  0
ACAD_PROXY_OBJECT
  5
32
102
{ACAD_REACTORS
330
2A
102
}
330
2A
100
AcDbProxyObject
 90
      499
 91
      501
 93
      388
310
4150985CDA58D07406404333333333333E33F0000000000000F90107A41107004050150841D405064090741402480A0350
1001
ACAD
1000
AcDbSavedByObjectVersion
1070
     0
  0
ACAD_PROXY_OBJECT
  5
36
102
{ACAD_REACTORS
330
2A
102
}
330
2A
100
AcDbProxyObject
 90
      499
 91
      501
 93
      428
310
42109C9A59DA1D195B90C409028333333333333E33F0000000000000F9010790141107004050150841D405064090741402480A029950
1001
ACAD
1000
AcDbSavedByObjectVersion
1070
     0
  0
ACAD_PROXY_OBJECT
  5
3A
102
{ACAD_REACTORS
330
2A
102
}
330
2A
100
AcDbProxyObject
 90
      499
 91
      501
 93
      452
310
42D0DBDB1BDC90DA185B99D95104090240C333333333333E33F0000000000000F90108901411070040501508421405064090741402480A0350
1001
ACAD
1000
AcDbSavedByObjectVersion
1070
     0
  0
ACAD_PROXY_OBJECT
  5
34
102
{ACAD_REACTORS
330
2A
102
}
330
2A
100
AcDbProxyObject
 90
      499
 91
      501
 93
      500
310
4290DBDB98D95C1D1D585B10940D028333333333333E33F0000000000000F90107902409070040501000000000018199010841D405064090740C02480A0340
1001
ACAD
1000
AcDbSavedByObjectVersion
1070
     0
  0
ACAD_PROXY_OBJECT
  5
35
102
{ACAD_REACTORS
330
2A
102
}
330
2A
100
AcDbProxyObject
 90
      499
 91
      501
 93
      412
310
40D11A5B50B409028333333333333E33F0000000000000F9010790141107004050150841D405064090741402480A02677FFFFFD0
1001
ACAD
1000
AcDbSavedByObjectVersion
1070
     0
  0
ACAD_PROXY_OBJECT
  5
3D
102
{ACAD_REACTORS
330
2A
102
}
330
2A
100
AcDbProxyObject
 90
      499
 91
      501
 93
      452
310
43115919D950DBDB1BDC93D999916409028333333333333E33F0000000000000F9010790141107004050150841D405064090741402480A0350
1001
ACAD
1000
AcDbSavedByObjectVersion
1070
     0
  0
ACAD_PROXY_OBJECT
  5
39
102
{ACAD_REACTORS
330
2A
102
}
330
2A
100
AcDbProxyObject
 90
      499
 91
      501
 93
      444
310
42D19858D95C185D1D195C9B90F409028333333333333E33F0000000000000F9010790141107004050150841D405064090741402480A0350
1001
ACAD
1000
AcDbSavedByObjectVersion
1070
     0
  0
ACAD_PROXY_OBJECT
  5
2B
102
{ACAD_REACTORS
330
2A
102
}
330
2A
100
AcDbProxyObject
 90
      499
 91
      501
 93
      380
310
41119B185D240901404333333333333E33F0000000000000F9010740A907004050150841D405064090741402480A1B50
1001
ACAD
1000
AcDbSavedByObjectVersion
1070
     0
  0
ACAD_PROXY_OBJECT
  5
2C
102
{ACAD_REACTORS
330
2A
102
}
330
2A
100
AcDbProxyObject
 90
      499
 91
      501
 93
      468
310
43519B185D15DA5D1A115919D95CD0140901404333333333333E33F0000000000000F90107409019070040501600405405064090741402480A1B50
1001
ACAD
1000
AcDbSavedByObjectVersion
1070
     0
  0
ACAD_PROXY_OBJECT
  5
2D
102
{ACAD_REACTORS
330
2A
102
}
330
2A
100
AcDbProxyObject
 90
      499
 91
      501
 93
      404
310
41D1DBDD5C985D5910240902404333333333333E33F0000000000000F9010740A9070040501641D405064090741402480A1B50
1001
ACAD
1000
AcDbSavedByObjectVersion
1070
     0
  0
ACAD_PROXY_OBJECT
  5
2E
102
{ACAD_REACTORS
330
2A
102
}
330
2A
100
AcDbProxyObject
 90
      499
 91
      501
 93
      492
310
4411DBDD5C985D5915DA5D1A115919D95CD0340902404333333333333E33F0000000000000F90107409019070040501600405405064090741402480A1B50
1001
ACAD
1000
AcDbSavedByObjectVersion
1070
     0
  0
ACAD_PROXY_OBJECT
  5
31
102
{ACAD_REACTORS
330
2A
102
}
330
2A
100
AcDbProxyObject
 90
      499
 91
      501
 93
      476
310
41921A5919195B90640502408333333333333E33F0000000000000F901079024090700405020000000000001110200405405064090740C02480A0340
1001
ACAD
1000
AcDbSavedByObjectVersion
1070
     0
  0
ACAD_PROXY_OBJECT
  5
3B
102
{ACAD_REACTORS
330
2A
102
}
330
2A
100
AcDbProxyObject
 90
      499
 91
      501
 93
      428
310
42529A5D1D195C93D999914409028333333333333E33F0000000000000F9010790141107004050150A41D405064090741402480A0350
1001
ACAD
1000
AcDbSavedByObjectVersion
1070
     0
  0
ACAD_PROXY_OBJECT
  5
38
102
{ACAD_REACTORS
330
2A
102
}
330
2A
100
AcDbProxyObject
 90
      499
 91
      501
 93
      444
310
42D31A5B995C185D1D195C9B90E409028333333333333E33F0000000000000F9010790141107004050750841D405064090741402483A0350
1001
ACAD
1000
AcDbSavedByObjectVersion
1070
     0
  0
ACAD_PROXY_OBJECT
  5
3C
102
{ACAD_REACTORS
330
2A
102
}
330
2A
100
AcDbProxyObject
 90
      499
 91
      501
 93
      444
310
42D3DD995C9A185B99D3D999915409028333333333333E33F0000000000000F9010790141107004050150941D405064090741402480A0350
1001
ACAD
1000
AcDbSavedByObjectVersion
1070
     0
  0
ACAD_PROXY_OBJECT
  5
33
102
{ACAD_REACTORS
330
2A
102
}
330
2A
100
AcDbProxyObject
 90
      499
 91
      501
 93
      428
310
425499585B1A5CDD1A58D08409038333333333333E33F0000000000000F9010740A907004050150800405405064090740C02480A1B40
1001
ACAD
1000
AcDbSavedByObjectVersion
1070
     0
  0
ACAD_PROXY_OBJECT
  5
42
102
{ACAD_REACTORS
330
2A
102
}
330
2A
100
AcDbProxyObject
 90
      499
 91
      501
 93
      420
310
4194DA1859195911B40902404333333333333E33F0000000000000F9010740A41107004050150800405405064090840C02480A0B40
1001
ACAD
1000
AcDbSavedByObjectVersion
1070
     0
  0
ACAD_PROXY_OBJECT
  5
41
102
{ACAD_REACTORS
330
2A
102
}
330
2A
100
AcDbProxyObject
 90
      499
 91
      501
 93
      516
310
4454DA18591959081DDA5D1A08195919D95CD1A40902404333333333333E33F0000000000000F901074090142907004050250800405405064090740C02480A0B40
1001
ACAD
1000
AcDbSavedByObjectVersion
1070
     0
  0
ACAD_PROXY_OBJECT
  5
3E
102
{ACAD_REACTORS
330
2A
102
}
330
2A
100
AcDbProxyObject
 90
      499
 91
      501
 93
      532
310
4394DA1859195CC81BD98811DC985E5174090240C333333333333E33F0000000000000F901079024090741D01000000000000111010841D405064090740C02480A0340
1001
ACAD
1000
AcDbSavedByObjectVersion
1070
     0
  0
ACAD_PROXY_OBJECT
  5
3F
102
{ACAD_REACTORS
330
2A
102
}
330
2A
100
AcDbProxyObject
 90
      499
 91
      501
 93
      476
310
41D4DAD95D18DA1E51840502408333333333333E33F0000000000000F901079024090741D01000000000000111010B41D405064090741802480A0340
1001
ACAD
1000
AcDbSavedByObjectVersion
1070
     0
  0
ACAD_PROXY_OBJECT
  5
37
102
{ACAD_REACTORS
330
2A
102
}
330
2A
100
AcDbProxyObject
 90
      499
 91
      501
 93
      412
310
41D51A1A58DAD95B90D409028333333333333E33F0000000000000F9010790141107004050150C41D405064090741402480A0350
1001
ACAD
1000
AcDbSavedByObjectVersion
1070
     0
  0
ACAD_PROXY_OBJECT
  5
30
102
{ACAD_REACTORS
330
2A
102
}
330
2A
100
AcDbProxyObject
 90
      499
 91
      501
 93
      420
310
4255DA5C99599C985B595059028333333333333E33F0000000000000F90107901411070040501600405405064090740C02480A0340
1001
ACAD
1000
AcDbSavedByObjectVersion
1070
     0
  0
ACAD_PROXY_OBJECT
  5
40
102
{ACAD_REACTORS
330
2A
102
}
330
2A
100
AcDbProxyObject
 90
      499
 91
      501
 93
      404
310
41560B54985E51940902404000000000000E03F0000000000000F9010740501907004050150841D405064090740C02480A1B40
1001
ACAD
1000
AcDbSavedByObjectVersion
1070
     0
  0
XRECORD
  5
1D0
102
{ACAD_REACTORS
330
1C6
102
}
330
1C6
100
AcDbXrecord
340
0
  0
XRECORD
  5
1CF
102
{ACAD_REACTORS
330
1C6
102
}
330
1C6
100
AcDbXrecord
 90
        0
  0
XRECORD
  5
1E6
102
{ACAD_REACTORS
330
1C6
102
}
330
1C6
100
AcDbXrecord
1000
DSTYLE
1002
{
1070
   179
 70
     2
1070
   171
 70
     2
1070
   143
 40
25.4
1070
   274
 70
     2
1070
    41
 40
3.0
1070
   141
 40
0.09
1070
    43
 40
0.38
1070
   278
 70
    46
1070
    44
 40
1.5
1070
    42
 40
0.0625
1070
   147
 40
1.5
1070
   272
 70
     4
1070
    73
 70
     1
1070
   172
 70
     0
1070
    74
 70
     1
1070
   283
 70
     1
1070
   340
340
6F
1070
   140
 40
3.0
1070
   284
 70
     0
1070
    78
 70
     0
1002
}
  0
XRECORD
  5
1D1
102
{ACAD_REACTORS
330
1C6
102
}
330
1C6
100
AcDbXrecord
  1
{4DB963D2-84A3-40F8-9888-26CF8F7B7383}
  0
XRECORD
  5
1C9
102
{ACAD_REACTORS
330
1C6
102
}
330
1C6
100
AcDbXrecord
  1

  0
XRECORD
  5
1CE
102
{ACAD_REACTORS
330
1C6
102
}
330
1C6
100
AcDbXrecord
 90
        4
  0
XRECORD
  5
1CB
102
{ACAD_REACTORS
330
1C6
102
}
330
1C6
100
AcDbXrecord
340
1A
  0
XRECORD
  5
1CD
102
{ACAD_REACTORS
330
1C6
102
}
330
1C6
100
AcDbXrecord
 90
    10269
  0
XRECORD
  5
1CC
102
{ACAD_REACTORS
330
1C6
102
}
330
1C6
100
AcDbXrecord
340
19
  0
XRECORD
  5
1D3
102
{ACAD_REACTORS
330
1C6
102
}
330
1C6
100
AcDbXrecord
 40
0.0
  0
XRECORD
  5
1D6
102
{ACAD_REACTORS
330
1C6
102
}
330
1C6
100
AcDbXrecord
340
0
  0
XRECORD
  5
1DC
102
{ACAD_REACTORS
330
1C6
102
}
330
1C6
100
AcDbXrecord
 10
0.0
 20
0.0
 30
0.0
  0
XRECORD
  5
1D8
102
{ACAD_REACTORS
330
1C6
102
}
330
1C6
100
AcDbXrecord
 10
0.0
 20
0.0
 30
0.0
  0
XRECORD
  5
1DB
102
{ACAD_REACTORS
330
1C6
102
}
330
1C6
100
AcDbXrecord
 10
0.0
 20
0.0
 30
0.0
  0
XRECORD
  5
1D9
102
{ACAD_REACTORS
330
1C6
102
}
330
1C6
100
AcDbXrecord
 10
0.0
 20
0.0
 30
0.0
  0
XRECORD
  5
1DA
102
{ACAD_REACTORS
330
1C6
102
}
330
1C6
100
AcDbXrecord
 10
0.0
 20
0.0
 30
0.0
  0
XRECORD
  5
1D7
102
{ACAD_REACTORS
330
1C6
102
}
330
1C6
100
AcDbXrecord
 10
0.0
 20
0.0
 30
0.0
  0
XRECORD
  5
1D4
102
{ACAD_REACTORS
330
1C6
102
}
330
1C6
100
AcDbXrecord
340
0
  0
XRECORD
  5
1D5
102
{ACAD_REACTORS
330
1C6
102
}
330
1C6
100
AcDbXrecord
 70
     0
  0
XRECORD
  5
1CA
102
{ACAD_REACTORS
330
1C6
102
}
330
1C6
100
AcDbXrecord
  1

  0
XRECORD
  5
1C7
102
{ACAD_REACTORS
330
1C6
102
}
330
1C6
100
AcDbXrecord
 90
        1
  0
XRECORD
  5
1C8
102
{ACAD_REACTORS
330
1C6
102
}
330
1C6
100
AcDbXrecord
 90
       70
  0
XRECORD
  5
1DF
102
{ACAD_REACTORS
330
1C6
102
}
330
1C6
100
AcDbXrecord
340
0
  0
XRECORD
  5
1E5
102
{ACAD_REACTORS
330
1C6
102
}
330
1C6
100
AcDbXrecord
 10
0.0
 20
0.0
 30
0.0
  0
XRECORD
  5
1E1
102
{ACAD_REACTORS
330
1C6
102
}
330
1C6
100
AcDbXrecord
 10
0.0
 20
0.0
 30
0.0
  0
XRECORD
  5
1E4
102
{ACAD_REACTORS
330
1C6
102
}
330
1C6
100
AcDbXrecord
 10
0.0
 20
0.0
 30
0.0
  0
XRECORD
  5
1E2
102
{ACAD_REACTORS
330
1C6
102
}
330
1C6
100
AcDbXrecord
 10
0.0
 20
0.0
 30
0.0
  0
XRECORD
  5
1E3
102
{ACAD_REACTORS
330
1C6
102
}
330
1C6
100
AcDbXrecord
 10
0.0
 20
0.0
 30
0.0
  0
XRECORD
  5
1E0
102
{ACAD_REACTORS
330
1C6
102
}
330
1C6
100
AcDbXrecord
 10
0.0
 20
0.0
 30
0.0
  0
XRECORD
  5
1DD
102
{ACAD_REACTORS
330
1C6
102
}
330
1C6
100
AcDbXrecord
340
0
  0
XRECORD
  5
1DE
102
{ACAD_REACTORS
330
1C6
102
}
330
1C6
100
AcDbXrecord
 70
     0
  0
XRECORD
  5
1D2
102
{ACAD_REACTORS
330
1C6
102
}
330
1C6
100
AcDbXrecord
  1
{FAEB1C32-E019-11D5-929B-00C0DF256EC4}
  0
DICTIONARYVAR
  5
1F0
102
{ACAD_REACTORS
330
1E7
102
}
330
1E7
100
DictionaryVariables
280
     0
  1
1:1
  0
DICTIONARYVAR
  5
1E9
102
{ACAD_REACTORS
330
1E7
102
}
330
1E7
100
DictionaryVariables
280
     0
  1
Standard
  0
DICTIONARYVAR
  5
1E8
102
{ACAD_REACTORS
330
1E7
102
}
330
1E7
100
DictionaryVariables
280
     0
  1
Standard
  0
DICTIONARYVAR
  5
1EC
102
{ACAD_REACTORS
330
1E7
102
}
330
1E7
100
DictionaryVariables
280
     0
  1
2
  0
DICTIONARYVAR
  5
1ED
102
{ACAD_REACTORS
330
1E7
102
}
330
1E7
100
DictionaryVariables
280
     0
  1
1
  0
DICTIONARYVAR
  5
1F1
102
{ACAD_REACTORS
330
1E7
102
}
330
1E7
100
DictionaryVariables
280
     0
  1
1
  0
DICTIONARY
  5
1F4
330
45
100
AcDbDictionary
280
     1
  3
ACAD_XREC_ROUNDTRIP
360
1F5
  0
DICTIONARY
  5
1F2
330
44
100
AcDbDictionary
280
     1
  3
ACAD_XREC_ROUNDTRIP
360
1F3
  0
DICTIONARY
  5
1F6
330
46
100
AcDbDictionary
280
     1
  3
ACAD_XREC_ROUNDTRIP
360
1F7
  0
XRECORD
  5
1F5
102
{ACAD_REACTORS
330
1F4
102
}
330
1F4
100
AcDbXrecord
102
MATERIAL
148
0.0
149
0.0
149
0.0
 93
        0
 94
      127
282
     0
 72
     1
 77
     1
171
     1
175
     1
179
     1
273
     0
  0
XRECORD
  5
1F3
102
{ACAD_REACTORS
330
1F2
102
}
330
1F2
100
AcDbXrecord
102
MATERIAL
148
0.0
149
0.0
149
0.0
 93
        0
 94
      127
282
     0
 72
     1
 77
     1
171
     1
175
     1
179
     1
273
     0
  0
XRECORD
  5
1F7
102
{ACAD_REACTORS
330
1F6
102
}
330
1F6
100
AcDbXrecord
102
MATERIAL
148
0.0
149
0.0
149
0.0
 93
        0
 94
      127
282
     0
 72
     1
 77
     1
171
     1
175
     1
179
     1
273
     0
  0
ENDSEC
  0
EOF
