  0
SECTION
  2
HEADER
  9
$ACADVER
  1
AC1004
  9
$INSBASE
 10
0.0
 20
0.0
  9
$EXTMIN
 10
0.0
 20
0.0
  9
$EXTMAX
 10
609.9
 20
222.9
  9
$LIMMIN
 10
0.0
 20
0.0
  9
$LIMMAX
 10
12.0
 20
9.0
  9
$ORTHOMODE
 70
     0
  9
$REGENMODE
 70
     1
  9
$FILLMODE
 70
     1
  9
$QTEXTMODE
 70
     0
  9
$DRAGMODE
 70
     2
  9
$LTSCALE
 40
1.0
  9
$OSMODE
 70
    37
  9
$ATTMODE
 70
     1
  9
$TEXTSIZE
 40
0.2
  9
$TRACEWID
 40
0.05
  9
$TEXTSTYLE
  7
STANDARD
  9
$CLAYER
  8
0
  9
$CELTYPE
  6
BYLAYER
  9
$CECOLOR
 62
   256
  9
$DIMSCALE
 40
1.0
  9
$DIMASZ
 40
3.0
  9
$DIMEXO
 40
0.0625
  9
$DIMDLI
 40
0.38
  9
$DIMRND
 40
0.0
  9
$DIMDLE
 40
0.0
  9
$DIMEXE
 40
1.5
  9
$DIMTP
 40
0.0
  9
$DIMTM
 40
0.0
  9
$DIMTXT
 40
3.0
  9
$DIMCEN
 40
0.09
  9
$DIMTSZ
 40
0.0
  9
$DIMTOL
 70
     0
  9
$DIMLIM
 70
     0
  9
$DIMTIH
 70
     1
  9
$DIMTOH
 70
     1
  9
$DIMSE1
 70
     0
  9
$DIMSE2
 70
     0
  9
$DIMTAD
 70
     1
  9
$DIMZIN
 70
     0
  9
$DIMBLK
  1

  9
$DIMASO
 70
     1
  9
$DIMSHO
 70
     1
  9
$DIMPOST
  1

  9
$DIMAPOST
  1

  9
$DIMALT
 70
     0
  9
$DIMALTD
 70
     2
  9
$DIMALTF
 40
25.4
  9
$DIMLFAC
 40
1.0
  9
$DIMTOFL
 70
     0
  9
$DIMTVP
 40
0.0
  9
$DIMTIX
 70
     0
  9
$DIMSOXD
 70
     0
  9
$DIMSAH
 70
     0
  9
$DIMBLK1
  1

  9
$DIMBLK2
  1

  9
$LUNITS
 70
     2
  9
$LUPREC
 70
     4
  9
$SKETCHINC
 40
0.1
  9
$FILLETRAD
 40
0.5
  9
$AUNITS
 70
     0
  9
$AUPREC
 70
     0
  9
$MENU
  1
.
  9
$ELEVATION
 40
0.0
  9
$THICKNESS
 40
0.0
  9
$LIMCHECK
 70
     0
  9
$CHAMFERA
 40
0.0
  9
$CHAMFERB
 40
0.0
  9
$SKPOLY
 70
     0
  9
$TDCREATE
 40
2460256.487122639
  9
$TDUPDATE
 40
2460256.487122871
  9
$TDINDWG
 40
0.0000000116
  9
$TDUSRTIMER
 40
0.0000000116
  9
$USRTIMER
 70
     1
  9
$ANGBASE
 50
0.0
  9
$ANGDIR
 70
     0
  9
$PDMODE
 70
     0
  9
$PDSIZE
 40
0.0
  9
$PLINEWID
 40
0.0
  9
$COORDS
 70
     1
  9
$SPLFRAME
 70
     0
  9
$SPLINETYPE
 70
     6
  9
$SPLINESEGS
 70
     8
  9
$ATTDIA
 70
     0
  9
$ATTREQ
 70
     1
  9
$SURFTAB1
 70
     6
  9
$SURFTAB2
 70
     6
  9
$SURFTYPE
 70
     6
  9
$SURFU
 70
     6
  9
$SURFV
 70
     6
  9
$UCSNAME
  2

  9
$UCSORG
 10
0.0
 20
0.0
 30
0.0
  9
$UCSXDIR
 10
1.0
 20
0.0
 30
0.0
  9
$UCSYDIR
 10
0.0
 20
1.0
 30
0.0
  9
$USERI1
 70
     0
  9
$USERI2
 70
     0
  9
$USERI3
 70
     0
  9
$USERI4
 70
     0
  9
$USERI5
 70
     0
  9
$USERR1
 40
0.0
  9
$USERR2
 40
0.0
  9
$USERR3
 40
0.0
  9
$USERR4
 40
0.0
  9
$USERR5
 40
0.0
  9
$WORLDVIEW
 70
     1
  0
ENDSEC
  0
SECTION
  2
TABLES
  0
TABLE
  2
LTYPE
 70
     2
  0
LTYPE
  2
CONTINUOUS
 70
     0
  3
Solid line
 72
    65
 73
     0
 40
0.0
  0
LTYPE
  2
CENTER
 70
     0
  3

 72
    65
 73
     0
 40
0.0
  0
ENDTAB
  0
TABLE
  2
LAYER
 70
     1
  0
LAYER
  2
0
 70
     0
 62
     7
  6
CONTINUOUS
  0
ENDTAB
  0
TABLE
  2
STYLE
 70
     2
  0
STYLE
  2
STANDARD
 70
     0
 40
0.0
 41
1.0
 50
0.0
 71
     0
 42
0.2
  3
txt
  4

  0
STYLE
  2
ＭＳ_ゴシック
 70
     0
 40
0.0
 41
1.0
 50
0.0
 71
     0
 42
0.2
  3
ＭＳ ゴシック.shx
  4

  0
ENDTAB
  0
TABLE
  2
VIEW
 70
     0
  0
ENDTAB
  0
ENDSEC
  0
SECTION
  2
BLOCKS
  0
BLOCK
  8
0
  2
D_FRAME_DRAWING_17
 70
     0
 10
0.0
 20
0.0
  0
LINE
  8
0
  6
CONTINUOUS
 62
     7
 10
0.0
 20
0.0
 11
210.0
 21
0.0
  0
LINE
  8
0
  6
CONTINUOUS
 62
     7
 10
210.0
 20
0.0
 11
210.0
 21
297.0
  0
LINE
  8
0
  6
CONTINUOUS
 62
     7
 10
210.0
 20
297.0
 11
0.0
 21
297.0
  0
LINE
  8
0
  6
CONTINUOUS
 62
     7
 10
0.0
 20
297.0
 11
0.0
 21
0.0
  0
ENDBLK
  8
0
  0
BLOCK
  8
0
  2
D_FRAME_VIEW_1288
 70
     0
 10
0.0
 20
0.0
  0
LINE
  8
0
  6
CONTINUOUS
 62
     7
 10
375.1149936226851
 20
63.3755749778756
 11
374.4078775995541
 21
63.3755749778756
  0
POLYLINE
  8
0
  6
CONTINUOUS
 62
     9
 66
     1
  0
VERTEX
  8
0
  6
CONTINUOUS
 62
     9
 10
375.1633147604052
 20
66.14389110381715
  0
VERTEX
  8
0
  6
CONTINUOUS
 62
     9
 10
374.9682728181024
 20
66.14712766880139
  0
VERTEX
  8
0
  6
CONTINUOUS
 62
     9
 10
374.7807247795557
 20
66.14990458740093
  0
VERTEX
  8
0
  6
CONTINUOUS
 62
     9
 10
374.6078766176652
 20
66.1521151648173
  0
VERTEX
  8
0
  6
CONTINUOUS
 62
     9
 10
374.4563695065001
 20
66.15367446621956
  0
SEQEND
  8
0
  6
CONTINUOUS
 62
     9
  0
LINE
  8
0
  6
CONTINUOUS
 62
     7
 10
495.5921224004459
 20
63.3755749778756
 11
494.8850063773148
 21
63.3755749778756
  0
POLYLINE
  8
0
  6
CONTINUOUS
 62
     9
 66
     1
  0
VERTEX
  8
0
  6
CONTINUOUS
 62
     9
 10
495.5436304934997
 20
66.15367446621956
  0
VERTEX
  8
0
  6
CONTINUOUS
 62
     9
 10
495.3921233823346
 20
66.15211516481732
  0
VERTEX
  8
0
  6
CONTINUOUS
 62
     9
 10
495.2192752204441
 20
66.14990458740093
  0
VERTEX
  8
0
  6
CONTINUOUS
 62
     9
 10
495.0317271818975
 20
66.14712766880139
  0
VERTEX
  8
0
  6
CONTINUOUS
 62
     9
 10
494.8366852395947
 20
66.14389110381715
  0
SEQEND
  8
0
  6
CONTINUOUS
 62
     9
  0
POLYLINE
  8
0
  6
CONTINUOUS
 62
     7
 66
     1
  0
VERTEX
  8
0
  6
CONTINUOUS
 62
     7
 10
474.9129059419779
 20
121.2651363825642
  0
VERTEX
  8
0
  6
CONTINUOUS
 62
     7
 10
474.9359344084818
 20
121.2591691159774
  0
VERTEX
  8
0
  6
CONTINUOUS
 62
     7
 10
474.958652979744
 20
121.2521132630987
  0
VERTEX
  8
0
  6
CONTINUOUS
 62
     7
 10
474.9810102283217
 20
121.2439847960798
  0
VERTEX
  8
0
  6
CONTINUOUS
 62
     7
 10
475.0029555446891
 20
121.2348021151217
  0
VERTEX
  8
0
  6
CONTINUOUS
 62
     7
 10
475.0244392518003
 20
121.2245860068218
  0
VERTEX
  8
0
  6
CONTINUOUS
 62
     7
 10
475.0454127175431
 20
121.2133595971206
  0
VERTEX
  8
0
  6
CONTINUOUS
 62
     7
 10
475.0658284648247
 20
121.2011482989515
  0
VERTEX
  8
0
  6
CONTINUOUS
 62
     7
 10
475.0856402790458
 20
121.1879797547148
  0
VERTEX
  8
0
  6
CONTINUOUS
 62
     7
 10
475.1048033127141
 20
121.1738837737037
  0
VERTEX
  8
0
  6
CONTINUOUS
 62
     7
 10
475.1232741869658
 20
121.1588922646262
  0
VERTEX
  8
0
  6
CONTINUOUS
 62
     7
 10
475.14101108976
 20
121.143039163374
  0
VERTEX
  8
0
  6
CONTINUOUS
 62
     7
 10
475.1579738705282
 20
121.1263603562029
  0
VERTEX
  8
0
  6
CONTINUOUS
 62
     7
 10
475.1741241310617
 20
121.1088935984975
  0
VERTEX
  8
0
  6
CONTINUOUS
 62
     7
 10
475.1894253124334
 20
121.0906784293061
  0
VERTEX
  8
0
  6
CONTINUOUS
 62
     7
 10
475.2038427777542
 20
121.0717560818363
  0
VERTEX
  8
0
  6
CONTINUOUS
 62
     7
 10
475.2173438905804
 20
121.0521693901173
  0
VERTEX
  8
0
  6
CONTINUOUS
 62
     7
 10
475.2298980887918
 20
121.031962692037
  0
VERTEX
  8
0
  6
CONTINUOUS
 62
     7
 10
475.2414769537743
 20
121.0111817289756
  0
VERTEX
  8
0
  6
CONTINUOUS
 62
     7
 10
475.2520542747504
 20
120.9898735422623
  0
VERTEX
  8
0
  6
CONTINUOUS
 62
     7
 10
475.2616061081119
 20
120.9680863666887
  0
VERTEX
  8
0
  6
CONTINUOUS
 62
     7
 10
475.2701108316206
 20
120.9458695213212
  0
VERTEX
  8
0
  6
CONTINUOUS
 62
     7
 10
475.2775491933535
 20
120.9232732978586
  0
VERTEX
  8
0
  6
CONTINUOUS
 62
     7
 10
475.2839043552834
 20
120.9003488467881
  0
VERTEX
  8
0
  6
CONTINUOUS
 62
     7
 10
475.2891619313945
 20
120.8771480615971
  0
VERTEX
  8
0
  6
CONTINUOUS
 62
     7
 10
475.2933100202475
 20
120.8537234613036
  0
VERTEX
  8
0
  6
CONTINUOUS
 62
     7
 10
475.2963392319209
 20
120.8301280715701
  0
VERTEX
  8
0
  6
CONTINUOUS
 62
     7
 10
475.2982427092666
 20
120.8064153046704
  0
VERTEX
  8
0
  6
CONTINUOUS
 62
     7
 10
475.2990161434319
 20
120.7826388385824
  0
SEQEND
  8
0
  6
CONTINUOUS
 62
     7
  0
LINE
  8
0
  6
CONTINUOUS
 62
     7
 10
469.4442700926935
 20
122.5441830951844
 11
474.9129059419779
 21
121.2651363825642
  0
ARC
  8
0
  6
CONTINUOUS
 62
     7
 10
468.3055624919132
 20
117.6755749778756
 40
5.000000000000001
 50
76.8358580291358
 51
90.0
  0
LINE
  8
0
  6
CONTINUOUS
 62
     7
 10
468.3055624919132
 20
122.6755749778756
 11
401.6944375080868
 21
122.6755749778756
  0
ARC
  8
0
  6
CONTINUOUS
 62
     7
 10
401.6944375080868
 20
117.6755749778756
 40
5.0
 50
90.0
 51
103.1641419708642
  0
LINE
  8
0
  6
CONTINUOUS
 62
     7
 10
395.087094058022
 20
121.2651363825642
 11
400.5557299073064
 21
122.5441830951844
  0
POLYLINE
  8
0
  6
CONTINUOUS
 62
     7
 66
     1
  0
VERTEX
  8
0
  6
CONTINUOUS
 62
     7
 10
394.700983856568
 20
120.7826388385825
  0
VERTEX
  8
0
  6
CONTINUOUS
 62
     7
 10
394.7017572907334
 20
120.8064153046705
  0
VERTEX
  8
0
  6
CONTINUOUS
 62
     7
 10
394.703660768079
 20
120.8301280715701
  0
VERTEX
  8
0
  6
CONTINUOUS
 62
     7
 10
394.7066899797525
 20
120.8537234613036
  0
VERTEX
  8
0
  6
CONTINUOUS
 62
     7
 10
394.7108380686055
 20
120.8771480615971
  0
VERTEX
  8
0
  6
CONTINUOUS
 62
     7
 10
394.7160956447165
 20
120.9003488467881
  0
VERTEX
  8
0
  6
CONTINUOUS
 62
     7
 10
394.7224508066465
 20
120.9232732978586
  0
VERTEX
  8
0
  6
CONTINUOUS
 62
     7
 10
394.7298891683794
 20
120.9458695213212
  0
VERTEX
  8
0
  6
CONTINUOUS
 62
     7
 10
394.738393891888
 20
120.9680863666887
  0
VERTEX
  8
0
  6
CONTINUOUS
 62
     7
 10
394.7479457252496
 20
120.9898735422623
  0
VERTEX
  8
0
  6
CONTINUOUS
 62
     7
 10
394.7585230462257
 20
121.0111817289756
  0
VERTEX
  8
0
  6
CONTINUOUS
 62
     7
 10
394.7701019112082
 20
121.031962692037
  0
VERTEX
  8
0
  6
CONTINUOUS
 62
     7
 10
394.7826561094195
 20
121.0521693901173
  0
VERTEX
  8
0
  6
CONTINUOUS
 62
     7
 10
394.7961572222458
 20
121.0717560818363
  0
VERTEX
  8
0
  6
CONTINUOUS
 62
     7
 10
394.8105746875665
 20
121.0906784293061
  0
VERTEX
  8
0
  6
CONTINUOUS
 62
     7
 10
394.8258758689382
 20
121.1088935984975
  0
VERTEX
  8
0
  6
CONTINUOUS
 62
     7
 10
394.8420261294718
 20
121.1263603562029
  0
VERTEX
  8
0
  6
CONTINUOUS
 62
     7
 10
394.8589889102399
 20
121.143039163374
  0
VERTEX
  8
0
  6
CONTINUOUS
 62
     7
 10
394.8767258130342
 20
121.1588922646262
  0
VERTEX
  8
0
  6
CONTINUOUS
 62
     7
 10
394.8951966872858
 20
121.1738837737037
  0
VERTEX
  8
0
  6
CONTINUOUS
 62
     7
 10
394.9143597209542
 20
121.1879797547148
  0
VERTEX
  8
0
  6
CONTINUOUS
 62
     7
 10
394.9341715351752
 20
121.2011482989515
  0
VERTEX
  8
0
  6
CONTINUOUS
 62
     7
 10
394.9545872824568
 20
121.2133595971206
  0
VERTEX
  8
0
  6
CONTINUOUS
 62
     7
 10
394.9755607481995
 20
121.2245860068218
  0
VERTEX
  8
0
  6
CONTINUOUS
 62
     7
 10
394.9970444553109
 20
121.2348021151217
  0
VERTEX
  8
0
  6
CONTINUOUS
 62
     7
 10
395.0189897716783
 20
121.2439847960798
  0
VERTEX
  8
0
  6
CONTINUOUS
 62
     7
 10
395.041347020256
 20
121.2521132630987
  0
VERTEX
  8
0
  6
CONTINUOUS
 62
     7
 10
395.0640655915181
 20
121.2591691159774
  0
VERTEX
  8
0
  6
CONTINUOUS
 62
     7
 10
395.087094058022
 20
121.2651363825642
  0
SEQEND
  8
0
  6
CONTINUOUS
 62
     7
  0
LINE
  8
0
  6
CONTINUOUS
 62
     7
 10
394.700983856568
 20
120.7826388385825
 11
394.2166821678952
 21
65.28716207822006
  0
ARC
  8
0
  6
CONTINUOUS
 62
     7
 10
393.216720244831
 20
65.29588861371843
 40
1.0
 50
314.7500000000001
 51
359.4999999999999
  0
LINE
  8
0
  6
CONTINUOUS
 62
     9
 10
375.437382392843
 20
66.16082440022868
 11
375.1633147604052
 21
66.14389110381715
  0
LINE
  8
0
  6
CONTINUOUS
 62
     9
 10
383.4602328640366
 20
66.16082440022866
 11
375.4373823928431
 21
66.16082440022866
  0
POLYLINE
  8
0
  6
CONTINUOUS
 62
     9
 66
     1
  0
VERTEX
  8
0
  6
CONTINUOUS
 62
     9
 10
383.4602328640365
 20
66.16082440022866
  0
VERTEX
  8
0
  6
CONTINUOUS
 62
     9
 10
383.8996305098008
 20
66.20673492285505
  0
VERTEX
  8
0
  6
CONTINUOUS
 62
     9
 10
384.3293137065758
 20
66.34247209320121
  0
VERTEX
  8
0
  6
CONTINUOUS
 62
     9
 10
384.7306166004661
 20
66.56213935722715
  0
VERTEX
  8
0
  6
CONTINUOUS
 62
     9
 10
385.0861062053989
 20
66.85619415639974
  0
SEQEND
  8
0
  6
CONTINUOUS
 62
     9
  0
LINE
  8
0
  6
CONTINUOUS
 62
     9
 10
391.6644816630059
 20
73.43456961400679
 11
385.0861062053988
 21
66.85619415639974
  0
LINE
  8
0
  6
CONTINUOUS
 62
     9
 10
392.5330887269863
 20
123.197034981649
 11
391.6644816630059
 21
73.4345696140068
  0
LINE
  8
0
  6
CONTINUOUS
 62
     9
 10
399.2196455004088
 20
124.7636695311882
 11
392.5330887269863
 21
123.197034981649
  0
LINE
  8
0
  6
CONTINUOUS
 62
     9
 10
399.6707535569837
 20
124.8158108230802
 11
399.2196455004088
 21
124.7636695311882
  0
LINE
  8
0
  6
CONTINUOUS
 62
     9
 10
470.3292464430162
 20
124.8158108230802
 11
399.6707535569836
 21
124.8158108230802
  0
LINE
  8
0
  6
CONTINUOUS
 62
     9
 10
470.7803544995911
 20
124.7636695311882
 11
470.3292464430162
 21
124.8158108230802
  0
LINE
  8
0
  6
CONTINUOUS
 62
     9
 10
477.4669112730136
 20
123.197034981649
 11
470.7803544995911
 21
124.7636695311881
  0
LINE
  8
0
  6
CONTINUOUS
 62
     9
 10
478.335518336994
 20
73.43456961400685
 11
477.4669112730136
 21
123.197034981649
  0
LINE
  8
0
  6
CONTINUOUS
 62
     9
 10
484.9138937946012
 20
66.85619415639975
 11
478.335518336994
 21
73.43456961400685
  0
POLYLINE
  8
0
  6
CONTINUOUS
 62
     9
 66
     1
  0
VERTEX
  8
0
  6
CONTINUOUS
 62
     9
 10
484.9138937946011
 20
66.85619415639975
  0
VERTEX
  8
0
  6
CONTINUOUS
 62
     9
 10
485.2693833995339
 20
66.56213935722715
  0
VERTEX
  8
0
  6
CONTINUOUS
 62
     9
 10
485.6706862934242
 20
66.34247209320122
  0
VERTEX
  8
0
  6
CONTINUOUS
 62
     9
 10
486.1003694901992
 20
66.20673492285505
  0
VERTEX
  8
0
  6
CONTINUOUS
 62
     9
 10
486.5397671359634
 20
66.16082440022866
  0
SEQEND
  8
0
  6
CONTINUOUS
 62
     9
  0
LINE
  8
0
  6
CONTINUOUS
 62
     9
 10
494.5626176071569
 20
66.16082440022866
 11
486.5397671359634
 21
66.16082440022866
  0
LINE
  8
0
  6
CONTINUOUS
 62
     9
 10
494.8366852395947
 20
66.14389110381717
 11
494.5626176071569
 21
66.16082440022868
  0
ARC
  8
0
  6
CONTINUOUS
 62
     7
 10
476.7832797551689
 20
65.29588861371843
 40
1.0
 50
180.5000000000001
 51
225.2499999999999
  0
LINE
  8
0
  6
CONTINUOUS
 62
     7
 10
475.7833178321047
 20
65.28716207822006
 11
475.2990161434319
 21
120.7826388385824
  0
LINE
  8
0
  6
CONTINUOUS
 62
     7
 10
494.8850063773149
 20
63.3755749778756
 11
477.3
 21
63.3755749778756
  0
LINE
  8
0
  6
CONTINUOUS
 62
     7
 10
392.7
 20
63.3755749778756
 11
393.920734969287
 21
64.58570323809515
  0
LINE
  8
0
  6
CONTINUOUS
 62
     7
 10
476.079265030713
 20
64.58570323809515
 11
477.3
 21
63.3755749778756
  0
LINE
  8
0
  6
CONTINUOUS
 62
     7
 10
392.7
 20
63.3755749778756
 11
375.1149936226851
 21
63.3755749778756
  0
LINE
  8
0
  6
CONTINUOUS
 62
     9
 10
495.7187302331938
 20
66.16765979698913
 11
495.5436304934998
 21
66.15367446621957
  0
LINE
  8
0
  6
CONTINUOUS
 62
     9
 10
499.7751052802575
 20
66.16765979698911
 11
495.7187302331938
 21
66.16765979698911
  0
LINE
  8
0
  6
CONTINUOUS
 62
     9
 10
499.9586462020361
 20
66.15240883636139
 11
499.7751052802575
 21
66.16765979698911
  0
LINE
  8
0
  6
CONTINUOUS
 62
     7
 10
500.0071160173308
 20
63.3755749778756
 11
495.5921224004459
 21
63.3755749778756
  0
LINE
  8
0
  6
CONTINUOUS
 62
     9
 10
374.4563695065002
 20
66.15367446621957
 11
374.2812697668063
 21
66.16765979698913
  0
LINE
  8
0
  6
CONTINUOUS
 62
     9
 10
370.2248947197425
 20
66.16765979698911
 11
370.0413537979639
 21
66.15240883636139
  0
LINE
  8
0
  6
CONTINUOUS
 62
     9
 10
374.2812697668062
 20
66.16765979698911
 11
370.2248947197425
 21
66.16765979698911
  0
LINE
  8
0
  6
CONTINUOUS
 62
     7
 10
374.4078775995541
 20
63.3755749778756
 11
369.9928839826691
 21
63.3755749778756
  0
ARC
  8
0
  6
CONTINUOUS
 62
     7
 10
478.3222889720368
 20
123.8798753880648
 40
1.0
 50
1.000000000000244
 51
1.450141177747976
  0
LINE
  8
0
  6
CONTINUOUS
 62
     7
 10
479.3221366671932
 20
123.8973277945021
 11
480.2111742155236
 21
72.96440076235203
  0
LINE
  8
0
  6
CONTINUOUS
 62
     7
 10
389.7888257844764
 20
72.96440076235203
 11
390.6778633328068
 21
123.8973277945021
  0
ARC
  8
0
  6
CONTINUOUS
 62
     7
 10
391.6777110279631
 20
123.8798753880648
 40
1.000000000000001
 50
178.5498588222513
 51
179.0000000000002
  0
POLYLINE
  8
0
  6
CONTINUOUS
 62
     7
 66
     1
  0
VERTEX
  8
0
  6
CONTINUOUS
 62
     7
 10
478.5588457045305
 20
124.8514930661213
  0
VERTEX
  8
0
  6
CONTINUOUS
 62
     7
 10
478.6065703614693
 20
124.8385964728235
  0
VERTEX
  8
0
  6
CONTINUOUS
 62
     7
 10
478.65372250791
 20
124.8233023549141
  0
VERTEX
  8
0
  6
CONTINUOUS
 62
     7
 10
478.70013231271
 20
124.8056783514742
  0
VERTEX
  8
0
  6
CONTINUOUS
 62
     7
 10
478.7456299447264
 20
124.7857921015852
  0
VERTEX
  8
0
  6
CONTINUOUS
 62
     7
 10
478.7900455728166
 20
124.7637112443281
  0
VERTEX
  8
0
  6
CONTINUOUS
 62
     7
 10
478.8332093658374
 20
124.7395034187843
  0
VERTEX
  8
0
  6
CONTINUOUS
 62
     7
 10
478.8737305864265
 20
124.7140600089342
  0
VERTEX
  8
0
  6
CONTINUOUS
 62
     7
 10
478.9130944972567
 20
124.6866062897588
  0
VERTEX
  8
0
  6
CONTINUOUS
 62
     7
 10
478.9511741061339
 20
124.6572493037961
  0
VERTEX
  8
0
  6
CONTINUOUS
 62
     7
 10
478.987842420864
 20
124.6260960935843
  0
VERTEX
  8
0
  6
CONTINUOUS
 62
     7
 10
479.0229724492527
 20
124.5932537016614
  0
VERTEX
  8
0
  6
CONTINUOUS
 62
     7
 10
479.0564371991058
 20
124.5588291705656
  0
VERTEX
  8
0
  6
CONTINUOUS
 62
     7
 10
479.088109678229
 20
124.522929542835
  0
VERTEX
  8
0
  6
CONTINUOUS
 62
     7
 10
479.1180391267679
 20
124.4854604137013
  0
VERTEX
  8
0
  6
CONTINUOUS
 62
     7
 10
479.1462013668809
 20
124.4464734983001
  0
VERTEX
  8
0
  6
CONTINUOUS
 62
     7
 10
479.1725121699523
 20
124.4061129398736
  0
VERTEX
  8
0
  6
CONTINUOUS
 62
     7
 10
479.1968873073662
 20
124.3645228816638
  0
VERTEX
  8
0
  6
CONTINUOUS
 62
     7
 10
479.2192425505069
 20
124.3218474669124
  0
VERTEX
  8
0
  6
CONTINUOUS
 62
     7
 10
479.2394936707582
 20
124.2782308388616
  0
VERTEX
  8
0
  6
CONTINUOUS
 62
     7
 10
479.2575564395047
 20
124.2338171407533
  0
VERTEX
  8
0
  6
CONTINUOUS
 62
     7
 10
479.2734213902386
 20
124.1885810634412
  0
VERTEX
  8
0
  6
CONTINUOUS
 62
     7
 10
479.2871171445089
 20
124.1425027667205
  0
VERTEX
  8
0
  6
CONTINUOUS
 62
     7
 10
479.2986125802813
 20
124.0957452343676
  0
VERTEX
  8
0
  6
CONTINUOUS
 62
     7
 10
479.3078765755218
 20
124.0484714501587
  0
VERTEX
  8
0
  6
CONTINUOUS
 62
     7
 10
479.3148780081963
 20
124.0008443978699
  0
VERTEX
  8
0
  6
CONTINUOUS
 62
     7
 10
479.3195857562707
 20
123.9530270612775
  0
VERTEX
  8
0
  6
CONTINUOUS
 62
     7
 10
479.3219686977111
 20
123.9051824241578
  0
SEQEND
  8
0
  6
CONTINUOUS
 62
     7
  0
POLYLINE
  8
0
  6
CONTINUOUS
 62
     7
 66
     1
  0
VERTEX
  8
0
  6
CONTINUOUS
 62
     7
 10
390.6780313022889
 20
123.9051824241578
  0
VERTEX
  8
0
  6
CONTINUOUS
 62
     7
 10
390.6804142437292
 20
123.9530270612775
  0
VERTEX
  8
0
  6
CONTINUOUS
 62
     7
 10
390.6851219918037
 20
124.0008443978699
  0
VERTEX
  8
0
  6
CONTINUOUS
 62
     7
 10
390.6921234244782
 20
124.0484714501586
  0
VERTEX
  8
0
  6
CONTINUOUS
 62
     7
 10
390.7013874197186
 20
124.0957452343676
  0
VERTEX
  8
0
  6
CONTINUOUS
 62
     7
 10
390.7128828554911
 20
124.1425027667205
  0
VERTEX
  8
0
  6
CONTINUOUS
 62
     7
 10
390.7265786097613
 20
124.1885810634412
  0
VERTEX
  8
0
  6
CONTINUOUS
 62
     7
 10
390.7424435604953
 20
124.2338171407533
  0
VERTEX
  8
0
  6
CONTINUOUS
 62
     7
 10
390.7605063292417
 20
124.2782308388617
  0
VERTEX
  8
0
  6
CONTINUOUS
 62
     7
 10
390.7807574494931
 20
124.3218474669124
  0
VERTEX
  8
0
  6
CONTINUOUS
 62
     7
 10
390.8031126926337
 20
124.3645228816638
  0
VERTEX
  8
0
  6
CONTINUOUS
 62
     7
 10
390.8274878300477
 20
124.4061129398737
  0
VERTEX
  8
0
  6
CONTINUOUS
 62
     7
 10
390.853798633119
 20
124.4464734983001
  0
VERTEX
  8
0
  6
CONTINUOUS
 62
     7
 10
390.8819608732321
 20
124.4854604137012
  0
VERTEX
  8
0
  6
CONTINUOUS
 62
     7
 10
390.9118903217709
 20
124.522929542835
  0
VERTEX
  8
0
  6
CONTINUOUS
 62
     7
 10
390.9435628008941
 20
124.5588291705656
  0
VERTEX
  8
0
  6
CONTINUOUS
 62
     7
 10
390.9770275507473
 20
124.5932537016614
  0
VERTEX
  8
0
  6
CONTINUOUS
 62
     7
 10
391.012157579136
 20
124.6260960935842
  0
VERTEX
  8
0
  6
CONTINUOUS
 62
     7
 10
391.048825893866
 20
124.6572493037961
  0
VERTEX
  8
0
  6
CONTINUOUS
 62
     7
 10
391.0869055027433
 20
124.6866062897588
  0
VERTEX
  8
0
  6
CONTINUOUS
 62
     7
 10
391.1262694135735
 20
124.7140600089342
  0
VERTEX
  8
0
  6
CONTINUOUS
 62
     7
 10
391.1667906341625
 20
124.7395034187843
  0
VERTEX
  8
0
  6
CONTINUOUS
 62
     7
 10
391.2099544271834
 20
124.7637112443281
  0
VERTEX
  8
0
  6
CONTINUOUS
 62
     7
 10
391.2543700552735
 20
124.7857921015852
  0
VERTEX
  8
0
  6
CONTINUOUS
 62
     7
 10
391.29986768729
 20
124.8056783514742
  0
VERTEX
  8
0
  6
CONTINUOUS
 62
     7
 10
391.34627749209
 20
124.8233023549141
  0
VERTEX
  8
0
  6
CONTINUOUS
 62
     7
 10
391.3934296385307
 20
124.8385964728235
  0
VERTEX
  8
0
  6
CONTINUOUS
 62
     7
 10
391.4411542954695
 20
124.8514930661213
  0
SEQEND
  8
0
  6
CONTINUOUS
 62
     7
  0
ARC
  8
0
  6
CONTINUOUS
 62
     7
 10
391.6777110279631
 20
123.8798753880648
 40
1.0
 50
103.1863284423274
 51
103.683404605437
  0
LINE
  8
0
  6
CONTINUOUS
 62
     7
 10
391.4495924736107
 20
124.8535087508663
 11
398.8887512905826
 21
126.5964750662801
  0
ARC
  8
0
  6
CONTINUOUS
 62
     7
 10
399.5731069536399
 20
123.6755749778756
 40
3.000000000000002
 50
103.1118249860497
 51
103.1863284423274
  0
ARC
  8
0
  6
CONTINUOUS
 62
     7
 10
470.42689304636
 20
123.6755749778756
 40
3.000000000000001
 50
76.81367155767265
 51
76.88817501395002
  0
LINE
  8
0
  6
CONTINUOUS
 62
     7
 10
471.1112487094174
 20
126.5964750662801
 11
478.5504075263893
 21
124.8535087508663
  0
ARC
  8
0
  6
CONTINUOUS
 62
     7
 10
478.3222889720368
 20
123.8798753880648
 40
1.0
 50
76.31659539456341
 51
76.81367155767262
  0
LINE
  8
0
  6
CONTINUOUS
 62
     7
 10
470.4307876831671
 20
126.6755724498419
 11
471.1074499961014
 21
126.5973624852345
  0
LINE
  8
0
  6
CONTINUOUS
 62
     7
 10
398.8925500038986
 20
126.5973624852345
 11
399.5692123168329
 21
126.6755724498419
  0
ARC
  8
0
  6
CONTINUOUS
 62
     7
 10
399.5731069536399
 20
123.6755749778756
 40
3.0
 50
90.0
 51
90.07438210482117
  0
LINE
  8
0
  6
CONTINUOUS
 62
     7
 10
399.5731069536399
 20
126.6755749778756
 11
470.42689304636
 21
126.6755749778756
  0
ARC
  8
0
  6
CONTINUOUS
 62
     7
 10
470.42689304636
 20
123.6755749778756
 40
3.0
 50
89.92561789517893
 51
90.0
  0
LINE
  8
0
  6
CONTINUOUS
 62
     7
 10
485.9183664832631
 20
67.8755749778756
 11
493.7792748780554
 21
67.8755749778756
  0
LINE
  8
0
  6
CONTINUOUS
 62
     7
 10
384.2857864376269
 20
67.8755749778756
 11
384.0816335167369
 21
67.8755749778756
  0
LINE
  8
0
  6
CONTINUOUS
 62
     7
 10
376.2207251219446
 20
67.8755749778756
 11
384.0816335167369
 21
67.8755749778756
  0
LINE
  8
0
  6
CONTINUOUS
 62
     7
 10
485.9183664832631
 20
67.8755749778756
 11
485.7142135623731
 21
67.8755749778756
  0
ARC
  8
0
  6
CONTINUOUS
 62
     7
 10
384.2857864376269
 20
68.8755749778756
 40
1.000000000000003
 50
270.0
 51
314.9999999999998
  0
ARC
  8
0
  6
CONTINUOUS
 62
     7
 10
485.7142135623731
 20
68.8755749778756
 40
1.000000000000003
 50
225.0000000000006
 51
270.0
  0
LINE
  8
0
  6
CONTINUOUS
 62
     7
 10
493.7792748780554
 20
67.8755749778756
 11
496.737361651673
 21
67.8755749778756
  0
LINE
  8
0
  6
CONTINUOUS
 62
     7
 10
373.262638348327
 20
67.8755749778756
 11
376.2207251219446
 21
67.8755749778756
  0
LINE
  8
0
  6
CONTINUOUS
 62
     7
 10
369.7
 20
63.3755749778756
 11
369.7484513567126
 21
66.15135134489789
  0
POLYLINE
  8
0
  6
CONTINUOUS
 62
     9
 66
     1
  0
VERTEX
  8
0
  6
CONTINUOUS
 62
     9
 10
370.0413537979639
 20
66.15240883636137
  0
VERTEX
  8
0
  6
CONTINUOUS
 62
     9
 10
369.9170089454965
 20
66.15325695025304
  0
VERTEX
  8
0
  6
CONTINUOUS
 62
     9
 10
369.8246039310823
 20
66.15336129039238
  0
VERTEX
  8
0
  6
CONTINUOUS
 62
     9
 10
369.7676891412506
 20
66.15271784782136
  0
VERTEX
  8
0
  6
CONTINUOUS
 62
     9
 10
369.7484513567126
 20
66.15135134489789
  0
SEQEND
  8
0
  6
CONTINUOUS
 62
     9
  0
LINE
  8
0
  6
CONTINUOUS
 62
     7
 10
369.9928839826691
 20
63.3755749778756
 11
369.7
 21
63.3755749778756
  0
POLYLINE
  8
0
  6
CONTINUOUS
 62
     9
 66
     1
  0
VERTEX
  8
0
  6
CONTINUOUS
 62
     9
 10
500.2515486432874
 20
66.15135134489789
  0
VERTEX
  8
0
  6
CONTINUOUS
 62
     9
 10
500.2323108587494
 20
66.15271784782136
  0
VERTEX
  8
0
  6
CONTINUOUS
 62
     9
 10
500.1753960689177
 20
66.15336129039238
  0
VERTEX
  8
0
  6
CONTINUOUS
 62
     9
 10
500.0829910545035
 20
66.15325695025304
  0
VERTEX
  8
0
  6
CONTINUOUS
 62
     9
 10
499.9586462020362
 20
66.15240883636137
  0
SEQEND
  8
0
  6
CONTINUOUS
 62
     9
  0
LINE
  8
0
  6
CONTINUOUS
 62
     7
 10
500.2515486432873
 20
66.1513513448979
 11
500.3
 21
63.37557497787562
  0
LINE
  8
0
  6
CONTINUOUS
 62
     7
 10
500.3
 20
63.3755749778756
 11
500.0071160173308
 21
63.3755749778756
  0
LINE
  8
0
  6
CONTINUOUS
 62
     7
 10
497.6809728410919
 20
67.72331055605058
 11
499.5659663308416
 21
67.09870869254138
  0
LINE
  8
0
  6
CONTINUOUS
 62
     7
 10
370.4340336691584
 20
67.0987086925414
 11
372.3190271589081
 21
67.72331055605058
  0
LINE
  8
0
  6
CONTINUOUS
 62
     7
 10
500.2512769628583
 20
66.16691590625369
 11
500.2515486432873
 21
66.1513513448979
  0
ARC
  8
0
  6
CONTINUOUS
 62
     7
 10
499.251429267702
 20
66.1494634998164
 40
0.9999999999999977
 50
0.9999999999999715
 51
71.66713101214329
  0
LINE
  8
0
  6
CONTINUOUS
 62
     7
 10
369.7484513567126
 20
66.1513513448979
 11
369.7487230371416
 21
66.16691590625369
  0
ARC
  8
0
  6
CONTINUOUS
 62
     7
 10
370.748570732298
 20
66.1494634998164
 40
1.0
 50
108.3328689878567
 51
178.9999999999999
  0
ARC
  8
0
  6
CONTINUOUS
 62
     7
 10
496.737361651673
 20
64.8755749778756
 40
3.000000000000002
 50
71.66713101214279
 51
90.00000000000001
  0
ARC
  8
0
  6
CONTINUOUS
 62
     7
 10
373.262638348327
 20
64.8755749778756
 40
2.999999999999999
 50
90.0
 51
108.3328689878575
  0
ENDBLK
  8
0
  0
BLOCK
  8
0
  2
D_FRAME_VIEW_1932
 70
     0
 10
0.0
 20
0.0
  0
LINE
  8
0
  6
CONTINUOUS
 62
     7
 10
470.42689304636
 20
212.347589268845
 11
470.4307876831671
 21
212.3476069878166
  0
LINE
  8
0
  6
CONTINUOUS
 62
     7
 10
470.42689304636
 20
212.347589268845
 11
399.5731069536399
 21
212.347589268845
  0
LINE
  8
0
  6
CONTINUOUS
 62
     7
 10
399.5692123168328
 20
212.3476069878166
 11
399.5731069536399
 21
212.347589268845
  0
LINE
  8
0
  6
CONTINUOUS
 62
     9
 10
399.6707535569836
 20
218.5051007789882
 11
399.5692123168328
 21
212.3476069878166
  0
LINE
  8
0
  6
CONTINUOUS
 62
     9
 10
470.4307876831671
 20
212.3476069878166
 11
470.3292464430162
 21
218.5051007789882
  0
LINE
  8
0
  6
CONTINUOUS
 62
     7
 10
470.4307876831671
 20
197.6523930121834
 11
471.1074499961014
 21
197.6517242973032
  0
LINE
  8
0
  6
CONTINUOUS
 62
     9
 10
470.3292464430162
 20
191.4948992210118
 11
470.4307876831671
 21
197.6523930121834
  0
LINE
  8
0
  6
CONTINUOUS
 62
     7
 10
399.5731069536399
 20
197.652410731155
 11
399.5692123168328
 21
197.6523930121834
  0
LINE
  8
0
  6
CONTINUOUS
 62
     7
 10
399.5731069536399
 20
197.652410731155
 11
470.42689304636
 21
197.652410731155
  0
LINE
  8
0
  6
CONTINUOUS
 62
     7
 10
470.4307876831671
 20
197.6523930121834
 11
470.42689304636
 21
197.652410731155
  0
LINE
  8
0
  6
CONTINUOUS
 62
     9
 10
399.5692123168328
 20
197.6523930121834
 11
399.6707535569836
 21
191.4948992210118
  0
LINE
  8
0
  6
CONTINUOUS
 62
     9
 10
470.42689304636
 20
197.652410731155
 11
470.42689304636
 21
212.347589268845
  0
LINE
  8
0
  6
CONTINUOUS
 62
     7
 10
471.1074499961014
 20
212.3482757026969
 11
470.4307876831671
 21
212.3476069878166
  0
LINE
  8
0
  6
CONTINUOUS
 62
     7
 10
471.1074499961014
 20
212.3482757026969
 11
471.1112487094174
 21
212.3482656923842
  0
LINE
  8
0
  6
CONTINUOUS
 62
     7
 10
471.1112487094174
 20
197.6517343076158
 11
471.1074499961014
 21
197.6517242973032
  0
LINE
  8
0
  6
CONTINUOUS
 62
     7
 10
399.5692123168328
 20
212.3476069878166
 11
398.8925500038986
 21
212.3482757026968
  0
LINE
  8
0
  6
CONTINUOUS
 62
     9
 10
399.5731069536399
 20
212.347589268845
 11
399.5731069536399
 21
197.652410731155
  0
LINE
  8
0
  6
CONTINUOUS
 62
     7
 10
398.8925500038986
 20
197.6517242973032
 11
399.5692123168328
 21
197.6523930121834
  0
LINE
  8
0
  6
CONTINUOUS
 62
     7
 10
398.8925500038985
 20
197.6517242973032
 11
398.8887512905825
 21
197.6517343076158
  0
LINE
  8
0
  6
CONTINUOUS
 62
     7
 10
398.8887512905825
 20
212.3482656923842
 11
398.8925500038985
 21
212.3482757026968
  0
LINE
  8
0
  6
CONTINUOUS
 62
     7
 10
398.8887512905825
 20
212.3482656923842
 11
391.4495924736107
 21
212.3634763289826
  0
LINE
  8
0
  6
CONTINUOUS
 62
     7
 10
391.4411542954695
 20
212.3637573600515
 11
391.4495924736107
 21
212.3634763289825
  0
LINE
  8
0
  6
CONTINUOUS
 62
     7
 10
478.5504075263893
 20
212.3634763289826
 11
478.5588457045305
 21
212.3637573600515
  0
LINE
  8
0
  6
CONTINUOUS
 62
     7
 10
478.5504075263893
 20
212.3634763289826
 11
471.1112487094174
 21
212.3482656923842
  0
LINE
  8
0
  6
CONTINUOUS
 62
     7
 10
471.1112487094174
 20
197.6517343076158
 11
478.5504075263893
 21
197.6365236710175
  0
LINE
  8
0
  6
CONTINUOUS
 62
     7
 10
478.5588457045305
 20
197.6362426399485
 11
478.5504075263893
 21
197.6365236710174
  0
LINE
  8
0
  6
CONTINUOUS
 62
     7
 10
391.4495924736107
 20
197.6365236710175
 11
391.4411542954695
 21
197.6362426399485
  0
LINE
  8
0
  6
CONTINUOUS
 62
     7
 10
391.4495924736107
 20
197.6365236710175
 11
398.8887512905825
 21
197.6517343076158
  0
LINE
  8
0
  6
CONTINUOUS
 62
     9
 10
399.6707535569836
 20
190.6361808152542
 11
399.6707535569836
 21
191.4948992210118
  0
LINE
  8
0
  6
CONTINUOUS
 62
     9
 10
470.3292464430162
 20
190.6361808152542
 11
470.3292464430162
 21
191.4948992210118
  0
LINE
  8
0
  6
CONTINUOUS
 62
     9
 10
399.6707535569836
 20
218.5051007789882
 11
399.6707535569836
 21
219.3638191847459
  0
LINE
  8
0
  6
CONTINUOUS
 62
     9
 10
470.3292464430162
 20
218.5051007789882
 11
470.3292464430162
 21
219.3638191847459
  0
LINE
  8
0
  6
CONTINUOUS
 62
     7
 10
479.3221366671932
 20
197.6284318028103
 11
479.3219686977111
 21
197.628284308926
  0
LINE
  8
0
  6
CONTINUOUS
 62
     7
 10
478.5588457045305
 20
197.6362426399485
 11
479.3219686977111
 21
197.628284308926
  0
LINE
  8
0
  6
CONTINUOUS
 62
     7
 10
478.5588457045305
 20
212.3637573600515
 11
479.3219686977111
 21
212.371715691074
  0
LINE
  8
0
  6
CONTINUOUS
 62
     7
 10
479.3219686977111
 20
212.371715691074
 11
479.3221366671932
 21
212.3715681971897
  0
LINE
  8
0
  6
CONTINUOUS
 62
     7
 10
390.6780313022889
 20
197.628284308926
 11
391.4411542954695
 21
197.6362426399485
  0
LINE
  8
0
  6
CONTINUOUS
 62
     7
 10
390.6780313022889
 20
197.628284308926
 11
390.6778633328068
 21
197.6284318028103
  0
LINE
  8
0
  6
CONTINUOUS
 62
     7
 10
390.6778633328068
 20
212.3715681971897
 11
390.6780313022889
 21
212.371715691074
  0
LINE
  8
0
  6
CONTINUOUS
 62
     7
 10
390.6780313022889
 20
212.371715691074
 11
391.4411542954695
 21
212.3637573600515
  0
LINE
  8
0
  6
CONTINUOUS
 62
     7
 10
474.9129059419779
 20
190.6051945488437
 11
475.2990161434319
 21
190.600983856568
  0
LINE
  8
0
  6
CONTINUOUS
 62
     7
 10
469.4442700926935
 20
190.616356620403
 11
474.9129059419779
 21
190.6051945488437
  0
LINE
  8
0
  6
CONTINUOUS
 62
     7
 10
468.3055624919132
 20
190.617503259992
 11
469.4442700926935
 21
190.616356620403
  0
LINE
  8
0
  6
CONTINUOUS
 62
     7
 10
468.3055624919132
 20
190.617503259992
 11
401.6944375080868
 21
190.617503259992
  0
LINE
  8
0
  6
CONTINUOUS
 62
     7
 10
400.5557299073064
 20
190.616356620403
 11
401.6944375080868
 21
190.617503259992
  0
LINE
  8
0
  6
CONTINUOUS
 62
     7
 10
395.087094058022
 20
190.6051945488437
 11
400.5557299073064
 21
190.616356620403
  0
LINE
  8
0
  6
CONTINUOUS
 62
     7
 10
394.700983856568
 20
190.600983856568
 11
395.087094058022
 21
190.6051945488437
  0
LINE
  8
0
  6
CONTINUOUS
 62
     7
 10
394.700983856568
 20
190.600983856568
 11
394.2166821678952
 21
190.1166821678952
  0
LINE
  8
0
  6
CONTINUOUS
 62
     7
 10
393.920734969287
 20
190.1105606293368
 11
394.2166821678952
 21
190.1166821678952
  0
LINE
  8
0
  6
CONTINUOUS
 62
     7
 10
392.7
 20
190.1
 11
393.920734969287
 21
190.1105606293368
  0
LINE
  8
0
  6
CONTINUOUS
 62
     7
 10
392.7
 20
190.1
 11
375.1149936226851
 21
190.1
  0
POLYLINE
  8
0
  6
CONTINUOUS
 62
     9
 66
     1
  0
VERTEX
  8
0
  6
CONTINUOUS
 62
     9
 10
383.4602328640366
 20
190.1243065034732
  0
VERTEX
  8
0
  6
CONTINUOUS
 62
     9
 10
383.8996305098007
 20
190.1247071585343
  0
VERTEX
  8
0
  6
CONTINUOUS
 62
     9
 10
384.3293137065758
 20
190.1258917188742
  0
VERTEX
  8
0
  6
CONTINUOUS
 62
     9
 10
384.7306166004661
 20
190.1278087260454
  0
VERTEX
  8
0
  6
CONTINUOUS
 62
     9
 10
385.0861062053989
 20
190.130374903401
  0
SEQEND
  8
0
  6
CONTINUOUS
 62
     9
  0
LINE
  8
0
  6
CONTINUOUS
 62
     7
 10
494.8850063773149
 20
190.1
 11
477.3
 21
190.1
  0
LINE
  8
0
  6
CONTINUOUS
 62
     7
 10
476.079265030713
 20
190.1105606293368
 11
477.3
 21
190.1
  0
LINE
  8
0
  6
CONTINUOUS
 62
     7
 10
475.7833178321047
 20
190.1166821678952
 11
476.079265030713
 21
190.1105606293368
  0
LINE
  8
0
  6
CONTINUOUS
 62
     7
 10
475.7833178321047
 20
190.1166821678952
 11
475.2990161434319
 21
190.600983856568
  0
LINE
  8
0
  6
CONTINUOUS
 62
     7
 10
494.8850063773149
 20
219.9
 11
477.3
 21
219.9
  0
LINE
  8
0
  6
CONTINUOUS
 62
     7
 10
392.7
 20
219.9
 11
375.1149936226851
 21
219.9
  0
LINE
  8
0
  6
CONTINUOUS
 62
     7
 10
393.920734969287
 20
219.8894393706632
 11
392.7
 21
219.9
  0
LINE
  8
0
  6
CONTINUOUS
 62
     7
 10
394.2166821678952
 20
219.8833178321048
 11
393.920734969287
 21
219.8894393706632
  0
LINE
  8
0
  6
CONTINUOUS
 62
     7
 10
394.700983856568
 20
219.399016143432
 11
394.2166821678952
 21
219.8833178321048
  0
LINE
  8
0
  6
CONTINUOUS
 62
     7
 10
395.0870940580221
 20
219.3948054511563
 11
394.700983856568
 21
219.399016143432
  0
LINE
  8
0
  6
CONTINUOUS
 62
     7
 10
400.5557299073064
 20
219.383643379597
 11
395.087094058022
 21
219.3948054511563
  0
LINE
  8
0
  6
CONTINUOUS
 62
     7
 10
401.6944375080868
 20
219.382496740008
 11
400.5557299073064
 21
219.383643379597
  0
LINE
  8
0
  6
CONTINUOUS
 62
     7
 10
468.3055624919132
 20
219.382496740008
 11
401.6944375080868
 21
219.382496740008
  0
LINE
  8
0
  6
CONTINUOUS
 62
     7
 10
469.4442700926935
 20
219.383643379597
 11
468.3055624919132
 21
219.382496740008
  0
LINE
  8
0
  6
CONTINUOUS
 62
     7
 10
474.9129059419779
 20
219.3948054511563
 11
469.4442700926935
 21
219.383643379597
  0
LINE
  8
0
  6
CONTINUOUS
 62
     7
 10
475.2990161434319
 20
219.399016143432
 11
474.9129059419779
 21
219.3948054511563
  0
LINE
  8
0
  6
CONTINUOUS
 62
     7
 10
475.7833178321047
 20
219.8833178321048
 11
475.2990161434319
 21
219.399016143432
  0
LINE
  8
0
  6
CONTINUOUS
 62
     7
 10
476.079265030713
 20
219.8894393706632
 11
475.7833178321047
 21
219.8833178321048
  0
LINE
  8
0
  6
CONTINUOUS
 62
     7
 10
477.3
 20
219.9
 11
476.079265030713
 21
219.8894393706632
  0
POLYLINE
  8
0
  6
CONTINUOUS
 62
     7
 10
0.0
 20
0.0
 30
0.0
 66
     1
 70
     8
  0
VERTEX
  8
0
  6
CONTINUOUS
 62
     7
 10
480.2914247839796
 20
212.8561753459535
 30
0.0
 70
    32
  0
VERTEX
  8
0
  6
CONTINUOUS
 62
     7
 10
480.2914343005334
 20
212.8561780030741
 30
0.0
 70
    32
  0
SEQEND
  8
0
  6
CONTINUOUS
 62
     7
  0
LINE
  8
0
  6
CONTINUOUS
 62
     7
 10
480.2914247839796
 20
212.8561753459535
 11
479.3221366671932
 21
212.3715681971898
  0
LINE
  8
0
  6
CONTINUOUS
 62
     7
 10
479.3377738963221
 20
218.8148302850038
 11
479.3183161906382
 21
218.9501779014943
  0
LINE
  8
0
  6
CONTINUOUS
 62
     7
 10
479.3377738963221
 20
218.8148302850038
 11
479.9908518706075
 21
214.3292935219053
  0
LINE
  8
0
  6
CONTINUOUS
 62
     9
 10
480.0809651841494
 20
214.3292935219053
 11
479.9908518706075
 21
214.3292935219053
  0
LINE
  8
0
  6
CONTINUOUS
 62
     9
 10
480.2914340204868
 20
212.8561799638553
 11
480.0809651841494
 21
214.3292935219053
  0
POLYLINE
  8
0
  6
CONTINUOUS
 62
     7
 10
0.0
 20
0.0
 30
0.0
 66
     1
 70
     8
  0
VERTEX
  8
0
  6
CONTINUOUS
 62
     7
 10
389.7085752160203
 20
197.1438246540466
 30
0.0
 70
    32
  0
VERTEX
  8
0
  6
CONTINUOUS
 62
     7
 10
389.7085656994665
 20
197.1438219969259
 30
0.0
 70
    32
  0
SEQEND
  8
0
  6
CONTINUOUS
 62
     7
  0
LINE
  8
0
  6
CONTINUOUS
 62
     7
 10
389.7085752160203
 20
197.1438246540466
 11
390.6778633328068
 21
197.6284318028103
  0
LINE
  8
0
  6
CONTINUOUS
 62
     7
 10
390.6622261036778
 20
191.1851697149962
 11
390.6816838093618
 21
191.0498220985057
  0
LINE
  8
0
  6
CONTINUOUS
 62
     7
 10
390.6622261036778
 20
191.1851697149962
 11
390.0091481293925
 21
195.6707064780947
  0
LINE
  8
0
  6
CONTINUOUS
 62
     9
 10
389.9190348158506
 20
195.6707064780947
 11
390.0091481293925
 21
195.6707064780947
  0
LINE
  8
0
  6
CONTINUOUS
 62
     9
 10
389.7085659795131
 20
197.1438200361447
 11
389.9190348158506
 21
195.6707064780947
  0
LINE
  8
0
  6
CONTINUOUS
 62
     7
 10
479.3183161906382
 20
191.0498220985057
 11
479.3377738963221
 21
191.1851697149962
  0
LINE
  8
0
  6
CONTINUOUS
 62
     7
 10
479.3221366671932
 20
197.6284318028103
 11
480.2914247839796
 21
197.1438246540466
  0
POLYLINE
  8
0
  6
CONTINUOUS
 62
     7
 10
0.0
 20
0.0
 30
0.0
 66
     1
 70
     8
  0
VERTEX
  8
0
  6
CONTINUOUS
 62
     7
 10
480.2914343005334
 20
197.1438219969259
 30
0.0
 70
    32
  0
VERTEX
  8
0
  6
CONTINUOUS
 62
     7
 10
480.2914247839796
 20
197.1438246540466
 30
0.0
 70
    32
  0
SEQEND
  8
0
  6
CONTINUOUS
 62
     7
  0
LINE
  8
0
  6
CONTINUOUS
 62
     9
 10
480.0809651841494
 20
195.6707064780947
 11
480.2914340204868
 21
197.1438200361447
  0
LINE
  8
0
  6
CONTINUOUS
 62
     9
 10
479.9908518706075
 20
195.6707064780947
 11
480.0809651841494
 21
195.6707064780947
  0
LINE
  8
0
  6
CONTINUOUS
 62
     7
 10
479.9908518706075
 20
195.6707064780947
 11
479.3377738963221
 21
191.1851697149962
  0
LINE
  8
0
  6
CONTINUOUS
 62
     7
 10
390.6816838093618
 20
218.9501779014943
 11
390.6622261036778
 21
218.8148302850038
  0
LINE
  8
0
  6
CONTINUOUS
 62
     7
 10
390.6778633328068
 20
212.3715681971898
 11
389.7085752160203
 21
212.8561753459535
  0
POLYLINE
  8
0
  6
CONTINUOUS
 62
     7
 10
0.0
 20
0.0
 30
0.0
 66
     1
 70
     8
  0
VERTEX
  8
0
  6
CONTINUOUS
 62
     7
 10
389.7085656994665
 20
212.8561780030741
 30
0.0
 70
    32
  0
VERTEX
  8
0
  6
CONTINUOUS
 62
     7
 10
389.7085752160203
 20
212.8561753459535
 30
0.0
 70
    32
  0
SEQEND
  8
0
  6
CONTINUOUS
 62
     7
  0
LINE
  8
0
  6
CONTINUOUS
 62
     9
 10
389.9190348158506
 20
214.3292935219053
 11
389.7085659795131
 21
212.8561799638553
  0
LINE
  8
0
  6
CONTINUOUS
 62
     9
 10
390.0091481293925
 20
214.3292935219053
 11
389.9190348158506
 21
214.3292935219053
  0
LINE
  8
0
  6
CONTINUOUS
 62
     7
 10
390.0091481293925
 20
214.3292935219053
 11
390.6622261036778
 21
218.8148302850038
  0
LINE
  8
0
  6
CONTINUOUS
 62
     9
 10
389.7085752160203
 20
212.8561753459535
 11
389.7085752160203
 21
197.1438246540466
  0
LINE
  8
0
  6
CONTINUOUS
 62
     9
 10
480.2914247839796
 20
197.1438246540466
 11
480.2914247839796
 21
212.8561753459535
  0
POLYLINE
  8
0
  6
CONTINUOUS
 62
     7
 66
     1
  0
VERTEX
  8
0
  6
CONTINUOUS
 62
     7
 10
391.6644816630059
 20
190.1877835162975
  0
VERTEX
  8
0
  6
CONTINUOUS
 62
     7
 10
391.6201695566032
 20
190.1889441904613
  0
VERTEX
  8
0
  6
CONTINUOUS
 62
     7
 10
391.5759457709588
 20
190.1920956272185
  0
VERTEX
  8
0
  6
CONTINUOUS
 62
     7
 10
391.5318984507947
 20
190.1972315452769
  0
VERTEX
  8
0
  6
CONTINUOUS
 62
     7
 10
391.4881153891101
 20
190.2043417079718
  0
VERTEX
  8
0
  6
CONTINUOUS
 62
     7
 10
391.4446838521971
 20
190.213411943669
  0
VERTEX
  8
0
  6
CONTINUOUS
 62
     7
 10
391.4016904057053
 20
190.224424174011
  0
VERTEX
  8
0
  6
CONTINUOUS
 62
     7
 10
391.3592207421037
 20
190.2373564499503
  0
VERTEX
  8
0
  6
CONTINUOUS
 62
     7
 10
391.3173595098824
 20
190.2521829954966
  0
VERTEX
  8
0
  6
CONTINUOUS
 62
     7
 10
391.2761901448354
 20
190.2688742590927
  0
VERTEX
  8
0
  6
CONTINUOUS
 62
     7
 10
391.2357947037603
 20
190.2873969725152
  0
VERTEX
  8
0
  6
CONTINUOUS
 62
     7
 10
391.1962537009067
 20
190.3077142171826
  0
VERTEX
  8
0
  6
CONTINUOUS
 62
     7
 10
391.1576459474991
 20
190.3297854977407
  0
VERTEX
  8
0
  6
CONTINUOUS
 62
     7
 10
391.1200483946538
 20
190.3535668227748
  0
VERTEX
  8
0
  6
CONTINUOUS
 62
     7
 10
391.0835359800044
 20
190.3790107924922
  0
VERTEX
  8
0
  6
CONTINUOUS
 62
     7
 10
391.0481814783389
 20
190.4060666931965
  0
VERTEX
  8
0
  6
CONTINUOUS
 62
     7
 10
391.0140553565491
 20
190.4346805983682
  0
VERTEX
  8
0
  6
CONTINUOUS
 62
     7
 10
390.981225633179
 20
190.4647954761484
  0
VERTEX
  8
0
  6
CONTINUOUS
 62
     7
 10
390.9497577428534
 20
190.4963513030115
  0
VERTEX
  8
0
  6
CONTINUOUS
 62
     7
 10
390.9197144058577
 20
190.5292851834016
  0
VERTEX
  8
0
  6
CONTINUOUS
 62
     7
 10
390.8911555031254
 20
190.5635314750931
  0
VERTEX
  8
0
  6
CONTINUOUS
 62
     7
 10
390.8641379568875
 20
190.5990219200249
  0
VERTEX
  8
0
  6
CONTINUOUS
 62
     7
 10
390.8387156172171
 20
190.6356857803498
  0
VERTEX
  8
0
  6
CONTINUOUS
 62
     7
 10
390.8149391546987
 20
190.6734499794255
  0
VERTEX
  8
0
  6
CONTINUOUS
 62
     7
 10
390.7928559594333
 20
190.7122392474674
  0
VERTEX
  8
0
  6
CONTINUOUS
 62
     7
 10
390.772510046583
 20
190.7519762715725
  0
VERTEX
  8
0
  6
CONTINUOUS
 62
     7
 10
390.7539419686427
 20
190.7925818498165
  0
VERTEX
  8
0
  6
CONTINUOUS
 62
     7
 10
390.7371887346118
 20
190.8339750491144
  0
VERTEX
  8
0
  6
CONTINUOUS
 62
     7
 10
390.7222837362303
 20
190.8760733665329
  0
VERTEX
  8
0
  6
CONTINUOUS
 62
     7
 10
390.709256681424
 20
190.9187928937314
  0
VERTEX
  8
0
  6
CONTINUOUS
 62
     7
 10
390.6981335350916
 20
190.9620484842035
  0
VERTEX
  8
0
  6
CONTINUOUS
 62
     7
 10
390.6889364673532
 20
191.0057539229875
  0
VERTEX
  8
0
  6
CONTINUOUS
 62
     7
 10
390.6816838093618
 20
191.0498220985057
  0
SEQEND
  8
0
  6
CONTINUOUS
 62
     7
  0
POLYLINE
  8
0
  6
CONTINUOUS
 62
     7
 66
     1
  0
VERTEX
  8
0
  6
CONTINUOUS
 62
     7
 10
479.3183161906381
 20
218.9501779014943
  0
VERTEX
  8
0
  6
CONTINUOUS
 62
     7
 10
479.3110635326468
 20
218.9942460770125
  0
VERTEX
  8
0
  6
CONTINUOUS
 62
     7
 10
479.3018664649084
 20
219.0379515157965
  0
VERTEX
  8
0
  6
CONTINUOUS
 62
     7
 10
479.2907433185759
 20
219.0812071062687
  0
VERTEX
  8
0
  6
CONTINUOUS
 62
     7
 10
479.2777162637695
 20
219.1239266334671
  0
VERTEX
  8
0
  6
CONTINUOUS
 62
     7
 10
479.2628112653882
 20
219.1660249508857
  0
VERTEX
  8
0
  6
CONTINUOUS
 62
     7
 10
479.2460580313572
 20
219.2074181501835
  0
VERTEX
  8
0
  6
CONTINUOUS
 62
     7
 10
479.2274899534169
 20
219.2480237284275
  0
VERTEX
  8
0
  6
CONTINUOUS
 62
     7
 10
479.2071440405667
 20
219.2877607525327
  0
VERTEX
  8
0
  6
CONTINUOUS
 62
     7
 10
479.1850608453012
 20
219.3265500205745
  0
VERTEX
  8
0
  6
CONTINUOUS
 62
     7
 10
479.1612843827828
 20
219.3643142196502
  0
VERTEX
  8
0
  6
CONTINUOUS
 62
     7
 10
479.1358620431124
 20
219.4009780799751
  0
VERTEX
  8
0
  6
CONTINUOUS
 62
     7
 10
479.1088444968745
 20
219.4364685249069
  0
VERTEX
  8
0
  6
CONTINUOUS
 62
     7
 10
479.0802855941422
 20
219.4707148165984
  0
VERTEX
  8
0
  6
CONTINUOUS
 62
     7
 10
479.0502422571465
 20
219.5036486969886
  0
VERTEX
  8
0
  6
CONTINUOUS
 62
     7
 10
479.018774366821
 20
219.5352045238517
  0
VERTEX
  8
0
  6
CONTINUOUS
 62
     7
 10
478.9859446434508
 20
219.5653194016318
  0
VERTEX
  8
0
  6
CONTINUOUS
 62
     7
 10
478.951818521661
 20
219.5939333068036
  0
VERTEX
  8
0
  6
CONTINUOUS
 62
     7
 10
478.9164640199955
 20
219.6209892075079
  0
VERTEX
  8
0
  6
CONTINUOUS
 62
     7
 10
478.8799516053462
 20
219.6464331772252
  0
VERTEX
  8
0
  6
CONTINUOUS
 62
     7
 10
478.8423540525009
 20
219.6702145022593
  0
VERTEX
  8
0
  6
CONTINUOUS
 62
     7
 10
478.8037462990932
 20
219.6922857828174
  0
VERTEX
  8
0
  6
CONTINUOUS
 62
     7
 10
478.7642052962397
 20
219.7126030274848
  0
VERTEX
  8
0
  6
CONTINUOUS
 62
     7
 10
478.7238098551645
 20
219.7311257409073
  0
VERTEX
  8
0
  6
CONTINUOUS
 62
     7
 10
478.6826404901175
 20
219.7478170045034
  0
VERTEX
  8
0
  6
CONTINUOUS
 62
     7
 10
478.6407792578963
 20
219.7626435500497
  0
VERTEX
  8
0
  6
CONTINUOUS
 62
     7
 10
478.5983095942947
 20
219.775575825989
  0
VERTEX
  8
0
  6
CONTINUOUS
 62
     7
 10
478.5553161478028
 20
219.7865880563311
  0
VERTEX
  8
0
  6
CONTINUOUS
 62
     7
 10
478.5118846108898
 20
219.7956582920282
  0
VERTEX
  8
0
  6
CONTINUOUS
 62
     7
 10
478.4681015492052
 20
219.8027684547231
  0
VERTEX
  8
0
  6
CONTINUOUS
 62
     7
 10
478.4240542290411
 20
219.8079043727815
  0
VERTEX
  8
0
  6
CONTINUOUS
 62
     7
 10
478.3798304433968
 20
219.8110558095387
  0
VERTEX
  8
0
  6
CONTINUOUS
 62
     7
 10
478.335518336994
 20
219.8122164837025
  0
SEQEND
  8
0
  6
CONTINUOUS
 62
     7
  0
POLYLINE
  8
0
  6
CONTINUOUS
 62
     7
 66
     1
  0
VERTEX
  8
0
  6
CONTINUOUS
 62
     7
 10
478.335518336994
 20
190.1877835162975
  0
VERTEX
  8
0
  6
CONTINUOUS
 62
     7
 10
478.3798304433968
 20
190.1889441904613
  0
VERTEX
  8
0
  6
CONTINUOUS
 62
     7
 10
478.4240542290411
 20
190.1920956272185
  0
VERTEX
  8
0
  6
CONTINUOUS
 62
     7
 10
478.4681015492052
 20
190.1972315452769
  0
VERTEX
  8
0
  6
CONTINUOUS
 62
     7
 10
478.5118846108898
 20
190.2043417079718
  0
VERTEX
  8
0
  6
CONTINUOUS
 62
     7
 10
478.5553161478028
 20
190.213411943669
  0
VERTEX
  8
0
  6
CONTINUOUS
 62
     7
 10
478.5983095942947
 20
190.224424174011
  0
VERTEX
  8
0
  6
CONTINUOUS
 62
     7
 10
478.6407792578963
 20
190.2373564499503
  0
VERTEX
  8
0
  6
CONTINUOUS
 62
     7
 10
478.6826404901175
 20
190.2521829954966
  0
VERTEX
  8
0
  6
CONTINUOUS
 62
     7
 10
478.7238098551645
 20
190.2688742590927
  0
VERTEX
  8
0
  6
CONTINUOUS
 62
     7
 10
478.7642052962397
 20
190.2873969725152
  0
VERTEX
  8
0
  6
CONTINUOUS
 62
     7
 10
478.8037462990932
 20
190.3077142171826
  0
VERTEX
  8
0
  6
CONTINUOUS
 62
     7
 10
478.8423540525009
 20
190.3297854977407
  0
VERTEX
  8
0
  6
CONTINUOUS
 62
     7
 10
478.8799516053462
 20
190.3535668227748
  0
VERTEX
  8
0
  6
CONTINUOUS
 62
     7
 10
478.9164640199955
 20
190.3790107924922
  0
VERTEX
  8
0
  6
CONTINUOUS
 62
     7
 10
478.951818521661
 20
190.4060666931965
  0
VERTEX
  8
0
  6
CONTINUOUS
 62
     7
 10
478.9859446434509
 20
190.4346805983682
  0
VERTEX
  8
0
  6
CONTINUOUS
 62
     7
 10
479.018774366821
 20
190.4647954761484
  0
VERTEX
  8
0
  6
CONTINUOUS
 62
     7
 10
479.0502422571465
 20
190.4963513030115
  0
VERTEX
  8
0
  6
CONTINUOUS
 62
     7
 10
479.0802855941423
 20
190.5292851834016
  0
VERTEX
  8
0
  6
CONTINUOUS
 62
     7
 10
479.1088444968745
 20
190.5635314750931
  0
VERTEX
  8
0
  6
CONTINUOUS
 62
     7
 10
479.1358620431124
 20
190.5990219200249
  0
VERTEX
  8
0
  6
CONTINUOUS
 62
     7
 10
479.1612843827828
 20
190.6356857803498
  0
VERTEX
  8
0
  6
CONTINUOUS
 62
     7
 10
479.1850608453013
 20
190.6734499794255
  0
VERTEX
  8
0
  6
CONTINUOUS
 62
     7
 10
479.2071440405667
 20
190.7122392474674
  0
VERTEX
  8
0
  6
CONTINUOUS
 62
     7
 10
479.2274899534169
 20
190.7519762715725
  0
VERTEX
  8
0
  6
CONTINUOUS
 62
     7
 10
479.2460580313573
 20
190.7925818498165
  0
VERTEX
  8
0
  6
CONTINUOUS
 62
     7
 10
479.2628112653882
 20
190.8339750491144
  0
VERTEX
  8
0
  6
CONTINUOUS
 62
     7
 10
479.2777162637695
 20
190.8760733665329
  0
VERTEX
  8
0
  6
CONTINUOUS
 62
     7
 10
479.2907433185759
 20
190.9187928937314
  0
VERTEX
  8
0
  6
CONTINUOUS
 62
     7
 10
479.3018664649084
 20
190.9620484842035
  0
VERTEX
  8
0
  6
CONTINUOUS
 62
     7
 10
479.3110635326468
 20
191.0057539229875
  0
VERTEX
  8
0
  6
CONTINUOUS
 62
     7
 10
479.3183161906382
 20
191.0498220985057
  0
SEQEND
  8
0
  6
CONTINUOUS
 62
     7
  0
POLYLINE
  8
0
  6
CONTINUOUS
 62
     7
 66
     1
  0
VERTEX
  8
0
  6
CONTINUOUS
 62
     7
 10
390.6816838093618
 20
218.9501779014943
  0
VERTEX
  8
0
  6
CONTINUOUS
 62
     7
 10
390.6889364673532
 20
218.9942460770125
  0
VERTEX
  8
0
  6
CONTINUOUS
 62
     7
 10
390.6981335350916
 20
219.0379515157965
  0
VERTEX
  8
0
  6
CONTINUOUS
 62
     7
 10
390.709256681424
 20
219.0812071062687
  0
VERTEX
  8
0
  6
CONTINUOUS
 62
     7
 10
390.7222837362303
 20
219.1239266334671
  0
VERTEX
  8
0
  6
CONTINUOUS
 62
     7
 10
390.7371887346118
 20
219.1660249508857
  0
VERTEX
  8
0
  6
CONTINUOUS
 62
     7
 10
390.7539419686427
 20
219.2074181501835
  0
VERTEX
  8
0
  6
CONTINUOUS
 62
     7
 10
390.772510046583
 20
219.2480237284275
  0
VERTEX
  8
0
  6
CONTINUOUS
 62
     7
 10
390.7928559594333
 20
219.2877607525327
  0
VERTEX
  8
0
  6
CONTINUOUS
 62
     7
 10
390.8149391546987
 20
219.3265500205745
  0
VERTEX
  8
0
  6
CONTINUOUS
 62
     7
 10
390.8387156172171
 20
219.3643142196502
  0
VERTEX
  8
0
  6
CONTINUOUS
 62
     7
 10
390.8641379568875
 20
219.4009780799751
  0
VERTEX
  8
0
  6
CONTINUOUS
 62
     7
 10
390.8911555031254
 20
219.4364685249069
  0
VERTEX
  8
0
  6
CONTINUOUS
 62
     7
 10
390.9197144058577
 20
219.4707148165984
  0
VERTEX
  8
0
  6
CONTINUOUS
 62
     7
 10
390.9497577428534
 20
219.5036486969886
  0
VERTEX
  8
0
  6
CONTINUOUS
 62
     7
 10
390.9812256331789
 20
219.5352045238517
  0
VERTEX
  8
0
  6
CONTINUOUS
 62
     7
 10
391.0140553565491
 20
219.5653194016318
  0
VERTEX
  8
0
  6
CONTINUOUS
 62
     7
 10
391.0481814783389
 20
219.5939333068036
  0
VERTEX
  8
0
  6
CONTINUOUS
 62
     7
 10
391.0835359800044
 20
219.6209892075079
  0
VERTEX
  8
0
  6
CONTINUOUS
 62
     7
 10
391.1200483946538
 20
219.6464331772252
  0
VERTEX
  8
0
  6
CONTINUOUS
 62
     7
 10
391.157645947499
 20
219.6702145022593
  0
VERTEX
  8
0
  6
CONTINUOUS
 62
     7
 10
391.1962537009067
 20
219.6922857828174
  0
VERTEX
  8
0
  6
CONTINUOUS
 62
     7
 10
391.2357947037603
 20
219.7126030274848
  0
VERTEX
  8
0
  6
CONTINUOUS
 62
     7
 10
391.2761901448354
 20
219.7311257409073
  0
VERTEX
  8
0
  6
CONTINUOUS
 62
     7
 10
391.3173595098824
 20
219.7478170045034
  0
VERTEX
  8
0
  6
CONTINUOUS
 62
     7
 10
391.3592207421037
 20
219.7626435500497
  0
VERTEX
  8
0
  6
CONTINUOUS
 62
     7
 10
391.4016904057053
 20
219.775575825989
  0
VERTEX
  8
0
  6
CONTINUOUS
 62
     7
 10
391.4446838521971
 20
219.7865880563311
  0
VERTEX
  8
0
  6
CONTINUOUS
 62
     7
 10
391.4881153891101
 20
219.7956582920282
  0
VERTEX
  8
0
  6
CONTINUOUS
 62
     7
 10
391.5318984507947
 20
219.8027684547231
  0
VERTEX
  8
0
  6
CONTINUOUS
 62
     7
 10
391.5759457709588
 20
219.8079043727815
  0
VERTEX
  8
0
  6
CONTINUOUS
 62
     7
 10
391.6201695566032
 20
219.8110558095387
  0
VERTEX
  8
0
  6
CONTINUOUS
 62
     7
 10
391.6644816630059
 20
219.8122164837025
  0
SEQEND
  8
0
  6
CONTINUOUS
 62
     7
  0
POLYLINE
  8
0
  6
CONTINUOUS
 62
     9
 66
     1
  0
VERTEX
  8
0
  6
CONTINUOUS
 62
     9
 10
485.6210005757877
 20
218.8696631735349
  0
VERTEX
  8
0
  6
CONTINUOUS
 62
     9
 10
485.606671969183
 20
219.0639932295902
  0
VERTEX
  8
0
  6
CONTINUOUS
 62
     9
 10
485.56592837845
 20
219.2509136622845
  0
VERTEX
  8
0
  6
CONTINUOUS
 62
     9
 10
485.5003233186128
 20
219.4232973702686
  0
VERTEX
  8
0
  6
CONTINUOUS
 62
     9
 10
485.4123582492696
 20
219.5745715239159
  0
VERTEX
  8
0
  6
CONTINUOUS
 62
     9
 10
485.3053871962774
 20
219.6989681811721
  0
VERTEX
  8
0
  6
CONTINUOUS
 62
     9
 10
485.1834888658809
 20
219.7917442137927
  0
VERTEX
  8
0
  6
CONTINUOUS
 62
     9
 10
485.0513111274572
 20
219.8493621583887
  0
VERTEX
  8
0
  6
CONTINUOUS
 62
     9
 10
484.9138937946011
 20
219.8696250965991
  0
SEQEND
  8
0
  6
CONTINUOUS
 62
     9
  0
POLYLINE
  8
0
  6
CONTINUOUS
 62
     9
 66
     1
  0
VERTEX
  8
0
  6
CONTINUOUS
 62
     9
 10
484.9138937946012
 20
190.130374903401
  0
VERTEX
  8
0
  6
CONTINUOUS
 62
     9
 10
485.0513111274572
 20
190.1506378416113
  0
VERTEX
  8
0
  6
CONTINUOUS
 62
     9
 10
485.1834888658809
 20
190.2082557862074
  0
VERTEX
  8
0
  6
CONTINUOUS
 62
     9
 10
485.3053871962774
 20
190.3010318188279
  0
VERTEX
  8
0
  6
CONTINUOUS
 62
     9
 10
485.4123582492696
 20
190.4254284760841
  0
VERTEX
  8
0
  6
CONTINUOUS
 62
     9
 10
485.5003233186128
 20
190.5767026297315
  0
VERTEX
  8
0
  6
CONTINUOUS
 62
     9
 10
485.56592837845
 20
190.7490863377155
  0
VERTEX
  8
0
  6
CONTINUOUS
 62
     9
 10
485.606671969183
 20
190.9360067704098
  0
VERTEX
  8
0
  6
CONTINUOUS
 62
     9
 10
485.6210005757877
 20
191.1303368264651
  0
SEQEND
  8
0
  6
CONTINUOUS
 62
     9
  0
POLYLINE
  8
0
  6
CONTINUOUS
 62
     9
 66
     1
  0
VERTEX
  8
0
  6
CONTINUOUS
 62
     9
 10
385.0861062053988
 20
219.8696250965991
  0
VERTEX
  8
0
  6
CONTINUOUS
 62
     9
 10
384.9486888725428
 20
219.8493621583887
  0
VERTEX
  8
0
  6
CONTINUOUS
 62
     9
 10
384.8165111341191
 20
219.7917442137927
  0
VERTEX
  8
0
  6
CONTINUOUS
 62
     9
 10
384.6946128037226
 20
219.6989681811721
  0
VERTEX
  8
0
  6
CONTINUOUS
 62
     9
 10
384.5876417507304
 20
219.5745715239159
  0
VERTEX
  8
0
  6
CONTINUOUS
 62
     9
 10
384.4996766813872
 20
219.4232973702686
  0
VERTEX
  8
0
  6
CONTINUOUS
 62
     9
 10
384.43407162155
 20
219.2509136622845
  0
VERTEX
  8
0
  6
CONTINUOUS
 62
     9
 10
384.393328030817
 20
219.0639932295902
  0
VERTEX
  8
0
  6
CONTINUOUS
 62
     9
 10
384.3789994242123
 20
218.8696631735349
  0
SEQEND
  8
0
  6
CONTINUOUS
 62
     9
  0
POLYLINE
  8
0
  6
CONTINUOUS
 62
     9
 66
     1
  0
VERTEX
  8
0
  6
CONTINUOUS
 62
     9
 10
384.3789994242123
 20
191.1303368264651
  0
VERTEX
  8
0
  6
CONTINUOUS
 62
     9
 10
384.393328030817
 20
190.9360067704098
  0
VERTEX
  8
0
  6
CONTINUOUS
 62
     9
 10
384.43407162155
 20
190.7490863377155
  0
VERTEX
  8
0
  6
CONTINUOUS
 62
     9
 10
384.4996766813872
 20
190.5767026297315
  0
VERTEX
  8
0
  6
CONTINUOUS
 62
     9
 10
384.5876417507304
 20
190.4254284760841
  0
VERTEX
  8
0
  6
CONTINUOUS
 62
     9
 10
384.6946128037226
 20
190.3010318188279
  0
VERTEX
  8
0
  6
CONTINUOUS
 62
     9
 10
384.8165111341191
 20
190.2082557862074
  0
VERTEX
  8
0
  6
CONTINUOUS
 62
     9
 10
384.9486888725428
 20
190.1506378416113
  0
VERTEX
  8
0
  6
CONTINUOUS
 62
     9
 10
385.0861062053988
 20
190.130374903401
  0
SEQEND
  8
0
  6
CONTINUOUS
 62
     9
  0
LINE
  8
0
  6
CONTINUOUS
 62
     9
 10
485.0071067811865
 20
214.8550898605635
 11
485.0071067811865
 21
217.0225542914943
  0
LINE
  8
0
  6
CONTINUOUS
 62
     7
 10
484.8
 20
214.9
 11
485.0071067811861
 21
214.8550898605625
  0
LINE
  8
0
  6
CONTINUOUS
 62
     7
 10
480.4953488244037
 20
214.9
 11
484.8
 21
214.9
  0
POLYLINE
  8
0
  6
CONTINUOUS
 62
     7
 66
     1
  0
VERTEX
  8
0
  6
CONTINUOUS
 62
     7
 10
479.9908518706075
 20
214.3292935219053
  0
VERTEX
  8
0
  6
CONTINUOUS
 62
     7
 10
479.9879954408981
 20
214.3529128857507
  0
VERTEX
  8
0
  6
CONTINUOUS
 62
     7
 10
479.9862871081842
 20
214.3766388036788
  0
VERTEX
  8
0
  6
CONTINUOUS
 62
     7
 10
479.9857307382755
 20
214.4004175859814
  0
VERTEX
  8
0
  6
CONTINUOUS
 62
     7
 10
479.9863275901892
 20
214.424195423323
  0
VERTEX
  8
0
  6
CONTINUOUS
 62
     7
 10
479.9880763133008
 20
214.4479185085062
  0
VERTEX
  8
0
  6
CONTINUOUS
 62
     7
 10
479.9909729504007
 20
214.4715331582331
  0
VERTEX
  8
0
  6
CONTINUOUS
 62
     7
 10
479.9950109466486
 20
214.4949859345859
  0
VERTEX
  8
0
  6
CONTINUOUS
 62
     7
 10
480.0001811644068
 20
214.5182237659523
  0
VERTEX
  8
0
  6
CONTINUOUS
 62
     7
 10
480.0064719039181
 20
214.5411940671219
  0
VERTEX
  8
0
  6
CONTINUOUS
 62
     7
 10
480.0138689297808
 20
214.5638448582824
  0
VERTEX
  8
0
  6
CONTINUOUS
 62
     7
 10
480.0223555031629
 20
214.5861248826448
  0
VERTEX
  8
0
  6
CONTINUOUS
 62
     7
 10
480.0319124196798
 20
214.6079837224335
  0
VERTEX
  8
0
  6
CONTINUOUS
 62
     7
 10
480.042518052853
 20
214.6293719129773
  0
VERTEX
  8
0
  6
CONTINUOUS
 62
     7
 10
480.0541484030481
 20
214.6502410546437
  0
VERTEX
  8
0
  6
CONTINUOUS
 62
     7
 10
480.0667771517849
 20
214.6705439223632
  0
VERTEX
  8
0
  6
CONTINUOUS
 62
     7
 10
480.0803757212929
 20
214.6902345724953
  0
VERTEX
  8
0
  6
CONTINUOUS
 62
     7
 10
480.0949133391809
 20
214.7092684467951
  0
VERTEX
  8
0
  6
CONTINUOUS
 62
     7
 10
480.1103571080723
 20
214.7276024732451
  0
VERTEX
  8
0
  6
CONTINUOUS
 62
     7
 10
480.1266720800483
 20
214.745195163523
  0
VERTEX
  8
0
  6
CONTINUOUS
 62
     7
 10
480.1438213357333
 20
214.7620067068864
  0
VERTEX
  8
0
  6
CONTINUOUS
 62
     7
 10
480.161766067839
 20
214.7779990602611
  0
VERTEX
  8
0
  6
CONTINUOUS
 62
     7
 10
480.1804656689828
 20
214.7931360343292
  0
VERTEX
  8
0
  6
CONTINUOUS
 62
     7
 10
480.1998778235783
 20
214.8073833754225
  0
VERTEX
  8
0
  6
CONTINUOUS
 62
     7
 10
480.2199586035921
 20
214.8207088430356
  0
VERTEX
  8
0
  6
CONTINUOUS
 62
     7
 10
480.2406625679492
 20
214.8330822827835
  0
VERTEX
  8
0
  6
CONTINUOUS
 62
     7
 10
480.261942865362
 20
214.8444756946379
  0
VERTEX
  8
0
  6
CONTINUOUS
 62
     7
 10
480.2837513403507
 20
214.8548632962894
  0
VERTEX
  8
0
  6
CONTINUOUS
 62
     7
 10
480.3060386422156
 20
214.8642215814906
  0
VERTEX
  8
0
  6
CONTINUOUS
 62
     7
 10
480.3287543367127
 20
214.8725293732482
  0
VERTEX
  8
0
  6
CONTINUOUS
 62
     7
 10
480.3518470201822
 20
214.8797678717452
  0
VERTEX
  8
0
  6
CONTINUOUS
 62
     7
 10
480.3752644358713
 20
214.8859206968832
  0
VERTEX
  8
0
  6
CONTINUOUS
 62
     7
 10
480.3989535921856
 20
214.890973925349
  0
VERTEX
  8
0
  6
CONTINUOUS
 62
     7
 10
480.4228608826055
 20
214.894916122122
  0
VERTEX
  8
0
  6
CONTINUOUS
 62
     7
 10
480.4469322069924
 20
214.8977383663505
  0
VERTEX
  8
0
  6
CONTINUOUS
 62
     7
 10
480.471113094013
 20
214.899434271539
  0
VERTEX
  8
0
  6
CONTINUOUS
 62
     7
 10
480.4953488244037
 20
214.9
  0
SEQEND
  8
0
  6
CONTINUOUS
 62
     7
  0
LINE
  8
0
  6
CONTINUOUS
 62
     9
 10
485.0071067811865
 20
217.0225542914943
 11
485.6210005757877
 21
218.8696631735349
  0
POLYLINE
  8
0
  6
CONTINUOUS
 62
     7
 66
     1
  0
VERTEX
  8
0
  6
CONTINUOUS
 62
     7
 10
480.4953488244036
 20
195.1
  0
VERTEX
  8
0
  6
CONTINUOUS
 62
     7
 10
480.471113094013
 20
195.1005657284611
  0
VERTEX
  8
0
  6
CONTINUOUS
 62
     7
 10
480.4469322069924
 20
195.1022616336495
  0
VERTEX
  8
0
  6
CONTINUOUS
 62
     7
 10
480.4228608826055
 20
195.105083877878
  0
VERTEX
  8
0
  6
CONTINUOUS
 62
     7
 10
480.3989535921856
 20
195.109026074651
  0
VERTEX
  8
0
  6
CONTINUOUS
 62
     7
 10
480.3752644358713
 20
195.1140793031168
  0
VERTEX
  8
0
  6
CONTINUOUS
 62
     7
 10
480.3518470201822
 20
195.1202321282548
  0
VERTEX
  8
0
  6
CONTINUOUS
 62
     7
 10
480.3287543367126
 20
195.1274706267519
  0
VERTEX
  8
0
  6
CONTINUOUS
 62
     7
 10
480.3060386422156
 20
195.1357784185095
  0
VERTEX
  8
0
  6
CONTINUOUS
 62
     7
 10
480.2837513403507
 20
195.1451367037106
  0
VERTEX
  8
0
  6
CONTINUOUS
 62
     7
 10
480.261942865362
 20
195.1555243053621
  0
VERTEX
  8
0
  6
CONTINUOUS
 62
     7
 10
480.2406625679492
 20
195.1669177172166
  0
VERTEX
  8
0
  6
CONTINUOUS
 62
     7
 10
480.219958603592
 20
195.1792911569644
  0
VERTEX
  8
0
  6
CONTINUOUS
 62
     7
 10
480.1998778235783
 20
195.1926166245775
  0
VERTEX
  8
0
  6
CONTINUOUS
 62
     7
 10
480.1804656689828
 20
195.2068639656709
  0
VERTEX
  8
0
  6
CONTINUOUS
 62
     7
 10
480.161766067839
 20
195.2220009397389
  0
VERTEX
  8
0
  6
CONTINUOUS
 62
     7
 10
480.1438213357333
 20
195.2379932931136
  0
VERTEX
  8
0
  6
CONTINUOUS
 62
     7
 10
480.1266720800483
 20
195.254804836477
  0
VERTEX
  8
0
  6
CONTINUOUS
 62
     7
 10
480.1103571080723
 20
195.2723975267549
  0
VERTEX
  8
0
  6
CONTINUOUS
 62
     7
 10
480.0949133391809
 20
195.2907315532049
  0
VERTEX
  8
0
  6
CONTINUOUS
 62
     7
 10
480.0803757212929
 20
195.3097654275048
  0
VERTEX
  8
0
  6
CONTINUOUS
 62
     7
 10
480.0667771517849
 20
195.3294560776369
  0
VERTEX
  8
0
  6
CONTINUOUS
 62
     7
 10
480.0541484030481
 20
195.3497589453563
  0
VERTEX
  8
0
  6
CONTINUOUS
 62
     7
 10
480.042518052853
 20
195.3706280870228
  0
VERTEX
  8
0
  6
CONTINUOUS
 62
     7
 10
480.0319124196798
 20
195.3920162775665
  0
VERTEX
  8
0
  6
CONTINUOUS
 62
     7
 10
480.0223555031629
 20
195.4138751173552
  0
VERTEX
  8
0
  6
CONTINUOUS
 62
     7
 10
480.0138689297808
 20
195.4361551417176
  0
VERTEX
  8
0
  6
CONTINUOUS
 62
     7
 10
480.0064719039181
 20
195.4588059328781
  0
VERTEX
  8
0
  6
CONTINUOUS
 62
     7
 10
480.0001811644068
 20
195.4817762340478
  0
VERTEX
  8
0
  6
CONTINUOUS
 62
     7
 10
479.9950109466486
 20
195.5050140654141
  0
VERTEX
  8
0
  6
CONTINUOUS
 62
     7
 10
479.9909729504007
 20
195.5284668417669
  0
VERTEX
  8
0
  6
CONTINUOUS
 62
     7
 10
479.9880763133008
 20
195.5520814914938
  0
VERTEX
  8
0
  6
CONTINUOUS
 62
     7
 10
479.9863275901892
 20
195.575804576677
  0
VERTEX
  8
0
  6
CONTINUOUS
 62
     7
 10
479.9857307382755
 20
195.5995824140186
  0
VERTEX
  8
0
  6
CONTINUOUS
 62
     7
 10
479.9862871081842
 20
195.6233611963212
  0
VERTEX
  8
0
  6
CONTINUOUS
 62
     7
 10
479.9879954408981
 20
195.6470871142494
  0
VERTEX
  8
0
  6
CONTINUOUS
 62
     7
 10
479.9908518706075
 20
195.6707064780947
  0
SEQEND
  8
0
  6
CONTINUOUS
 62
     7
  0
LINE
  8
0
  6
CONTINUOUS
 62
     7
 10
480.4953488244036
 20
195.1
 11
484.8
 21
195.1
  0
LINE
  8
0
  6
CONTINUOUS
 62
     7
 10
485.0071067811861
 20
195.1449101394376
 11
484.8
 21
195.1
  0
LINE
  8
0
  6
CONTINUOUS
 62
     9
 10
485.0071067811865
 20
192.9774457085057
 11
485.0071067811865
 21
195.1449101394365
  0
LINE
  8
0
  6
CONTINUOUS
 62
     9
 10
485.6210005757877
 20
191.1303368264651
 11
485.0071067811865
 21
192.9774457085057
  0
LINE
  8
0
  6
CONTINUOUS
 62
     9
 10
384.9928932188134
 20
195.1449101394365
 11
384.9928932188134
 21
192.9774457085057
  0
LINE
  8
0
  6
CONTINUOUS
 62
     7
 10
385.2
 20
195.1
 11
384.9928932188139
 21
195.1449101394376
  0
LINE
  8
0
  6
CONTINUOUS
 62
     7
 10
389.5046511755963
 20
195.1
 11
385.2
 21
195.1
  0
POLYLINE
  8
0
  6
CONTINUOUS
 62
     7
 66
     1
  0
VERTEX
  8
0
  6
CONTINUOUS
 62
     7
 10
390.0091481293925
 20
195.6707064780947
  0
VERTEX
  8
0
  6
CONTINUOUS
 62
     7
 10
390.0120045591019
 20
195.6470871142494
  0
VERTEX
  8
0
  6
CONTINUOUS
 62
     7
 10
390.0137128918158
 20
195.6233611963212
  0
VERTEX
  8
0
  6
CONTINUOUS
 62
     7
 10
390.0142692617245
 20
195.5995824140186
  0
VERTEX
  8
0
  6
CONTINUOUS
 62
     7
 10
390.0136724098107
 20
195.575804576677
  0
VERTEX
  8
0
  6
CONTINUOUS
 62
     7
 10
390.011923686699
 20
195.5520814914938
  0
VERTEX
  8
0
  6
CONTINUOUS
 62
     7
 10
390.0090270495993
 20
195.5284668417669
  0
VERTEX
  8
0
  6
CONTINUOUS
 62
     7
 10
390.0049890533514
 20
195.5050140654141
  0
VERTEX
  8
0
  6
CONTINUOUS
 62
     7
 10
389.9998188355932
 20
195.4817762340477
  0
VERTEX
  8
0
  6
CONTINUOUS
 62
     7
 10
389.9935280960819
 20
195.4588059328781
  0
VERTEX
  8
0
  6
CONTINUOUS
 62
     7
 10
389.9861310702191
 20
195.4361551417176
  0
VERTEX
  8
0
  6
CONTINUOUS
 62
     7
 10
389.9776444968371
 20
195.4138751173552
  0
VERTEX
  8
0
  6
CONTINUOUS
 62
     7
 10
389.9680875803201
 20
195.3920162775665
  0
VERTEX
  8
0
  6
CONTINUOUS
 62
     7
 10
389.957481947147
 20
195.3706280870227
  0
VERTEX
  8
0
  6
CONTINUOUS
 62
     7
 10
389.9458515969518
 20
195.3497589453563
  0
VERTEX
  8
0
  6
CONTINUOUS
 62
     7
 10
389.933222848215
 20
195.3294560776368
  0
VERTEX
  8
0
  6
CONTINUOUS
 62
     7
 10
389.919624278707
 20
195.3097654275048
  0
VERTEX
  8
0
  6
CONTINUOUS
 62
     7
 10
389.905086660819
 20
195.2907315532049
  0
VERTEX
  8
0
  6
CONTINUOUS
 62
     7
 10
389.8896428919277
 20
195.2723975267549
  0
VERTEX
  8
0
  6
CONTINUOUS
 62
     7
 10
389.8733279199516
 20
195.254804836477
  0
VERTEX
  8
0
  6
CONTINUOUS
 62
     7
 10
389.8561786642667
 20
195.2379932931136
  0
VERTEX
  8
0
  6
CONTINUOUS
 62
     7
 10
389.8382339321609
 20
195.2220009397389
  0
VERTEX
  8
0
  6
CONTINUOUS
 62
     7
 10
389.8195343310172
 20
195.2068639656709
  0
VERTEX
  8
0
  6
CONTINUOUS
 62
     7
 10
389.8001221764217
 20
195.1926166245775
  0
VERTEX
  8
0
  6
CONTINUOUS
 62
     7
 10
389.7800413964079
 20
195.1792911569644
  0
VERTEX
  8
0
  6
CONTINUOUS
 62
     7
 10
389.7593374320508
 20
195.1669177172166
  0
VERTEX
  8
0
  6
CONTINUOUS
 62
     7
 10
389.738057134638
 20
195.1555243053621
  0
VERTEX
  8
0
  6
CONTINUOUS
 62
     7
 10
389.7162486596492
 20
195.1451367037106
  0
VERTEX
  8
0
  6
CONTINUOUS
 62
     7
 10
389.6939613577843
 20
195.1357784185094
  0
VERTEX
  8
0
  6
CONTINUOUS
 62
     7
 10
389.6712456632873
 20
195.1274706267519
  0
VERTEX
  8
0
  6
CONTINUOUS
 62
     7
 10
389.6481529798177
 20
195.1202321282548
  0
VERTEX
  8
0
  6
CONTINUOUS
 62
     7
 10
389.6247355641287
 20
195.1140793031168
  0
VERTEX
  8
0
  6
CONTINUOUS
 62
     7
 10
389.6010464078144
 20
195.109026074651
  0
VERTEX
  8
0
  6
CONTINUOUS
 62
     7
 10
389.5771391173945
 20
195.105083877878
  0
VERTEX
  8
0
  6
CONTINUOUS
 62
     7
 10
389.5530677930076
 20
195.1022616336495
  0
VERTEX
  8
0
  6
CONTINUOUS
 62
     7
 10
389.5288869059869
 20
195.1005657284611
  0
VERTEX
  8
0
  6
CONTINUOUS
 62
     7
 10
389.5046511755963
 20
195.1
  0
SEQEND
  8
0
  6
CONTINUOUS
 62
     7
  0
LINE
  8
0
  6
CONTINUOUS
 62
     9
 10
384.9928932188134
 20
192.9774457085057
 11
384.3789994242123
 21
191.1303368264651
  0
POLYLINE
  8
0
  6
CONTINUOUS
 62
     7
 66
     1
  0
VERTEX
  8
0
  6
CONTINUOUS
 62
     7
 10
389.5046511755963
 20
214.9
  0
VERTEX
  8
0
  6
CONTINUOUS
 62
     7
 10
389.5288869059869
 20
214.899434271539
  0
VERTEX
  8
0
  6
CONTINUOUS
 62
     7
 10
389.5530677930076
 20
214.8977383663505
  0
VERTEX
  8
0
  6
CONTINUOUS
 62
     7
 10
389.5771391173945
 20
214.894916122122
  0
VERTEX
  8
0
  6
CONTINUOUS
 62
     7
 10
389.6010464078144
 20
214.890973925349
  0
VERTEX
  8
0
  6
CONTINUOUS
 62
     7
 10
389.6247355641287
 20
214.8859206968832
  0
VERTEX
  8
0
  6
CONTINUOUS
 62
     7
 10
389.6481529798177
 20
214.8797678717452
  0
VERTEX
  8
0
  6
CONTINUOUS
 62
     7
 10
389.6712456632873
 20
214.8725293732482
  0
VERTEX
  8
0
  6
CONTINUOUS
 62
     7
 10
389.6939613577843
 20
214.8642215814906
  0
VERTEX
  8
0
  6
CONTINUOUS
 62
     7
 10
389.7162486596492
 20
214.8548632962894
  0
VERTEX
  8
0
  6
CONTINUOUS
 62
     7
 10
389.738057134638
 20
214.8444756946379
  0
VERTEX
  8
0
  6
CONTINUOUS
 62
     7
 10
389.7593374320508
 20
214.8330822827835
  0
VERTEX
  8
0
  6
CONTINUOUS
 62
     7
 10
389.7800413964079
 20
214.8207088430356
  0
VERTEX
  8
0
  6
CONTINUOUS
 62
     7
 10
389.8001221764217
 20
214.8073833754225
  0
VERTEX
  8
0
  6
CONTINUOUS
 62
     7
 10
389.8195343310172
 20
214.7931360343292
  0
VERTEX
  8
0
  6
CONTINUOUS
 62
     7
 10
389.8382339321609
 20
214.7779990602611
  0
VERTEX
  8
0
  6
CONTINUOUS
 62
     7
 10
389.8561786642667
 20
214.7620067068864
  0
VERTEX
  8
0
  6
CONTINUOUS
 62
     7
 10
389.8733279199516
 20
214.745195163523
  0
VERTEX
  8
0
  6
CONTINUOUS
 62
     7
 10
389.8896428919277
 20
214.7276024732451
  0
VERTEX
  8
0
  6
CONTINUOUS
 62
     7
 10
389.905086660819
 20
214.7092684467951
  0
VERTEX
  8
0
  6
CONTINUOUS
 62
     7
 10
389.919624278707
 20
214.6902345724953
  0
VERTEX
  8
0
  6
CONTINUOUS
 62
     7
 10
389.933222848215
 20
214.6705439223632
  0
VERTEX
  8
0
  6
CONTINUOUS
 62
     7
 10
389.9458515969518
 20
214.6502410546437
  0
VERTEX
  8
0
  6
CONTINUOUS
 62
     7
 10
389.957481947147
 20
214.6293719129773
  0
VERTEX
  8
0
  6
CONTINUOUS
 62
     7
 10
389.9680875803201
 20
214.6079837224335
  0
VERTEX
  8
0
  6
CONTINUOUS
 62
     7
 10
389.9776444968371
 20
214.5861248826448
  0
VERTEX
  8
0
  6
CONTINUOUS
 62
     7
 10
389.9861310702191
 20
214.5638448582824
  0
VERTEX
  8
0
  6
CONTINUOUS
 62
     7
 10
389.9935280960819
 20
214.5411940671219
  0
VERTEX
  8
0
  6
CONTINUOUS
 62
     7
 10
389.9998188355932
 20
214.5182237659523
  0
VERTEX
  8
0
  6
CONTINUOUS
 62
     7
 10
390.0049890533514
 20
214.4949859345859
  0
VERTEX
  8
0
  6
CONTINUOUS
 62
     7
 10
390.0090270495993
 20
214.4715331582331
  0
VERTEX
  8
0
  6
CONTINUOUS
 62
     7
 10
390.011923686699
 20
214.4479185085062
  0
VERTEX
  8
0
  6
CONTINUOUS
 62
     7
 10
390.0136724098107
 20
214.424195423323
  0
VERTEX
  8
0
  6
CONTINUOUS
 62
     7
 10
390.0142692617245
 20
214.4004175859814
  0
VERTEX
  8
0
  6
CONTINUOUS
 62
     7
 10
390.0137128918158
 20
214.3766388036788
  0
VERTEX
  8
0
  6
CONTINUOUS
 62
     7
 10
390.0120045591019
 20
214.3529128857507
  0
VERTEX
  8
0
  6
CONTINUOUS
 62
     7
 10
390.0091481293925
 20
214.3292935219053
  0
SEQEND
  8
0
  6
CONTINUOUS
 62
     7
  0
LINE
  8
0
  6
CONTINUOUS
 62
     7
 10
389.5046511755963
 20
214.9
 11
385.2
 21
214.9
  0
LINE
  8
0
  6
CONTINUOUS
 62
     7
 10
384.9928932188139
 20
214.8550898605625
 11
385.2
 21
214.9
  0
LINE
  8
0
  6
CONTINUOUS
 62
     9
 10
384.9928932188134
 20
217.0225542914943
 11
384.9928932188134
 21
214.8550898605635
  0
LINE
  8
0
  6
CONTINUOUS
 62
     9
 10
384.3789994242123
 20
218.8696631735349
 11
384.9928932188134
 21
217.0225542914943
  0
ARC
  8
0
  6
CONTINUOUS
 62
     7
 10
489.0
 20
206.75
 40
2.500000000000002
 50
0.0
 51
180.0
  0
LINE
  8
0
  6
CONTINUOUS
 62
     7
 10
486.5
 20
203.25
 11
486.5
 21
206.75
  0
ARC
  8
0
  6
CONTINUOUS
 62
     7
 10
489.0
 20
203.25
 40
2.500000000000002
 50
180.0000000000001
 51
0.0
  0
LINE
  8
0
  6
CONTINUOUS
 62
     7
 10
491.5
 20
206.75
 11
491.5
 21
203.25
  0
ARC
  8
0
  6
CONTINUOUS
 62
     7
 10
381.0
 20
206.75
 40
2.500000000000002
 50
0.0
 51
180.0000000000001
  0
LINE
  8
0
  6
CONTINUOUS
 62
     7
 10
378.5
 20
203.25
 11
378.5
 21
206.75
  0
ARC
  8
0
  6
CONTINUOUS
 62
     7
 10
381.0
 20
203.25
 40
2.500000000000002
 50
180.0
 51
0.0
  0
LINE
  8
0
  6
CONTINUOUS
 62
     7
 10
383.5
 20
206.75
 11
383.5
 21
203.25
  0
LINE
  8
0
  6
CONTINUOUS
 62
     7
 10
500.0071160173308
 20
194.8073398080683
 11
495.5921224004459
 21
190.3928505258706
  0
LINE
  8
0
  6
CONTINUOUS
 62
     7
 10
374.4078775995541
 20
190.3928505258706
 11
369.9928839826691
 21
194.8073398080683
  0
LINE
  8
0
  6
CONTINUOUS
 62
     7
 10
369.9928839826691
 20
215.1926601919317
 11
374.4078775995541
 21
219.6071494741294
  0
LINE
  8
0
  6
CONTINUOUS
 62
     7
 10
495.592122400446
 20
219.6071494741294
 11
500.0071160173308
 21
215.1926601919317
  0
LINE
  8
0
  6
CONTINUOUS
 62
     7
 10
369.7
 20
195.5143750557398
 11
369.7
 21
214.4856249442602
  0
LINE
  8
0
  6
CONTINUOUS
 62
     7
 10
500.3
 20
195.5143750557398
 11
500.3
 21
214.4856249442602
  0
POLYLINE
  8
0
  6
CONTINUOUS
 62
     7
 66
     1
  0
VERTEX
  8
0
  6
CONTINUOUS
 62
     7
 10
494.8850063773148
 20
190.1
  0
VERTEX
  8
0
  6
CONTINUOUS
 62
     7
 10
495.0801048140697
 20
190.1192117372899
  0
VERTEX
  8
0
  6
CONTINUOUS
 62
     7
 10
495.2677013239107
 20
190.1761087955678
  0
VERTEX
  8
0
  6
CONTINUOUS
 62
     7
 10
495.4405880715736
 20
190.2685050754045
  0
VERTEX
  8
0
  6
CONTINUOUS
 62
     7
 10
495.5921224004459
 20
190.3928505258707
  0
SEQEND
  8
0
  6
CONTINUOUS
 62
     7
  0
POLYLINE
  8
0
  6
CONTINUOUS
 62
     7
 66
     1
  0
VERTEX
  8
0
  6
CONTINUOUS
 62
     7
 10
374.407877599554
 20
190.3928505258706
  0
VERTEX
  8
0
  6
CONTINUOUS
 62
     7
 10
374.5594119284264
 20
190.2685050754045
  0
VERTEX
  8
0
  6
CONTINUOUS
 62
     7
 10
374.7322986760892
 20
190.1761087955678
  0
VERTEX
  8
0
  6
CONTINUOUS
 62
     7
 10
374.9198951859303
 20
190.1192117372899
  0
VERTEX
  8
0
  6
CONTINUOUS
 62
     7
 10
375.1149936226851
 20
190.1
  0
SEQEND
  8
0
  6
CONTINUOUS
 62
     7
  0
POLYLINE
  8
0
  6
CONTINUOUS
 62
     7
 66
     1
  0
VERTEX
  8
0
  6
CONTINUOUS
 62
     7
 10
375.1149936226851
 20
219.9
  0
VERTEX
  8
0
  6
CONTINUOUS
 62
     7
 10
374.9198951859303
 20
219.8807882627102
  0
VERTEX
  8
0
  6
CONTINUOUS
 62
     7
 10
374.7322986760893
 20
219.8238912044322
  0
VERTEX
  8
0
  6
CONTINUOUS
 62
     7
 10
374.5594119284264
 20
219.7314949245955
  0
VERTEX
  8
0
  6
CONTINUOUS
 62
     7
 10
374.4078775995541
 20
219.6071494741294
  0
SEQEND
  8
0
  6
CONTINUOUS
 62
     7
  0
POLYLINE
  8
0
  6
CONTINUOUS
 62
     7
 66
     1
  0
VERTEX
  8
0
  6
CONTINUOUS
 62
     7
 10
495.5921224004459
 20
219.6071494741293
  0
VERTEX
  8
0
  6
CONTINUOUS
 62
     7
 10
495.4405880715735
 20
219.7314949245954
  0
VERTEX
  8
0
  6
CONTINUOUS
 62
     7
 10
495.2677013239107
 20
219.8238912044321
  0
VERTEX
  8
0
  6
CONTINUOUS
 62
     7
 10
495.0801048140697
 20
219.8807882627101
  0
VERTEX
  8
0
  6
CONTINUOUS
 62
     7
 10
494.8850063773148
 20
219.8999999999999
  0
SEQEND
  8
0
  6
CONTINUOUS
 62
     7
  0
POLYLINE
  8
0
  6
CONTINUOUS
 62
     7
 66
     1
  0
VERTEX
  8
0
  6
CONTINUOUS
 62
     7
 10
369.7
 20
195.5143750557398
  0
VERTEX
  8
0
  6
CONTINUOUS
 62
     7
 10
369.7192139321407
 20
195.3192989055198
  0
VERTEX
  8
0
  6
CONTINUOUS
 62
     7
 10
369.7761174906406
 20
195.1317238252516
  0
VERTEX
  8
0
  6
CONTINUOUS
 62
     7
 10
369.8685243263188
 20
194.9588568268322
  0
VERTEX
  8
0
  6
CONTINUOUS
 62
     7
 10
369.9928839826691
 20
194.8073398080683
  0
SEQEND
  8
0
  6
CONTINUOUS
 62
     7
  0
POLYLINE
  8
0
  6
CONTINUOUS
 62
     7
 66
     1
  0
VERTEX
  8
0
  6
CONTINUOUS
 62
     7
 10
500.0071160173308
 20
194.8073398080683
  0
VERTEX
  8
0
  6
CONTINUOUS
 62
     7
 10
500.1314756736812
 20
194.9588568268322
  0
VERTEX
  8
0
  6
CONTINUOUS
 62
     7
 10
500.2238825093593
 20
195.1317238252516
  0
VERTEX
  8
0
  6
CONTINUOUS
 62
     7
 10
500.2807860678593
 20
195.3192989055199
  0
VERTEX
  8
0
  6
CONTINUOUS
 62
     7
 10
500.3
 20
195.5143750557398
  0
SEQEND
  8
0
  6
CONTINUOUS
 62
     7
  0
POLYLINE
  8
0
  6
CONTINUOUS
 62
     7
 66
     1
  0
VERTEX
  8
0
  6
CONTINUOUS
 62
     7
 10
500.3
 20
214.4856249442602
  0
VERTEX
  8
0
  6
CONTINUOUS
 62
     7
 10
500.2807860678593
 20
214.6807010944802
  0
VERTEX
  8
0
  6
CONTINUOUS
 62
     7
 10
500.2238825093594
 20
214.8682761747484
  0
VERTEX
  8
0
  6
CONTINUOUS
 62
     7
 10
500.1314756736812
 20
215.0411431731678
  0
VERTEX
  8
0
  6
CONTINUOUS
 62
     7
 10
500.0071160173309
 20
215.1926601919316
  0
SEQEND
  8
0
  6
CONTINUOUS
 62
     7
  0
POLYLINE
  8
0
  6
CONTINUOUS
 62
     7
 66
     1
  0
VERTEX
  8
0
  6
CONTINUOUS
 62
     7
 10
369.9928839826691
 20
215.1926601919317
  0
VERTEX
  8
0
  6
CONTINUOUS
 62
     7
 10
369.8685243263187
 20
215.0411431731678
  0
VERTEX
  8
0
  6
CONTINUOUS
 62
     7
 10
369.7761174906406
 20
214.8682761747484
  0
VERTEX
  8
0
  6
CONTINUOUS
 62
     7
 10
369.7192139321406
 20
214.6807010944802
  0
VERTEX
  8
0
  6
CONTINUOUS
 62
     7
 10
369.6999999999999
 20
214.4856249442602
  0
SEQEND
  8
0
  6
CONTINUOUS
 62
     7
  0
ENDBLK
  8
0
  0
BLOCK
  8
0
  2
D_FRAME_VIEW_2118
 70
     0
 10
0.0
 20
0.0
  0
LINE
  8
0
  6
CONTINUOUS
 62
     7
 10
585.5143750557397
 20
63.3755749778756
 11
584.8073398080683
 21
63.3755749778756
  0
LINE
  8
0
  6
CONTINUOUS
 62
     7
 10
585.5143750557397
 20
63.3755749778756
 11
604.4856249442602
 21
63.3755749778756
  0
LINE
  8
0
  6
CONTINUOUS
 62
     7
 10
605.1926601919316
 20
63.3755749778756
 11
604.4856249442602
 21
63.3755749778756
  0
LINE
  8
0
  6
CONTINUOUS
 62
     7
 10
584.8073398080683
 20
63.3755749778756
 11
580.3928505258706
 21
63.3755749778756
  0
LINE
  8
0
  6
CONTINUOUS
 62
     7
 10
609.6071494741293
 20
63.3755749778756
 11
605.1926601919316
 21
63.3755749778756
  0
LINE
  8
0
  6
CONTINUOUS
 62
     7
 10
586.5824953594043
 20
67.8755749778756
 11
603.4175046405957
 21
67.8755749778756
  0
LINE
  8
0
  6
CONTINUOUS
 62
     7
 10
583.6247464947164
 20
67.8755749778756
 11
586.5824953594043
 21
67.8755749778756
  0
LINE
  8
0
  6
CONTINUOUS
 62
     7
 10
603.4175046405957
 20
67.8755749778756
 11
606.3752535052836
 21
67.8755749778756
  0
LINE
  8
0
  6
CONTINUOUS
 62
     7
 10
609.8758412711659
 20
66.14389110381715
 11
609.9
 21
63.3755749778756
  0
LINE
  8
0
  6
CONTINUOUS
 62
     7
 10
609.9
 20
63.3755749778756
 11
609.6071494741293
 21
63.3755749778756
  0
LINE
  8
0
  6
CONTINUOUS
 62
     7
 10
580.0999999999999
 20
63.3755749778756
 11
580.124158728834
 21
66.14389110381715
  0
LINE
  8
0
  6
CONTINUOUS
 62
     7
 10
580.3928505258706
 20
63.3755749778756
 11
580.0999999999999
 21
63.3755749778756
  0
LINE
  8
0
  6
CONTINUOUS
 62
     7
 10
580.8088773050694
 20
67.10105963450776
 11
582.6785731303127
 21
67.72246028720807
  0
LINE
  8
0
  6
CONTINUOUS
 62
     7
 10
607.3214268696872
 20
67.72246028720807
 11
609.1911226949305
 21
67.10105963450776
  0
LINE
  8
0
  6
CONTINUOUS
 62
     7
 10
609.8756934965268
 20
66.16082440022866
 11
609.8758412711659
 21
66.14389110381714
  0
ARC
  8
0
  6
CONTINUOUS
 62
     7
 10
608.8757315734626
 20
66.1520978647303
 40
1.000000000000003
 50
0.500000000000058
 51
71.61557295200086
  0
LINE
  8
0
  6
CONTINUOUS
 62
     7
 10
580.124158728834
 20
66.14389110381715
 11
580.1243065034731
 21
66.16082440022866
  0
ARC
  8
0
  6
CONTINUOUS
 62
     7
 10
581.1242684265372
 20
66.1520978647303
 40
1.000000000000003
 50
108.3844270479988
 51
179.5
  0
ARC
  8
0
  6
CONTINUOUS
 62
     7
 10
583.6247464947164
 20
64.8755749778756
 40
3.000000000000003
 50
90.00000000000006
 51
108.3844270479987
  0
ARC
  8
0
  6
CONTINUOUS
 62
     7
 10
606.3752535052836
 20
64.8755749778756
 40
3.000000000000003
 50
71.61557295200156
 51
89.99999999999977
  0
LINE
  8
0
  6
CONTINUOUS
 62
     7
 10
609.8756934965268
 20
66.16082440022866
 11
609.8696250965991
 21
66.85619415639974
  0
LINE
  8
0
  6
CONTINUOUS
 62
     9
 10
607.2933461633899
 20
67.73310041412552
 11
607.3214268696872
 21
67.72246028720805
  0
LINE
  8
0
  6
CONTINUOUS
 62
     9
 10
582.6785731303127
 20
67.72246028720805
 11
582.70665383661
 21
67.73310041412552
  0
LINE
  8
0
  6
CONTINUOUS
 62
     7
 10
580.1303749034009
 20
66.85619415639974
 11
580.1243065034731
 21
66.16082440022866
  0
LINE
  8
0
  6
CONTINUOUS
 62
     7
 10
606.3909884849337
 20
67.8755749778756
 11
606.3752535052836
 21
67.8755749778756
  0
LINE
  8
0
  6
CONTINUOUS
 62
     7
 10
583.6247464947164
 20
67.8755749778756
 11
583.6090115150663
 21
67.8755749778756
  0
POLYLINE
  8
0
  6
CONTINUOUS
 62
     7
 66
     1
  0
VERTEX
  8
0
  6
CONTINUOUS
 62
     7
 10
604.8550898605635
 20
68.16846819668905
  0
VERTEX
  8
0
  6
CONTINUOUS
 62
     7
 10
604.8426656957828
 20
68.14309482711177
  0
VERTEX
  8
0
  6
CONTINUOUS
 62
     7
 10
604.8291253306774
 20
68.11895960310028
  0
VERTEX
  8
0
  6
CONTINUOUS
 62
     7
 10
604.8144550794877
 20
68.09588410288588
  0
VERTEX
  8
0
  6
CONTINUOUS
 62
     7
 10
604.798855760238
 20
68.07405535575012
  0
VERTEX
  8
0
  6
CONTINUOUS
 62
     7
 10
604.7820591089088
 20
68.05303681953465
  0
VERTEX
  8
0
  6
CONTINUOUS
 62
     7
 10
604.7644728795523
 20
68.03328924917676
  0
VERTEX
  8
0
  6
CONTINUOUS
 62
     7
 10
604.746068148883
 20
68.01469151916373
  0
VERTEX
  8
0
  6
CONTINUOUS
 62
     7
 10
604.7270163217709
 20
67.99734181526763
  0
VERTEX
  8
0
  6
CONTINUOUS
 62
     7
 10
604.7006204350705
 20
67.9760409328282
  0
VERTEX
  8
0
  6
CONTINUOUS
 62
     7
 10
604.6733243282665
 20
67.95689393987927
  0
VERTEX
  8
0
  6
CONTINUOUS
 62
     7
 10
604.6450413240843
 20
67.9397369094656
  0
VERTEX
  8
0
  6
CONTINUOUS
 62
     7
 10
604.6160885713721
 20
67.9246806118402
  0
VERTEX
  8
0
  6
CONTINUOUS
 62
     7
 10
604.5859448652823
 20
67.91143647192762
  0
VERTEX
  8
0
  6
CONTINUOUS
 62
     7
 10
604.5553133753026
 20
67.90030899397597
  0
VERTEX
  8
0
  6
CONTINUOUS
 62
     7
 10
604.5240960527843
 20
67.89121954000909
  0
VERTEX
  8
0
  6
CONTINUOUS
 62
     7
 10
604.4925680522256
 20
67.88421853321708
  0
VERTEX
  8
0
  6
CONTINUOUS
 62
     7
 10
604.4482827460375
 20
67.87791166153103
  0
VERTEX
  8
0
  6
CONTINUOUS
 62
     7
 10
604.4036514756023
 20
67.87558831132745
  0
VERTEX
  8
0
  6
CONTINUOUS
 62
     7
 10
604.4
 20
67.8755749778756
  0
SEQEND
  8
0
  6
CONTINUOUS
 62
     7
  0
POLYLINE
  8
0
  6
CONTINUOUS
 62
     7
 66
     1
  0
VERTEX
  8
0
  6
CONTINUOUS
 62
     7
 10
585.6
 20
67.8755749778756
  0
VERTEX
  8
0
  6
CONTINUOUS
 62
     7
 10
585.5963485243976
 20
67.87558831132745
  0
VERTEX
  8
0
  6
CONTINUOUS
 62
     7
 10
585.5517769706524
 20
67.87790586172305
  0
VERTEX
  8
0
  6
CONTINUOUS
 62
     7
 10
585.5074319477743
 20
67.88421853321708
  0
VERTEX
  8
0
  6
CONTINUOUS
 62
     7
 10
585.4769349581617
 20
67.89095657595783
  0
VERTEX
  8
0
  6
CONTINUOUS
 62
     7
 10
585.4466203537053
 20
67.89968138453787
  0
VERTEX
  8
0
  6
CONTINUOUS
 62
     7
 10
585.4166764423229
 20
67.91039493402096
  0
VERTEX
  8
0
  6
CONTINUOUS
 62
     7
 10
585.3868213466492
 20
67.92329749763167
  0
VERTEX
  8
0
  6
CONTINUOUS
 62
     7
 10
585.3575322970054
 20
67.93829999230641
  0
VERTEX
  8
0
  6
CONTINUOUS
 62
     7
 10
585.3285338633799
 20
67.95568662111829
  0
VERTEX
  8
0
  6
CONTINUOUS
 62
     7
 10
585.3003495609092
 20
67.97531304569527
  0
VERTEX
  8
0
  6
CONTINUOUS
 62
     7
 10
585.2729836782291
 20
67.99734181526763
  0
VERTEX
  8
0
  6
CONTINUOUS
 62
     7
 10
585.254536288244
 20
68.01411291366995
  0
VERTEX
  8
0
  6
CONTINUOUS
 62
     7
 10
585.2366366079584
 20
68.03211162555851
  0
VERTEX
  8
0
  6
CONTINUOUS
 62
     7
 10
585.2194106613645
 20
68.0513038639647
  0
VERTEX
  8
0
  6
CONTINUOUS
 62
     7
 10
585.2027356006042
 20
68.07196171528157
  0
VERTEX
  8
0
  6
CONTINUOUS
 62
     7
 10
585.1869075359106
 20
68.0938754640092
  0
VERTEX
  8
0
  6
CONTINUOUS
 62
     7
 10
585.1718238937142
 20
68.11737893773262
  0
VERTEX
  8
0
  6
CONTINUOUS
 62
     7
 10
585.1578078826716
 20
68.1421951771801
  0
VERTEX
  8
0
  6
CONTINUOUS
 62
     7
 10
585.1449101394364
 20
68.16846819668905
  0
SEQEND
  8
0
  6
CONTINUOUS
 62
     7
  0
LINE
  8
0
  6
CONTINUOUS
 62
     7
 10
608.9501779014943
 20
73.84422411376735
 11
608.8148302850038
 21
73.83780108155345
  0
ARC
  8
0
  6
CONTINUOUS
 62
     7
 10
608.8831828920083
 20
72.05987154759414
 40
1.785609815078628
 50
68.58297178040596
 51
87.84979203328561
  0
POLYLINE
  8
0
  6
CONTINUOUS
 62
     7
 66
     1
  0
VERTEX
  8
0
  6
CONTINUOUS
 62
     7
 10
609.5352045238516
 20
73.72218024435108
  0
VERTEX
  8
0
  6
CONTINUOUS
 62
     7
 10
609.6464331772252
 20
73.6642235262083
  0
VERTEX
  8
0
  6
CONTINUOUS
 62
     7
 10
609.7311257409073
 20
73.59868367800789
  0
VERTEX
  8
0
  6
CONTINUOUS
 62
     7
 10
609.7956582920282
 20
73.50928895459347
  0
VERTEX
  8
0
  6
CONTINUOUS
 62
     7
 10
609.8122164837025
 20
73.43456961400688
  0
SEQEND
  8
0
  6
CONTINUOUS
 62
     7
  0
LINE
  8
0
  6
CONTINUOUS
 62
     7
 10
609.8122164837025
 20
73.43456961400685
 11
609.8696250965991
 21
66.85619415639974
  0
POLYLINE
  8
0
  6
CONTINUOUS
 62
     7
 66
     1
  0
VERTEX
  8
0
  6
CONTINUOUS
 62
     7
 10
580.1877835162974
 20
73.43456961400683
  0
VERTEX
  8
0
  6
CONTINUOUS
 62
     7
 10
580.224424174011
 20
73.54579931855807
  0
VERTEX
  8
0
  6
CONTINUOUS
 62
     7
 10
580.3077142171826
 20
73.6322760967841
  0
VERTEX
  8
0
  6
CONTINUOUS
 62
     7
 10
580.4060666931964
 20
73.69427138887953
  0
SEQEND
  8
0
  6
CONTINUOUS
 62
     7
  0
ARC
  8
0
  6
CONTINUOUS
 62
     7
 10
581.1012315374501
 20
72.16670524790038
 40
1.678306430826088
 50
91.7553437529026
 51
114.4693338762358
  0
LINE
  8
0
  6
CONTINUOUS
 62
     7
 10
581.185169714996
 20
73.83780108155342
 11
581.0498220985056
 21
73.84422411376732
  0
LINE
  8
0
  6
CONTINUOUS
 62
     7
 10
580.1303749034009
 20
66.85619415639974
 11
580.1877835162974
 21
73.43456961400683
  0
LINE
  8
0
  6
CONTINUOUS
 62
     7
 10
604.9
 20
72.68022615347196
 11
604.9
 21
68.3755749778756
  0
POLYLINE
  8
0
  6
CONTINUOUS
 62
     7
 66
     1
  0
VERTEX
  8
0
  6
CONTINUOUS
 62
     7
 10
604.3292935219052
 20
73.18472310726811
  0
VERTEX
  8
0
  6
CONTINUOUS
 62
     7
 10
604.3529128857507
 20
73.18757953697748
  0
VERTEX
  8
0
  6
CONTINUOUS
 62
     7
 10
604.3766388036787
 20
73.18928786969138
  0
VERTEX
  8
0
  6
CONTINUOUS
 62
     7
 10
604.4004175859814
 20
73.18984423960005
  0
VERTEX
  8
0
  6
CONTINUOUS
 62
     7
 10
604.424195423323
 20
73.18924738768634
  0
VERTEX
  8
0
  6
CONTINUOUS
 62
     7
 10
604.4479185085062
 20
73.18749866457469
  0
VERTEX
  8
0
  6
CONTINUOUS
 62
     7
 10
604.4715331582331
 20
73.18460202747484
  0
VERTEX
  8
0
  6
CONTINUOUS
 62
     7
 10
604.4949859345858
 20
73.180564031227
  0
VERTEX
  8
0
  6
CONTINUOUS
 62
     7
 10
604.5182237659521
 20
73.17539381346877
  0
VERTEX
  8
0
  6
CONTINUOUS
 62
     7
 10
604.5411940671219
 20
73.1691030739575
  0
VERTEX
  8
0
  6
CONTINUOUS
 62
     7
 10
604.5638448582824
 20
73.16170604809473
  0
VERTEX
  8
0
  6
CONTINUOUS
 62
     7
 10
604.5861248826448
 20
73.15321947471266
  0
VERTEX
  8
0
  6
CONTINUOUS
 62
     7
 10
604.6079837224333
 20
73.14366255819573
  0
VERTEX
  8
0
  6
CONTINUOUS
 62
     7
 10
604.6293719129773
 20
73.13305692502259
  0
VERTEX
  8
0
  6
CONTINUOUS
 62
     7
 10
604.6502410546437
 20
73.1214265748274
  0
VERTEX
  8
0
  6
CONTINUOUS
 62
     7
 10
604.6705439223631
 20
73.10879782609062
  0
VERTEX
  8
0
  6
CONTINUOUS
 62
     7
 10
604.6902345724951
 20
73.09519925658263
  0
VERTEX
  8
0
  6
CONTINUOUS
 62
     7
 10
604.709268446795
 20
73.0806616386946
  0
VERTEX
  8
0
  6
CONTINUOUS
 62
     7
 10
604.727602473245
 20
73.06521786980332
  0
VERTEX
  8
0
  6
CONTINUOUS
 62
     7
 10
604.745195163523
 20
73.04890289782722
  0
VERTEX
  8
0
  6
CONTINUOUS
 62
     7
 10
604.7620067068864
 20
73.03175364214226
  0
VERTEX
  8
0
  6
CONTINUOUS
 62
     7
 10
604.7779990602611
 20
73.01380891003654
  0
VERTEX
  8
0
  6
CONTINUOUS
 62
     7
 10
604.7931360343291
 20
72.9951093088928
  0
VERTEX
  8
0
  6
CONTINUOUS
 62
     7
 10
604.8073833754225
 20
72.97569715429731
  0
VERTEX
  8
0
  6
CONTINUOUS
 62
     7
 10
604.8207088430356
 20
72.95561637428348
  0
VERTEX
  8
0
  6
CONTINUOUS
 62
     7
 10
604.8330822827834
 20
72.93491240992638
  0
VERTEX
  8
0
  6
CONTINUOUS
 62
     7
 10
604.8444756946378
 20
72.91363211251362
  0
VERTEX
  8
0
  6
CONTINUOUS
 62
     7
 10
604.8548632962894
 20
72.89182363752482
  0
VERTEX
  8
0
  6
CONTINUOUS
 62
     7
 10
604.8642215814906
 20
72.86953633565993
  0
VERTEX
  8
0
  6
CONTINUOUS
 62
     7
 10
604.8725293732481
 20
72.8468206411629
  0
VERTEX
  8
0
  6
CONTINUOUS
 62
     7
 10
604.8797678717451
 20
72.82372795769332
  0
VERTEX
  8
0
  6
CONTINUOUS
 62
     7
 10
604.8859206968832
 20
72.80031054200427
  0
VERTEX
  8
0
  6
CONTINUOUS
 62
     7
 10
604.8909739253489
 20
72.77662138568994
  0
VERTEX
  8
0
  6
CONTINUOUS
 62
     7
 10
604.894916122122
 20
72.7527140952701
  0
VERTEX
  8
0
  6
CONTINUOUS
 62
     7
 10
604.8977383663505
 20
72.7286427708832
  0
VERTEX
  8
0
  6
CONTINUOUS
 62
     7
 10
604.8994342715389
 20
72.70446188386248
  0
VERTEX
  8
0
  6
CONTINUOUS
 62
     7
 10
604.9
 20
72.68022615347195
  0
SEQEND
  8
0
  6
CONTINUOUS
 62
     7
  0
LINE
  8
0
  6
CONTINUOUS
 62
     7
 10
608.8148302850038
 20
73.83780108155344
 11
604.3292935219052
 21
73.18472310726811
  0
LINE
  8
0
  6
CONTINUOUS
 62
     7
 10
604.9
 20
68.3755749778756
 11
604.8550898605624
 21
68.16846819668952
  0
POLYLINE
  8
0
  6
CONTINUOUS
 62
     7
 66
     1
  0
VERTEX
  8
0
  6
CONTINUOUS
 62
     7
 10
585.0999999999999
 20
72.68022615347196
  0
VERTEX
  8
0
  6
CONTINUOUS
 62
     7
 10
585.100565728461
 20
72.70446188386249
  0
VERTEX
  8
0
  6
CONTINUOUS
 62
     7
 10
585.1022616336495
 20
72.72864277088321
  0
VERTEX
  8
0
  6
CONTINUOUS
 62
     7
 10
585.105083877878
 20
72.7527140952701
  0
VERTEX
  8
0
  6
CONTINUOUS
 62
     7
 10
585.109026074651
 20
72.77662138568994
  0
VERTEX
  8
0
  6
CONTINUOUS
 62
     7
 10
585.1140793031168
 20
72.80031054200428
  0
VERTEX
  8
0
  6
CONTINUOUS
 62
     7
 10
585.1202321282548
 20
72.82372795769334
  0
VERTEX
  8
0
  6
CONTINUOUS
 62
     7
 10
585.1274706267518
 20
72.84682064116292
  0
VERTEX
  8
0
  6
CONTINUOUS
 62
     7
 10
585.1357784185094
 20
72.86953633565994
  0
VERTEX
  8
0
  6
CONTINUOUS
 62
     7
 10
585.1451367037106
 20
72.89182363752484
  0
VERTEX
  8
0
  6
CONTINUOUS
 62
     7
 10
585.1555243053621
 20
72.91363211251364
  0
VERTEX
  8
0
  6
CONTINUOUS
 62
     7
 10
585.1669177172165
 20
72.9349124099264
  0
VERTEX
  8
0
  6
CONTINUOUS
 62
     7
 10
585.1792911569643
 20
72.95561637428348
  0
VERTEX
  8
0
  6
CONTINUOUS
 62
     7
 10
585.1926166245776
 20
72.97569715429732
  0
VERTEX
  8
0
  6
CONTINUOUS
 62
     7
 10
585.2068639656708
 20
72.99510930889281
  0
VERTEX
  8
0
  6
CONTINUOUS
 62
     7
 10
585.2220009397389
 20
73.01380891003656
  0
VERTEX
  8
0
  6
CONTINUOUS
 62
     7
 10
585.2379932931135
 20
73.03175364214226
  0
VERTEX
  8
0
  6
CONTINUOUS
 62
     7
 10
585.254804836477
 20
73.04890289782723
  0
VERTEX
  8
0
  6
CONTINUOUS
 62
     7
 10
585.2723975267548
 20
73.06521786980332
  0
VERTEX
  8
0
  6
CONTINUOUS
 62
     7
 10
585.2907315532049
 20
73.08066163869461
  0
VERTEX
  8
0
  6
CONTINUOUS
 62
     7
 10
585.3097654275048
 20
73.09519925658263
  0
VERTEX
  8
0
  6
CONTINUOUS
 62
     7
 10
585.3294560776369
 20
73.10879782609062
  0
VERTEX
  8
0
  6
CONTINUOUS
 62
     7
 10
585.3497589453564
 20
73.1214265748274
  0
VERTEX
  8
0
  6
CONTINUOUS
 62
     7
 10
585.3706280870226
 20
73.13305692502259
  0
VERTEX
  8
0
  6
CONTINUOUS
 62
     7
 10
585.3920162775665
 20
73.14366255819573
  0
VERTEX
  8
0
  6
CONTINUOUS
 62
     7
 10
585.4138751173552
 20
73.15321947471266
  0
VERTEX
  8
0
  6
CONTINUOUS
 62
     7
 10
585.4361551417176
 20
73.16170604809473
  0
VERTEX
  8
0
  6
CONTINUOUS
 62
     7
 10
585.458805932878
 20
73.1691030739575
  0
VERTEX
  8
0
  6
CONTINUOUS
 62
     7
 10
585.4817762340477
 20
73.17539381346877
  0
VERTEX
  8
0
  6
CONTINUOUS
 62
     7
 10
585.5050140654141
 20
73.180564031227
  0
VERTEX
  8
0
  6
CONTINUOUS
 62
     7
 10
585.528466841767
 20
73.18460202747484
  0
VERTEX
  8
0
  6
CONTINUOUS
 62
     7
 10
585.5520814914937
 20
73.18749866457469
  0
VERTEX
  8
0
  6
CONTINUOUS
 62
     7
 10
585.5758045766769
 20
73.18924738768634
  0
VERTEX
  8
0
  6
CONTINUOUS
 62
     7
 10
585.5995824140185
 20
73.18984423960005
  0
VERTEX
  8
0
  6
CONTINUOUS
 62
     7
 10
585.6233611963212
 20
73.18928786969138
  0
VERTEX
  8
0
  6
CONTINUOUS
 62
     7
 10
585.6470871142493
 20
73.18757953697748
  0
VERTEX
  8
0
  6
CONTINUOUS
 62
     7
 10
585.6707064780948
 20
73.18472310726811
  0
SEQEND
  8
0
  6
CONTINUOUS
 62
     7
  0
LINE
  8
0
  6
CONTINUOUS
 62
     7
 10
585.0999999999999
 20
72.68022615347196
 11
585.0999999999999
 21
68.3755749778756
  0
LINE
  8
0
  6
CONTINUOUS
 62
     7
 10
585.6707064780948
 20
73.18472310726811
 11
581.1851697149962
 21
73.83780108155344
  0
LINE
  8
0
  6
CONTINUOUS
 62
     7
 10
585.1449101394376
 20
68.16846819668952
 11
585.0999999999999
 21
68.3755749778756
  0
LINE
  8
0
  6
CONTINUOUS
 62
     7
 10
602.8561780030775
 20
68.36631961810689
 11
602.8917098387859
 21
67.8755749778756
  0
LINE
  8
0
  6
CONTINUOUS
 62
     7
 10
587.1438246540466
 20
68.36684877465696
 11
587.1438219969259
 21
68.36631962069926
  0
LINE
  8
0
  6
CONTINUOUS
 62
     7
 10
602.856178003074
 20
68.36631962069926
 11
602.8561753459533
 21
68.36684877465696
  0
LINE
  8
0
  6
CONTINUOUS
 62
     7
 10
587.1438219969225
 20
68.36631961810689
 11
587.1082901612141
 21
67.8755749778756
  0
LINE
  8
0
  6
CONTINUOUS
 62
     7
 10
602.8561753459534
 20
68.36684877465696
 11
602.3715681971897
 21
123.8973277945021
  0
LINE
  8
0
  6
CONTINUOUS
 62
     7
 10
602.371715691074
 20
123.9051824241578
 11
602.3715681971896
 21
123.8973277945021
  0
LINE
  8
0
  6
CONTINUOUS
 62
     9
 10
608.519397060622
 20
123.2068191708728
 11
602.3717156910741
 21
123.9051824241578
  0
LINE
  8
0
  6
CONTINUOUS
 62
     9
 10
587.628284308926
 20
123.9051824241578
 11
581.4806029393778
 21
123.2068191708728
  0
LINE
  8
0
  6
CONTINUOUS
 62
     7
 10
587.6284318028103
 20
123.8973277945021
 11
587.6282843089259
 21
123.9051824241578
  0
LINE
  8
0
  6
CONTINUOUS
 62
     7
 10
587.6284318028102
 20
123.8973277945021
 11
587.1438246540465
 21
68.36684877465696
  0
LINE
  8
0
  6
CONTINUOUS
 62
     9
 10
602.3715681971897
 20
123.8973277945021
 11
587.6284318028102
 21
123.8973277945021
  0
LINE
  8
0
  6
CONTINUOUS
 62
     7
 10
587.6362426399485
 20
124.8514930661213
 11
587.628284308926
 21
123.9051824241578
  0
LINE
  8
0
  6
CONTINUOUS
 62
     7
 10
602.3637573600514
 20
124.8514930661213
 11
602.3717156910741
 21
123.9051824241578
  0
LINE
  8
0
  6
CONTINUOUS
 62
     7
 10
587.6362426399484
 20
124.8514930661213
 11
587.6365236710175
 21
124.8535087508663
  0
LINE
  8
0
  6
CONTINUOUS
 62
     7
 10
602.3634763289824
 20
124.8535087508663
 11
602.3637573600515
 21
124.8514930661213
  0
POLYLINE
  8
0
  6
CONTINUOUS
 62
     9
 66
     1
  0
VERTEX
  8
0
  6
CONTINUOUS
 62
     9
 10
609.3779460274968
 20
123.197034981649
  0
VERTEX
  8
0
  6
CONTINUOUS
 62
     9
 10
609.3571582991602
 20
123.2003910491581
  0
VERTEX
  8
0
  6
CONTINUOUS
 62
     9
 10
609.2957198604524
 20
123.2032455037795
  0
VERTEX
  8
0
  6
CONTINUOUS
 62
     9
 10
609.1961813465834
 20
123.2054798419735
  0
VERTEX
  8
0
  6
CONTINUOUS
 62
     9
 10
609.0626751288103
 20
123.2070013045197
  0
VERTEX
  8
0
  6
CONTINUOUS
 62
     9
 10
608.9007437578053
 20
123.2077467274444
  0
VERTEX
  8
0
  6
CONTINUOUS
 62
     9
 10
608.717109863003
 20
123.2076851642912
  0
VERTEX
  8
0
  6
CONTINUOUS
 62
     9
 10
608.519397060622
 20
123.2068191708728
  0
SEQEND
  8
0
  6
CONTINUOUS
 62
     9
  0
LINE
  8
0
  6
CONTINUOUS
 62
     7
 10
609.3779460274968
 20
123.197034981649
 11
609.8122164837025
 21
73.43456961400685
  0
POLYLINE
  8
0
  6
CONTINUOUS
 62
     9
 66
     1
  0
VERTEX
  8
0
  6
CONTINUOUS
 62
     9
 10
581.4806029393781
 20
123.2068191708728
  0
VERTEX
  8
0
  6
CONTINUOUS
 62
     9
 10
581.2828901369971
 20
123.2076851642911
  0
VERTEX
  8
0
  6
CONTINUOUS
 62
     9
 10
581.0992562421948
 20
123.2077467274444
  0
VERTEX
  8
0
  6
CONTINUOUS
 62
     9
 10
580.93732487119
 20
123.2070013045197
  0
VERTEX
  8
0
  6
CONTINUOUS
 62
     9
 10
580.8038186534168
 20
123.2054798419734
  0
VERTEX
  8
0
  6
CONTINUOUS
 62
     9
 10
580.7042801395477
 20
123.2032455037795
  0
VERTEX
  8
0
  6
CONTINUOUS
 62
     9
 10
580.6428417008399
 20
123.2003910491581
  0
VERTEX
  8
0
  6
CONTINUOUS
 62
     9
 10
580.6220539725032
 20
123.197034981649
  0
SEQEND
  8
0
  6
CONTINUOUS
 62
     9
  0
LINE
  8
0
  6
CONTINUOUS
 62
     7
 10
580.1877835162974
 20
73.43456961400683
 11
580.6220539725031
 21
123.197034981649
  0
LINE
  8
0
  6
CONTINUOUS
 62
     7
 10
602.3634763289825
 20
124.8535087508663
 11
602.3482656923842
 21
126.5964750662801
  0
LINE
  8
0
  6
CONTINUOUS
 62
     7
 10
602.3482757026967
 20
126.5973624852345
 11
602.3482656923842
 21
126.5964750662801
  0
LINE
  8
0
  6
CONTINUOUS
 62
     7
 10
587.6517343076157
 20
126.5964750662801
 11
587.6517242973032
 21
126.5973624852345
  0
LINE
  8
0
  6
CONTINUOUS
 62
     7
 10
587.6517343076157
 20
126.5964750662801
 11
587.6365236710174
 21
124.8535087508663
  0
LINE
  8
0
  6
CONTINUOUS
 62
     7
 10
609.3642742149066
 20
124.7636695311881
 11
609.3779460274968
 21
123.197034981649
  0
LINE
  8
0
  6
CONTINUOUS
 62
     7
 10
580.6220539725031
 20
123.197034981649
 11
580.6357257850933
 21
124.7636695311881
  0
LINE
  8
0
  6
CONTINUOUS
 62
     7
 10
587.6523930121834
 20
126.6755724498419
 11
587.6517242973032
 21
126.5973624852345
  0
POLYLINE
  8
0
  6
CONTINUOUS
 62
     7
 10
0.0
 20
0.0
 30
0.0
 66
     1
 70
     8
  0
VERTEX
  8
0
  6
CONTINUOUS
 62
     7
 10
587.6523930121834
 20
126.6755724498419
 30
0.0
 70
    32
  0
VERTEX
  8
0
  6
CONTINUOUS
 62
     7
 10
587.652410731155
 20
126.6755749778756
 30
0.0
 70
    32
  0
SEQEND
  8
0
  6
CONTINUOUS
 62
     7
  0
LINE
  8
0
  6
CONTINUOUS
 62
     7
 10
587.652410731155
 20
126.6755749778756
 11
602.3475892688449
 21
126.6755749778756
  0
POLYLINE
  8
0
  6
CONTINUOUS
 62
     7
 10
0.0
 20
0.0
 30
0.0
 66
     1
 70
     8
  0
VERTEX
  8
0
  6
CONTINUOUS
 62
     7
 10
602.3475892688449
 20
126.6755749778756
 30
0.0
 70
    32
  0
VERTEX
  8
0
  6
CONTINUOUS
 62
     7
 10
602.3476069878166
 20
126.6755724498419
 30
0.0
 70
    32
  0
SEQEND
  8
0
  6
CONTINUOUS
 62
     7
  0
LINE
  8
0
  6
CONTINUOUS
 62
     7
 10
602.3482757026968
 20
126.5973624852345
 11
602.3476069878166
 21
126.6755724498419
  0
LINE
  8
0
  6
CONTINUOUS
 62
     7
 10
581.4948992210118
 20
125.7970591705051
 11
587.6523930121834
 21
126.6755724498419
  0
LINE
  8
0
  6
CONTINUOUS
 62
     7
 10
602.3476069878166
 20
126.6755724498419
 11
608.5051007789881
 21
125.7970591705051
  0
LINE
  8
0
  6
CONTINUOUS
 62
     9
 10
608.5055603480866
 20
125.7188790455293
 11
608.5051007789881
 21
125.7970591705051
  0
ARC
  8
0
  6
CONTINUOUS
 62
     7
 10
581.6361427383183
 20
124.8070842875818
 40
1.000000000000003
 50
98.11980961746154
 51
179.4999999999999
  0
LINE
  8
0
  6
CONTINUOUS
 62
     7
 10
580.6357257850933
 20
124.7636695311882
 11
580.6361808152541
 21
124.8158108230802
  0
ARC
  8
0
  6
CONTINUOUS
 62
     7
 10
608.3638572616816
 20
124.8070842875818
 40
0.9999999999999946
 50
0.5000000000004547
 51
81.88019038253837
  0
LINE
  8
0
  6
CONTINUOUS
 62
     7
 10
609.3638191847458
 20
124.8158108230802
 11
609.3642742149066
 21
124.7636695311882
  0
ENDBLK
  8
0
  0
ENDSEC
  0
SECTION
  2
ENTITIES
  0
LINE
  8
0
  6
CENTER
 62
     1
 10
595.0
 20
60.3755749778756
 11
595.0
 21
129.6755749778756
  0
LINE
  8
0
  6
CENTER
 62
     1
 10
435.0
 20
60.37557497787561
 11
435.0
 21
129.6755749778756
  0
LINE
  8
0
  6
CENTER
 62
     1
 10
366.6999999999999
 20
205.0
 11
503.3000000000001
 21
205.0
  0
LINE
  8
0
  6
CENTER
 62
     1
 10
435.0
 20
187.1
 11
435.0
 21
222.9
  0
INSERT
  8
0
 62
     7
  2
D_FRAME_DRAWING_17
 10
0.0
 20
0.0
 30
0.0
  0
LINE
  8
0
  6
CENTER
 62
     1
 10
489.0
 20
197.9413872610515
 11
489.0
 21
211.7843568360737
  0
LINE
  8
0
  6
CONTINUOUS
 62
     7
 10
480.2111742155236
 20
72.96440076235204
 11
485.0071067811865
 21
68.16846819668906
  0
LINE
  8
0
  6
CENTER
 62
     1
 10
381.0
 20
197.9413872610515
 11
381.0
 21
211.7843568360737
  0
LINE
  8
0
  6
CONTINUOUS
 62
     7
 10
384.9928932188134
 20
68.16846819668905
 11
389.7888257844764
 21
72.96440076235201
  0
INSERT
  8
0
  6
CENTER
 62
     7
  2
D_FRAME_VIEW_1288
 10
0.0
 20
0.0
 30
0.0
  0
INSERT
  8
0
  6
CENTER
 62
     7
  2
D_FRAME_VIEW_1932
 10
0.0
 20
0.0
 30
0.0
  0
INSERT
  8
0
  6
CENTER
 62
     7
  2
D_FRAME_VIEW_2118
 10
0.0
 20
0.0
 30
0.0
  0
TEXT
  8
0
  6
CONTINUOUS
 62
     7
 10
573.8832386606335
 20
183.2633122250383
 40
8.0
  1
MIDS-80
  0
ENDSEC
  0
EOF
