  0
SECTION
  2
HEADER
  9
$ACADVER
  1
AC1014
  9
$ACADMAINTVER
 70
     9
  9
$DWGCODEPAGE
  3
ANSI_932
  9
$INSBASE
 10
0.0
 20
0.0
 30
0.0
  9
$EXTMIN
 10
14.00000000000001
 20
27.99249718644491
 30
0.0
  9
$EXTMAX
 10
270.3
 20
203.3
 30
0.0
  9
$LIMMIN
 10
0.0
 20
0.0
  9
$LIMMAX
 10
12.0
 20
9.0
  9
$ORTHOMODE
 70
     0
  9
$REGENMODE
 70
     1
  9
$FILLMODE
 70
     1
  9
$QTEXTMODE
 70
     0
  9
$MIRRTEXT
 70
     1
  9
$DRAGMODE
 70
     2
  9
$LTSCALE
 40
1.0
  9
$OSMODE
 70
    37
  9
$ATTMODE
 70
     1
  9
$TEXTSIZE
 40
0.2
  9
$TRACEWID
 40
0.05
  9
$TEXTSTYLE
  7
STANDARD
  9
$CLAYER
  8
0
  9
$CELTYPE
  6
BYLAYER
  9
$CECOLOR
 62
   256
  9
$CELTSCALE
 40
1.0
  9
$DELOBJ
 70
     1
  9
$DISPSILH
 70
     0
  9
$DIMSCALE
 40
1.0
  9
$DIMASZ
 40
3.0
  9
$DIMEXO
 40
0.0625
  9
$DIMDLI
 40
0.38
  9
$DIMRND
 40
0.0
  9
$DIMDLE
 40
0.0
  9
$DIMEXE
 40
1.5
  9
$DIMTP
 40
0.0
  9
$DIMTM
 40
0.0
  9
$DIMTXT
 40
3.0
  9
$DIMCEN
 40
0.09
  9
$DIMTSZ
 40
0.0
  9
$DIMTOL
 70
     0
  9
$DIMLIM
 70
     0
  9
$DIMTIH
 70
     1
  9
$DIMTOH
 70
     1
  9
$DIMSE1
 70
     0
  9
$DIMSE2
 70
     0
  9
$DIMTAD
 70
     1
  9
$DIMZIN
 70
     0
  9
$DIMBLK
  1

  9
$DIMASO
 70
     1
  9
$DIMSHO
 70
     1
  9
$DIMPOST
  1

  9
$DIMAPOST
  1

  9
$DIMALT
 70
     0
  9
$DIMALTD
 70
     2
  9
$DIMALTF
 40
25.4
  9
$DIMLFAC
 40
1.0
  9
$DIMTOFL
 70
     0
  9
$DIMTVP
 40
0.0
  9
$DIMTIX
 70
     0
  9
$DIMSOXD
 70
     0
  9
$DIMSAH
 70
     0
  9
$DIMBLK1
  1

  9
$DIMBLK2
  1

  9
$DIMSTYLE
  2
STANDARD
  9
$DIMCLRD
 70
     0
  9
$DIMCLRE
 70
     0
  9
$DIMCLRT
 70
     0
  9
$DIMTFAC
 40
1.0
  9
$DIMGAP
 40
1.5
  9
$DIMJUST
 70
     0
  9
$DIMSD1
 70
     0
  9
$DIMSD2
 70
     0
  9
$DIMTOLJ
 70
     1
  9
$DIMTZIN
 70
     0
  9
$DIMALTZ
 70
     0
  9
$DIMALTTZ
 70
     0
  9
$DIMFIT
 70
     3
  9
$DIMUPT
 70
     0
  9
$DIMUNIT
 70
     2
  9
$DIMDEC
 70
     2
  9
$DIMTDEC
 70
     4
  9
$DIMALTU
 70
     2
  9
$DIMALTTD
 70
     2
  9
$DIMTXSTY
  7
ＭＳ_ゴシック
  9
$DIMAUNIT
 70
     0
  9
$LUNITS
 70
     2
  9
$LUPREC
 70
     4
  9
$SKETCHINC
 40
0.1
  9
$FILLETRAD
 40
0.5
  9
$AUNITS
 70
     0
  9
$AUPREC
 70
     0
  9
$MENU
  1
.
  9
$ELEVATION
 40
0.0
  9
$PELEVATION
 40
0.0
  9
$THICKNESS
 40
0.0
  9
$LIMCHECK
 70
     0
  9
$CHAMFERA
 40
0.0
  9
$CHAMFERB
 40
0.0
  9
$CHAMFERC
 40
0.0
  9
$CHAMFERD
 40
0.0
  9
$SKPOLY
 70
     0
  9
$TDCREATE
 40
2459235.532240556
  9
$TDUPDATE
 40
2459235.532241273
  9
$TDINDWG
 40
0.0000000116
  9
$TDUSRTIMER
 40
0.0000000116
  9
$USRTIMER
 70
     1
  9
$ANGBASE
 50
0.0
  9
$ANGDIR
 70
     0
  9
$PDMODE
 70
     0
  9
$PDSIZE
 40
0.0
  9
$PLINEWID
 40
0.0
  9
$COORDS
 70
     1
  9
$SPLFRAME
 70
     0
  9
$SPLINETYPE
 70
     6
  9
$SPLINESEGS
 70
     8
  9
$ATTDIA
 70
     0
  9
$ATTREQ
 70
     1
  9
$HANDLING
 70
     1
  9
$HANDSEED
  5
32E
  9
$SURFTAB1
 70
     6
  9
$SURFTAB2
 70
     6
  9
$SURFTYPE
 70
     6
  9
$SURFU
 70
     6
  9
$SURFV
 70
     6
  9
$UCSNAME
  2

  9
$UCSORG
 10
0.0
 20
0.0
 30
0.0
  9
$UCSXDIR
 10
1.0
 20
0.0
 30
0.0
  9
$UCSYDIR
 10
0.0
 20
1.0
 30
0.0
  9
$PUCSNAME
  2

  9
$PUCSORG
 10
0.0
 20
0.0
 30
0.0
  9
$PUCSXDIR
 10
1.0
 20
0.0
 30
0.0
  9
$PUCSYDIR
 10
0.0
 20
1.0
 30
0.0
  9
$USERI1
 70
     0
  9
$USERI2
 70
     0
  9
$USERI3
 70
     0
  9
$USERI4
 70
     0
  9
$USERI5
 70
     0
  9
$USERR1
 40
0.0
  9
$USERR2
 40
0.0
  9
$USERR3
 40
0.0
  9
$USERR4
 40
0.0
  9
$USERR5
 40
0.0
  9
$WORLDVIEW
 70
     1
  9
$SHADEDGE
 70
     3
  9
$SHADEDIF
 70
    70
  9
$TILEMODE
 70
     1
  9
$MAXACTVP
 70
    64
  9
$PINSBASE
 10
0.0
 20
0.0
 30
0.0
  9
$PLIMCHECK
 70
     0
  9
$PEXTMIN
 10
1.000000000000000E+20
 20
1.000000000000000E+20
 30
1.000000000000000E+20
  9
$PEXTMAX
 10
-1.000000000000000E+20
 20
-1.000000000000000E+20
 30
-1.000000000000000E+20
  9
$PLIMMIN
 10
0.0
 20
0.0
  9
$PLIMMAX
 10
12.0
 20
9.0
  9
$UNITMODE
 70
     0
  9
$VISRETAIN
 70
     1
  9
$PLINEGEN
 70
     0
  9
$PSLTSCALE
 70
     1
  9
$TREEDEPTH
 70
  3020
  9
$PICKSTYLE
 70
     1
  9
$CMLSTYLE
  2
STANDARD
  9
$CMLJUST
 70
     0
  9
$CMLSCALE
 40
1.0
  9
$PROXYGRAPHICS
 70
     1
  9
$MEASUREMENT
 70
     1
  0
ENDSEC
  0
SECTION
  2
CLASSES
  0
CLASS
  1
ACDBDICTIONARYWDFLT
  2
AcDbDictionaryWithDefault
  3
ObjectDBX Classes
 90
        0
280
     0
281
     0
  0
CLASS
  1
VISUALSTYLE
  2
AcDbVisualStyle
  3
ObjectDBX Classes
 90
     4095
280
     0
281
     0
  0
CLASS
  1
MATERIAL
  2
AcDbMaterial
  3
ObjectDBX Classes
 90
     1153
280
     0
281
     0
  0
CLASS
  1
SCALE
  2
AcDbScale
  3
ObjectDBX Classes
 90
     1153
280
     0
281
     0
  0
CLASS
  1
TABLESTYLE
  2
AcDbTableStyle
  3
ObjectDBX Classes
 90
     4095
280
     0
281
     0
  0
CLASS
  1
MLEADERSTYLE
  2
AcDbMLeaderStyle
  3
ACDB_MLEADERSTYLE_CLASS
 90
     4095
280
     0
281
     0
  0
CLASS
  1
SUN
  2
AcDbSun
  3
SCENEOE
 90
     1153
280
     0
281
     0
  0
CLASS
  1
DICTIONARYVAR
  2
AcDbDictionaryVar
  3
ObjectDBX Classes
 90
        0
280
     0
281
     0
  0
CLASS
  1
XRECORD
  2
AcDbXrecord
  3
ObjectDBX Classes
 90
        0
280
     0
281
     0
  0
CLASS
  1
LWPOLYLINE
  2
AcDbPolyline
  3
ObjectDBX Classes
 90
        0
280
     0
281
     1
  0
CLASS
  1
HATCH
  2
AcDbHatch
  3
ObjectDBX Classes
 90
        0
280
     0
281
     1
  0
CLASS
  1
ACDBPLACEHOLDER
  2
AcDbPlaceHolder
  3
ObjectDBX Classes
 90
        0
280
     0
281
     0
  0
CLASS
  1
LAYOUT
  2
AcDbLayout
  3
ObjectDBX Classes
 90
        0
280
     0
281
     0
  0
ENDSEC
  0
SECTION
  2
TABLES
  0
TABLE
  2
VPORT
  5
8
102
{ACAD_XDICTIONARY
360
323
102
}
330
0
100
AcDbSymbolTable
 70
     1
  0
VPORT
  5
29
330
8
100
AcDbSymbolTableRecord
100
AcDbViewportTableRecord
  2
*ACTIVE
 70
     0
 10
0.0
 20
0.0
 11
1.0
 21
1.0
 12
142.15
 22
115.6462485932225
 13
0.0
 23
0.0
 14
0.5
 24
0.5
 15
0.5
 25
0.5
 16
0.0
 26
0.0
 36
1.0
 17
0.0
 27
0.0
 37
0.0
 40
175.3075028135551
 41
1.6
 42
50.0
 43
0.0
 44
0.0
 50
0.0
 51
0.0
 71
     0
 72
   100
 73
     1
 74
     3
 75
     0
 76
     0
 77
     0
 78
     0
  0
ENDTAB
  0
TABLE
  2
LTYPE
  5
5
330
0
100
AcDbSymbolTable
 70
     2
  0
LTYPE
  5
14
330
5
100
AcDbSymbolTableRecord
100
AcDbLinetypeTableRecord
  2
BYBLOCK
 70
     0
  3

 72
    65
 73
     0
 40
0.0
  0
LTYPE
  5
15
330
5
100
AcDbSymbolTableRecord
100
AcDbLinetypeTableRecord
  2
BYLAYER
 70
     0
  3

 72
    65
 73
     0
 40
0.0
  0
LTYPE
  5
16
330
5
100
AcDbSymbolTableRecord
100
AcDbLinetypeTableRecord
  2
CONTINUOUS
 70
     0
  3
Solid line
 72
    65
 73
     0
 40
0.0
  0
LTYPE
  5
1B2
330
5
100
AcDbSymbolTableRecord
100
AcDbLinetypeTableRecord
  2
CENTER
 70
     0
  3

 72
    65
 73
     0
 40
0.0
  0
ENDTAB
  0
TABLE
  2
LAYER
  5
2
330
0
100
AcDbSymbolTable
 70
     2
  0
LAYER
  5
10
330
2
100
AcDbSymbolTableRecord
100
AcDbLayerTableRecord
  2
0
 70
     0
 62
     7
  6
CONTINUOUS
  0
LAYER
  5
6E
330
2
100
AcDbSymbolTableRecord
100
AcDbLayerTableRecord
  2
1
 70
     0
 62
     7
  6
CONTINUOUS
  0
ENDTAB
  0
TABLE
  2
STYLE
  5
3
330
0
100
AcDbSymbolTable
 70
     2
  0
STYLE
  5
11
330
3
100
AcDbSymbolTableRecord
100
AcDbTextStyleTableRecord
  2
STANDARD
 70
     0
 40
0.0
 41
1.0
 50
0.0
 71
     0
 42
0.2
  3
txt
  4

  0
STYLE
  5
6F
330
3
100
AcDbSymbolTableRecord
100
AcDbTextStyleTableRecord
  2
ＭＳ_ゴシック
 70
     0
 40
0.0
 41
1.0
 50
0.0
 71
     0
 42
0.2
  3
ＭＳ ゴシック.shx
  4

  0
ENDTAB
  0
TABLE
  2
VIEW
  5
6
330
0
100
AcDbSymbolTable
 70
     0
  0
ENDTAB
  0
TABLE
  2
UCS
  5
7
330
0
100
AcDbSymbolTable
 70
     0
  0
ENDTAB
  0
TABLE
  2
APPID
  5
9
330
0
100
AcDbSymbolTable
 70
     2
  0
APPID
  5
12
330
9
100
AcDbSymbolTableRecord
100
AcDbRegAppTableRecord
  2
ACAD
 70
     0
  0
APPID
  5
32D
330
9
100
AcDbSymbolTableRecord
100
AcDbRegAppTableRecord
  2
ACAD_MLEADERVER
 70
     0
  0
ENDTAB
  0
TABLE
  2
DIMSTYLE
  5
A
330
0
100
AcDbSymbolTable
 70
     1
  0
DIMSTYLE
105
27
330
A
100
AcDbSymbolTableRecord
100
AcDbDimStyleTableRecord
  2
STANDARD
 70
     0
  3

  4

  5

  6

  7

 40
1.0
 41
0.18
 42
0.0625
 43
0.38
 44
0.18
 45
0.0
 46
0.0
 47
0.0
 48
0.0
140
0.18
141
0.09
142
0.0
143
25.4
144
1.0
145
0.0
146
1.0
147
0.09
 71
     0
 72
     0
 73
     1
 74
     1
 75
     0
 76
     0
 77
     0
 78
     0
170
     0
171
     2
172
     0
173
     0
174
     0
175
     0
176
     0
177
     0
178
     0
270
     2
271
     4
272
     4
273
     2
274
     2
340
11
275
     0
280
     0
281
     0
282
     0
283
     1
284
     0
285
     0
286
     0
287
     3
288
     0
  0
ENDTAB
  0
TABLE
  2
BLOCK_RECORD
  5
1
330
0
100
AcDbSymbolTable
 70
     0
  0
BLOCK_RECORD
  5
1F
330
1
100
AcDbSymbolTableRecord
100
AcDbBlockTableRecord
  2
*MODEL_SPACE
  0
BLOCK_RECORD
  5
1B
330
1
100
AcDbSymbolTableRecord
100
AcDbBlockTableRecord
  2
*PAPER_SPACE
  0
ENDTAB
  0
ENDSEC
  0
SECTION
  2
BLOCKS
  0
BLOCK
  5
20
330
1F
100
AcDbEntity
  8
0
100
AcDbBlockBegin
  2
*MODEL_SPACE
 70
     0
 10
0.0
 20
0.0
 30
0.0
  3
*MODEL_SPACE
  1

  0
ENDBLK
  5
21
330
1F
100
AcDbEntity
  8
0
100
AcDbBlockEnd
  0
BLOCK
  5
1C
330
1B
100
AcDbEntity
 67
     1
  8
0
100
AcDbBlockBegin
  2
*PAPER_SPACE
 70
     0
 10
0.0
 20
0.0
 30
0.0
  3
*PAPER_SPACE
  1

  0
ENDBLK
  5
1D
330
1B
100
AcDbEntity
 67
     1
  8
0
100
AcDbBlockEnd
  0
ENDSEC
  0
SECTION
  2
ENTITIES
  0
ARC
  5
70
330
1F
100
AcDbEntity
  8
1
  6
CONTINUOUS
 62
     7
100
AcDbCircle
 10
-48.32893218813452
 20
150.1
 30
0.0
 40
5.0
210
0.0
220
0.0
230
-1.0
100
AcDbArc
 50
90.00000000000001
 51
103.3899150568237
  0
LWPOLYLINE
  5
71
330
1F
100
AcDbEntity
  8
1
  6
CONTINUOUS
 62
     7
100
AcDbPolyline
 90
       33
 70
     0
 43
0.0
 10
256.6040234934945
 20
60.15000000000001
 10
256.5796258468451
 20
60.14940440009872
 10
256.5552863251393
 20
60.14761901935187
 10
256.5310629148442
 20
60.14464811124982
 10
256.5070133258029
 20
60.14049875368286
 10
256.4831948537467
 20
60.13518083207883
 10
256.4596642437942
 20
60.12870701585205
 10
256.4364775552612
 20
60.12109272821974
 10
256.4136900281052
 20
60.11235610945776
 10
256.3913559513221
 20
60.10251797368319
 10
256.3695285336074
 20
60.09160175926681
 10
256.3482597765926
 20
60.07963347299355
 10
256.3276003509558
 20
60.06664162810388
 10
256.3075994757048
 20
60.05265717636396
 10
256.2883048009167
 20
60.03771343432606
 10
256.2697622942171
 20
60.02184600395535
 10
256.2520161312666
 20
60.00509268781165
 10
256.2351085905169
 20
59.98749339898873
 10
256.2190799524863
 20
59.96909006602534
 10
256.2039684037959
 20
59.94992653301465
 10
256.1898099461931
 20
59.93004845515016
 10
256.1766383107819
 20
59.9095031899567
 10
256.1644848776612
 20
59.88833968446597
 10
256.1533786011653
 20
59.86660835860509
 10
256.143345940883
 20
59.8443609850762
 10
256.13441079862
 20
59.82165056601323
 10
256.1265944614559
 20
59.79853120670956
 10
256.1199155510291
 20
59.77505798671768
 10
256.1143899791733
 20
59.75128682862764
 10
256.1100309100087
 20
59.72727436483707
 10
256.1068487285799
 20
59.70307780263023
 10
256.1048510161147
 20
59.67875478788736
 10
256.1040425319624
 20
59.65436326774919
  0
LWPOLYLINE
  5
72
330
1F
100
AcDbEntity
  8
1
  6
CONTINUOUS
 62
     7
100
AcDbPolyline
 90
       33
 70
     0
 43
0.0
 10
238.2397468846721
 20
59.65436326774919
 10
238.2394119995713
 20
59.67875478788736
 10
238.2385845199745
 20
59.70307780263023
 10
238.2372664172688
 20
59.72727436483707
 10
238.2354608317015
 20
59.75128682862764
 10
238.2331720648989
 20
59.77505798671768
 10
238.2304055696183
 20
59.79853120670956
 10
238.2271679367568
 20
59.82165056601323
 10
238.2234668796498
 20
59.8443609850762
 10
238.2193112156941
 20
59.86660835860508
 10
238.2147108453421
 20
59.88833968446597
 10
238.2096767285141
 20
59.90950318995669
 10
238.2042208584881
 20
59.93004845515015
 10
238.1983562333268
 20
59.94992653301465
 10
238.1920968249107
 20
59.96909006602534
 10
238.1854575456521
 20
59.98749339898873
 10
238.1784542129672
 20
60.00509268781164
 10
238.1711035115931
 20
60.02184600395535
 10
238.1634229538377
 20
60.03771343432606
 10
238.1554308378588
 20
60.05265717636395
 10
238.1471462040705
 20
60.06664162810388
 10
238.138588789781
 20
60.07963347299354
 10
238.1297789821706
 20
60.09160175926681
 10
238.1207377697216
 20
60.10251797368318
 10
238.1114866922149
 20
60.11235610945775
 10
238.102047789414
 20
60.12109272821974
 10
238.0924435485571
 20
60.12870701585204
 10
238.0826968507838
 20
60.13518083207883
 10
238.0728309166232
 20
60.14049875368286
 10
238.0628692506728
 20
60.14464811124982
 10
238.0528355856016
 20
60.14761901935187
 10
238.0427538256094
 20
60.14940440009872
 10
238.0326479894772
 20
60.15
  0
LWPOLYLINE
  5
73
330
1F
100
AcDbEntity
  8
1
  6
CONTINUOUS
 62
     7
100
AcDbPolyline
 90
       29
 70
     0
 43
0.0
 10
-269.7244965202651
 20
90.41944848244322
 10
-269.7482310400245
 20
90.41436826275923
 10
-269.7716910512605
 20
90.40814219393134
 10
-269.7948212694189
 20
90.40078494796619
 10
-269.8175671871172
 20
90.3923138625394
 10
-269.8398752025941
 20
90.38274890013852
 10
-269.8616927460241
 20
90.37211260102067
 10
-269.882968403401
 20
90.36043003009524
 10
-269.9036520376968
 20
90.34772871785748
 10
-269.9236949070124
 20
90.33403859551156
 10
-269.9430497794394
 20
90.31939192443652
 10
-269.9616710443647
 20
90.30382322016065
 10
-269.9795148199536
 20
90.28736917102442
 10
-269.9965390565596
 20
90.27006855172252
 10
-270.0127036358159
 20
90.25196213192976
 10
-270.0279704651765
 20
90.2330925802254
 10
-270.0423035676823
 20
90.21350436354287
 10
-270.0556691667434
 20
90.19324364238135
 10
-270.0680357657342
 20
90.17235816202665
 10
-270.079374222217
 20
90.15089714003719
 10
-270.0896578166177
 20
90.12891115026075
 10
-270.0988623151909
 20
90.10645200365491
 10
-270.1069660271286
 20
90.0835726261923
 10
-270.1139498556751
 20
90.06032693413809
 10
-270.1197973431294
 20
90.03676970699401
 10
-270.1244947096287
 20
90.01295645840804
 10
-270.128030885621
 20
89.98894330535398
 10
-270.1303975379511
 20
89.96478683588937
 10
-270.1315890894981
 20
89.94054397580321
210
0.0
220
0.0
230
-1.0
  0
LWPOLYLINE
  5
74
330
1F
100
AcDbEntity
  8
1
  6
CONTINUOUS
 62
     7
100
AcDbPolyline
 90
       33
 70
     0
 43
0.0
 10
257.3673520105228
 20
60.15000000000001
 10
257.3572461743906
 20
60.14940440009872
 10
257.3471644143984
 20
60.14761901935187
 10
257.3371307493272
 20
60.14464811124982
 10
257.3271690833768
 20
60.14049875368286
 10
257.3173031492162
 20
60.13518083207883
 10
257.3075564514429
 20
60.12870701585204
 10
257.2979522105861
 20
60.12109272821974
 10
257.2885133077851
 20
60.11235610945776
 10
257.2792622302784
 20
60.10251797368318
 10
257.2702210178294
 20
60.09160175926681
 10
257.2614112102191
 20
60.07963347299355
 10
257.2528537959295
 20
60.06664162810388
 10
257.2445691621411
 20
60.05265717636395
 10
257.2365770461623
 20
60.03771343432606
 10
257.228896488407
 20
60.02184600395535
 10
257.2215457870328
 20
60.00509268781165
 10
257.2145424543478
 20
59.98749339898873
 10
257.2079031750893
 20
59.96909006602534
 10
257.2016437666732
 20
59.94992653301465
 10
257.1957791415119
 20
59.93004845515016
 10
257.190323271486
 20
59.9095031899567
 10
257.1852891546579
 20
59.88833968446597
 10
257.1806887843059
 20
59.86660835860509
 10
257.1765331203502
 20
59.8443609850762
 10
257.1728320632432
 20
59.82165056601323
 10
257.1695944303817
 20
59.79853120670956
 10
257.166827935101
 20
59.77505798671768
 10
257.1645391682985
 20
59.75128682862765
 10
257.1627335827312
 20
59.72727436483707
 10
257.1614154800255
 20
59.70307780263023
 10
257.1605880004287
 20
59.67875478788736
 10
257.1602531153279
 20
59.65436326774919
  0
LWPOLYLINE
  5
75
330
1F
100
AcDbEntity
  8
1
  6
CONTINUOUS
 62
     7
100
AcDbPolyline
 90
       26
 70
     0
 43
0.0
 10
240.9751581679033
 20
62.08401506210497
 10
240.9369571004475
 20
62.06847816841506
 10
240.8992319174032
 20
62.05124379963251
 10
240.8620984407457
 20
62.03232234601625
 10
240.8256724467488
 20
62.01173356954162
 10
240.7900686197339
 20
61.98950671634438
 10
240.7553994843954
 20
61.96568050429385
 10
240.721774336252
 20
61.9403029812689
 10
240.6840042968117
 20
61.9088118569046
 10
240.6479554786912
 20
61.87539280826797
 10
240.6137735579835
 20
61.84016620629268
 10
240.5815905281467
 20
61.80326585485095
 10
240.5515231117978
 20
61.7648373044658
 10
240.5236714646708
 20
61.72503596184398
 10
240.4981182012895
 20
61.6840250462019
 10
240.4749277604365
 20
61.6419734475864
 10
240.4541461165398
 20
61.59905354411868
 10
240.4358008313277
 20
61.5554390343116
 10
240.4199014291297
 20
61.51130283748285
 10
240.4064400695483
 20
61.46681511011246
 10
240.3953924833206
 20
61.42214141917967
 10
240.386719131278
 20
61.37744110554114
 10
240.3803665425327
 20
61.33286586178456
 10
240.3762687863334
 20
61.28855854020501
 10
240.3743490323102
 20
61.24465219805015
 10
240.3745211558149
 20
61.20126937934312
  0
LWPOLYLINE
  5
76
330
1F
100
AcDbEntity
  8
1
  6
CONTINUOUS
 62
     7
100
AcDbPolyline
 90
       33
 70
     0
 43
0.0
 10
-75.33264798947724
 20
60.15000000000001
 10
-75.34275382560944
 20
60.14940440009872
 10
-75.35283558560162
 20
60.14761901935186
 10
-75.36286925067279
 20
60.14464811124982
 10
-75.37283091662322
 20
60.14049875368285
 10
-75.38269685078386
 20
60.13518083207883
 10
-75.39244354855711
 20
60.12870701585204
 10
-75.402047789414
 20
60.12109272821974
 10
-75.41148669221495
 20
60.11235610945775
 10
-75.42073776972163
 20
60.10251797368318
 10
-75.42977898217062
 20
60.09160175926681
 10
-75.438588789781
 20
60.07963347299354
 10
-75.44714620407055
 20
60.06664162810388
 10
-75.45543083785887
 20
60.05265717636394
 10
-75.4634229538377
 20
60.03771343432606
 10
-75.47110351159309
 20
60.02184600395534
 10
-75.47845421296725
 20
60.00509268781163
 10
-75.48545754565215
 20
59.98749339898872
 10
-75.49209682491077
 20
59.96909006602532
 10
-75.49835623332682
 20
59.94992653301465
 10
-75.50422085848815
 20
59.93004845515015
 10
-75.50967672851411
 20
59.90950318995669
 10
-75.51471084534208
 20
59.88833968446597
 10
-75.51931121569416
 20
59.86660835860508
 10
-75.5234668796498
 20
59.8443609850762
 10
-75.52716793675685
 20
59.82165056601321
 10
-75.53040556961832
 20
59.79853120670955
 10
-75.53317206489895
 20
59.77505798671768
 10
-75.53546083170149
 20
59.75128682862764
 10
-75.5372664172688
 20
59.72727436483707
 10
-75.53858451997453
 20
59.70307780263023
 10
-75.53941199957136
 20
59.67875478788736
 10
-75.53974688467217
 20
59.65436326774918
210
0.0
220
0.0
230
-1.0
  0
LWPOLYLINE
  5
77
330
1F
100
AcDbEntity
  8
1
  6
CONTINUOUS
 62
     7
100
AcDbPolyline
 90
       29
 70
     0
 43
0.0
 10
107.4315890894982
 20
89.94054397580325
 10
107.4303975379512
 20
89.9647868358894
 10
107.4280308856211
 20
89.988943305354
 10
107.4244947096288
 20
90.01295645840807
 10
107.4197973431295
 20
90.03676970699405
 10
107.4139498556751
 20
90.06032693413812
 10
107.4069660271286
 20
90.08357262619234
 10
107.398862315191
 20
90.10645200365495
 10
107.3896578166177
 20
90.12891115026078
 10
107.3793742222171
 20
90.15089714003722
 10
107.3680357657342
 20
90.17235816202668
 10
107.3556691667435
 20
90.19324364238139
 10
107.3423035676824
 20
90.2135043635429
 10
107.3279704651765
 20
90.23309258022543
 10
107.312703635816
 20
90.25196213192979
 10
107.2965390565597
 20
90.27006855172255
 10
107.2795148199536
 20
90.28736917102445
 10
107.2616710443647
 20
90.30382322016068
 10
107.2430497794394
 20
90.31939192443654
 10
107.2236949070125
 20
90.3340385955116
 10
107.2036520376969
 20
90.3477287178575
 10
107.182968403401
 20
90.36043003009527
 10
107.1616927460242
 20
90.3721126010207
 10
107.1398752025941
 20
90.38274890013857
 10
107.1175671871173
 20
90.39231386253942
 10
107.094821269419
 20
90.40078494796622
 10
107.0716910512606
 20
90.40814219393137
 10
107.0482310400245
 20
90.41436826275925
 10
107.0244965202651
 20
90.41944848244326
  0
LWPOLYLINE
  5
78
330
1F
100
AcDbEntity
  8
1
  6
CONTINUOUS
 62
     7
100
AcDbPolyline
 90
       29
 70
     0
 43
0.0
 10
-62.56841091050183
 20
89.94054397580325
 10
-62.56960246204884
 20
89.9647868358894
 10
-62.57196911437894
 20
89.988943305354
 10
-62.57550529037123
 20
90.01295645840807
 10
-62.58020265687053
 20
90.03676970699405
 10
-62.58605014432486
 20
90.06032693413812
 10
-62.59303397287136
 20
90.08357262619234
 10
-62.60113768480904
 20
90.10645200365495
 10
-62.61034218338225
 20
90.12891115026078
 10
-62.62062577778288
 20
90.15089714003722
 10
-62.63196423426574
 20
90.17235816202668
 10
-62.64433083325653
 20
90.19324364238139
 10
-62.65769643231762
 20
90.2135043635429
 10
-62.67202953482351
 20
90.23309258022543
 10
-62.68729636418401
 20
90.25196213192979
 10
-62.70346094344034
 20
90.27006855172255
 10
-62.72048518004636
 20
90.28736917102445
 10
-62.73832895563529
 20
90.30382322016068
 10
-62.75695022056055
 20
90.31939192443654
 10
-62.77630509298752
 20
90.3340385955116
 10
-62.79634796230309
 20
90.3477287178575
 10
-62.81703159659893
 20
90.36043003009527
 10
-62.83830725397582
 20
90.3721126010207
 10
-62.86012479740587
 20
90.38274890013857
 10
-62.88243281288273
 20
90.39231386253942
 10
-62.90517873058104
 20
90.40078494796622
 10
-62.92830894873942
 20
90.40814219393137
 10
-62.95176895997549
 20
90.41436826275925
 10
-62.97550347973488
 20
90.41944848244326
210
0.0
220
0.0
230
-1.0
  0
LWPOLYLINE
  5
79
330
1F
100
AcDbEntity
  8
1
  6
CONTINUOUS
 62
     7
100
AcDbPolyline
 90
       26
 70
     0
 43
0.0
 10
78.27515816790329
 20
62.08401506210498
 10
78.2369571004475
 20
62.06847816841507
 10
78.19923191740324
 20
62.05124379963253
 10
78.16209844074568
 20
62.03232234601627
 10
78.12567244674881
 20
62.01173356954165
 10
78.09006861973391
 20
61.9895067163444
 10
78.05539948439544
 20
61.96568050429386
 10
78.02177433625204
 20
61.94030298126891
 10
77.98400429681172
 20
61.90881185690461
 10
77.94795547869117
 20
61.87539280826798
 10
77.91377355798355
 20
61.84016620629271
 10
77.88159052814669
 20
61.80326585485096
 10
77.85152311179786
 20
61.76483730446581
 10
77.82367146467078
 20
61.72503596184399
 10
77.79811820128947
 20
61.68402504620192
 10
77.77492776043653
 20
61.64197344758642
 10
77.75414611653974
 20
61.5990535441187
 10
77.73580083132768
 20
61.55543903431161
 10
77.71990142912968
 20
61.51130283748285
 10
77.70644006954832
 20
61.46681511011246
 10
77.69539248332055
 20
61.42214141917967
 10
77.68671913127798
 20
61.37744110554114
 10
77.6803665425327
 20
61.33286586178456
 10
77.67626878633335
 20
61.28855854020501
 10
77.6743490323102
 20
61.24465219805014
 10
77.6745211558149
 20
61.20126937934312
  0
LWPOLYLINE
  5
7A
330
1F
100
AcDbEntity
  8
1
  6
CONTINUOUS
 62
     7
100
AcDbPolyline
 90
       26
 70
     0
 43
0.0
 10
255.0254788441842
 20
61.20126937934334
 10
255.0256509676889
 20
61.24465219805089
 10
255.0237312136657
 20
61.28855854020626
 10
255.0196334574663
 20
61.33286586178634
 10
255.0132808687208
 20
61.37744110554344
 10
255.0046075166781
 20
61.42214141918249
 10
254.99355993045
 20
61.46681511011577
 10
254.9800985708683
 20
61.51130283748667
 10
254.96419916867
 20
61.55543903431589
 10
254.9458538834575
 20
61.59905354412341
 10
254.9250722395603
 20
61.64197344759152
 10
254.9018817987069
 20
61.6840250462074
 10
254.8763285353249
 20
61.72503596184977
 10
254.8484768881973
 20
61.76483730447187
 10
254.8184094718478
 20
61.80326585485722
 10
254.7862264420103
 20
61.84016620629909
 10
254.752044521302
 20
61.87539280827445
 10
254.7159957031808
 20
61.90881185691109
 10
254.6782256637398
 20
61.94030298127533
 10
254.6446005155957
 20
61.96568050430019
 10
254.6099313802566
 20
61.98950671635056
 10
254.5743275532411
 20
62.01173356954762
 10
254.5379015592437
 20
62.03232234602199
 10
254.5007680825855
 20
62.05124379963797
 10
254.4630428995407
 20
62.06847816842019
 10
254.4248418320844
 20
62.08401506210971
  0
LWPOLYLINE
  5
7B
330
1F
100
AcDbEntity
  8
1
  6
CONTINUOUS
 62
     7
100
AcDbPolyline
 90
       33
 70
     0
 43
0.0
 10
239.2959574680376
 20
59.65436326774919
 10
239.2951489838854
 20
59.67875478788736
 10
239.2931512714201
 20
59.70307780263023
 10
239.2899690899913
 20
59.72727436483707
 10
239.2856100208267
 20
59.75128682862765
 10
239.2800844489709
 20
59.77505798671768
 10
239.2734055385442
 20
59.79853120670956
 10
239.26558920138
 20
59.82165056601323
 10
239.2566540591171
 20
59.8443609850762
 10
239.2466213988347
 20
59.86660835860509
 10
239.2355151223388
 20
59.88833968446597
 10
239.2233616892181
 20
59.9095031899567
 10
239.2101900538069
 20
59.93004845515015
 10
239.1960315962041
 20
59.94992653301465
 10
239.1809200475137
 20
59.96909006602534
 10
239.1648914094831
 20
59.98749339898873
 10
239.1479838687335
 20
60.00509268781165
 10
239.130237705783
 20
60.02184600395535
 10
239.1116951990834
 20
60.03771343432606
 10
239.0924005242952
 20
60.05265717636395
 10
239.0723996490441
 20
60.06664162810388
 10
239.0517402234074
 20
60.07963347299354
 10
239.0304714663926
 20
60.09160175926681
 10
239.0086440486779
 20
60.10251797368318
 10
238.9863099718948
 20
60.11235610945775
 10
238.9635224447388
 20
60.12109272821974
 10
238.9403357562058
 20
60.12870701585204
 10
238.9168051462533
 20
60.13518083207883
 10
238.8929866741971
 20
60.14049875368286
 10
238.8689370851558
 20
60.14464811124982
 10
238.8447136748607
 20
60.14761901935187
 10
238.8203741531549
 20
60.14940440009872
 10
238.7959765065055
 20
60.15
  0
LWPOLYLINE
  5
7C
330
1F
100
AcDbEntity
  8
1
  6
CONTINUOUS
 62
     7
100
AcDbPolyline
 90
       33
 70
     0
 43
0.0
 10
93.90402349349452
 20
60.15000000000001
 10
93.87962584684504
 20
60.14940440009872
 10
93.85528632513932
 20
60.14761901935186
 10
93.83106291484422
 20
60.14464811124982
 10
93.80701332580287
 20
60.14049875368286
 10
93.78319485374675
 20
60.13518083207883
 10
93.75966424379423
 20
60.12870701585204
 10
93.7364775552612
 20
60.12109272821974
 10
93.71369002810525
 20
60.11235610945775
 10
93.6913559513221
 20
60.10251797368318
 10
93.6695285336074
 20
60.09160175926681
 10
93.64825977659257
 20
60.07963347299354
 10
93.62760035095586
 20
60.06664162810388
 10
93.60759947570479
 20
60.05265717636394
 10
93.58830480091665
 20
60.03771343432606
 10
93.56976229421701
 20
60.02184600395534
 10
93.55201613126654
 20
60.00509268781165
 10
93.53510859051683
 20
59.98749339898873
 10
93.51907995248631
 20
59.96909006602534
 10
93.50396840379585
 20
59.94992653301465
 10
93.48980994619313
 20
59.93004845515015
 10
93.47663831078191
 20
59.90950318995669
 10
93.46448487766122
 20
59.88833968446597
 10
93.45337860116531
 20
59.86660835860508
 10
93.44334594088293
 20
59.8443609850762
 10
93.43441079861996
 20
59.82165056601323
 10
93.42659446145584
 20
59.79853120670955
 10
93.41991555102909
 20
59.77505798671768
 10
93.4143899791733
 20
59.75128682862764
 10
93.41003091000869
 20
59.72727436483707
 10
93.40684872857987
 20
59.70307780263023
 10
93.40485101611466
 20
59.67875478788736
 10
93.40404253196243
 20
59.65436326774918
  0
LWPOLYLINE
  5
7D
330
1F
100
AcDbEntity
  8
1
  6
CONTINUOUS
 62
     7
100
AcDbPolyline
 90
       33
 70
     0
 43
0.0
 10
-76.09597650650547
 20
60.15000000000001
 10
-76.12037415315496
 20
60.14940440009872
 10
-76.1447136748607
 20
60.14761901935186
 10
-76.16893708515579
 20
60.14464811124982
 10
-76.19298667419712
 20
60.14049875368286
 10
-76.21680514625325
 20
60.13518083207883
 10
-76.24033575620575
 20
60.12870701585204
 10
-76.2635224447388
 20
60.12109272821974
 10
-76.28630997189474
 20
60.11235610945775
 10
-76.30864404867792
 20
60.10251797368318
 10
-76.33047146639258
 20
60.09160175926681
 10
-76.35174022340743
 20
60.07963347299354
 10
-76.37239964904413
 20
60.06664162810388
 10
-76.39240052429521
 20
60.05265717636394
 10
-76.41169519908335
 20
60.03771343432606
 10
-76.43023770578299
 20
60.02184600395534
 10
-76.44798386873346
 20
60.00509268781165
 10
-76.46489140948316
 20
59.98749339898873
 10
-76.48092004751369
 20
59.96909006602534
 10
-76.49603159620415
 20
59.94992653301465
 10
-76.51019005380688
 20
59.93004845515015
 10
-76.52336168921808
 20
59.90950318995669
 10
-76.53551512233878
 20
59.88833968446597
 10
-76.54662139883469
 20
59.86660835860508
 10
-76.55665405911708
 20
59.8443609850762
 10
-76.56558920138002
 20
59.82165056601323
 10
-76.57340553854416
 20
59.79853120670955
 10
-76.58008444897091
 20
59.77505798671768
 10
-76.58561002082669
 20
59.75128682862764
 10
-76.58996908999133
 20
59.72727436483707
 10
-76.59315127142013
 20
59.70307780263023
 10
-76.59514898388534
 20
59.67875478788736
 10
-76.59595746803755
 20
59.65436326774918
210
0.0
220
0.0
230
-1.0
  0
LWPOLYLINE
  5
7E
330
1F
100
AcDbEntity
  8
1
  6
CONTINUOUS
 62
     7
100
AcDbPolyline
 90
       26
 70
     0
 43
0.0
 10
92.32547884418418
 20
61.20126937934332
 10
92.32565096768887
 20
61.24465219805088
 10
92.32373121366565
 20
61.28855854020626
 10
92.31963345746621
 20
61.33286586178634
 10
92.31328086872078
 20
61.37744110554344
 10
92.30460751667802
 20
61.42214141918248
 10
92.29355993045
 20
61.46681511011577
 10
92.28009857086833
 20
61.51130283748667
 10
92.26419916866999
 20
61.55543903431587
 10
92.2458538834575
 20
61.5990535441234
 10
92.22507223956028
 20
61.6419734475915
 10
92.20188179870682
 20
61.68402504620739
 10
92.17632853532496
 20
61.72503596184976
 10
92.14847688819728
 20
61.76483730447185
 10
92.11840947184783
 20
61.80326585485721
 10
92.0862264420103
 20
61.84016620629907
 10
92.052044521302
 20
61.87539280827443
 10
92.01599570318075
 20
61.90881185691108
 10
91.97822566373972
 20
61.94030298127532
 10
91.94460051559571
 20
61.96568050430018
 10
91.90993138025661
 20
61.98950671635055
 10
91.87432755324112
 20
62.0117335695476
 10
91.83790155924365
 20
62.03232234602199
 10
91.80076808258548
 20
62.05124379963796
 10
91.76304289954068
 20
62.06847816842018
 10
91.72484183208435
 20
62.0840150621097
  0
LWPOLYLINE
  5
7F
330
1F
100
AcDbEntity
  8
1
  6
CONTINUOUS
 62
     7
100
AcDbPolyline
 90
       29
 70
     0
 43
0.0
 10
-225.2684109105019
 20
89.94054397580317
 10
-225.2696024620489
 20
89.96478683588931
 10
-225.271969114379
 20
89.98894330535393
 10
-225.2755052903713
 20
90.01295645840798
 10
-225.2802026568706
 20
90.03676970699397
 10
-225.2860501443249
 20
90.06032693413803
 10
-225.2930339728715
 20
90.08357262619226
 10
-225.3011376848091
 20
90.10645200365487
 10
-225.3103421833823
 20
90.12891115026069
 10
-225.320625777783
 20
90.15089714003715
 10
-225.3319642342659
 20
90.1723581620266
 10
-225.3443308332566
 20
90.1932436423813
 10
-225.3576964323177
 20
90.21350436354282
 10
-225.3720295348236
 20
90.23309258022535
 10
-225.3872963641841
 20
90.2519621319297
 10
-225.4034609434404
 20
90.27006855172247
 10
-225.4204851800465
 20
90.28736917102437
 10
-225.4383289556354
 20
90.30382322016061
 10
-225.4569502205607
 20
90.31939192443647
 10
-225.4763050929876
 20
90.33403859551153
 10
-225.4963479623032
 20
90.34772871785742
 10
-225.5170315965991
 20
90.3604300300952
 10
-225.5383072539759
 20
90.37211260102063
 10
-225.560124797406
 20
90.38274890013851
 10
-225.5824328128828
 20
90.39231386253934
 10
-225.6051787305811
 20
90.40078494796613
 10
-225.6283089487395
 20
90.40814219393128
 10
-225.6517689599756
 20
90.41436826275918
 10
-225.675503479735
 20
90.41944848244319
210
0.0
220
0.0
230
-1.0
  0
LWPOLYLINE
  5
80
330
1F
100
AcDbEntity
  8
1
  6
CONTINUOUS
 62
     7
100
AcDbPolyline
 90
       33
 70
     0
 43
0.0
 10
94.66735201052276
 20
60.15000000000001
 10
94.65724617439055
 20
60.14940440009872
 10
94.64716441439836
 20
60.14761901935186
 10
94.63713074932721
 20
60.14464811124982
 10
94.62716908337678
 20
60.14049875368286
 10
94.61730314921614
 20
60.13518083207883
 10
94.60755645144289
 20
60.12870701585204
 10
94.59795221058599
 20
60.12109272821974
 10
94.58851330778506
 20
60.11235610945775
 10
94.57926223027839
 20
60.10251797368318
 10
94.57022101782938
 20
60.09160175926681
 10
94.56141121021902
 20
60.07963347299354
 10
94.55285379592945
 20
60.06664162810388
 10
94.54456916214113
 20
60.05265717636394
 10
94.53657704616231
 20
60.03771343432606
 10
94.52889648840693
 20
60.02184600395534
 10
94.52154578703275
 20
60.00509268781163
 10
94.51454245434785
 20
59.98749339898872
 10
94.50790317508923
 20
59.96909006602532
 10
94.5016437666732
 20
59.94992653301465
 10
94.49577914151185
 20
59.93004845515015
 10
94.49032327148589
 20
59.90950318995669
 10
94.48528915465789
 20
59.88833968446597
 10
94.48068878430584
 20
59.86660835860508
 10
94.47653312035018
 20
59.8443609850762
 10
94.47283206324313
 20
59.82165056601321
 10
94.46959443038168
 20
59.79853120670955
 10
94.46682793510104
 20
59.77505798671768
 10
94.4645391682985
 20
59.75128682862764
 10
94.46273358273119
 20
59.72727436483707
 10
94.46141548002545
 20
59.70307780263023
 10
94.46058800042864
 20
59.67875478788736
 10
94.46025311532782
 20
59.65436326774918
  0
ARC
  5
81
330
1F
100
AcDbEntity
  8
1
  6
CONTINUOUS
 62
     7
100
AcDbCircle
 10
-105.7801960972814
 20
110.7
 30
0.0
 40
0.9999999999999954
210
0.0
220
0.0
230
-1.0
100
AcDbArc
 50
268.1462612871655
 51
270.0
  0
LINE
  5
82
330
1F
100
AcDbEntity
  8
1
  6
CONTINUOUS
 62
     7
100
AcDbLine
 10
152.1961161351382
 20
155.9392232270276
 30
0.0
 11
148.0
 21
155.1
 31
0.0
  0
LINE
  5
83
330
1F
100
AcDbEntity
  8
1
  6
CONTINUOUS
 62
     7
100
AcDbLine
 10
130.0
 20
155.1
 30
0.0
 11
138.0
 21
155.1
 31
0.0
  0
LINE
  5
84
330
1F
100
AcDbEntity
  8
1
  6
CONTINUOUS
 62
     7
100
AcDbLine
 10
107.6
 20
132.7
 30
0.0
 11
107.6
 21
141.0289321881345
 31
0.0
  0
LINE
  5
85
330
1F
100
AcDbEntity
  8
1
  6
CONTINUOUS
 62
     7
100
AcDbLine
 10
62.4
 20
124.7
 30
0.0
 11
62.4
 21
132.7
 31
0.0
  0
LINE
  5
86
330
1F
100
AcDbEntity
  8
1
  6
CONTINUOUS
 62
     7
100
AcDbLine
 10
62.4
 20
132.7
 30
0.0
 11
62.4
 21
141.0289321881345
 31
0.0
  0
ARC
  5
87
330
1F
100
AcDbEntity
  8
1
  6
CONTINUOUS
 62
     7
100
AcDbCircle
 10
-57.40000000000001
 20
141.0289321881345
 30
0.0
 40
4.999999999999998
210
0.0
220
0.0
230
-1.0
100
AcDbArc
 50
135.0
 51
137.2198276748929
  0
ARC
  5
88
330
1F
100
AcDbEntity
  8
1
  6
CONTINUOUS
 62
     7
100
AcDbCircle
 10
-57.40000000000001
 20
141.0289321881345
 30
0.0
 40
5.0
210
0.0
220
0.0
230
-1.0
100
AcDbArc
 50
137.2198276748929
 51
177.7801723327394
  0
ARC
  5
89
330
1F
100
AcDbEntity
  8
1
  6
CONTINUOUS
 62
     7
100
AcDbCircle
 10
-57.40000000000001
 20
141.0289321881345
 30
0.0
 40
5.0
210
0.0
220
0.0
230
-1.0
100
AcDbArc
 50
177.7801723327393
 51
180.0
  0
LINE
  5
8A
330
1F
100
AcDbEntity
  8
1
  6
CONTINUOUS
 62
     7
100
AcDbLine
 10
51.86446609406726
 20
153.6355339059327
 30
0.0
 11
60.93553390593273
 21
144.5644660940673
 31
0.0
  0
LINE
  5
8B
330
1F
100
AcDbEntity
  8
1
  6
CONTINUOUS
 62
     7
100
AcDbLine
 10
118.1355339059328
 20
153.6355339059327
 30
0.0
 11
109.0644660940673
 21
144.5644660940672
 31
0.0
  0
ARC
  5
8C
330
1F
100
AcDbEntity
  8
1
  6
CONTINUOUS
 62
     7
100
AcDbCircle
 10
-152.0
 20
156.9198039027185
 30
0.0
 40
1.0
210
0.0
220
0.0
230
-1.0
100
AcDbArc
 50
256.6954848916743
 51
258.6900675259795
  0
ARC
  5
8D
330
1F
100
AcDbEntity
  8
1
  6
CONTINUOUS
 62
     7
100
AcDbCircle
 10
112.6
 20
141.0289321881345
 30
0.0
 40
4.999999999999998
100
AcDbArc
 50
135.0
 51
148.3899150660403
  0
ARC
  5
8E
330
1F
100
AcDbEntity
  8
1
  6
CONTINUOUS
 62
     7
100
AcDbCircle
 10
112.6
 20
141.0289321881345
 30
0.0
 40
5.000000000000001
100
AcDbArc
 50
148.3899150660403
 51
166.6100849395446
  0
LINE
  5
8F
330
1F
100
AcDbEntity
  8
1
  6
CONTINUOUS
 62
     7
100
AcDbLine
 10
107.6
 20
114.7
 30
0.0
 11
106.7607767729723
 21
110.5038838648618
 31
0.0
  0
ARC
  5
90
330
1F
100
AcDbEntity
  8
1
  6
CONTINUOUS
 62
     7
100
AcDbCircle
 10
-105.7801960972814
 20
110.7
 30
0.0
 40
0.9999999999999996
210
0.0
220
0.0
230
-1.0
100
AcDbArc
 50
191.3099324740201
 51
268.1462612871655
  0
LINE
  5
91
330
1F
100
AcDbEntity
  8
1
  6
CONTINUOUS
 62
     7
100
AcDbLine
 10
107.6
 20
124.7
 30
0.0
 11
107.6
 21
132.7
 31
0.0
  0
ARC
  5
92
330
1F
100
AcDbEntity
  8
1
  6
CONTINUOUS
 62
     7
100
AcDbCircle
 10
112.6
 20
141.0289321881345
 30
0.0
 40
5.0
100
AcDbArc
 50
166.6100849395446
 51
180.0
  0
ARC
  5
93
330
1F
100
AcDbEntity
  8
1
  6
CONTINUOUS
 62
     7
100
AcDbCircle
 10
-152.0
 20
156.9198039027185
 30
0.0
 40
1.000000000000001
210
0.0
220
0.0
230
-1.0
100
AcDbArc
 50
180.0
 51
256.6954848916743
  0
ARC
  5
94
330
1F
100
AcDbEntity
  8
1
  6
CONTINUOUS
 62
     7
100
AcDbCircle
 10
64.21980390271855
 20
110.7
 30
0.0
 40
0.9999999999999996
100
AcDbArc
 50
191.3099324740201
 51
270.0
  0
LINE
  5
95
330
1F
100
AcDbEntity
  8
1
  6
CONTINUOUS
 62
     7
100
AcDbLine
 10
62.4
 20
114.7
 30
0.0
 11
63.23922322702763
 21
110.5038838648618
 31
0.0
  0
MTEXT
  5
96
330
1F
100
AcDbEntity
  8
1
 62
     7
100
AcDbMText
 10
61.02507190196325
 20
36.85613355008127
 30
0.0
 40
10.0
 41
0.0
 71
     1
 72
     1
  1
{\fＭＳ ゴシック;MIDT-40}
  0
LINE
  5
97
330
1F
100
AcDbEntity
  8
1
  6
CONTINUOUS
 62
     7
100
AcDbLine
 10
75.54337744395163
 20
58.65000000000001
 30
0.0
 11
64.70472241348911
 21
58.65000000000001
 31
0.0
  0
LINE
  5
98
330
1F
100
AcDbEntity
  8
1
  6
CONTINUOUS
 62
     7
100
AcDbLine
 10
93.3952775865109
 20
58.65000000000001
 30
0.0
 11
93.40404253196243
 21
59.65436326774918
 31
0.0
  0
LINE
  5
99
330
1F
100
AcDbEntity
  8
1
  6
CONTINUOUS
 62
     7
100
AcDbLine
 10
94.66735201052279
 20
60.15000000000001
 30
0.0
 11
93.90402349349452
 21
60.15000000000001
 31
0.0
  0
LINE
  5
9A
330
1F
100
AcDbEntity
  8
1
  6
CONTINUOUS
 62
     7
100
AcDbLine
 10
62.4
 20
58.65000000000001
 30
0.0
 11
62.4
 21
70.65
 31
0.0
  0
LINE
  5
9B
330
1F
100
AcDbEntity
  8
1
  6
CONTINUOUS
 62
     7
100
AcDbLine
 10
83.42001692545375
 20
60.17616797812148
 30
0.0
 11
83.43046904474441
 21
59.97672966125989
 31
0.0
  0
LINE
  5
9C
330
1F
100
AcDbEntity
  8
1
  6
CONTINUOUS
 62
     7
100
AcDbLine
 10
77.56953095525556
 20
59.97672966125989
 30
0.0
 11
77.57998307454622
 21
60.17616797812148
 31
0.0
  0
LINE
  5
9D
330
1F
100
AcDbEntity
  8
1
  6
CONTINUOUS
 62
     7
100
AcDbLine
 10
86.56953095525556
 20
59.97672966125989
 30
0.0
 11
86.57998307454622
 21
60.17616797812148
 31
0.0
  0
LINE
  5
9E
330
1F
100
AcDbEntity
  8
1
  6
CONTINUOUS
 62
     7
100
AcDbLine
 10
79.63376414020343
 20
62.15
 30
0.0
 11
78.6323917942055
 21
62.15
 31
0.0
  0
LINE
  5
9F
330
1F
100
AcDbEntity
  8
1
  6
CONTINUOUS
 62
     7
100
AcDbLine
 10
77.63376225945093
 20
61.20233595624294
 30
0.0
 11
77.6733978156238
 21
61.20167832672487
 31
0.0
  0
LINE
  5
A0
330
1F
100
AcDbEntity
  8
1
  6
CONTINUOUS
 62
     7
100
AcDbLine
 10
91.36760820579444
 20
62.15
 30
0.0
 11
90.36623585979653
 21
62.15
 31
0.0
  0
LINE
  5
A1
330
1F
100
AcDbEntity
  8
1
  6
CONTINUOUS
 62
     7
100
AcDbLine
 10
94.45662255604836
 20
58.65000000000001
 30
0.0
 11
94.46025311532784
 21
59.65436326774918
 31
0.0
  0
LINE
  5
A2
330
1F
100
AcDbEntity
  8
1
  6
CONTINUOUS
 62
     7
100
AcDbLine
 10
94.45662255604836
 20
58.65000000000001
 30
0.0
 11
105.2952775865109
 21
58.65000000000001
 31
0.0
  0
LINE
  5
A3
330
1F
100
AcDbEntity
  8
1
  6
CONTINUOUS
 62
     7
100
AcDbLine
 10
63.23922322702763
 20
58.65000000000001
 30
0.0
 11
62.4
 21
58.65000000000001
 31
0.0
  0
LINE
  5
A4
330
1F
100
AcDbEntity
  8
1
  6
CONTINUOUS
 62
     7
100
AcDbLine
 10
62.4
 20
70.65
 30
0.0
 11
63.23922322702763
 21
70.65
 31
0.0
  0
ARC
  5
A5
330
1F
100
AcDbEntity
  8
1
  6
CONTINUOUS
 62
     7
100
AcDbCircle
 10
-100.1408375995539
 20
61.14999999999999
 30
0.0
 40
1.000000000000001
210
0.0
220
0.0
230
-1.0
100
AcDbArc
 50
188.6641354331079
 51
270.0
  0
LINE
  5
A6
330
1F
100
AcDbEntity
  8
1
  6
CONTINUOUS
 62
     7
100
AcDbLine
 10
75.33264798947721
 20
60.15000000000001
 30
0.0
 11
76.09597650650547
 21
60.15000000000001
 31
0.0
  0
LINE
  5
A7
330
1F
100
AcDbEntity
  8
1
  6
CONTINUOUS
 62
     7
100
AcDbLine
 10
92.43046904474441
 20
59.97672966125989
 30
0.0
 11
92.42001692545375
 21
60.17616797812148
 31
0.0
  0
LINE
  5
A8
330
1F
100
AcDbEntity
  8
1
  6
CONTINUOUS
 62
     7
100
AcDbLine
 10
102.4705740248661
 20
69.80064203818361
 30
0.0
 11
101.1294259751339
 21
60.99935796181638
 31
0.0
  0
LINE
  5
A9
330
1F
100
AcDbEntity
  8
1
  6
CONTINUOUS
 62
     7
100
AcDbLine
 10
75.54337744395163
 20
58.65000000000001
 30
0.0
 11
76.60472241348909
 21
58.65000000000001
 31
0.0
  0
LINE
  5
AA
330
1F
100
AcDbEntity
  8
1
  6
CONTINUOUS
 62
     7
100
AcDbLine
 10
67.52942597513392
 20
69.80064203818361
 30
0.0
 11
68.87057402486607
 21
60.99935796181638
 31
0.0
  0
LINE
  5
AB
330
1F
100
AcDbEntity
  8
1
  6
CONTINUOUS
 62
     7
100
AcDbLine
 10
77.49999999999999
 20
58.65000000000001
 30
0.0
 11
83.49999999999999
 21
58.65000000000001
 31
0.0
  0
LINE
  5
AC
330
1F
100
AcDbEntity
  8
1
  6
CONTINUOUS
 62
     7
100
AcDbLine
 10
83.49999999999999
 20
58.64999999999999
 30
0.0
 11
83.43046904474441
 21
59.97672966125989
 31
0.0
  0
LINE
  5
AD
330
1F
100
AcDbEntity
  8
1
  6
CONTINUOUS
 62
     7
100
AcDbLine
 10
86.56953095525556
 20
59.97672966125989
 30
0.0
 11
86.49999999999999
 21
58.64999999999999
 31
0.0
  0
LINE
  5
AE
330
1F
100
AcDbEntity
  8
1
  6
CONTINUOUS
 62
     7
100
AcDbLine
 10
92.49999999999999
 20
58.64999999999999
 30
0.0
 11
92.43046904474441
 21
59.97672966125989
 31
0.0
  0
LINE
  5
AF
330
1F
100
AcDbEntity
  8
1
  6
CONTINUOUS
 62
     7
100
AcDbLine
 10
84.82679491924311
 20
62.15
 30
0.0
 11
84.99999999999999
 21
62.15
 31
0.0
  0
LINE
  5
B0
330
1F
100
AcDbEntity
  8
1
  6
CONTINUOUS
 62
     7
100
AcDbLine
 10
105.4
 20
70.65
 30
0.0
 11
105.7801268020865
 21
70.65
 31
0.0
  0
LINE
  5
B1
330
1F
100
AcDbEntity
  8
1
  6
CONTINUOUS
 62
     7
100
AcDbLine
 10
92.32660218437607
 20
61.20167832672385
 30
0.0
 11
92.36623774054904
 21
61.20233595624294
 31
0.0
  0
LINE
  5
B2
330
1F
100
AcDbEntity
  8
1
  6
CONTINUOUS
 62
     7
100
AcDbLine
 10
78.27515693200678
 20
62.08401458940953
 30
0.0
 11
78.63239179420552
 21
62.15
 31
0.0
  0
LINE
  5
B3
330
1F
100
AcDbEntity
  8
1
  6
CONTINUOUS
 62
     7
100
AcDbLine
 10
86.57998307454623
 20
60.17616797812148
 30
0.0
 11
86.60481555856607
 21
60.65000000000001
 31
0.0
  0
LINE
  5
B4
330
1F
100
AcDbEntity
  8
1
  6
CONTINUOUS
 62
     7
100
AcDbLine
 10
84.99999999999999
 20
62.15
 30
0.0
 11
85.17320508075687
 21
62.15
 31
0.0
  0
LINE
  5
B5
330
1F
100
AcDbEntity
  8
1
  6
CONTINUOUS
 62
     7
100
AcDbLine
 10
76.60472241348909
 20
58.65000000000001
 30
0.0
 11
76.59595746803755
 21
59.65436326774918
 31
0.0
  0
LINE
  5
B6
330
1F
100
AcDbEntity
  8
1
  6
CONTINUOUS
 62
     7
100
AcDbLine
 10
94.45662255604836
 20
58.65000000000001
 30
0.0
 11
93.3952775865109
 21
58.65000000000001
 31
0.0
  0
LINE
  5
B7
330
1F
100
AcDbEntity
  8
1
  6
CONTINUOUS
 62
     7
100
AcDbLine
 10
83.3951844414339
 20
60.65000000000001
 30
0.0
 11
83.42001692545375
 21
60.17616797812148
 31
0.0
  0
LINE
  5
B8
330
1F
100
AcDbEntity
  8
1
  6
CONTINUOUS
 62
     7
100
AcDbLine
 10
77.56953095525556
 20
59.97672966125989
 30
0.0
 11
77.49999999999999
 21
58.64999999999999
 31
0.0
  0
LINE
  5
B9
330
1F
100
AcDbEntity
  8
1
  6
CONTINUOUS
 62
     7
100
AcDbLine
 10
69.85916240044605
 20
60.15000000000001
 30
0.0
 11
75.33264798947721
 21
60.15000000000001
 31
0.0
  0
LINE
  5
BA
330
1F
100
AcDbEntity
  8
1
  6
CONTINUOUS
 62
     7
100
AcDbLine
 10
75.54337744395163
 20
58.65000000000001
 30
0.0
 11
75.53974688467214
 21
59.65436326774918
 31
0.0
  0
LINE
  5
BB
330
1F
100
AcDbEntity
  8
1
  6
CONTINUOUS
 62
     7
100
AcDbLine
 10
86.49999999999999
 20
58.65000000000001
 30
0.0
 11
92.49999999999999
 21
58.65000000000001
 31
0.0
  0
LINE
  5
BC
330
1F
100
AcDbEntity
  8
1
  6
CONTINUOUS
 62
     7
100
AcDbLine
 10
85.75055534994651
 20
60.64999999999999
 30
0.0
 11
84.99999999999999
 21
60.64999999999999
 31
0.0
  0
LINE
  5
BD
330
1F
100
AcDbEntity
  8
1
  6
CONTINUOUS
 62
     7
100
AcDbLine
 10
84.99999999999999
 20
60.64999999999999
 30
0.0
 11
84.24944465005348
 21
60.64999999999999
 31
0.0
  0
LINE
  5
BE
330
1F
100
AcDbEntity
  8
1
  6
CONTINUOUS
 62
     7
100
AcDbLine
 10
91.72484306798097
 20
62.0840145894142
 30
0.0
 11
91.36760820579445
 21
62.15
 31
0.0
  0
LINE
  5
BF
330
1F
100
AcDbEntity
  8
1
  6
CONTINUOUS
 62
     7
100
AcDbLine
 10
106.7607767729723
 20
58.65000000000001
 30
0.0
 11
107.6
 21
58.65000000000001
 31
0.0
  0
LINE
  5
C0
330
1F
100
AcDbEntity
  8
1
  6
CONTINUOUS
 62
     7
100
AcDbLine
 10
90.39243974943805
 20
60.65000000000001
 30
0.0
 11
92.39518444143391
 21
60.65000000000001
 31
0.0
  0
LINE
  5
C1
330
1F
100
AcDbEntity
  8
1
  6
CONTINUOUS
 62
     7
100
AcDbLine
 10
79.60756025056192
 20
60.64999999999999
 30
0.0
 11
84.24944465005348
 21
60.64999999999999
 31
0.0
  0
LINE
  5
C2
330
1F
100
AcDbEntity
  8
1
  6
CONTINUOUS
 62
     7
100
AcDbLine
 10
84.82679491924311
 20
62.15
 30
0.0
 11
79.63376414020343
 21
62.15
 31
0.0
  0
LINE
  5
C3
330
1F
100
AcDbEntity
  8
1
  6
CONTINUOUS
 62
     7
100
AcDbLine
 10
77.57998307454622
 20
60.17616797812148
 30
0.0
 11
77.60481555856607
 21
60.65000000000001
 31
0.0
  0
ARC
  5
C4
330
1F
100
AcDbEntity
  8
1
  6
CONTINUOUS
 62
     7
100
AcDbCircle
 10
69.85916240044605
 20
61.14999999999999
 30
0.0
 40
1.000000000000001
100
AcDbArc
 50
188.6641354331079
 51
269.9999999999999
  0
LINE
  5
C5
330
1F
100
AcDbEntity
  8
1
  6
CONTINUOUS
 62
     7
100
AcDbLine
 10
100.1408375995539
 20
60.15000000000001
 30
0.0
 11
94.66735201052279
 21
60.15000000000001
 31
0.0
  0
LINE
  5
C6
330
1F
100
AcDbEntity
  8
1
  6
CONTINUOUS
 62
     7
100
AcDbLine
 10
107.6
 20
70.65
 30
0.0
 11
106.7607767729723
 21
70.65
 31
0.0
  0
LINE
  5
C7
330
1F
100
AcDbEntity
  8
1
  6
CONTINUOUS
 62
     7
100
AcDbLine
 10
105.2952775865109
 20
58.65000000000001
 30
0.0
 11
105.7801960972814
 21
58.65000000000001
 31
0.0
  0
LINE
  5
C8
330
1F
100
AcDbEntity
  8
1
  6
CONTINUOUS
 62
     7
100
AcDbLine
 10
90.36623585979655
 20
62.15
 30
0.0
 11
85.17320508075687
 21
62.15
 31
0.0
  0
LINE
  5
C9
330
1F
100
AcDbEntity
  8
1
  6
CONTINUOUS
 62
     7
100
AcDbLine
 10
77.60481555856607
 20
60.65000000000001
 30
0.0
 11
79.60756025056192
 21
60.65000000000001
 31
0.0
  0
LINE
  5
CA
330
1F
100
AcDbEntity
  8
1
  6
CONTINUOUS
 62
     7
100
AcDbLine
 10
92.39518444143391
 20
60.65000000000001
 30
0.0
 11
92.36623774054904
 21
61.20233595624294
 31
0.0
  0
LINE
  5
CB
330
1F
100
AcDbEntity
  8
1
  6
CONTINUOUS
 62
     7
100
AcDbLine
 10
107.6
 20
58.65000000000001
 30
0.0
 11
107.6
 21
70.65
 31
0.0
  0
LINE
  5
CC
330
1F
100
AcDbEntity
  8
1
  6
CONTINUOUS
 62
     7
100
AcDbLine
 10
85.75055534994651
 20
60.64999999999999
 30
0.0
 11
90.39243974943805
 21
60.64999999999999
 31
0.0
  0
LINE
  5
CD
330
1F
100
AcDbEntity
  8
1
  6
CONTINUOUS
 62
     7
100
AcDbLine
 10
77.63376225945095
 20
61.20233595624294
 30
0.0
 11
77.60481555856607
 21
60.65000000000001
 31
0.0
  0
LINE
  5
CE
330
1F
100
AcDbEntity
  8
1
  6
CONTINUOUS
 62
     7
100
AcDbLine
 10
92.39518444143391
 20
60.65000000000001
 30
0.0
 11
92.42001692545375
 21
60.17616797812148
 31
0.0
  0
ARC
  5
CF
330
1F
100
AcDbEntity
  8
1
  6
CONTINUOUS
 62
     7
100
AcDbCircle
 10
103.4591624004461
 20
69.65
 30
0.0
 40
1.0
100
AcDbArc
 50
90.0
 51
171.3358645668921
  0
LINE
  5
D0
330
1F
100
AcDbEntity
  8
1
  6
CONTINUOUS
 62
     7
100
AcDbLine
 10
77.5
 20
58.65000000000001
 30
0.0
 11
76.60472241348909
 21
58.65000000000001
 31
0.0
  0
LINE
  5
D1
330
1F
100
AcDbEntity
  8
1
  6
CONTINUOUS
 62
     7
100
AcDbLine
 10
118.1355339059328
 20
70.65
 30
0.0
 11
109.0644660940673
 21
70.65
 31
0.0
  0
LINE
  5
D2
330
1F
100
AcDbEntity
  8
1
  6
CONTINUOUS
 62
     7
100
AcDbLine
 10
107.4315890894981
 20
89.9405439758032
 30
0.0
 11
107.4317242571138
 21
89.93249022683847
 31
0.0
  0
LINE
  5
D3
330
1F
100
AcDbEntity
  8
1
  6
CONTINUOUS
 62
     7
100
AcDbLine
 10
85.0
 20
58.65000000000001
 30
0.0
 11
84.22789727337143
 21
58.65000000000001
 31
0.0
  0
LINE
  5
D4
330
1F
100
AcDbEntity
  8
1
  6
CONTINUOUS
 62
     7
100
AcDbLine
 10
39.99999999999999
 20
70.65
 30
0.0
 11
31.99999999999999
 21
70.65
 31
0.0
  0
LINE
  5
D5
330
1F
100
AcDbEntity
  8
1
  6
CONTINUOUS
 62
     7
100
AcDbLine
 10
22.0
 20
58.65000000000001
 30
0.0
 11
17.80388386486181
 21
58.65000000000001
 31
0.0
  0
LINE
  5
D6
330
1F
100
AcDbEntity
  8
1
  6
CONTINUOUS
 62
     7
100
AcDbLine
 10
48.32893218813452
 20
58.65000000000001
 30
0.0
 11
51.86446609406727
 21
58.65000000000001
 31
0.0
  0
LINE
  5
D7
330
1F
100
AcDbEntity
  8
1
  6
CONTINUOUS
 62
     7
100
AcDbLine
 10
105.3999162275514
 20
70.65
 30
0.0
 11
103.4591624004461
 21
70.65
 31
0.0
  0
LINE
  5
D8
330
1F
100
AcDbEntity
  8
1
  6
CONTINUOUS
 62
     7
100
AcDbLine
 10
64.7558027650214
 20
88.49362915841101
 30
0.0
 11
64.60008377244861
 21
70.65
 31
0.0
  0
LINE
  5
D9
330
1F
100
AcDbEntity
  8
1
  6
CONTINUOUS
 62
     7
100
AcDbLine
 10
105.2441972349786
 20
88.49362915841101
 30
0.0
 11
105.3999162275514
 21
70.65
 31
0.0
  0
LINE
  5
DA
330
1F
100
AcDbEntity
  8
1
  6
CONTINUOUS
 62
     7
100
AcDbLine
 10
60.93553390593274
 20
58.65000000000001
 30
0.0
 11
62.40000000000001
 21
58.65000000000001
 31
0.0
  0
LINE
  5
DB
330
1F
100
AcDbEntity
  8
1
  6
CONTINUOUS
 62
     7
100
AcDbLine
 10
92.39517291641361
 20
60.65021991048758
 30
0.0
 11
92.39381303581223
 21
60.67616797812148
 31
0.0
  0
LINE
  5
DC
330
1F
100
AcDbEntity
  8
1
  6
CONTINUOUS
 62
     7
100
AcDbLine
 10
109.0644660940673
 20
58.65000000000001
 30
0.0
 11
107.6
 21
58.65000000000001
 31
0.0
  0
LINE
  5
DD
330
1F
100
AcDbEntity
  8
1
  6
CONTINUOUS
 62
     7
100
AcDbLine
 10
60.93553390593274
 20
58.65000000000001
 30
0.0
 11
51.86446609406727
 21
58.65000000000001
 31
0.0
  0
LINE
  5
DE
330
1F
100
AcDbEntity
  8
1
  6
CONTINUOUS
 62
     7
100
AcDbLine
 10
31.99999999999999
 20
70.65
 30
0.0
 11
22.0
 21
70.65
 31
0.0
  0
LINE
  5
DF
330
1F
100
AcDbEntity
  8
1
  6
CONTINUOUS
 62
     7
100
AcDbLine
 10
118.1355339059327
 20
70.65
 30
0.0
 11
121.6710678118655
 21
70.65
 31
0.0
  0
LINE
  5
E0
330
1F
100
AcDbEntity
  8
1
  6
CONTINUOUS
 62
     7
100
AcDbLine
 10
153.0
 20
58.65000000000001
 30
0.0
 11
153.0
 21
70.65
 31
0.0
  0
LINE
  5
E1
330
1F
100
AcDbEntity
  8
1
  6
CONTINUOUS
 62
     7
100
AcDbLine
 10
109.0644660940673
 20
58.65000000000001
 30
0.0
 11
118.1355339059327
 21
58.65000000000001
 31
0.0
  0
LINE
  5
E2
330
1F
100
AcDbEntity
  8
1
  6
CONTINUOUS
 62
     7
100
AcDbLine
 10
152.1961161351382
 20
58.65000000000001
 30
0.0
 11
153.0
 21
58.65000000000001
 31
0.0
  0
LINE
  5
E3
330
1F
100
AcDbEntity
  8
1
  6
CONTINUOUS
 62
     7
100
AcDbLine
 10
17.80388386486181
 20
58.65000000000001
 30
0.0
 11
17.0
 21
58.65000000000001
 31
0.0
  0
LINE
  5
E4
330
1F
100
AcDbEntity
  8
1
  6
CONTINUOUS
 62
     7
100
AcDbLine
 10
85.77210272662857
 20
58.65000000000001
 30
0.0
 11
85.0
 21
58.65000000000001
 31
0.0
  0
LINE
  5
E5
330
1F
100
AcDbEntity
  8
1
  6
CONTINUOUS
 62
     7
100
AcDbLine
 10
84.22789727337143
 20
58.65000000000001
 30
0.0
 11
83.49999999999999
 21
58.65000000000001
 31
0.0
  0
LINE
  5
E6
330
1F
100
AcDbEntity
  8
1
  6
CONTINUOUS
 62
     7
100
AcDbLine
 10
121.6710678118655
 20
58.65000000000001
 30
0.0
 11
148.0
 21
58.65000000000001
 31
0.0
  0
LINE
  5
E7
330
1F
100
AcDbEntity
  8
1
  6
CONTINUOUS
 62
     7
100
AcDbLine
 10
107.6
 20
70.65
 30
0.0
 11
109.0644660940673
 21
70.65
 31
0.0
  0
LINE
  5
E8
330
1F
100
AcDbEntity
  8
1
  6
CONTINUOUS
 62
     7
100
AcDbLine
 10
153.0
 20
70.65
 30
0.0
 11
152.1961161351382
 21
70.65
 31
0.0
  0
LINE
  5
E9
330
1F
100
AcDbEntity
  8
1
  6
CONTINUOUS
 62
     7
100
AcDbLine
 10
17.0
 20
58.65000000000001
 30
0.0
 11
17.0
 21
70.65
 31
0.0
  0
LINE
  5
EA
330
1F
100
AcDbEntity
  8
1
  6
CONTINUOUS
 62
     7
100
AcDbLine
 10
64.21987319791351
 20
70.65
 30
0.0
 11
63.23925518329337
 21
70.65
 31
0.0
  0
LINE
  5
EB
330
1F
100
AcDbEntity
  8
1
  6
CONTINUOUS
 62
     7
100
AcDbLine
 10
92.42138833107545
 20
60.15000000000001
 30
0.0
 11
93.90402349349452
 21
60.15000000000001
 31
0.0
  0
LINE
  5
EC
330
1F
100
AcDbEntity
  8
1
  6
CONTINUOUS
 62
     7
100
AcDbLine
 10
86.49999999999999
 20
58.65000000000001
 30
0.0
 11
85.77210272662857
 21
58.65000000000001
 31
0.0
  0
LINE
  5
ED
330
1F
100
AcDbEntity
  8
1
  6
CONTINUOUS
 62
     7
100
AcDbLine
 10
130.0
 20
70.65
 30
0.0
 11
138.0
 21
70.65
 31
0.0
  0
LINE
  5
EE
330
1F
100
AcDbEntity
  8
1
  6
CONTINUOUS
 62
     7
100
AcDbLine
 10
48.32893218813452
 20
70.65
 30
0.0
 11
39.99999999999999
 21
70.65
 31
0.0
  0
LINE
  5
EF
330
1F
100
AcDbEntity
  8
1
  6
CONTINUOUS
 62
     7
100
AcDbLine
 10
17.0
 20
70.65
 30
0.0
 11
17.80388386486181
 21
70.65
 31
0.0
  0
LINE
  5
F0
330
1F
100
AcDbEntity
  8
1
  6
CONTINUOUS
 62
     7
100
AcDbLine
 10
152.1961161351382
 20
70.65
 30
0.0
 11
148.0
 21
70.65
 31
0.0
  0
LINE
  5
F1
330
1F
100
AcDbEntity
  8
1
  6
CONTINUOUS
 62
     7
100
AcDbLine
 10
68.5686266703379
 20
89.15
 30
0.0
 11
64.7558027650214
 21
88.49362915841101
 31
0.0
  0
LINE
  5
F2
330
1F
100
AcDbEntity
  8
1
  6
CONTINUOUS
 62
     7
100
AcDbLine
 10
138.0
 20
70.65
 30
0.0
 11
148.0
 21
70.65
 31
0.0
  0
LINE
  5
F3
330
1F
100
AcDbEntity
  8
1
  6
CONTINUOUS
 62
     7
100
AcDbLine
 10
101.4313733296621
 20
89.15
 30
0.0
 11
105.2441972349786
 21
88.49362915841101
 31
0.0
  0
LINE
  5
F4
330
1F
100
AcDbEntity
  8
1
  6
CONTINUOUS
 62
     7
100
AcDbLine
 10
105.4
 20
70.65
 30
0.0
 11
105.7801268020865
 21
70.65
 31
0.0
  0
ARC
  5
F5
330
1F
100
AcDbEntity
  8
1
  6
CONTINUOUS
 62
     7
100
AcDbCircle
 10
-66.54083759955392
 20
69.65
 30
0.0
 40
1.0
210
0.0
220
0.0
230
-1.0
100
AcDbArc
 50
90.0
 51
171.335864566892
  0
LINE
  5
F6
330
1F
100
AcDbEntity
  8
1
  6
CONTINUOUS
 62
     7
100
AcDbLine
 10
93.3952775865109
 20
58.65000000000001
 30
0.0
 11
92.49999999999999
 21
58.65000000000001
 31
0.0
  0
LINE
  5
F7
330
1F
100
AcDbEntity
  8
1
  6
CONTINUOUS
 62
     7
100
AcDbLine
 10
101.4313733296621
 20
89.15
 30
0.0
 11
68.5686266703379
 21
89.15
 31
0.0
  0
LINE
  5
F8
330
1F
100
AcDbEntity
  8
1
  6
CONTINUOUS
 62
     7
100
AcDbLine
 10
51.86446609406727
 20
70.65
 30
0.0
 11
48.32893218813452
 21
70.65
 31
0.0
  0
LINE
  5
F9
330
1F
100
AcDbEntity
  8
1
  6
CONTINUOUS
 62
     7
100
AcDbLine
 10
148.0
 20
58.65000000000001
 30
0.0
 11
152.1961161351382
 21
58.65000000000001
 31
0.0
  0
LINE
  5
FA
330
1F
100
AcDbEntity
  8
1
  6
CONTINUOUS
 62
     7
100
AcDbLine
 10
105.7801268020865
 20
70.65
 30
0.0
 11
106.7607448167066
 21
70.65
 31
0.0
  0
ARC
  5
FB
330
1F
100
AcDbEntity
  8
1
  6
CONTINUOUS
 62
     7
100
AcDbCircle
 10
101.192125411574
 20
86.35000000000001
 30
0.0
 40
5.0
100
AcDbArc
 50
80.32743472308191
 51
89.90493595309042
  0
ARC
  5
FC
330
1F
100
AcDbEntity
  8
1
  6
CONTINUOUS
 62
     7
100
AcDbCircle
 10
-68.80787458842596
 20
86.35000000000001
 30
0.0
 40
5.0
210
0.0
220
0.0
230
-1.0
100
AcDbArc
 50
80.32743472308191
 51
89.90493595309026
  0
LINE
  5
FD
330
1F
100
AcDbEntity
  8
1
  6
CONTINUOUS
 62
     7
100
AcDbLine
 10
107.6
 20
70.65
 30
0.0
 11
107.4317242571138
 21
89.93249022683847
 31
0.0
  0
LINE
  5
FE
330
1F
100
AcDbEntity
  8
1
  6
CONTINUOUS
 62
     7
100
AcDbLine
 10
106.7607767729724
 20
70.65
 30
0.0
 11
107.6
 21
70.65
 31
0.0
  0
LINE
  5
FF
330
1F
100
AcDbEntity
  8
1
  6
CONTINUOUS
 62
     7
100
AcDbLine
 10
64.60008377244861
 20
70.65
 30
0.0
 11
66.54083759955392
 21
70.65
 31
0.0
  0
ARC
  5
100
330
1F
100
AcDbEntity
  8
1
  6
CONTINUOUS
 62
     7
100
AcDbCircle
 10
68.80787458842595
 20
86.35
 30
0.0
 40
5.000000000000005
100
AcDbArc
 50
89.99999999999982
 51
90.09506404690956
  0
LINE
  5
101
330
1F
100
AcDbEntity
  8
1
  6
CONTINUOUS
 62
     7
100
AcDbLine
 10
68.80787458842596
 20
91.35
 30
0.0
 11
101.192125411574
 21
91.35
 31
0.0
  0
ARC
  5
102
330
1F
100
AcDbEntity
  8
1
  6
CONTINUOUS
 62
     7
100
AcDbCircle
 10
-101.192125411574
 20
86.35
 30
0.0
 40
5.000000000000005
210
0.0
220
0.0
230
-1.0
100
AcDbArc
 50
90.00000000000016
 51
90.09506404690974
  0
ARC
  5
103
330
1F
100
AcDbEntity
  8
1
  6
CONTINUOUS
 62
     7
100
AcDbCircle
 10
68.80787458842595
 20
86.35
 30
0.0
 40
5.000000000000004
100
AcDbArc
 50
99.67256527691791
 51
99.7676293238279
  0
LINE
  5
104
330
1F
100
AcDbEntity
  8
1
  6
CONTINUOUS
 62
     7
100
AcDbLine
 10
64.60000000000001
 20
70.65
 30
0.0
 11
64.21987319791351
 21
70.65
 31
0.0
  0
LINE
  5
105
330
1F
100
AcDbEntity
  8
1
  6
CONTINUOUS
 62
     7
100
AcDbLine
 10
62.98343033375779
 20
90.42087891173945
 30
0.0
 11
62.97550347973493
 21
90.4194484824432
 31
0.0
  0
LINE
  5
106
330
1F
100
AcDbEntity
  8
1
  6
CONTINUOUS
 62
     7
100
AcDbLine
 10
51.86446609406726
 20
70.65
 30
0.0
 11
60.93553390593273
 21
70.65
 31
0.0
  0
LINE
  5
107
330
1F
100
AcDbEntity
  8
1
  6
CONTINUOUS
 62
     7
100
AcDbLine
 10
62.98343033375779
 20
90.42087891173945
 30
0.0
 11
67.9596108818209
 21
91.27751952650182
 31
0.0
  0
LINE
  5
108
330
1F
100
AcDbEntity
  8
1
  6
CONTINUOUS
 62
     7
100
AcDbLine
 10
121.6710678118655
 20
70.65
 30
0.0
 11
130.0
 21
70.65
 31
0.0
  0
LINE
  5
109
330
1F
100
AcDbEntity
  8
1
  6
CONTINUOUS
 62
     7
100
AcDbLine
 10
77.57861166892455
 20
60.15000000000001
 30
0.0
 11
76.09597650650547
 21
60.15000000000001
 31
0.0
  0
LINE
  5
10A
330
1F
100
AcDbEntity
  8
1
  6
CONTINUOUS
 62
     7
100
AcDbLine
 10
62.4
 20
70.65
 30
0.0
 11
62.5682757428862
 21
89.93249022683847
 31
0.0
  0
LINE
  5
10B
330
1F
100
AcDbEntity
  8
1
  6
CONTINUOUS
 62
     7
100
AcDbLine
 10
121.6710678118655
 20
58.65000000000001
 30
0.0
 11
118.1355339059327
 21
58.65000000000001
 31
0.0
  0
LINE
  5
10C
330
1F
100
AcDbEntity
  8
1
  6
CONTINUOUS
 62
     7
100
AcDbLine
 10
17.80388386486181
 20
70.65
 30
0.0
 11
22.0
 21
70.65
 31
0.0
  0
LINE
  5
10D
330
1F
100
AcDbEntity
  8
1
  6
CONTINUOUS
 62
     7
100
AcDbLine
 10
62.4
 20
70.65
 30
0.0
 11
60.93553390593273
 21
70.65
 31
0.0
  0
LINE
  5
10E
330
1F
100
AcDbEntity
  8
1
  6
CONTINUOUS
 62
     7
100
AcDbLine
 10
48.32893218813452
 20
58.65000000000001
 30
0.0
 11
22.0
 21
58.65000000000001
 31
0.0
  0
LINE
  5
10F
330
1F
100
AcDbEntity
  8
1
  6
CONTINUOUS
 62
     7
100
AcDbLine
 10
41.62498572060534
 20
74.64980961677071
 30
0.0
 11
41.49998096080713
 21
75.64977153983489
 31
0.0
  0
ARC
  5
110
330
1F
100
AcDbEntity
  8
1
  6
CONTINUOUS
 62
     7
100
AcDbCircle
 10
-101.192125411574
 20
86.35
 30
0.0
 40
5.000000000000004
210
0.0
220
0.0
230
-1.0
100
AcDbArc
 50
99.67256527691823
 51
99.76762932382805
  0
ELLIPSE
  5
111
330
1F
100
AcDbEntity
  8
1
  6
CONTINUOUS
 62
     7
100
AcDbEllipse
 10
32.76555609826096
 20
77.64939078207543
 30
0.0
 11
2.000000000000002
 21
0.0
 31
0.0
210
0.0
220
0.0
230
-1.0
 40
0.9999619230641712
 41
3.26595233470438
 42
3.665367307951906
  0
LINE
  5
112
330
1F
100
AcDbEntity
  8
1
  6
CONTINUOUS
 62
     7
100
AcDbLine
 10
139.3749762010089
 20
76.64973346289905
 30
0.0
 11
139.4999809608071
 21
75.64977153983489
 31
0.0
  0
LINE
  5
113
330
1F
100
AcDbEntity
  8
1
  6
CONTINUOUS
 62
     7
100
AcDbLine
 10
148.0
 20
70.65
 30
0.0
 11
152.1961161351382
 21
70.65
 31
0.0
  0
LINE
  5
114
330
1F
100
AcDbEntity
  8
1
  6
CONTINUOUS
 62
     7
100
AcDbLine
 10
128.6250237989911
 20
76.64973346289905
 30
0.0
 11
128.7500285587893
 21
77.64969538596323
 31
0.0
  0
LINE
  5
115
330
1F
100
AcDbEntity
  8
1
  6
CONTINUOUS
 62
     7
100
AcDbLine
 10
107.0165696662422
 20
90.42087891173945
 30
0.0
 11
107.0244965202651
 21
90.4194484824432
 31
0.0
  0
LINE
  5
116
330
1F
100
AcDbEntity
  8
1
  6
CONTINUOUS
 62
     7
100
AcDbLine
 10
116.9457714394881
 20
91.35
 30
0.0
 11
101.192125411574
 21
91.35
 31
0.0
  0
LINE
  5
117
330
1F
100
AcDbEntity
  8
1
  6
CONTINUOUS
 62
     7
100
AcDbLine
 10
139.4999809608071
 20
75.64977153983489
 30
0.0
 11
139.6249857206054
 21
74.64980961677071
 31
0.0
  0
LINE
  5
118
330
1F
100
AcDbEntity
  8
1
  6
CONTINUOUS
 62
     7
100
AcDbLine
 10
60.93558966831422
 20
70.65
 30
0.0
 11
62.40000000000001
 21
70.65
 31
0.0
  0
LINE
  5
119
330
1F
100
AcDbEntity
  8
1
  6
CONTINUOUS
 62
     7
100
AcDbLine
 10
139.7499904804036
 20
73.64984769370653
 30
0.0
 11
139.8749952402018
 21
72.64988577064237
 31
0.0
  0
LINE
  5
11A
330
1F
100
AcDbEntity
  8
1
  6
CONTINUOUS
 62
     7
100
AcDbLine
 10
139.2499714412107
 20
77.64969538596323
 30
0.0
 11
139.3749762010089
 21
76.64973346289905
 31
0.0
  0
LINE
  5
11B
330
1F
100
AcDbEntity
  8
1
  6
CONTINUOUS
 62
     7
100
AcDbLine
 10
139.6249857206054
 20
74.64980961677071
 30
0.0
 11
139.7499904804036
 21
73.64984769370653
 31
0.0
  0
LINE
  5
11C
330
1F
100
AcDbEntity
  8
1
  6
CONTINUOUS
 62
     7
100
AcDbLine
 10
60.93553390593273
 20
70.65
 30
0.0
 11
51.86446609406726
 21
70.65
 31
0.0
  0
LINE
  5
11D
330
1F
100
AcDbEntity
  8
1
  6
CONTINUOUS
 62
     7
100
AcDbLine
 10
139.2189984925502
 20
77.89746010592683
 30
0.0
 11
139.2499714412107
 21
77.64969538596323
 31
0.0
  0
LINE
  5
11E
330
1F
100
AcDbEntity
  8
1
  6
CONTINUOUS
 62
     7
100
AcDbLine
 10
140.0
 20
71.64992384757821
 30
0.0
 11
138.0
 21
71.64992384757821
 31
0.0
  0
ELLIPSE
  5
11F
330
1F
100
AcDbEntity
  8
1
  6
CONTINUOUS
 62
     7
100
AcDbEllipse
 10
130.765556098261
 20
77.64939078207543
 30
0.0
 11
-2.000000000000002
 21
0.0
 31
0.0
210
0.0
220
0.0
230
1.0
 40
0.9999619230641712
 41
4.712388980384663
 42
5.759410652817468
  0
LINE
  5
120
330
1F
100
AcDbEntity
  8
1
  6
CONTINUOUS
 62
     7
100
AcDbLine
 10
109.0644660940673
 20
70.65
 30
0.0
 11
118.1355339059328
 21
70.65
 31
0.0
  0
LINE
  5
121
330
1F
100
AcDbEntity
  8
1
  6
CONTINUOUS
 62
     7
100
AcDbLine
 10
128.5000190391929
 20
75.64977153983489
 30
0.0
 11
128.6250237989911
 21
76.64973346289905
 31
0.0
  0
LINE
  5
122
330
1F
100
AcDbEntity
  8
1
  6
CONTINUOUS
 62
     7
100
AcDbLine
 10
107.0165696662422
 20
90.42087891173945
 30
0.0
 11
102.0403891181791
 21
91.27751952650182
 31
0.0
  0
ELLIPSE
  5
123
330
1F
100
AcDbEntity
  8
1
  6
CONTINUOUS
 62
     7
100
AcDbEllipse
 10
137.234443901739
 20
77.64939078207543
 30
0.0
 11
-2.000000000000002
 21
0.0
 31
0.0
210
0.0
220
0.0
230
1.0
 40
0.9999619230641712
 41
3.265952334704334
 42
3.665367307951864
  0
LINE
  5
124
330
1F
100
AcDbEntity
  8
1
  6
CONTINUOUS
 62
     7
100
AcDbLine
 10
128.2500095195964
 20
73.64984769370653
 30
0.0
 11
128.3750142793947
 21
74.64980961677071
 31
0.0
  0
ELLIPSE
  5
125
330
1F
100
AcDbEntity
  8
1
  6
CONTINUOUS
 62
     7
100
AcDbEllipse
 10
130.765556098261
 20
77.64939078207543
 30
0.0
 11
-2.000000000000002
 21
0.0
 31
0.0
210
0.0
220
0.0
230
1.0
 40
0.9999619230641712
 41
5.759410652817456
 42
6.158825626064982
  0
LINE
  5
126
330
1F
100
AcDbEntity
  8
1
  6
CONTINUOUS
 62
     7
100
AcDbLine
 10
130.0
 20
71.64992384757821
 30
0.0
 11
128.0
 21
71.64992384757821
 31
0.0
  0
LINE
  5
127
330
1F
100
AcDbEntity
  8
1
  6
CONTINUOUS
 62
     7
100
AcDbLine
 10
109.0644103316858
 20
70.65
 30
0.0
 11
107.6
 21
70.65
 31
0.0
  0
LINE
  5
128
330
1F
100
AcDbEntity
  8
1
  6
CONTINUOUS
 62
     7
100
AcDbLine
 10
139.8749952402018
 20
72.64988577064237
 30
0.0
 11
140.0
 21
71.64992384757821
 31
0.0
  0
LINE
  5
129
330
1F
100
AcDbEntity
  8
1
  6
CONTINUOUS
 62
     7
100
AcDbLine
 10
128.7500285587893
 20
77.64969538596323
 30
0.0
 11
128.7810015074498
 21
77.89746010592683
 31
0.0
  0
LINE
  5
12A
330
1F
100
AcDbEntity
  8
1
  6
CONTINUOUS
 62
     7
100
AcDbLine
 10
128.1250047597982
 20
72.64988577064237
 30
0.0
 11
128.2500095195964
 21
73.64984769370653
 31
0.0
  0
LINE
  5
12B
330
1F
100
AcDbEntity
  8
1
  6
CONTINUOUS
 62
     7
100
AcDbLine
 10
62.56841091050189
 20
89.9405439758032
 30
0.0
 11
62.5682757428862
 21
89.93249022683847
 31
0.0
  0
LINE
  5
12C
330
1F
100
AcDbEntity
  8
1
  6
CONTINUOUS
 62
     7
100
AcDbLine
 10
128.0
 20
71.64992384757821
 30
0.0
 11
128.1250047597982
 21
72.64988577064237
 31
0.0
  0
LINE
  5
12D
330
1F
100
AcDbEntity
  8
1
  6
CONTINUOUS
 62
     7
100
AcDbLine
 10
121.6710678118655
 20
70.65
 30
0.0
 11
130.0
 21
70.65
 31
0.0
  0
LINE
  5
12E
330
1F
100
AcDbEntity
  8
1
  6
CONTINUOUS
 62
     7
100
AcDbLine
 10
41.87499524020178
 20
72.64988577064237
 30
0.0
 11
41.74999048040355
 21
73.64984769370653
 31
0.0
  0
LINE
  5
12F
330
1F
100
AcDbEntity
  8
1
  6
CONTINUOUS
 62
     7
100
AcDbLine
 10
41.74999048040355
 20
73.64984769370653
 30
0.0
 11
41.62498572060534
 21
74.64980961677071
 31
0.0
  0
LINE
  5
130
330
1F
100
AcDbEntity
  8
1
  6
CONTINUOUS
 62
     7
100
AcDbLine
 10
128.3750142793947
 20
74.64980961677071
 30
0.0
 11
128.5000190391929
 21
75.64977153983489
 31
0.0
  0
LINE
  5
131
330
1F
100
AcDbEntity
  8
1
  6
CONTINUOUS
 62
     7
100
AcDbLine
 10
41.49998096080713
 20
75.64977153983489
 30
0.0
 11
41.37497620100891
 21
76.64973346289905
 31
0.0
  0
LINE
  5
132
330
1F
100
AcDbEntity
  8
1
  6
CONTINUOUS
 62
     7
100
AcDbLine
 10
41.37497620100891
 20
76.64973346289905
 30
0.0
 11
41.24997144121069
 21
77.64969538596323
 31
0.0
  0
LINE
  5
133
330
1F
100
AcDbEntity
  8
1
  6
CONTINUOUS
 62
     7
100
AcDbLine
 10
63.2392232270276
 20
70.65
 30
0.0
 11
62.4
 21
70.65
 31
0.0
  0
LINE
  5
134
330
1F
100
AcDbEntity
  8
1
  6
CONTINUOUS
 62
     7
100
AcDbLine
 10
41.24997144121069
 20
77.64969538596323
 30
0.0
 11
41.21899849255019
 21
77.89746010592683
 31
0.0
  0
ELLIPSE
  5
135
330
1F
100
AcDbEntity
  8
1
  6
CONTINUOUS
 62
     7
100
AcDbEllipse
 10
39.23444390173904
 20
77.64939078207543
 30
0.0
 11
2.000000000000002
 21
0.0
 31
0.0
210
0.0
220
0.0
230
-1.0
 40
0.9999619230641712
 41
5.759410652817496
 42
6.158825626065024
  0
LINE
  5
136
330
1F
100
AcDbEntity
  8
1
  6
CONTINUOUS
 62
     7
100
AcDbLine
 10
130.0
 20
70.65
 30
0.0
 11
130.0
 21
71.64992384757821
 31
0.0
  0
LINE
  5
137
330
1F
100
AcDbEntity
  8
1
  6
CONTINUOUS
 62
     7
100
AcDbLine
 10
53.05422856051194
 20
91.35
 30
0.0
 11
68.80787458842596
 21
91.35
 31
0.0
  0
ELLIPSE
  5
138
330
1F
100
AcDbEntity
  8
1
  6
CONTINUOUS
 62
     7
100
AcDbEllipse
 10
137.234443901739
 20
77.64939078207543
 30
0.0
 11
-2.000000000000002
 21
0.0
 31
0.0
210
0.0
220
0.0
230
1.0
 40
0.9999619230641712
 41
3.665367307951866
 42
4.71238898038467
  0
LINE
  5
139
330
1F
100
AcDbEntity
  8
1
  6
CONTINUOUS
 62
     7
100
AcDbLine
 10
39.23444390173904
 20
79.64931462820377
 30
0.0
 11
32.76555609826096
 21
79.64931462820377
 31
0.0
  0
ELLIPSE
  5
13A
330
1F
100
AcDbEntity
  8
1
  6
CONTINUOUS
 62
     7
100
AcDbEllipse
 10
32.76555609826096
 20
77.64939078207543
 30
0.0
 11
2.000000000000002
 21
0.0
 31
0.0
210
0.0
220
0.0
230
-1.0
 40
0.9999619230641712
 41
3.665367307951902
 42
4.712388980384712
  0
ELLIPSE
  5
13B
330
1F
100
AcDbEntity
  8
1
  6
CONTINUOUS
 62
     7
100
AcDbEllipse
 10
39.23444390173904
 20
77.64939078207543
 30
0.0
 11
2.000000000000002
 21
0.0
 31
0.0
210
0.0
220
0.0
230
-1.0
 40
0.9999619230641712
 41
4.712388980384704
 42
5.759410652817505
  0
LINE
  5
13C
330
1F
100
AcDbEntity
  8
1
  6
CONTINUOUS
 62
     7
100
AcDbLine
 10
138.0
 20
70.65
 30
0.0
 11
138.0
 21
71.64992384757821
 31
0.0
  0
LINE
  5
13D
330
1F
100
AcDbEntity
  8
1
  6
CONTINUOUS
 62
     7
100
AcDbLine
 10
130.765556098261
 20
79.64931462820377
 30
0.0
 11
137.234443901739
 21
79.64931462820377
 31
0.0
  0
LINE
  5
13E
330
1F
100
AcDbEntity
  8
1
  6
CONTINUOUS
 62
     7
100
AcDbLine
 10
138.0
 20
70.65
 30
0.0
 11
148.0
 21
70.65
 31
0.0
  0
LINE
  5
13F
330
1F
100
AcDbEntity
  8
1
  6
CONTINUOUS
 62
     7
100
AcDbLine
 10
41.99999999999999
 20
71.64992384757821
 30
0.0
 11
41.87499524020178
 21
72.64988577064237
 31
0.0
  0
LINE
  5
140
330
1F
100
AcDbEntity
  8
1
  6
CONTINUOUS
 62
     7
100
AcDbLine
 10
41.62498572060534
 20
74.64980961677071
 30
0.0
 11
30.37501427939465
 21
74.64980961677071
 31
0.0
  0
LINE
  5
141
330
1F
100
AcDbEntity
  8
1
  6
CONTINUOUS
 62
     7
100
AcDbLine
 10
30.62502379899108
 20
76.6436248880502
 30
0.0
 11
30.50001903919286
 21
75.64977153983489
 31
0.0
  0
LINE
  5
142
330
1F
100
AcDbEntity
  8
1
  6
CONTINUOUS
 62
     7
100
AcDbLine
 10
41.37497620100891
 20
76.64973346289905
 30
0.0
 11
30.62502379899108
 21
76.64973346289905
 31
0.0
  0
LINE
  5
143
330
1F
100
AcDbEntity
  8
1
  6
CONTINUOUS
 62
     7
100
AcDbLine
 10
41.24997144121069
 20
77.64358681111437
 30
0.0
 11
41.24997144121069
 21
77.64969538596323
 31
0.0
  0
LINE
  5
144
330
1F
100
AcDbEntity
  8
1
  6
CONTINUOUS
 62
     7
100
AcDbLine
 10
30.7500285587893
 20
77.64358681111437
 30
0.0
 11
30.62502379899108
 21
76.64973346289905
 31
0.0
  0
LINE
  5
145
330
1F
100
AcDbEntity
  8
1
  6
CONTINUOUS
 62
     7
100
AcDbLine
 10
139.2189984925502
 20
77.89594655895878
 30
0.0
 11
139.2499714412107
 21
77.64969538596323
 31
0.0
  0
LINE
  5
146
330
1F
100
AcDbEntity
  8
1
  6
CONTINUOUS
 62
     7
100
AcDbLine
 10
138.966318803756
 20
78.64354873417854
 30
0.0
 11
138.966318803756
 21
78.6496573090274
 31
0.0
  0
LINE
  5
147
330
1F
100
AcDbEntity
  8
1
  6
CONTINUOUS
 62
     7
100
AcDbLine
 10
41.37497620100891
 20
76.6436248880502
 30
0.0
 11
30.62502379899108
 21
76.6436248880502
 31
0.0
  0
LINE
  5
148
330
1F
100
AcDbEntity
  8
1
  6
CONTINUOUS
 62
     7
100
AcDbLine
 10
128.3750142793947
 20
74.64980961677071
 30
0.0
 11
128.5000190391929
 21
75.64366296498602
 31
0.0
  0
LINE
  5
149
330
1F
100
AcDbEntity
  8
1
  6
CONTINUOUS
 62
     7
100
AcDbLine
 10
30.7500285587893
 20
77.64969538596323
 30
0.0
 11
30.7500285587893
 21
77.64358681111437
 31
0.0
  0
LINE
  5
14A
330
1F
100
AcDbEntity
  8
1
  6
CONTINUOUS
 62
     7
100
AcDbLine
 10
41.62498572060534
 20
74.64980961677071
 30
0.0
 11
41.49998096080713
 21
75.64366296498602
 31
0.0
  0
ELLIPSE
  5
14B
330
1F
100
AcDbEntity
  8
1
  6
CONTINUOUS
 62
     7
100
AcDbEllipse
 10
130.765556098261
 20
77.64939264284193
 30
0.0
 11
-2.000000000000001
 21
0.0
 31
0.0
210
0.0
220
0.0
230
1.0
 40
0.9938533482153092
 41
5.759410652817475
 42
6.158825626065004
  0
LINE
  5
14C
330
1F
100
AcDbEntity
  8
1
  6
CONTINUOUS
 62
     7
100
AcDbLine
 10
129.033681196244
 20
78.6496573090274
 30
0.0
 11
129.033681196244
 21
78.64354873417854
 31
0.0
  0
LINE
  5
14D
330
1F
100
AcDbEntity
  8
1
  6
CONTINUOUS
 62
     7
100
AcDbLine
 10
41.49998096080713
 20
75.64977153983489
 30
0.0
 11
30.50001903919286
 21
75.64977153983489
 31
0.0
  0
LINE
  5
14E
330
1F
100
AcDbEntity
  8
1
  6
CONTINUOUS
 62
     7
100
AcDbLine
 10
30.7810015074498
 20
77.89594655895878
 30
0.0
 11
30.7500285587893
 21
77.64969538596323
 31
0.0
  0
LINE
  5
14F
330
1F
100
AcDbEntity
  8
1
  6
CONTINUOUS
 62
     7
100
AcDbLine
 10
40.96631880375597
 20
78.64354873417854
 30
0.0
 11
31.03368119624403
 21
78.64354873417854
 31
0.0
  0
LINE
  5
150
330
1F
100
AcDbEntity
  8
1
  6
CONTINUOUS
 62
     7
100
AcDbLine
 10
41.62498572060534
 20
74.64370104192186
 30
0.0
 11
30.37501427939465
 21
74.64370104192186
 31
0.0
  0
LINE
  5
151
330
1F
100
AcDbEntity
  8
1
  6
CONTINUOUS
 62
     7
100
AcDbLine
 10
30.50001903919286
 20
75.64977153983489
 30
0.0
 11
30.50001903919287
 21
75.64366296498602
 31
0.0
  0
LINE
  5
152
330
1F
100
AcDbEntity
  8
1
  6
CONTINUOUS
 62
     7
100
AcDbLine
 10
41.74999048040355
 20
73.64984769370653
 30
0.0
 11
30.25000951959643
 21
73.64984769370653
 31
0.0
  0
LINE
  5
153
330
1F
100
AcDbEntity
  8
1
  6
CONTINUOUS
 62
     7
100
AcDbLine
 10
139.2499714412107
 20
77.64969538596323
 30
0.0
 11
139.2499714412107
 21
77.64358681111437
 31
0.0
  0
LINE
  5
154
330
1F
100
AcDbEntity
  8
1
  6
CONTINUOUS
 62
     7
100
AcDbLine
 10
128.6250237989911
 20
76.64973346289905
 30
0.0
 11
128.7500285587893
 21
77.64358681111437
 31
0.0
  0
LINE
  5
155
330
1F
100
AcDbEntity
  8
1
  6
CONTINUOUS
 62
     7
100
AcDbLine
 10
41.24997144121069
 20
77.64358681111437
 30
0.0
 11
30.7500285587893
 21
77.64358681111437
 31
0.0
  0
LINE
  5
156
330
1F
100
AcDbEntity
  8
1
  6
CONTINUOUS
 62
     7
100
AcDbLine
 10
128.7500285587893
 20
77.64358681111437
 30
0.0
 11
139.2499714412107
 21
77.64358681111437
 31
0.0
  0
LINE
  5
157
330
1F
100
AcDbEntity
  8
1
  6
CONTINUOUS
 62
     7
100
AcDbLine
 10
128.7500285587893
 20
77.64969538596323
 30
0.0
 11
128.7810015074498
 21
77.89594655895878
 31
0.0
  0
LINE
  5
158
330
1F
100
AcDbEntity
  8
1
  6
CONTINUOUS
 62
     7
100
AcDbLine
 10
139.4999809608071
 20
75.64366296498602
 30
0.0
 11
139.6249857206054
 21
74.64980961677071
 31
0.0
  0
LINE
  5
159
330
1F
100
AcDbEntity
  8
1
  6
CONTINUOUS
 62
     7
100
AcDbLine
 10
128.6250237989911
 20
76.64973346289905
 30
0.0
 11
139.3749762010089
 21
76.64973346289905
 31
0.0
  0
LINE
  5
15A
330
1F
100
AcDbEntity
  8
1
  6
CONTINUOUS
 62
     7
100
AcDbLine
 10
128.6250237989911
 20
76.6436248880502
 30
0.0
 11
139.3749762010089
 21
76.6436248880502
 31
0.0
  0
LINE
  5
15B
330
1F
100
AcDbEntity
  8
1
  6
CONTINUOUS
 62
     7
100
AcDbLine
 10
41.37497620100891
 20
76.64973346289905
 30
0.0
 11
41.24997144121069
 21
77.64358681111437
 31
0.0
  0
LINE
  5
15C
330
1F
100
AcDbEntity
  8
1
  6
CONTINUOUS
 62
     7
100
AcDbLine
 10
129.033681196244
 20
78.64354873417854
 30
0.0
 11
138.966318803756
 21
78.64354873417854
 31
0.0
  0
LINE
  5
15D
330
1F
100
AcDbEntity
  8
1
  6
CONTINUOUS
 62
     7
100
AcDbLine
 10
128.5000190391929
 20
75.64366296498602
 30
0.0
 11
128.5000190391929
 21
75.64977153983489
 31
0.0
  0
ELLIPSE
  5
15E
330
1F
100
AcDbEntity
  8
1
  6
CONTINUOUS
 62
     7
100
AcDbEllipse
 10
137.234443901739
 20
77.64939264284193
 30
0.0
 11
-2.000000000000001
 21
0.0
 31
0.0
210
0.0
220
0.0
230
1.0
 40
0.9938533482153092
 41
3.265952334704347
 42
3.665367307951875
  0
LINE
  5
15F
330
1F
100
AcDbEntity
  8
1
  6
CONTINUOUS
 62
     7
100
AcDbLine
 10
128.7500285587893
 20
77.64969538596323
 30
0.0
 11
139.2499714412107
 21
77.64969538596323
 31
0.0
  0
LINE
  5
160
330
1F
100
AcDbEntity
  8
1
  6
CONTINUOUS
 62
     7
100
AcDbLine
 10
41.62498572060534
 20
74.64370104192186
 30
0.0
 11
41.62498572060534
 21
74.64980961677071
 31
0.0
  0
ELLIPSE
  5
161
330
1F
100
AcDbEntity
  8
1
  6
CONTINUOUS
 62
     7
100
AcDbEllipse
 10
32.76555609826096
 20
77.64939264284193
 30
0.0
 11
-2.000000000000001
 21
0.0
 31
0.0
210
0.0
220
0.0
230
-1.0
 40
0.9938533482153092
 41
0.1243596811145756
 42
0.5237746543621028
  0
LINE
  5
162
330
1F
100
AcDbEntity
  8
1
  6
CONTINUOUS
 62
     7
100
AcDbLine
 10
30.37501427939465
 20
74.64980961677071
 30
0.0
 11
30.37501427939465
 21
74.64370104192186
 31
0.0
  0
ELLIPSE
  5
163
330
1F
100
AcDbEntity
  8
1
  6
CONTINUOUS
 62
     7
100
AcDbEllipse
 10
39.23444390173904
 20
77.64939264284193
 30
0.0
 11
-2.000000000000001
 21
0.0
 31
0.0
210
0.0
220
0.0
230
-1.0
 40
0.9938533482153092
 41
2.617817999227703
 42
3.017232972475232
  0
LINE
  5
164
330
1F
100
AcDbEntity
  8
1
  6
CONTINUOUS
 62
     7
100
AcDbLine
 10
139.3749762010089
 20
76.6436248880502
 30
0.0
 11
139.4999809608071
 21
75.64977153983489
 31
0.0
  0
LINE
  5
165
330
1F
100
AcDbEntity
  8
1
  6
CONTINUOUS
 62
     7
100
AcDbLine
 10
41.24997144121069
 20
77.64969538596323
 30
0.0
 11
41.21899849255019
 21
77.89594655895878
 31
0.0
  0
LINE
  5
166
330
1F
100
AcDbEntity
  8
1
  6
CONTINUOUS
 62
     7
100
AcDbLine
 10
41.24997144121069
 20
77.64969538596323
 30
0.0
 11
30.7500285587893
 21
77.64969538596323
 31
0.0
  0
LINE
  5
167
330
1F
100
AcDbEntity
  8
1
  6
CONTINUOUS
 62
     7
100
AcDbLine
 10
41.37497620100891
 20
76.6436248880502
 30
0.0
 11
41.37497620100891
 21
76.64973346289905
 31
0.0
  0
LINE
  5
168
330
1F
100
AcDbEntity
  8
1
  6
CONTINUOUS
 62
     7
100
AcDbLine
 10
128.3750142793947
 20
74.64370104192186
 30
0.0
 11
128.3750142793947
 21
74.64980961677071
 31
0.0
  0
LINE
  5
169
330
1F
100
AcDbEntity
  8
1
  6
CONTINUOUS
 62
     7
100
AcDbLine
 10
139.2499714412107
 20
77.64358681111437
 30
0.0
 11
139.3749762010089
 21
76.64973346289905
 31
0.0
  0
LINE
  5
16A
330
1F
100
AcDbEntity
  8
1
  6
CONTINUOUS
 62
     7
100
AcDbLine
 10
40.96631880375597
 20
78.6496573090274
 30
0.0
 11
40.96631880375597
 21
78.64354873417854
 31
0.0
  0
LINE
  5
16B
330
1F
100
AcDbEntity
  8
1
  6
CONTINUOUS
 62
     7
100
AcDbLine
 10
128.7500285587893
 20
77.64358681111437
 30
0.0
 11
128.7500285587893
 21
77.64969538596323
 31
0.0
  0
LINE
  5
16C
330
1F
100
AcDbEntity
  8
1
  6
CONTINUOUS
 62
     7
100
AcDbLine
 10
128.6250237989911
 20
76.6436248880502
 30
0.0
 11
128.6250237989911
 21
76.64973346289905
 31
0.0
  0
LINE
  5
16D
330
1F
100
AcDbEntity
  8
1
  6
CONTINUOUS
 62
     7
100
AcDbLine
 10
130.765556098261
 20
79.6432079141214
 30
0.0
 11
137.234443901739
 21
79.6432079141214
 31
0.0
  0
LINE
  5
16E
330
1F
100
AcDbEntity
  8
1
  6
CONTINUOUS
 62
     7
100
AcDbLine
 10
139.4999809608071
 20
75.64977153983489
 30
0.0
 11
139.4999809608071
 21
75.64366296498602
 31
0.0
  0
LINE
  5
16F
330
1F
100
AcDbEntity
  8
1
  6
CONTINUOUS
 62
     7
100
AcDbLine
 10
30.62502379899108
 20
76.64973346289905
 30
0.0
 11
30.62502379899108
 21
76.6436248880502
 31
0.0
  0
ELLIPSE
  5
170
330
1F
100
AcDbEntity
  8
1
  6
CONTINUOUS
 62
     7
100
AcDbEllipse
 10
137.234443901739
 20
77.65550121769078
 30
0.0
 11
-2.000000000000001
 21
0.0
 31
0.0
210
0.0
220
0.0
230
1.0
 40
0.9938533482153092
 41
3.66536730795187
 42
4.712388980384674
  0
LINE
  5
171
330
1F
100
AcDbEntity
  8
1
  6
CONTINUOUS
 62
     7
100
AcDbLine
 10
41.49998096080713
 20
75.64366296498602
 30
0.0
 11
30.50001903919287
 21
75.64366296498602
 31
0.0
  0
LINE
  5
172
330
1F
100
AcDbEntity
  8
1
  6
CONTINUOUS
 62
     7
100
AcDbLine
 10
128.5000190391929
 20
75.64977153983489
 30
0.0
 11
139.4999809608071
 21
75.64977153983489
 31
0.0
  0
LINE
  5
173
330
1F
100
AcDbEntity
  8
1
  6
CONTINUOUS
 62
     7
100
AcDbLine
 10
41.74999048040355
 20
73.64984769370653
 30
0.0
 11
41.62498572060534
 21
74.64370104192186
 31
0.0
  0
LINE
  5
174
330
1F
100
AcDbEntity
  8
1
  6
CONTINUOUS
 62
     7
100
AcDbLine
 10
128.3750142793947
 20
74.64370104192186
 30
0.0
 11
139.6249857206054
 21
74.64370104192186
 31
0.0
  0
LINE
  5
175
330
1F
100
AcDbEntity
  8
1
  6
CONTINUOUS
 62
     7
100
AcDbLine
 10
128.5000190391929
 20
75.64366296498602
 30
0.0
 11
139.4999809608071
 21
75.64366296498602
 31
0.0
  0
LINE
  5
176
330
1F
100
AcDbEntity
  8
1
  6
CONTINUOUS
 62
     7
100
AcDbLine
 10
41.49998096080713
 20
75.64977153983489
 30
0.0
 11
41.37497620100891
 21
76.6436248880502
 31
0.0
  0
LINE
  5
177
330
1F
100
AcDbEntity
  8
1
  6
CONTINUOUS
 62
     7
100
AcDbLine
 10
31.03368119624403
 20
78.64354873417854
 30
0.0
 11
31.03368119624403
 21
78.6496573090274
 31
0.0
  0
LINE
  5
178
330
1F
100
AcDbEntity
  8
1
  6
CONTINUOUS
 62
     7
100
AcDbLine
 10
41.49998096080713
 20
75.64366296498602
 30
0.0
 11
41.49998096080713
 21
75.64977153983489
 31
0.0
  0
LINE
  5
179
330
1F
100
AcDbEntity
  8
1
  6
CONTINUOUS
 62
     7
100
AcDbLine
 10
128.5000190391929
 20
75.64977153983489
 30
0.0
 11
128.6250237989911
 21
76.6436248880502
 31
0.0
  0
LINE
  5
17A
330
1F
100
AcDbEntity
  8
1
  6
CONTINUOUS
 62
     7
100
AcDbLine
 10
129.033681196244
 20
78.6496573090274
 30
0.0
 11
138.966318803756
 21
78.6496573090274
 31
0.0
  0
ELLIPSE
  5
17B
330
1F
100
AcDbEntity
  8
1
  6
CONTINUOUS
 62
     7
100
AcDbEllipse
 10
130.765556098261
 20
77.65550121769078
 30
0.0
 11
-2.000000000000001
 21
0.0
 31
0.0
210
0.0
220
0.0
230
1.0
 40
0.9938533482153092
 41
4.712388980384674
 42
5.759410652817477
  0
LINE
  5
17C
330
1F
100
AcDbEntity
  8
1
  6
CONTINUOUS
 62
     7
100
AcDbLine
 10
139.3749762010089
 20
76.64973346289905
 30
0.0
 11
139.3749762010089
 21
76.6436248880502
 31
0.0
  0
LINE
  5
17D
330
1F
100
AcDbEntity
  8
1
  6
CONTINUOUS
 62
     7
100
AcDbLine
 10
30.50001903919287
 20
75.64366296498602
 30
0.0
 11
30.37501427939465
 21
74.64980961677071
 31
0.0
  0
LINE
  5
17E
330
1F
100
AcDbEntity
  8
1
  6
CONTINUOUS
 62
     7
100
AcDbLine
 10
30.37501427939465
 20
74.64370104192186
 30
0.0
 11
30.25000951959643
 21
73.64984769370653
 31
0.0
  0
LINE
  5
17F
330
1F
100
AcDbEntity
  8
1
  6
CONTINUOUS
 62
     7
100
AcDbLine
 10
128.3750142793947
 20
74.64980961677071
 30
0.0
 11
139.6249857206054
 21
74.64980961677071
 31
0.0
  0
LINE
  5
180
330
1F
100
AcDbEntity
  8
1
  6
CONTINUOUS
 62
     7
100
AcDbLine
 10
30.25000951959643
 20
73.64984769370653
 30
0.0
 11
30.25000951959644
 21
73.64373911885768
 31
0.0
  0
LINE
  5
181
330
1F
100
AcDbEntity
  8
1
  6
CONTINUOUS
 62
     7
100
AcDbLine
 10
139.6249857206054
 20
74.64370104192186
 30
0.0
 11
139.7499904804036
 21
73.64984769370653
 31
0.0
  0
LINE
  5
182
330
1F
100
AcDbEntity
  8
1
  6
CONTINUOUS
 62
     7
100
AcDbLine
 10
139.8749952402018
 20
72.64988577064237
 30
0.0
 11
139.8749952402018
 21
72.64377719579352
 31
0.0
  0
LINE
  5
183
330
1F
100
AcDbEntity
  8
1
  6
CONTINUOUS
 62
     7
100
AcDbLine
 10
48.32893218813452
 20
70.65
 30
0.0
 11
39.99999999999999
 21
70.65
 31
0.0
  0
LINE
  5
184
330
1F
100
AcDbEntity
  8
1
  6
CONTINUOUS
 62
     7
100
AcDbLine
 10
30.12500475979821
 20
72.64377719579352
 30
0.0
 11
30.0
 21
71.64992384757821
 31
0.0
  0
LINE
  5
185
330
1F
100
AcDbEntity
  8
1
  6
CONTINUOUS
 62
     7
100
AcDbLine
 10
139.6249857206054
 20
74.64980961677071
 30
0.0
 11
139.6249857206054
 21
74.64370104192186
 31
0.0
  0
ELLIPSE
  5
186
330
1F
100
AcDbEntity
  8
1
  6
CONTINUOUS
 62
     7
100
AcDbEllipse
 10
19.5
 20
89.92812695908927
 30
0.0
 11
-2.499999834753412
 21
-0.004545055249258721
 31
0.0
210
0.0
220
0.0
230
1.0
 40
0.1999917500375937
 41
3.141229064160453
 42
3.157339004682679
  0
LINE
  5
187
330
1F
100
AcDbEntity
  8
1
  6
CONTINUOUS
 62
     7
100
AcDbLine
 10
128.1250047597982
 20
72.64377719579352
 30
0.0
 11
128.1250047597982
 21
72.64988577064237
 31
0.0
  0
LINE
  5
188
330
1F
100
AcDbEntity
  8
1
  6
CONTINUOUS
 62
     7
100
AcDbLine
 10
128.1250047597982
 20
72.64988577064237
 30
0.0
 11
139.8749952402018
 21
72.64988577064237
 31
0.0
  0
LINE
  5
189
330
1F
100
AcDbEntity
  8
1
  6
CONTINUOUS
 62
     7
100
AcDbLine
 10
30.7810015074498
 20
77.89746010592683
 30
0.0
 11
30.7500285587893
 21
77.64969538596323
 31
0.0
  0
LINE
  5
18A
330
1F
100
AcDbEntity
  8
1
  6
CONTINUOUS
 62
     7
100
AcDbLine
 10
138.0
 20
71.64992384757821
 30
0.0
 11
138.0
 21
72.64377719579352
 31
0.0
  0
LINE
  5
18B
330
1F
100
AcDbEntity
  8
1
  6
CONTINUOUS
 62
     7
100
AcDbLine
 10
30.62502379899108
 20
76.64973346289905
 30
0.0
 11
30.50001903919286
 21
75.64977153983489
 31
0.0
  0
LINE
  5
18C
330
1F
100
AcDbEntity
  8
1
  6
CONTINUOUS
 62
     7
100
AcDbLine
 10
30.25000951959643
 20
73.64984769370653
 30
0.0
 11
30.12500475979822
 21
72.64988577064237
 31
0.0
  0
LINE
  5
18D
330
1F
100
AcDbEntity
  8
1
  6
CONTINUOUS
 62
     7
100
AcDbLine
 10
30.12500475979822
 20
72.64988577064237
 30
0.0
 11
30.0
 21
71.64992384757821
 31
0.0
  0
LINE
  5
18E
330
1F
100
AcDbEntity
  8
1
  6
CONTINUOUS
 62
     7
100
AcDbLine
 10
138.0
 20
72.64377719579352
 30
0.0
 11
139.8749952402018
 21
72.64377719579352
 31
0.0
  0
LINE
  5
18F
330
1F
100
AcDbEntity
  8
1
  6
CONTINUOUS
 62
     7
100
AcDbLine
 10
31.99999999999999
 20
72.64377719579352
 30
0.0
 11
30.12500475979821
 21
72.64377719579352
 31
0.0
  0
LINE
  5
190
330
1F
100
AcDbEntity
  8
1
  6
CONTINUOUS
 62
     7
100
AcDbLine
 10
31.99999999999999
 20
71.64992384757821
 30
0.0
 11
31.99999999999999
 21
72.64377719579352
 31
0.0
  0
LINE
  5
191
330
1F
100
AcDbEntity
  8
1
  6
CONTINUOUS
 62
     7
100
AcDbLine
 10
128.2500095195964
 20
73.64373911885768
 30
0.0
 11
139.7499904804036
 21
73.64373911885768
 31
0.0
  0
LINE
  5
192
330
1F
100
AcDbEntity
  8
1
  6
CONTINUOUS
 62
     7
100
AcDbLine
 10
39.99999999999999
 20
71.64992384757821
 30
0.0
 11
41.99999999999999
 21
71.64992384757821
 31
0.0
  0
LINE
  5
193
330
1F
100
AcDbEntity
  8
1
  6
CONTINUOUS
 62
     7
100
AcDbLine
 10
130.0
 20
72.64377719579352
 30
0.0
 11
138.0
 21
72.64377719579352
 31
0.0
  0
LINE
  5
194
330
1F
100
AcDbEntity
  8
1
  6
CONTINUOUS
 62
     7
100
AcDbLine
 10
30.25000951959644
 20
73.64373911885768
 30
0.0
 11
30.12500475979822
 21
72.64988577064237
 31
0.0
  0
LINE
  5
195
330
1F
100
AcDbEntity
  8
1
  6
CONTINUOUS
 62
     7
100
AcDbLine
 10
39.99999999999999
 20
72.64377719579352
 30
0.0
 11
31.99999999999999
 21
72.64377719579352
 31
0.0
  0
LINE
  5
196
330
1F
100
AcDbEntity
  8
1
  6
CONTINUOUS
 62
     7
100
AcDbLine
 10
41.99999999999999
 20
71.64992384757821
 30
0.0
 11
41.87499524020178
 21
72.64377719579352
 31
0.0
  0
LINE
  5
197
330
1F
100
AcDbEntity
  8
1
  6
CONTINUOUS
 62
     7
100
AcDbLine
 10
41.74999048040355
 20
73.64373911885768
 30
0.0
 11
41.74999048040355
 21
73.64984769370653
 31
0.0
  0
LINE
  5
198
330
1F
100
AcDbEntity
  8
1
  6
CONTINUOUS
 62
     7
100
AcDbLine
 10
30.7500285587893
 20
77.64969538596323
 30
0.0
 11
30.62502379899108
 21
76.64973346289905
 31
0.0
  0
LINE
  5
199
330
1F
100
AcDbEntity
  8
1
  6
CONTINUOUS
 62
     7
100
AcDbLine
 10
128.2500095195964
 20
73.64984769370653
 30
0.0
 11
139.7499904804036
 21
73.64984769370653
 31
0.0
  0
LINE
  5
19A
330
1F
100
AcDbEntity
  8
1
  6
CONTINUOUS
 62
     7
100
AcDbLine
 10
128.1250047597982
 20
72.64377719579352
 30
0.0
 11
130.0
 21
72.64377719579352
 31
0.0
  0
LINE
  5
19B
330
1F
100
AcDbEntity
  8
1
  6
CONTINUOUS
 62
     7
100
AcDbLine
 10
139.7499904804036
 20
73.64373911885768
 30
0.0
 11
139.8749952402018
 21
72.64988577064237
 31
0.0
  0
LINE
  5
19C
330
1F
100
AcDbEntity
  8
1
  6
CONTINUOUS
 62
     7
100
AcDbLine
 10
128.2500095195964
 20
73.64984769370653
 30
0.0
 11
128.3750142793947
 21
74.64370104192186
 31
0.0
  0
LINE
  5
19D
330
1F
100
AcDbEntity
  8
1
  6
CONTINUOUS
 62
     7
100
AcDbLine
 10
31.99999999999999
 20
70.65
 30
0.0
 11
22.0
 21
70.65
 31
0.0
  0
LINE
  5
19E
330
1F
100
AcDbEntity
  8
1
  6
CONTINUOUS
 62
     7
100
AcDbLine
 10
30.37501427939465
 20
74.64980961677071
 30
0.0
 11
30.25000951959643
 21
73.64984769370653
 31
0.0
  0
LINE
  5
19F
330
1F
100
AcDbEntity
  8
1
  6
CONTINUOUS
 62
     7
100
AcDbLine
 10
128.2500095195964
 20
73.64373911885768
 30
0.0
 11
128.2500095195964
 21
73.64984769370653
 31
0.0
  0
LINE
  5
1A0
330
1F
100
AcDbEntity
  8
1
  6
CONTINUOUS
 62
     7
100
AcDbLine
 10
128.0
 20
71.64992384757821
 30
0.0
 11
128.1250047597982
 21
72.64377719579352
 31
0.0
  0
LINE
  5
1A1
330
1F
100
AcDbEntity
  8
1
  6
CONTINUOUS
 62
     7
100
AcDbLine
 10
31.99999999999999
 20
70.65
 30
0.0
 11
31.99999999999999
 21
71.64992384757821
 31
0.0
  0
LINE
  5
1A2
330
1F
100
AcDbEntity
  8
1
  6
CONTINUOUS
 62
     7
100
AcDbLine
 10
30.12500475979822
 20
72.64988577064237
 30
0.0
 11
30.12500475979821
 21
72.64377719579352
 31
0.0
  0
LINE
  5
1A3
330
1F
100
AcDbEntity
  8
1
  6
CONTINUOUS
 62
     7
100
AcDbLine
 10
22.0
 20
70.65
 30
0.0
 11
17.80388386486181
 21
70.65
 31
0.0
  0
LINE
  5
1A4
330
1F
100
AcDbEntity
  8
1
  6
CONTINUOUS
 62
     7
100
AcDbLine
 10
41.87499524020178
 20
72.64377719579352
 30
0.0
 11
39.99999999999999
 21
72.64377719579352
 31
0.0
  0
LINE
  5
1A5
330
1F
100
AcDbEntity
  8
1
  6
CONTINUOUS
 62
     7
100
AcDbLine
 10
39.99999999999999
 20
70.65
 30
0.0
 11
39.99999999999999
 21
71.64992384757821
 31
0.0
  0
LINE
  5
1A6
330
1F
100
AcDbEntity
  8
1
  6
CONTINUOUS
 62
     7
100
AcDbLine
 10
41.87499524020178
 20
72.64988577064237
 30
0.0
 11
41.74999048040355
 21
73.64373911885768
 31
0.0
  0
LINE
  5
1A7
330
1F
100
AcDbEntity
  8
1
  6
CONTINUOUS
 62
     7
100
AcDbLine
 10
30.0
 20
71.64992384757821
 30
0.0
 11
31.99999999999999
 21
71.64992384757821
 31
0.0
  0
LINE
  5
1A8
330
1F
100
AcDbEntity
  8
1
  6
CONTINUOUS
 62
     7
100
AcDbLine
 10
128.1250047597982
 20
72.64988577064237
 30
0.0
 11
128.2500095195964
 21
73.64373911885768
 31
0.0
  0
LINE
  5
1A9
330
1F
100
AcDbEntity
  8
1
  6
CONTINUOUS
 62
     7
100
AcDbLine
 10
139.8749952402018
 20
72.64377719579352
 30
0.0
 11
140.0
 21
71.64992384757821
 31
0.0
  0
LINE
  5
1AA
330
1F
100
AcDbEntity
  8
1
  6
CONTINUOUS
 62
     7
100
AcDbLine
 10
130.0
 20
71.64992384757821
 30
0.0
 11
130.0
 21
72.64377719579352
 31
0.0
  0
LINE
  5
1AB
330
1F
100
AcDbEntity
  8
1
  6
CONTINUOUS
 62
     7
100
AcDbLine
 10
39.99999999999999
 20
71.64992384757821
 30
0.0
 11
39.99999999999999
 21
72.64377719579352
 31
0.0
  0
LINE
  5
1AC
330
1F
100
AcDbEntity
  8
1
  6
CONTINUOUS
 62
     7
100
AcDbLine
 10
139.7499904804036
 20
73.64984769370653
 30
0.0
 11
139.7499904804036
 21
73.64373911885768
 31
0.0
  0
LINE
  5
1AD
330
1F
100
AcDbEntity
  8
1
  6
CONTINUOUS
 62
     7
100
AcDbLine
 10
41.87499524020178
 20
72.64377719579352
 30
0.0
 11
41.87499524020178
 21
72.64988577064237
 31
0.0
  0
LINE
  5
1AE
330
1F
100
AcDbEntity
  8
1
  6
CONTINUOUS
 62
     7
100
AcDbLine
 10
41.87499524020178
 20
72.64988577064237
 30
0.0
 11
30.12500475979822
 21
72.64988577064237
 31
0.0
  0
LINE
  5
1AF
330
1F
100
AcDbEntity
  8
1
  6
CONTINUOUS
 62
     7
100
AcDbLine
 10
30.50001903919286
 20
75.64977153983489
 30
0.0
 11
30.37501427939465
 21
74.64980961677071
 31
0.0
  0
LINE
  5
1B0
330
1F
100
AcDbEntity
  8
1
  6
CONTINUOUS
 62
     7
100
AcDbLine
 10
41.74999048040355
 20
73.64373911885768
 30
0.0
 11
30.25000951959644
 21
73.64373911885768
 31
0.0
  0
LINE
  5
1B1
330
1F
100
AcDbEntity
  8
1
  6
CENTER
 62
     1
100
AcDbLine
 10
14.00000000000001
 20
177.7
 30
0.0
 11
156.0
 21
177.7
 31
0.0
  0
LINE
  5
1B3
330
1F
100
AcDbEntity
  8
1
  6
CONTINUOUS
 62
     7
100
AcDbLine
 10
148.0
 20
91.35
 30
0.0
 11
116.9457714394881
 21
91.35
 31
0.0
  0
LINE
  5
1B4
330
1F
100
AcDbEntity
  8
1
  6
CONTINUOUS
 62
     7
100
AcDbLine
 10
39.23444390173904
 20
79.6432079141214
 30
0.0
 11
32.76555609826096
 21
79.6432079141214
 31
0.0
  0
LINE
  5
1B5
330
1F
100
AcDbEntity
  8
1
  6
CENTER
 62
     1
100
AcDbLine
 10
84.99999999999999
 20
106.7
 30
0.0
 11
84.99999999999999
 21
203.3
 31
0.0
  0
ELLIPSE
  5
1B6
330
1F
100
AcDbEntity
  8
1
  6
CONTINUOUS
 62
     7
100
AcDbEllipse
 10
22.49509756796418
 20
86.35000000000002
 30
0.0
 11
-0.4950973975958894
 21
4.999998279449896
 31
0.0
210
0.0
220
0.0
230
-1.0
 40
0.0083780506451286
 41
6.115196786292658
 42
6.282355716870102
  0
ELLIPSE
  5
1B7
330
1F
100
AcDbEntity
  8
1
  6
CONTINUOUS
 62
     7
100
AcDbEllipse
 10
39.23444390173904
 20
77.65550121769078
 30
0.0
 11
-2.000000000000001
 21
0.0
 31
0.0
210
0.0
220
0.0
230
-1.0
 40
0.9938533482153092
 41
1.570796326794904
 42
2.617817999227706
  0
LINE
  5
1B8
330
1F
100
AcDbEntity
  8
1
  6
CENTER
 62
     1
100
AcDbLine
 10
85.0
 20
55.64999999999999
 30
0.0
 11
85.0
 21
94.35000000000001
 31
0.0
  0
LINE
  5
1B9
330
1F
100
AcDbEntity
  8
1
  6
CONTINUOUS
 62
     7
100
AcDbLine
 10
153.0
 20
88.81444707922084
 30
0.0
 11
153.0
 21
89.47333773593964
 31
0.0
  0
LINE
  5
1BA
330
1F
100
AcDbEntity
  8
1
  6
CONTINUOUS
 62
     7
100
AcDbLine
 10
152.1961161351382
 20
90.51077677297236
 30
0.0
 11
148.0000344109962
 21
91.34999311780076
 31
0.0
  0
LINE
  5
1BB
330
1F
100
AcDbEntity
  8
1
  6
CONTINUOUS
 62
     7
100
AcDbLine
 10
21.99967559428664
 20
90.41944848244322
 30
0.0
 11
21.99999999999999
 21
90.42087891173945
 31
0.0
  0
LINE
  5
1BC
330
1F
100
AcDbEntity
  8
1
  6
CONTINUOUS
 62
     7
100
AcDbLine
 10
17.80388386486181
 20
70.65
 30
0.0
 11
17.0
 21
70.65
 31
0.0
  0
ARC
  5
1BD
330
1F
100
AcDbEntity
  8
1
  6
CONTINUOUS
 62
     7
100
AcDbCircle
 10
-152.0
 20
89.53019609728143
 30
0.0
 40
1.000000000000006
210
0.0
220
0.0
230
-1.0
100
AcDbArc
 50
101.3099324740204
 51
179.9999999999998
  0
LINE
  5
1BE
330
1F
100
AcDbEntity
  8
1
  6
CONTINUOUS
 62
     7
100
AcDbLine
 10
40.96631880375597
 20
78.6496573090274
 30
0.0
 11
31.03368119624403
 21
78.6496573090274
 31
0.0
  0
LINE
  5
1BF
330
1F
100
AcDbEntity
  8
1
  6
CONTINUOUS
 62
     7
100
AcDbLine
 10
153.0
 20
70.65
 30
0.0
 11
153.0
 21
88.81444707922084
 31
0.0
  0
LINE
  5
1C0
330
1F
100
AcDbEntity
  8
1
  6
CONTINUOUS
 62
     7
100
AcDbLine
 10
17.0
 20
70.65
 30
0.0
 11
17.0
 21
88.81444707922084
 31
0.0
  0
LINE
  5
1C1
330
1F
100
AcDbEntity
  8
1
  6
CENTER
 62
     1
100
AcDbLine
 10
247.7
 20
55.65000000000001
 30
0.0
 11
247.7
 21
94.35000000000001
 31
0.0
  0
LINE
  5
1C2
330
1F
100
AcDbEntity
  8
1
  6
CONTINUOUS
 62
     7
100
AcDbLine
 10
17.80388386486181
 20
90.51077677297236
 30
0.0
 11
21.99996558900381
 21
91.34999311780076
 31
0.0
  0
LINE
  5
1C3
330
1F
100
AcDbEntity
  8
1
  6
CONTINUOUS
 62
     7
100
AcDbLine
 10
22.0
 20
91.35
 30
0.0
 11
53.05422856051194
 21
91.35
 31
0.0
  0
LINE
  5
1C4
330
1F
100
AcDbEntity
  8
1
  6
CONTINUOUS
 62
     7
100
AcDbLine
 10
17.0
 20
88.81444707922084
 30
0.0
 11
17.0
 21
89.47333773593964
 31
0.0
  0
LINE
  5
1C5
330
1F
100
AcDbEntity
  8
1
  6
CONTINUOUS
 62
     7
100
AcDbLine
 10
153.0
 20
89.47333773593965
 30
0.0
 11
153.0
 21
89.53019609728145
 31
0.0
  0
LINE
  5
1C6
330
1F
100
AcDbEntity
  8
1
  6
CONTINUOUS
 62
     7
100
AcDbLine
 10
17.0
 20
89.47333773593965
 30
0.0
 11
17.0
 21
89.53019609728145
 31
0.0
  0
LINE
  5
1C7
330
1F
100
AcDbEntity
  8
1
  6
CONTINUOUS
 62
     7
100
AcDbLine
 10
152.1961161351382
 20
70.65
 30
0.0
 11
153.0
 21
70.65
 31
0.0
  0
ELLIPSE
  5
1C8
330
1F
100
AcDbEntity
  8
1
  6
CONTINUOUS
 62
     7
100
AcDbEllipse
 10
-3.000000000000058
 20
86.35000000000001
 30
0.0
 11
-24.99948086851609
 21
-4.932883742496371
 31
0.0
210
0.0
220
0.0
230
1.0
 40
0.0326603287314575
 41
3.135148224798019
 42
3.136807405416879
  0
ARC
  5
1C9
330
1F
100
AcDbEntity
  8
1
  6
CONTINUOUS
 62
     7
100
AcDbCircle
 10
18.0
 20
89.53019609728143
 30
0.0
 40
1.000000000000009
100
AcDbArc
 50
101.3099324740204
 51
179.9999999999998
  0
ELLIPSE
  5
1CA
330
1F
100
AcDbEntity
  8
1
  6
CONTINUOUS
 62
     7
100
AcDbEllipse
 10
32.76555609826096
 20
77.65550121769078
 30
0.0
 11
-2.000000000000001
 21
0.0
 31
0.0
210
0.0
220
0.0
230
-1.0
 40
0.9938533482153092
 41
0.5237746543621014
 42
1.570796326794904
  0
ARC
  5
1CB
330
1F
100
AcDbEntity
  8
1
  6
CONTINUOUS
 62
     7
100
AcDbCircle
 10
-48.32893218813452
 20
150.1
 30
0.0
 40
5.0
210
0.0
220
0.0
230
-1.0
100
AcDbArc
 50
103.3899150568237
 51
121.6100849365249
  0
LINE
  5
1CC
330
1F
100
AcDbEntity
  8
1
  6
CONTINUOUS
 62
     7
100
AcDbLine
 10
17.0
 20
161.5712861046115
 30
0.0
 11
17.0
 21
193.8287138953885
 31
0.0
  0
LINE
  5
1CD
330
1F
100
AcDbEntity
  8
1
  6
CONTINUOUS
 62
     7
100
AcDbLine
 10
153.0
 20
161.5712861046114
 30
0.0
 11
153.0
 21
193.8287138953885
 31
0.0
  0
LINE
  5
1CE
330
1F
100
AcDbEntity
  8
1
  6
CONTINUOUS
 62
     7
100
AcDbLine
 10
101.1287138953885
 20
109.7
 30
0.0
 11
68.87128610461143
 21
109.7
 31
0.0
  0
LINE
  5
1CF
330
1F
100
AcDbEntity
  8
1
  6
CONTINUOUS
 62
     7
100
AcDbLine
 10
39.99999999999999
 20
155.1
 30
0.0
 11
31.99999999999999
 21
155.1
 31
0.0
  0
LINE
  5
1D0
330
1F
100
AcDbEntity
  8
1
  6
CONTINUOUS
 62
     7
100
AcDbLine
 10
17.0
 20
193.8287138953885
 30
0.0
 11
17.0
 21
194.494146694258
 31
0.0
  0
LINE
  5
1D1
330
1F
100
AcDbEntity
  8
1
  6
CONTINUOUS
 62
     7
100
AcDbLine
 10
148.0
 20
200.3
 30
0.0
 11
152.1961161351382
 21
199.4607767729723
 31
0.0
  0
LINE
  5
1D2
330
1F
100
AcDbEntity
  8
1
  6
CONTINUOUS
 62
     7
100
AcDbLine
 10
153.0
 20
193.8287138953885
 30
0.0
 11
153.0
 21
194.494146694258
 31
0.0
  0
LINE
  5
1D3
330
1F
100
AcDbEntity
  8
1
  6
CONTINUOUS
 62
     7
100
AcDbLine
 10
101.794146694258
 20
109.7
 30
0.0
 11
105.6216080739339
 21
109.7
 31
0.0
  0
LINE
  5
1D4
330
1F
100
AcDbEntity
  8
1
  6
CONTINUOUS
 62
     7
100
AcDbLine
 10
17.0
 20
157.0783919260661
 30
0.0
 11
17.0
 21
160.905853305742
 31
0.0
  0
LINE
  5
1D5
330
1F
100
AcDbEntity
  8
1
  6
CONTINUOUS
 62
     7
100
AcDbLine
 10
68.20585330574194
 20
109.7
 30
0.0
 11
64.3783919260661
 21
109.7
 31
0.0
  0
LINE
  5
1D6
330
1F
100
AcDbEntity
  8
1
  6
CONTINUOUS
 62
     7
100
AcDbLine
 10
153.0
 20
157.0783919260661
 30
0.0
 11
153.0
 21
160.9058533057419
 31
0.0
  0
LINE
  5
1D7
330
1F
100
AcDbEntity
  8
1
  6
CONTINUOUS
 62
     7
100
AcDbLine
 10
17.0
 20
194.4941466942581
 30
0.0
 11
17.0
 21
198.3216080739339
 31
0.0
  0
LINE
  5
1D8
330
1F
100
AcDbEntity
  8
1
  6
CONTINUOUS
 62
     7
100
AcDbLine
 10
153.0
 20
194.494146694258
 30
0.0
 11
153.0
 21
198.3216080739338
 31
0.0
  0
ARC
  5
1D9
330
1F
100
AcDbEntity
  8
1
  6
CONTINUOUS
 62
     7
100
AcDbCircle
 10
18.0
 20
156.9198039027186
 30
0.0
 40
1.0
100
AcDbArc
 50
256.6954848916743
 51
258.6900675259795
  0
ARC
  5
1DA
330
1F
100
AcDbEntity
  8
1
  6
CONTINUOUS
 62
     7
100
AcDbCircle
 10
18.0
 20
156.9198039027186
 30
0.0
 40
1.000000000000001
100
AcDbArc
 50
180.0
 51
256.6954848916743
  0
LINE
  5
1DB
330
1F
100
AcDbEntity
  8
1
  6
CONTINUOUS
 62
     7
100
AcDbLine
 10
32.00000000000001
 20
200.3
 30
0.0
 11
40.0
 21
200.3
 31
0.0
  0
LINE
  5
1DC
330
1F
100
AcDbEntity
  8
1
  6
CONTINUOUS
 62
     7
100
AcDbLine
 10
101.1287138953885
 20
109.7
 30
0.0
 11
101.794146694258
 21
109.7
 31
0.0
  0
LINE
  5
1DD
330
1F
100
AcDbEntity
  8
1
  6
CONTINUOUS
 62
     7
100
AcDbLine
 10
17.80388386486181
 20
155.9392232270276
 30
0.0
 11
22.0
 21
155.1
 31
0.0
  0
ARC
  5
1DE
330
1F
100
AcDbEntity
  8
1
  6
CONTINUOUS
 62
     7
100
AcDbCircle
 10
18.0
 20
198.4801960972815
 30
0.0
 40
1.000000000000009
100
AcDbArc
 50
101.3099324740204
 51
178.1462612871549
  0
LINE
  5
1DF
330
1F
100
AcDbEntity
  8
1
  6
CONTINUOUS
 62
     7
100
AcDbLine
 10
68.87128610461143
 20
109.7
 30
0.0
 11
68.20585330574194
 21
109.7
 31
0.0
  0
LINE
  5
1E0
330
1F
100
AcDbEntity
  8
1
  6
CONTINUOUS
 62
     7
100
AcDbLine
 10
138.0
 20
200.3
 30
0.0
 11
148.0
 21
200.3
 31
0.0
  0
ARC
  5
1E1
330
1F
100
AcDbEntity
  8
1
  6
CONTINUOUS
 62
     7
100
AcDbCircle
 10
-48.32893218813452
 20
150.1
 30
0.0
 40
5.0
210
0.0
220
0.0
230
-1.0
100
AcDbArc
 50
121.6100849365249
 51
135.0
  0
ARC
  5
1E2
330
1F
100
AcDbEntity
  8
1
  6
CONTINUOUS
 62
     7
100
AcDbCircle
 10
-152.0
 20
198.4801960972814
 30
0.0
 40
0.9999999999999954
210
0.0
220
0.0
230
-1.0
100
AcDbArc
 50
101.3099324740204
 51
178.1462612871549
  0
LINE
  5
1E3
330
1F
100
AcDbEntity
  8
1
  6
CONTINUOUS
 62
     7
100
AcDbLine
 10
17.0
 20
160.905853305742
 30
0.0
 11
17.0
 21
161.5712861046115
 31
0.0
  0
LINE
  5
1E4
330
1F
100
AcDbEntity
  8
1
  6
CONTINUOUS
 62
     7
100
AcDbLine
 10
130.0
 20
200.3
 30
0.0
 11
138.0
 21
200.3
 31
0.0
  0
LINE
  5
1E5
330
1F
100
AcDbEntity
  8
1
  6
CONTINUOUS
 62
     7
100
AcDbLine
 10
22.0
 20
200.3
 30
0.0
 11
17.80388386486181
 21
199.4607767729724
 31
0.0
  0
LINE
  5
1E6
330
1F
100
AcDbEntity
  8
1
  6
CONTINUOUS
 62
     7
100
AcDbLine
 10
153.0
 20
160.9058533057419
 30
0.0
 11
153.0
 21
161.5712861046114
 31
0.0
  0
ELLIPSE
  5
1E7
330
1F
100
AcDbEntity
  8
1
  6
CONTINUOUS
 62
     7
100
AcDbEllipse
 10
57.39980960807132
 20
141.0288533252155
 30
0.0
 11
4.619603740621893
 21
1.913502522155069
 31
0.0
210
0.0
220
0.0
230
1.0
 40
0.9999553905319527
 41
0.353956403953963
 42
0.3926833097670099
  0
ELLIPSE
  5
1E8
330
1F
100
AcDbEntity
  8
1
  6
CONTINUOUS
 62
     7
100
AcDbEllipse
 10
112.6001903919287
 20
141.0288533252155
 30
0.0
 11
-4.619603740621894
 21
1.913502522155071
 31
0.0
210
0.0
220
0.0
230
-1.0
 40
0.999955390531953
 41
5.890501997412579
 42
6.124186959107551
  0
LINE
  5
1E9
330
1F
100
AcDbEntity
  8
1
  6
CONTINUOUS
 62
     7
100
AcDbLine
 10
106.7607448167066
 20
110.5038838648618
 30
0.0
 11
107.6
 21
114.7
 31
0.0
  0
ELLIPSE
  5
1EA
330
1F
100
AcDbEntity
  8
1
  6
CONTINUOUS
 62
     7
100
AcDbEllipse
 10
48.32885332521549
 20
150.0998096080713
 30
0.0
 11
-1.913502522155068
 21
-4.619603740621893
 31
0.0
210
0.0
220
0.0
230
1.0
 40
0.9999553905319531
 41
2.982594305570457
 42
3.30059100172521
  0
LINE
  5
1EB
330
1F
100
AcDbEntity
  8
1
  6
CONTINUOUS
 62
     7
100
AcDbLine
 10
107.6
 20
114.7
 30
0.0
 11
107.6
 21
124.7
 31
0.0
  0
LINE
  5
1EC
330
1F
100
AcDbEntity
  8
1
  6
CONTINUOUS
 62
     7
100
AcDbLine
 10
152.1961161351382
 20
199.4607448167066
 30
0.0
 11
148.0
 21
200.3
 31
0.0
  0
LINE
  5
1ED
330
1F
100
AcDbEntity
  8
1
  6
CONTINUOUS
 62
     7
100
AcDbLine
 10
40.0
 20
200.3
 30
0.0
 11
130.0
 21
200.3
 31
0.0
  0
ELLIPSE
  5
1EE
330
1F
100
AcDbEntity
  8
1
  6
CONTINUOUS
 62
     7
100
AcDbEllipse
 10
105.7801268020865
 20
110.7
 30
0.0
 11
-1.000038078385737
 21
0.0
 31
0.0
210
0.0
220
0.0
230
1.0
 40
0.9999619230641722
 41
1.570796326794897
 42
2.94419709373993
  0
LINE
  5
1EF
330
1F
100
AcDbEntity
  8
1
  6
CONTINUOUS
 62
     7
100
AcDbLine
 10
21.99967559428663
 20
200.1315890894981
 30
0.0
 11
21.99999999999999
 21
200.1317242571138
 31
0.0
  0
ELLIPSE
  5
1F0
330
1F
100
AcDbEntity
  8
1
  6
CONTINUOUS
 62
     7
100
AcDbEllipse
 10
48.32885332521549
 20
150.0998096080713
 30
0.0
 11
-1.913502522155068
 21
-4.619603740621893
 31
0.0
210
0.0
220
0.0
230
1.0
 40
0.9999553905319531
 41
3.300591001725213
 42
3.5342759633568
  0
ELLIPSE
  5
1F1
330
1F
100
AcDbEntity
  8
1
  6
CONTINUOUS
 62
     7
100
AcDbEllipse
 10
112.6001903919287
 20
141.0288533252155
 30
0.0
 11
-4.619603740621894
 21
1.913502522155071
 31
0.0
210
0.0
220
0.0
230
-1.0
 40
0.999955390531953
 41
6.124186959107551
 42
6.442183655154154
  0
ELLIPSE
  5
1F2
330
1F
100
AcDbEntity
  8
1
  6
CONTINUOUS
 62
     7
100
AcDbEllipse
 10
48.32885332521549
 20
150.0998096080713
 30
0.0
 11
-1.913502522155068
 21
-4.619603740621893
 31
0.0
210
0.0
220
0.0
230
1.0
 40
0.9999553905319531
 41
2.748909343822787
 42
2.982594305570457
  0
ELLIPSE
  5
1F3
330
1F
100
AcDbEntity
  8
1
  6
CONTINUOUS
 62
     7
100
AcDbEllipse
 10
57.39980960807132
 20
141.0288533252155
 30
0.0
 11
4.619603740621893
 21
1.913502522155069
 31
0.0
210
0.0
220
0.0
230
1.0
 40
0.9999553905319527
 41
5.890501997412579
 42
5.929228903092421
  0
LINE
  5
1F4
330
1F
100
AcDbEntity
  8
1
  6
CONTINUOUS
 62
     7
100
AcDbLine
 10
17.80388386486183
 20
199.4607448167066
 30
0.0
 11
22.0
 21
200.3
 31
0.0
  0
LINE
  5
1F5
330
1F
100
AcDbEntity
  8
1
  6
CONTINUOUS
 62
     7
100
AcDbLine
 10
48.32893218813452
 20
155.1
 30
0.0
 11
39.99999999999999
 21
155.1
 31
0.0
  0
LINE
  5
1F6
330
1F
100
AcDbEntity
  8
1
  6
CONTINUOUS
 62
     7
100
AcDbLine
 10
148.0
 20
155.1
 30
0.0
 11
152.1961161351382
 21
155.9392551832934
 31
0.0
  0
ELLIPSE
  5
1F7
330
1F
100
AcDbEntity
  8
1
  6
CONTINUOUS
 62
     7
100
AcDbEllipse
 10
57.39980960807132
 20
141.0288533252155
 30
0.0
 11
4.619603740621893
 21
1.913502522155069
 31
0.0
210
0.0
220
0.0
230
1.0
 40
0.9999553905319527
 41
5.929228903092421
 42
6.637141711133548
  0
ELLIPSE
  5
1F8
330
1F
100
AcDbEntity
  8
1
  6
CONTINUOUS
 62
     7
100
AcDbEllipse
 10
112.6001903919287
 20
141.0288533252155
 30
0.0
 11
-4.619603740621894
 21
1.913502522155071
 31
0.0
210
0.0
220
0.0
230
-1.0
 40
0.999955390531953
 41
0.1589983479745684
 42
0.3926833097670099
  0
ELLIPSE
  5
1F9
330
1F
100
AcDbEntity
  8
1
  6
CONTINUOUS
 62
     7
100
AcDbEllipse
 10
121.6711466747845
 20
150.0998096080713
 30
0.0
 11
1.913502522155066
 21
-4.619603740621893
 31
0.0
210
0.0
220
0.0
230
-1.0
 40
0.9999553905319536
 41
2.748909343822787
 42
3.5342759633568
  0
LINE
  5
1FA
330
1F
100
AcDbEntity
  8
1
  6
CONTINUOUS
 62
     7
100
AcDbLine
 10
31.99999999999999
 20
155.1
 30
0.0
 11
22.0
 21
155.1
 31
0.0
  0
LINE
  5
1FB
330
1F
100
AcDbEntity
  8
1
  6
CONTINUOUS
 62
     7
100
AcDbLine
 10
121.6710678118655
 20
155.1
 30
0.0
 11
130.0
 21
155.1
 31
0.0
  0
LINE
  5
1FC
330
1F
100
AcDbEntity
  8
1
  6
CONTINUOUS
 62
     7
100
AcDbLine
 10
138.0
 20
155.1
 30
0.0
 11
148.0
 21
155.1
 31
0.0
  0
LINE
  5
1FD
330
1F
100
AcDbEntity
  8
1
  6
CONTINUOUS
 62
     7
100
AcDbLine
 10
62.4
 20
114.7
 30
0.0
 11
62.39999999999996
 21
124.7
 31
0.0
  0
LINE
  5
1FE
330
1F
100
AcDbEntity
  8
1
  6
CONTINUOUS
 62
     7
100
AcDbLine
 10
22.0
 20
155.1
 30
0.0
 11
17.80388386486181
 21
155.9392551832934
 31
0.0
  0
LINE
  5
1FF
330
1F
100
AcDbEntity
  8
1
  6
CONTINUOUS
 62
     7
100
AcDbLine
 10
22.0
 20
200.3
 30
0.0
 11
32.0
 21
200.3
 31
0.0
  0
ELLIPSE
  5
200
330
1F
100
AcDbEntity
  8
1
  6
CONTINUOUS
 62
     7
100
AcDbEllipse
 10
64.21987319791351
 20
110.7
 30
0.0
 11
1.000038078385737
 21
0.0
 31
0.0
210
0.0
220
0.0
230
-1.0
 40
0.9999619230641722
 41
1.570796326794897
 42
2.94419709373993
  0
LINE
  5
201
330
1F
100
AcDbEntity
  8
1
  6
CONTINUOUS
 62
     7
100
AcDbLine
 10
64.37839192606612
 20
109.7
 30
0.0
 11
64.21987319791353
 21
109.7
 31
0.0
  0
LINE
  5
202
330
1F
100
AcDbEntity
  8
1
  6
CONTINUOUS
 62
     7
100
AcDbLine
 10
63.23925518329337
 20
110.5038838648618
 30
0.0
 11
62.4
 21
114.7
 31
0.0
  0
LINE
  5
203
330
1F
100
AcDbEntity
  8
1
  6
CONTINUOUS
 62
     7
100
AcDbLine
 10
153.0
 20
156.9198731979135
 30
0.0
 11
153.0
 21
157.0783919260661
 31
0.0
  0
LINE
  5
204
330
1F
100
AcDbEntity
  8
1
  6
CONTINUOUS
 62
     7
100
AcDbLine
 10
226.9198039027186
 20
70.65
 30
0.0
 11
225.9392232270276
 21
70.65
 31
0.0
  0
LINE
  5
205
330
1F
100
AcDbEntity
  8
1
  6
CONTINUOUS
 62
     7
100
AcDbLine
 10
267.9952775865109
 20
58.65000000000001
 30
0.0
 11
268.1
 21
70.65
 31
0.0
  0
ELLIPSE
  5
206
330
1F
100
AcDbEntity
  8
1
  6
CONTINUOUS
 62
     7
100
AcDbEllipse
 10
18.0
 20
198.4801268020865
 30
0.0
 11
0.0
 21
-1.000038078385737
 31
0.0
210
0.0
220
0.0
230
-1.0
 40
0.9999619230641722
 41
1.570796326794897
 42
2.94419709373992
  0
LINE
  5
207
330
1F
100
AcDbEntity
  8
1
  6
CONTINUOUS
 62
     7
100
AcDbLine
 10
226.9198039027186
 20
58.65000000000001
 30
0.0
 11
227.4047224134891
 21
58.65000000000001
 31
0.0
  0
LINE
  5
208
330
1F
100
AcDbEntity
  8
1
  6
CONTINUOUS
 62
     7
100
AcDbLine
 10
268.1
 20
70.65
 30
0.0
 11
268.4801268020865
 21
70.65
 31
0.0
  0
LINE
  5
209
330
1F
100
AcDbEntity
  8
1
  6
CONTINUOUS
 62
     7
100
AcDbLine
 10
225.9392232270276
 20
58.65000000000001
 30
0.0
 11
226.9198039027186
 21
58.65000000000001
 31
0.0
  0
LINE
  5
20A
330
1F
100
AcDbEntity
  8
1
  6
CONTINUOUS
 62
     7
100
AcDbLine
 10
226.9198731979135
 20
70.65
 30
0.0
 11
227.3
 21
70.65
 31
0.0
  0
LINE
  5
20B
330
1F
100
AcDbEntity
  8
1
  6
CONTINUOUS
 62
     7
100
AcDbLine
 10
225.1
 20
58.65000000000001
 30
0.0
 11
225.9392232270276
 21
58.65000000000001
 31
0.0
  0
LINE
  5
20C
330
1F
100
AcDbEntity
  8
1
  6
CONTINUOUS
 62
     7
100
AcDbLine
 10
225.1
 20
70.65
 30
0.0
 11
225.1
 21
58.65000000000001
 31
0.0
  0
LINE
  5
20D
330
1F
100
AcDbEntity
  8
1
  6
CONTINUOUS
 62
     7
100
AcDbLine
 10
227.4047224134891
 20
58.65000000000001
 30
0.0
 11
227.3
 21
70.65
 31
0.0
  0
LINE
  5
20E
330
1F
100
AcDbEntity
  8
1
  6
CONTINUOUS
 62
     7
100
AcDbLine
 10
225.9392232270276
 20
70.65
 30
0.0
 11
225.1
 21
70.65
 31
0.0
  0
LINE
  5
20F
330
1F
100
AcDbEntity
  8
1
  6
CONTINUOUS
 62
     7
100
AcDbLine
 10
269.4607767729723
 20
70.65
 30
0.0
 11
268.4801960972815
 21
70.65
 31
0.0
  0
LINE
  5
210
330
1F
100
AcDbEntity
  8
1
  6
CONTINUOUS
 62
     7
100
AcDbLine
 10
269.4607767729723
 20
58.65000000000001
 30
0.0
 11
270.3
 21
58.65000000000001
 31
0.0
  0
LINE
  5
211
330
1F
100
AcDbEntity
  8
1
  6
CONTINUOUS
 62
     7
100
AcDbLine
 10
105.6216080739339
 20
109.7
 30
0.0
 11
105.7801268020865
 21
109.7
 31
0.0
  0
LINE
  5
212
330
1F
100
AcDbEntity
  8
1
  6
CONTINUOUS
 62
     7
100
AcDbLine
 10
270.3
 20
58.65000000000001
 30
0.0
 11
270.3
 21
70.65
 31
0.0
  0
LINE
  5
213
330
1F
100
AcDbEntity
  8
1
  6
CONTINUOUS
 62
     7
100
AcDbLine
 10
268.4801960972815
 20
58.65000000000001
 30
0.0
 11
269.4607767729723
 21
58.65000000000001
 31
0.0
  0
LINE
  5
214
330
1F
100
AcDbEntity
  8
1
  6
CONTINUOUS
 62
     7
100
AcDbLine
 10
267.9952775865109
 20
58.65000000000001
 30
0.0
 11
268.4801960972815
 21
58.65000000000001
 31
0.0
  0
ELLIPSE
  5
215
330
1F
100
AcDbEntity
  8
1
  6
CONTINUOUS
 62
     7
100
AcDbEllipse
 10
152.0
 20
198.4801268020865
 30
0.0
 11
0.0
 21
-1.000038078385737
 31
0.0
210
0.0
220
0.0
230
1.0
 40
0.9999619230641722
 41
1.570796326794897
 42
2.94419709373992
  0
LINE
  5
216
330
1F
100
AcDbEntity
  8
1
  6
CONTINUOUS
 62
     7
100
AcDbLine
 10
153.0
 20
198.3216080739339
 30
0.0
 11
153.0
 21
198.4801268020865
 31
0.0
  0
ELLIPSE
  5
217
330
1F
100
AcDbEntity
  8
1
  6
CONTINUOUS
 62
     7
100
AcDbEllipse
 10
18.0
 20
156.9198731979135
 30
0.0
 11
0.0
 21
-1.000038078385737
 31
0.0
210
0.0
220
0.0
230
-1.0
 40
0.9999619230641715
 41
0.1973955598498849
 42
1.570796326794897
  0
LINE
  5
218
330
1F
100
AcDbEntity
  8
1
  6
CONTINUOUS
 62
     7
100
AcDbLine
 10
17.0
 20
198.3216080739339
 30
0.0
 11
17.0
 21
198.4801268020865
 31
0.0
  0
LINE
  5
219
330
1F
100
AcDbEntity
  8
1
  6
CONTINUOUS
 62
     7
100
AcDbLine
 10
17.0
 20
156.9198731979135
 30
0.0
 11
17.0
 21
157.0783919260661
 31
0.0
  0
ELLIPSE
  5
21A
330
1F
100
AcDbEntity
  8
1
  6
CONTINUOUS
 62
     7
100
AcDbEllipse
 10
152.0
 20
156.9198731979135
 30
0.0
 11
0.0
 21
-1.000038078385737
 31
0.0
210
0.0
220
0.0
230
1.0
 40
0.9999619230641715
 41
0.1973955598498849
 42
1.570796326794897
  0
LINE
  5
21B
330
1F
100
AcDbEntity
  8
1
  6
CONTINUOUS
 62
     7
100
AcDbLine
 10
247.7
 20
62.15000000000001
 30
0.0
 11
247.5267949192431
 21
62.15000000000001
 31
0.0
  0
LINE
  5
21C
330
1F
100
AcDbEntity
  8
1
  6
CONTINUOUS
 62
     7
100
AcDbLine
 10
240.333762259451
 20
61.20233595624295
 30
0.0
 11
240.3048155585661
 21
60.65000000000001
 31
0.0
  0
LINE
  5
21D
330
1F
100
AcDbEntity
  8
1
  6
CONTINUOUS
 62
     7
100
AcDbLine
 10
253.0662358597966
 20
62.15000000000001
 30
0.0
 11
247.8732050807569
 21
62.15000000000001
 31
0.0
  0
LINE
  5
21E
330
1F
100
AcDbEntity
  8
1
  6
CONTINUOUS
 62
     7
100
AcDbLine
 10
248.4505553499465
 20
61.15000000000001
 30
0.0
 11
248.4505553499465
 21
60.65000000000001
 31
0.0
  0
LINE
  5
21F
330
1F
100
AcDbEntity
  8
1
  6
CONTINUOUS
 62
     7
100
AcDbLine
 10
255.0951844414339
 20
60.65000000000001
 30
0.0
 11
255.066237740549
 21
61.20233595624295
 31
0.0
  0
LINE
  5
220
330
1F
100
AcDbEntity
  8
1
  6
CONTINUOUS
 62
     7
100
AcDbLine
 10
247.7
 20
60.65
 30
0.0
 11
248.4505553499465
 21
60.65000000000001
 31
0.0
  0
LINE
  5
221
330
1F
100
AcDbEntity
  8
1
  6
CONTINUOUS
 62
     7
100
AcDbLine
 10
246.9494446500535
 20
60.65000000000001
 30
0.0
 11
246.9494446500535
 21
61.15000000000001
 31
0.0
  0
LWPOLYLINE
  5
222
330
1F
100
AcDbEntity
  8
1
  6
CONTINUOUS
 62
     7
100
AcDbPolyline
 90
        8
 70
     0
 43
0.0
 10
247.5267949192431
 20
62.15000000000001
 10
247.4017949192431
 20
62.12628120948831
 10
247.3074419568176
 20
62.07501417091027
 10
247.2279766049233
 20
62.00564177380555
 10
247.1579763702137
 20
61.91936163891891
 10
247.0934905238436
 20
61.81086451166808
 10
247.0458688733377
 20
61.70328942999443
 42
0.0905436998776478
 10
246.9494446500535
 20
61.15000000000001
  0
LINE
  5
223
330
1F
100
AcDbEntity
  8
1
  6
CONTINUOUS
 62
     7
100
AcDbLine
 10
254.424843067981
 20
62.08401458941422
 30
0.0
 11
254.1250008161406
 21
62.14835168566877
 31
0.0
  0
LINE
  5
224
330
1F
100
AcDbEntity
  8
1
  6
CONTINUOUS
 62
     7
100
AcDbLine
 10
247.8732050807569
 20
62.15000000000001
 30
0.0
 11
247.7
 21
62.15000000000001
 31
0.0
  0
LINE
  5
225
330
1F
100
AcDbEntity
  8
1
  6
CONTINUOUS
 62
     7
100
AcDbLine
 10
254.1250008161406
 20
62.14835168566877
 30
0.0
 11
254.0676082057946
 21
62.15000000000001
 31
0.0
  0
LINE
  5
226
330
1F
100
AcDbEntity
  8
1
  6
CONTINUOUS
 62
     7
100
AcDbLine
 10
247.7
 20
60.65
 30
0.0
 11
247.7
 21
62.15000000000001
 31
0.0
  0
LINE
  5
227
330
1F
100
AcDbEntity
  8
1
  6
CONTINUOUS
 62
     7
100
AcDbLine
 10
255.0266021843761
 20
61.20167832672385
 30
0.0
 11
255.066237740549
 21
61.20233595624295
 31
0.0
  0
LINE
  5
228
330
1F
100
AcDbEntity
  8
1
  6
CONTINUOUS
 62
     7
100
AcDbLine
 10
240.9751569320068
 20
62.08401458940953
 30
0.0
 11
241.3323917942055
 21
62.15000000000001
 31
0.0
  0
LINE
  5
229
330
1F
100
AcDbEntity
  8
1
  6
CONTINUOUS
 62
     7
100
AcDbLine
 10
240.3048155585661
 20
60.65000000000001
 30
0.0
 11
242.3075602505619
 21
60.65000000000001
 31
0.0
  0
LINE
  5
22A
330
1F
100
AcDbEntity
  8
1
  6
CONTINUOUS
 62
     7
100
AcDbLine
 10
242.3337641402034
 20
62.15000000000001
 30
0.0
 11
241.3323917942055
 21
62.15000000000001
 31
0.0
  0
LINE
  5
22B
330
1F
100
AcDbEntity
  8
1
  6
CONTINUOUS
 62
     7
100
AcDbLine
 10
240.333762259451
 20
61.20233595624295
 30
0.0
 11
240.3733978156238
 21
61.20167832672487
 31
0.0
  0
LINE
  5
22C
330
1F
100
AcDbEntity
  8
1
  6
CONTINUOUS
 62
     7
100
AcDbLine
 10
248.4505553499465
 20
60.65000000000001
 30
0.0
 11
253.0924397494381
 21
60.65000000000001
 31
0.0
  0
LINE
  5
22D
330
1F
100
AcDbEntity
  8
1
  6
CONTINUOUS
 62
     7
100
AcDbLine
 10
255.0951844414339
 20
60.65000000000001
 30
0.0
 11
255.1200169254538
 21
60.17616797812148
 31
0.0
  0
LINE
  5
22E
330
1F
100
AcDbEntity
  8
1
  6
CONTINUOUS
 62
     7
100
AcDbLine
 10
253.0924397494381
 20
60.65000000000001
 30
0.0
 11
255.0951844414339
 21
60.65000000000001
 31
0.0
  0
LINE
  5
22F
330
1F
100
AcDbEntity
  8
1
  6
CONTINUOUS
 62
     7
100
AcDbLine
 10
254.0676082057944
 20
62.15000000000001
 30
0.0
 11
253.0662358597965
 21
62.15000000000001
 31
0.0
  0
LINE
  5
230
330
1F
100
AcDbEntity
  8
1
  6
CONTINUOUS
 62
     7
100
AcDbLine
 10
270.3
 20
70.65
 30
0.0
 11
269.4607767729723
 21
70.65
 31
0.0
  0
LINE
  5
231
330
1F
100
AcDbEntity
  8
1
  6
CONTINUOUS
 62
     7
100
AcDbLine
 10
246.0951844414339
 20
60.65000000000001
 30
0.0
 11
246.1200169254538
 21
60.17616797812148
 31
0.0
  0
LINE
  5
232
330
1F
100
AcDbEntity
  8
1
  6
CONTINUOUS
 62
     7
100
AcDbLine
 10
249.2799830745462
 20
60.17616797812148
 30
0.0
 11
249.3048155585661
 21
60.65000000000001
 31
0.0
  0
LINE
  5
233
330
1F
100
AcDbEntity
  8
1
  6
CONTINUOUS
 62
     7
100
AcDbLine
 10
242.3075602505619
 20
60.65000000000001
 30
0.0
 11
246.9494446500535
 21
60.65000000000001
 31
0.0
  0
LINE
  5
234
330
1F
100
AcDbEntity
  8
1
  6
CONTINUOUS
 62
     7
100
AcDbLine
 10
246.9494446500535
 20
60.65000000000001
 30
0.0
 11
247.7
 21
60.65
 31
0.0
  0
LINE
  5
235
330
1F
100
AcDbEntity
  8
1
  6
CONTINUOUS
 62
     7
100
AcDbLine
 10
247.5267949192431
 20
62.15000000000001
 30
0.0
 11
242.3337641402035
 21
62.15000000000001
 31
0.0
  0
LWPOLYLINE
  5
236
330
1F
100
AcDbEntity
  8
1
  6
CONTINUOUS
 62
     7
100
AcDbPolyline
 90
        8
 70
     0
 43
0.0
 10
248.4505553499465
 20
61.15000000000001
 42
0.1122411412828973
 10
248.311452496519
 20
61.80101241374187
 10
248.2509062634467
 20
61.90632339484418
 10
248.1776263627831
 20
61.99969560589926
 10
248.094953275236
 20
62.07329997060206
 10
248.0004926890337
 20
62.12539382282059
 10
247.8990000365844
 20
62.14900118143474
 10
247.8732050807569
 20
62.15000000000001
  0
LINE
  5
237
330
1F
100
AcDbEntity
  8
1
  6
CONTINUOUS
 62
     7
100
AcDbLine
 10
238.0326479894772
 20
60.15
 30
0.0
 11
232.5591624004461
 21
60.15
 31
0.0
  0
ARC
  5
238
330
1F
100
AcDbEntity
  8
1
  6
CONTINUOUS
 62
     7
100
AcDbCircle
 10
-232.5591624004461
 20
61.15
 30
0.0
 40
1.000000000000001
210
0.0
220
0.0
230
-1.0
100
AcDbArc
 50
270.0
 51
351.3358645668917
  0
LINE
  5
239
330
1F
100
AcDbEntity
  8
1
  6
CONTINUOUS
 62
     7
100
AcDbLine
 10
238.2433774439516
 20
58.65000000000001
 30
0.0
 11
238.2397468846721
 21
59.65436326774919
 31
0.0
  0
LINE
  5
23A
330
1F
100
AcDbEntity
  8
1
  6
CONTINUOUS
 62
     7
100
AcDbLine
 10
227.4047224134891
 20
58.65000000000001
 30
0.0
 11
238.2433774439516
 21
58.65000000000001
 31
0.0
  0
LINE
  5
23B
330
1F
100
AcDbEntity
  8
1
  6
CONTINUOUS
 62
     7
100
AcDbLine
 10
255.1304690447444
 20
59.97672966125989
 30
0.0
 11
255.1200169254538
 21
60.17616797812148
 31
0.0
  0
LINE
  5
23C
330
1F
100
AcDbEntity
  8
1
  6
CONTINUOUS
 62
     7
100
AcDbLine
 10
257.1566225560484
 20
58.65000000000001
 30
0.0
 11
267.9952775865109
 21
58.65000000000001
 31
0.0
  0
LINE
  5
23D
330
1F
100
AcDbEntity
  8
1
  6
CONTINUOUS
 62
     7
100
AcDbLine
 10
257.3673520105228
 20
60.15000000000001
 30
0.0
 11
256.6040234934945
 21
60.15000000000001
 31
0.0
  0
LINE
  5
23E
330
1F
100
AcDbEntity
  8
1
  6
CONTINUOUS
 62
     7
100
AcDbLine
 10
246.1200169254538
 20
60.17616797812148
 30
0.0
 11
246.1304690447444
 21
59.97672966125989
 31
0.0
  0
LINE
  5
23F
330
1F
100
AcDbEntity
  8
1
  6
CONTINUOUS
 62
     7
100
AcDbLine
 10
238.7959765065055
 20
60.15
 30
0.0
 11
238.0326479894772
 21
60.15
 31
0.0
  0
LINE
  5
240
330
1F
100
AcDbEntity
  8
1
  6
CONTINUOUS
 62
     7
100
AcDbLine
 10
265.1705740248661
 20
69.80064203818361
 30
0.0
 11
263.8294259751339
 21
60.99935796181639
 31
0.0
  0
LINE
  5
241
330
1F
100
AcDbEntity
  8
1
  6
CONTINUOUS
 62
     7
100
AcDbLine
 10
249.2695309552556
 20
59.97672966125989
 30
0.0
 11
249.2799830745462
 21
60.17616797812148
 31
0.0
  0
ARC
  5
242
330
1F
100
AcDbEntity
  8
1
  6
CONTINUOUS
 62
     7
100
AcDbCircle
 10
-262.8408375995539
 20
61.15
 30
0.0
 40
1.000000000000001
210
0.0
220
0.0
230
-1.0
100
AcDbArc
 50
188.6641354331079
 51
270.0
  0
LINE
  5
243
330
1F
100
AcDbEntity
  8
1
  6
CONTINUOUS
 62
     7
100
AcDbLine
 10
231.5705740248661
 20
60.99935796181638
 30
0.0
 11
230.2294259751339
 21
69.80064203818361
 31
0.0
  0
LINE
  5
244
330
1F
100
AcDbEntity
  8
1
  6
CONTINUOUS
 62
     7
100
AcDbLine
 10
257.1566225560484
 20
58.65000000000001
 30
0.0
 11
257.1602531153279
 21
59.65436326774919
 31
0.0
  0
LINE
  5
245
330
1F
100
AcDbEntity
  8
1
  6
CONTINUOUS
 62
     7
100
AcDbLine
 10
240.2695309552556
 20
59.97672966125989
 30
0.0
 11
240.2799830745463
 21
60.17616797812148
 31
0.0
  0
LINE
  5
246
330
1F
100
AcDbEntity
  8
1
  6
CONTINUOUS
 62
     7
100
AcDbLine
 10
240.2
 20
58.65000000000001
 30
0.0
 11
246.2
 21
58.65000000000001
 31
0.0
  0
LINE
  5
247
330
1F
100
AcDbEntity
  8
1
  6
CONTINUOUS
 62
     7
100
AcDbLine
 10
246.2
 20
58.65
 30
0.0
 11
246.1304690447444
 21
59.97672966125989
 31
0.0
  0
LINE
  5
248
330
1F
100
AcDbEntity
  8
1
  6
CONTINUOUS
 62
     7
100
AcDbLine
 10
240.2695309552556
 20
59.97672966125989
 30
0.0
 11
240.2
 21
58.65
 31
0.0
  0
LINE
  5
249
330
1F
100
AcDbEntity
  8
1
  6
CONTINUOUS
 62
     7
100
AcDbLine
 10
249.2
 20
58.65000000000001
 30
0.0
 11
255.2
 21
58.65000000000001
 31
0.0
  0
LINE
  5
24A
330
1F
100
AcDbEntity
  8
1
  6
CONTINUOUS
 62
     7
100
AcDbLine
 10
249.2695309552556
 20
59.97672966125989
 30
0.0
 11
249.2
 21
58.65
 31
0.0
  0
LINE
  5
24B
330
1F
100
AcDbEntity
  8
1
  6
CONTINUOUS
 62
     7
100
AcDbLine
 10
255.2
 20
58.65
 30
0.0
 11
255.1304690447444
 21
59.97672966125989
 31
0.0
  0
ARC
  5
24C
330
1F
100
AcDbEntity
  8
1
  6
CONTINUOUS
 62
     7
100
AcDbCircle
 10
266.1591624004461
 20
69.65
 30
0.0
 40
1.0
100
AcDbArc
 50
90.0
 51
171.3358645668919
  0
LINE
  5
24D
330
1F
100
AcDbEntity
  8
1
  6
CONTINUOUS
 62
     7
100
AcDbLine
 10
238.2433774439516
 20
58.65000000000001
 30
0.0
 11
239.3047224134891
 21
58.65000000000001
 31
0.0
  0
LINE
  5
24E
330
1F
100
AcDbEntity
  8
1
  6
CONTINUOUS
 62
     7
100
AcDbLine
 10
256.0952775865109
 20
58.65000000000001
 30
0.0
 11
257.1566225560484
 21
58.65000000000001
 31
0.0
  0
LINE
  5
24F
330
1F
100
AcDbEntity
  8
1
  6
CONTINUOUS
 62
     7
100
AcDbLine
 10
239.3047224134891
 20
58.65000000000001
 30
0.0
 11
239.2959574680376
 21
59.65436326774919
 31
0.0
  0
LINE
  5
250
330
1F
100
AcDbEntity
  8
1
  6
CONTINUOUS
 62
     7
100
AcDbLine
 10
240.2799830745463
 20
60.17616797812148
 30
0.0
 11
240.3048155585661
 21
60.65000000000001
 31
0.0
  0
LINE
  5
251
330
1F
100
AcDbEntity
  8
1
  6
CONTINUOUS
 62
     7
100
AcDbLine
 10
262.8408375995539
 20
60.15000000000001
 30
0.0
 11
257.3673520105228
 21
60.15000000000001
 31
0.0
  0
LINE
  5
252
330
1F
100
AcDbEntity
  8
1
  6
CONTINUOUS
 62
     7
100
AcDbLine
 10
256.1040425319624
 20
59.65436326774919
 30
0.0
 11
256.0952775865109
 21
58.65000000000001
 31
0.0
  0
LINE
  5
253
330
1F
100
AcDbEntity
  8
1
  6
CONTINUOUS
 62
     7
100
AcDbLine
 10
247.7
 20
58.65000000000001
 30
0.0
 11
248.4721027266286
 21
58.65000000000001
 31
0.0
  0
LINE
  5
254
330
1F
100
AcDbEntity
  8
1
  6
CONTINUOUS
 62
     7
100
AcDbLine
 10
180.5038838648618
 20
58.65
 30
0.0
 11
184.7
 21
58.65
 31
0.0
  0
LINE
  5
255
330
1F
100
AcDbEntity
  8
1
  6
CONTINUOUS
 62
     7
100
AcDbLine
 10
184.7
 20
70.65
 30
0.0
 11
180.5038838648618
 21
70.65
 31
0.0
  0
LINE
  5
256
330
1F
100
AcDbEntity
  8
1
  6
CONTINUOUS
 62
     7
100
AcDbLine
 10
179.7
 20
58.65
 30
0.0
 11
180.5038838648618
 21
58.65
 31
0.0
  0
LINE
  5
257
330
1F
100
AcDbEntity
  8
1
  6
CONTINUOUS
 62
     7
100
AcDbLine
 10
249.2
 20
58.65000000000001
 30
0.0
 11
248.4721027266286
 21
58.65000000000001
 31
0.0
  0
LINE
  5
258
330
1F
100
AcDbEntity
  8
1
  6
CONTINUOUS
 62
     7
100
AcDbLine
 10
184.7
 20
58.65
 30
0.0
 11
184.7
 21
70.65
 31
0.0
  0
ELLIPSE
  5
259
330
1F
100
AcDbEntity
  8
1
  6
CONTINUOUS
 62
     7
100
AcDbEllipse
 10
246.6751288694036
 20
68.6913237079221
 30
0.0
 11
-0.1338031946441696
 21
-14.00411013849269
 31
0.0
210
0.0
220
0.0
230
1.0
 40
0.0357070810271111
 41
0.7716099302381655
 42
0.9151835914516202
  0
LINE
  5
25A
330
1F
100
AcDbEntity
  8
1
  6
CONTINUOUS
 62
     7
100
AcDbLine
 10
255.066237740549
 20
61.20233595624295
 30
0.0
 11
254.9816554131527
 21
61.55560781886049
 31
0.0
  0
LINE
  5
25B
330
1F
100
AcDbEntity
  8
1
  6
CONTINUOUS
 62
     7
100
AcDbLine
 10
268.4801268020865
 20
70.65
 30
0.0
 11
269.4607448167066
 21
70.65
 31
0.0
  0
LINE
  5
25C
330
1F
100
AcDbEntity
  8
1
  6
CONTINUOUS
 62
     7
100
AcDbLine
 10
226.9198731979135
 20
70.65
 30
0.0
 11
227.3
 21
70.65
 31
0.0
  0
LINE
  5
25D
330
1F
100
AcDbEntity
  8
1
  6
CONTINUOUS
 62
     7
100
AcDbLine
 10
214.5644660940673
 20
58.65000000000001
 30
0.0
 11
211.0289321881345
 21
58.65000000000001
 31
0.0
  0
LINE
  5
25E
330
1F
100
AcDbEntity
  8
1
  6
CONTINUOUS
 62
     7
100
AcDbLine
 10
246.9278972733714
 20
58.65000000000001
 30
0.0
 11
246.2
 21
58.65000000000001
 31
0.0
  0
LINE
  5
25F
330
1F
100
AcDbEntity
  8
1
  6
CONTINUOUS
 62
     7
100
AcDbLine
 10
246.9278972733714
 20
58.65000000000001
 30
0.0
 11
247.7
 21
58.65000000000001
 31
0.0
  0
LINE
  5
260
330
1F
100
AcDbEntity
  8
1
  6
CONTINUOUS
 62
     7
100
AcDbLine
 10
229.2408375995539
 20
70.65
 30
0.0
 11
227.3000837724486
 21
70.65
 31
0.0
  0
LINE
  5
261
330
1F
100
AcDbEntity
  8
1
  6
CONTINUOUS
 62
     7
100
AcDbLine
 10
202.7
 20
70.65
 30
0.0
 11
211.0289321881345
 21
70.65
 31
0.0
  0
LINE
  5
262
330
1F
100
AcDbEntity
  8
1
  6
CONTINUOUS
 62
     7
100
AcDbLine
 10
240.333762259451
 20
61.20233595624295
 30
0.0
 11
240.4183445868614
 21
61.55560781889204
 31
0.0
  0
LINE
  5
263
330
1F
100
AcDbEntity
  8
1
  6
CONTINUOUS
 62
     7
100
AcDbLine
 10
231.2686266703379
 20
89.15
 30
0.0
 11
264.1313733296621
 21
89.15
 31
0.0
  0
LINE
  5
264
330
1F
100
AcDbEntity
  8
1
  6
CONTINUOUS
 62
     7
100
AcDbLine
 10
227.4558027650214
 20
88.49362915841103
 30
0.0
 11
231.2686266703379
 21
89.15
 31
0.0
  0
LINE
  5
265
330
1F
100
AcDbEntity
  8
1
  6
CONTINUOUS
 62
     7
100
AcDbLine
 10
264.1313733296621
 20
89.15
 30
0.0
 11
267.9441972349785
 21
88.49362915841103
 31
0.0
  0
LINE
  5
266
330
1F
100
AcDbEntity
  8
1
  6
CONTINUOUS
 62
     7
100
AcDbLine
 10
180.5038838648618
 20
70.65
 30
0.0
 11
179.7
 21
70.65
 31
0.0
  0
LINE
  5
267
330
1F
100
AcDbEntity
  8
1
  6
CONTINUOUS
 62
     7
100
AcDbLine
 10
227.4558027650214
 20
88.49362915841103
 30
0.0
 11
227.3000837724486
 21
70.65
 31
0.0
  0
LINE
  5
268
330
1F
100
AcDbEntity
  8
1
  6
CONTINUOUS
 62
     7
100
AcDbLine
 10
267.9441972349786
 20
88.49362915841103
 30
0.0
 11
268.0999162275514
 21
70.65
 31
0.0
  0
LINE
  5
269
330
1F
100
AcDbEntity
  8
1
  6
CONTINUOUS
 62
     7
100
AcDbLine
 10
184.7
 20
70.65
 30
0.0
 11
194.7
 21
70.65
 31
0.0
  0
LINE
  5
26A
330
1F
100
AcDbEntity
  8
1
  6
CONTINUOUS
 62
     7
100
AcDbLine
 10
225.9392551832934
 20
70.65
 30
0.0
 11
226.9198731979135
 21
70.65
 31
0.0
  0
LINE
  5
26B
330
1F
100
AcDbEntity
  8
1
  6
CONTINUOUS
 62
     7
100
AcDbLine
 10
247.7
 20
60.15000000000001
 30
0.0
 11
248.4100699438175
 21
60.15000000000001
 31
0.0
  0
ARC
  5
26C
330
1F
100
AcDbEntity
  8
1
  6
CONTINUOUS
 62
     7
100
AcDbCircle
 10
-231.507874588426
 20
86.35000000000002
 30
0.0
 40
5.000000000000002
210
0.0
220
0.0
230
-1.0
100
AcDbArc
 50
80.32743472308194
 51
89.90493595309039
  0
LINE
  5
26D
330
1F
100
AcDbEntity
  8
1
  6
CONTINUOUS
 62
     7
100
AcDbLine
 10
179.7
 20
70.65
 30
0.0
 11
179.7
 21
58.65
 31
0.0
  0
LINE
  5
26E
330
1F
100
AcDbEntity
  8
1
  6
CONTINUOUS
 62
     7
100
AcDbLine
 10
225.2682757428862
 20
89.93249022683847
 30
0.0
 11
225.2684109105019
 21
89.9405439758032
 31
0.0
  0
ARC
  5
26F
330
1F
100
AcDbEntity
  8
1
  6
CONTINUOUS
 62
     7
100
AcDbCircle
 10
-263.892125411574
 20
86.34999999999998
 30
0.0
 40
5.000000000000001
210
0.0
220
0.0
230
-1.0
100
AcDbArc
 50
90.0950640469099
 51
99.67256527691845
  0
LINE
  5
270
330
1F
100
AcDbEntity
  8
1
  6
CONTINUOUS
 62
     7
100
AcDbLine
 10
256.6040234934945
 20
60.15000000000001
 30
0.0
 11
255.1213883310755
 21
60.15000000000001
 31
0.0
  0
LINE
  5
271
330
1F
100
AcDbEntity
  8
1
  6
CONTINUOUS
 62
     7
100
AcDbLine
 10
240.2786116689246
 20
60.15000000000001
 30
0.0
 11
238.7959765065055
 21
60.15
 31
0.0
  0
ARC
  5
272
330
1F
100
AcDbEntity
  8
1
  6
CONTINUOUS
 62
     7
100
AcDbCircle
 10
-231.507874588426
 20
86.35000000000001
 30
0.0
 40
5.000000000000003
210
0.0
220
0.0
230
-1.0
100
AcDbArc
 50
80.23237067617193
 51
80.32743472308191
  0
ARC
  5
273
330
1F
100
AcDbEntity
  8
1
  6
CONTINUOUS
 62
     7
100
AcDbCircle
 10
229.2408375995539
 20
69.65
 30
0.0
 40
1.0
100
AcDbArc
 50
8.664135433107916
 51
90.00000000000001
  0
LINE
  5
274
330
1F
100
AcDbEntity
  8
1
  6
CONTINUOUS
 62
     7
100
AcDbLine
 10
225.1
 20
70.65
 30
0.0
 11
225.9392232270276
 21
70.65
 31
0.0
  0
LINE
  5
275
330
1F
100
AcDbEntity
  8
1
  6
CONTINUOUS
 62
     7
100
AcDbLine
 10
225.6755034797349
 20
90.41944848244322
 30
0.0
 11
225.6834303337578
 21
90.42087891173945
 31
0.0
  0
LINE
  5
276
330
1F
100
AcDbEntity
  8
1
  6
CONTINUOUS
 62
     7
100
AcDbLine
 10
246.1213883310754
 20
60.15000000000001
 30
0.0
 11
246.9899300561825
 21
60.15000000000001
 31
0.0
  0
LINE
  5
277
330
1F
100
AcDbEntity
  8
1
  6
CONTINUOUS
 62
     7
100
AcDbLine
 10
270.1315890894981
 20
89.94054397580321
 30
0.0
 11
270.1317242571138
 21
89.93249022683847
 31
0.0
  0
LINE
  5
278
330
1F
100
AcDbEntity
  8
1
  6
CONTINUOUS
 62
     7
100
AcDbLine
 10
256.0952775865109
 20
58.65000000000001
 30
0.0
 11
255.2
 21
58.65000000000001
 31
0.0
  0
LINE
  5
279
330
1F
100
AcDbEntity
  8
1
  6
CONTINUOUS
 62
     7
100
AcDbLine
 10
246.9899300561825
 20
60.15
 30
0.0
 11
247.7
 21
60.15000000000001
 31
0.0
  0
LINE
  5
27A
330
1F
100
AcDbEntity
  8
1
  6
CONTINUOUS
 62
     7
100
AcDbLine
 10
194.7
 20
70.65
 30
0.0
 11
202.7
 21
70.65
 31
0.0
  0
LINE
  5
27B
330
1F
100
AcDbEntity
  8
1
  6
CONTINUOUS
 62
     7
100
AcDbLine
 10
230.6596108818209
 20
91.27751952650182
 30
0.0
 11
225.6834303337578
 21
90.42087891173945
 31
0.0
  0
LINE
  5
27C
330
1F
100
AcDbEntity
  8
1
  6
CONTINUOUS
 62
     7
100
AcDbLine
 10
214.5644660940673
 20
58.65000000000001
 30
0.0
 11
223.6355339059327
 21
58.65000000000001
 31
0.0
  0
LINE
  5
27D
330
1F
100
AcDbEntity
  8
1
  6
CONTINUOUS
 62
     7
100
AcDbLine
 10
268.1
 20
70.65
 30
0.0
 11
268.4801268020865
 21
70.65
 31
0.0
  0
ELLIPSE
  5
27E
330
1F
100
AcDbEntity
  8
1
  6
CONTINUOUS
 62
     7
100
AcDbEllipse
 10
248.7248711305965
 20
68.6913237079223
 30
0.0
 11
0.1338031946441713
 21
-14.00411013849269
 31
0.0
210
0.0
220
0.0
230
1.0
 40
0.0357070810271111
 41
5.368001715727986
 42
5.511575376941433
  0
LINE
  5
27F
330
1F
100
AcDbEntity
  8
1
  6
CONTINUOUS
 62
     7
100
AcDbLine
 10
270.3
 20
70.65
 30
0.0
 11
270.1317242571138
 21
89.93249022683847
 31
0.0
  0
LINE
  5
280
330
1F
100
AcDbEntity
  8
1
  6
CONTINUOUS
 62
     7
100
AcDbLine
 10
225.2682757428862
 20
89.93249022683847
 30
0.0
 11
225.1
 21
70.65
 31
0.0
  0
LINE
  5
281
330
1F
100
AcDbEntity
  8
1
  6
CONTINUOUS
 62
     7
100
AcDbLine
 10
269.4607767729724
 20
70.65
 30
0.0
 11
270.3
 21
70.65
 31
0.0
  0
LINE
  5
282
330
1F
100
AcDbEntity
  8
1
  6
CONTINUOUS
 62
     7
100
AcDbLine
 10
248.4100699438175
 20
60.15000000000001
 30
0.0
 11
249.2786116689246
 21
60.15000000000001
 31
0.0
  0
LINE
  5
283
330
1F
100
AcDbEntity
  8
1
  6
CONTINUOUS
 62
     7
100
AcDbLine
 10
240.2
 20
58.65000000000001
 30
0.0
 11
239.3047224134891
 21
58.65000000000001
 31
0.0
  0
LINE
  5
284
330
1F
100
AcDbEntity
  8
1
  6
CONTINUOUS
 62
     7
100
AcDbLine
 10
223.6355339059327
 20
70.65
 30
0.0
 11
214.5644660940673
 21
70.65
 31
0.0
  0
LINE
  5
285
330
1F
100
AcDbEntity
  8
1
  6
CONTINUOUS
 62
     7
100
AcDbLine
 10
211.0289321881345
 20
70.65
 30
0.0
 11
214.5644660940673
 21
70.65
 31
0.0
  0
LINE
  5
286
330
1F
100
AcDbEntity
  8
1
  6
CONTINUOUS
 62
     7
100
AcDbLine
 10
184.7
 20
58.65
 30
0.0
 11
211.0289321881345
 21
58.65000000000001
 31
0.0
  0
LINE
  5
287
330
1F
100
AcDbEntity
  8
1
  6
CONTINUOUS
 62
     7
100
AcDbLine
 10
268.0999162275514
 20
70.65
 30
0.0
 11
266.1591624004461
 21
70.65
 31
0.0
  0
LINE
  5
288
330
1F
100
AcDbEntity
  8
1
  6
CONTINUOUS
 62
     7
100
AcDbLine
 10
225.1
 20
58.65000000000001
 30
0.0
 11
223.6355339059327
 21
58.65000000000001
 31
0.0
  0
LINE
  5
289
330
1F
100
AcDbEntity
  8
1
  6
CONTINUOUS
 62
     7
100
AcDbLine
 10
223.6355339059327
 20
70.65
 30
0.0
 11
225.1
 21
70.65
 31
0.0
  0
LINE
  5
28A
330
1F
100
AcDbEntity
  8
1
  6
CONTINUOUS
 62
     7
100
AcDbLine
 10
247.7
 20
58.65000000000001
 30
0.0
 11
247.7
 21
60.15000000000001
 31
0.0
  0
LINE
  5
28B
330
1F
100
AcDbEntity
  8
1
  6
CONTINUOUS
 62
     7
100
AcDbLine
 10
194.7
 20
72.6437771957935
 30
0.0
 11
192.8250047597982
 21
72.6437771957935
 31
0.0
  0
LINE
  5
28C
330
1F
100
AcDbEntity
  8
1
  6
CONTINUOUS
 62
     7
100
AcDbLine
 10
202.7
 20
72.6437771957935
 30
0.0
 11
194.7
 21
72.6437771957935
 31
0.0
  0
LINE
  5
28D
330
1F
100
AcDbEntity
  8
1
  6
CONTINUOUS
 62
     7
100
AcDbLine
 10
192.9500095195964
 20
73.64984769370652
 30
0.0
 11
192.9500095195964
 21
73.64373911885767
 31
0.0
  0
LINE
  5
28E
330
1F
100
AcDbEntity
  8
1
  6
CONTINUOUS
 62
     7
100
AcDbLine
 10
214.5644660940673
 20
70.65
 30
0.0
 11
223.6355339059327
 21
70.65
 31
0.0
  0
LINE
  5
28F
330
1F
100
AcDbEntity
  8
1
  6
CONTINUOUS
 62
     7
100
AcDbLine
 10
201.9344439017391
 20
79.64931462820377
 30
0.0
 11
195.465556098261
 21
79.64931462820375
 31
0.0
  0
LINE
  5
290
330
1F
100
AcDbEntity
  8
1
  6
CONTINUOUS
 62
     7
100
AcDbLine
 10
194.7
 20
71.6499238475782
 30
0.0
 11
194.7
 21
72.6437771957935
 31
0.0
  0
ELLIPSE
  5
291
330
1F
100
AcDbEntity
  8
1
  6
CONTINUOUS
 62
     7
100
AcDbEllipse
 10
195.465556098261
 20
77.64939078207541
 30
0.0
 11
-2.000000000000002
 21
0.0
 31
0.0
210
0.0
220
0.0
230
1.0
 40
0.9999619230641714
 41
4.712388980384674
 42
5.759410652817442
  0
LINE
  5
292
330
1F
100
AcDbEntity
  8
1
  6
CONTINUOUS
 62
     7
100
AcDbLine
 10
204.3249857206054
 20
74.64370104192184
 30
0.0
 11
193.0750142793947
 21
74.64370104192183
 31
0.0
  0
LINE
  5
293
330
1F
100
AcDbEntity
  8
1
  6
CONTINUOUS
 62
     7
100
AcDbLine
 10
204.4499904804036
 20
73.64984769370652
 30
0.0
 11
204.3249857206054
 21
74.64370104192184
 31
0.0
  0
LINE
  5
294
330
1F
100
AcDbEntity
  8
1
  6
CONTINUOUS
 62
     7
100
AcDbLine
 10
193.4500285587893
 20
77.64969538596321
 30
0.0
 11
193.3250237989911
 21
76.64973346289904
 31
0.0
  0
LINE
  5
295
330
1F
100
AcDbEntity
  8
1
  6
CONTINUOUS
 62
     7
100
AcDbLine
 10
229.2999847216671
 20
70.64824927645641
 30
0.0
 11
229.4587280167027
 21
88.83842917166439
 31
0.0
  0
LINE
  5
296
330
1F
100
AcDbEntity
  8
1
  6
CONTINUOUS
 62
     7
100
AcDbLine
 10
202.7
 20
70.64999999999999
 30
0.0
 11
202.7
 21
71.6499238475782
 31
0.0
  0
LINE
  5
297
330
1F
100
AcDbEntity
  8
1
  6
CONTINUOUS
 62
     7
100
AcDbLine
 10
204.4499904804036
 20
73.64984769370652
 30
0.0
 11
204.3249857206054
 21
74.6498096167707
 31
0.0
  0
LINE
  5
298
330
1F
100
AcDbEntity
  8
1
  6
CONTINUOUS
 62
     7
100
AcDbLine
 10
204.5749952402018
 20
72.6437771957935
 30
0.0
 11
204.5749952402018
 21
72.64988577064236
 31
0.0
  0
LINE
  5
299
330
1F
100
AcDbEntity
  8
1
  6
CONTINUOUS
 62
     7
100
AcDbLine
 10
193.2000190391929
 20
75.64977153983487
 30
0.0
 11
193.0750142793947
 21
74.6498096167707
 31
0.0
  0
ARC
  5
29A
330
1F
100
AcDbEntity
  8
1
  6
CONTINUOUS
 62
     7
100
AcDbCircle
 10
-263.892125411574
 20
86.35000000000001
 30
0.0
 40
5.000000000000004
210
0.0
220
0.0
230
-1.0
100
AcDbArc
 50
99.6725652769184
 51
99.76762932382809
  0
LINE
  5
29B
330
1F
100
AcDbEntity
  8
1
  6
CONTINUOUS
 62
     7
100
AcDbLine
 10
202.7
 20
71.6499238475782
 30
0.0
 11
204.7
 21
71.6499238475782
 31
0.0
  0
LINE
  5
29C
330
1F
100
AcDbEntity
  8
1
  6
CONTINUOUS
 62
     7
100
AcDbLine
 10
204.5749952402018
 20
72.64988577064236
 30
0.0
 11
204.4499904804036
 21
73.64373911885768
 31
0.0
  0
LINE
  5
29D
330
1F
100
AcDbEntity
  8
1
  6
CONTINUOUS
 62
     7
100
AcDbLine
 10
192.9500095195964
 20
73.64373911885767
 30
0.0
 11
192.8250047597982
 21
72.64988577064236
 31
0.0
  0
LINE
  5
29E
330
1F
100
AcDbEntity
  8
1
  6
CONTINUOUS
 62
     7
100
AcDbLine
 10
204.0749762010089
 20
76.64973346289904
 30
0.0
 11
203.9499714412107
 21
77.64969538596321
 31
0.0
  0
LINE
  5
29F
330
1F
100
AcDbEntity
  8
1
  6
CONTINUOUS
 62
     7
100
AcDbLine
 10
204.4499904804036
 20
73.64373911885768
 30
0.0
 11
204.4499904804036
 21
73.64984769370652
 31
0.0
  0
ELLIPSE
  5
2A0
330
1F
100
AcDbEntity
  8
1
  6
CONTINUOUS
 62
     7
100
AcDbEllipse
 10
182.2
 20
89.92812695908927
 30
0.0
 11
2.499999834753416
 21
0.004545055249258905
 31
0.0
210
0.0
220
0.0
230
-1.0
 40
0.1999917500375935
 41
6.26743895608669
 42
6.283548896608923
  0
LINE
  5
2A1
330
1F
100
AcDbEntity
  8
1
  6
CONTINUOUS
 62
     7
100
AcDbLine
 10
204.3249857206054
 20
74.6498096167707
 30
0.0
 11
204.1999809608072
 21
75.64977153983486
 31
0.0
  0
LINE
  5
2A2
330
1F
100
AcDbEntity
  8
1
  6
CONTINUOUS
 62
     7
100
AcDbLine
 10
204.1999809608072
 20
75.64977153983486
 30
0.0
 11
204.0749762010089
 21
76.64973346289904
 31
0.0
  0
LINE
  5
2A3
330
1F
100
AcDbEntity
  8
1
  6
CONTINUOUS
 62
     7
100
AcDbLine
 10
269.7165696662422
 20
90.42087891173946
 30
0.0
 11
264.7403891181791
 21
91.27751952650182
 31
0.0
  0
LINE
  5
2A4
330
1F
100
AcDbEntity
  8
1
  6
CONTINUOUS
 62
     7
100
AcDbLine
 10
194.7
 20
70.64999999999999
 30
0.0
 11
194.7
 21
71.6499238475782
 31
0.0
  0
LINE
  5
2A5
330
1F
100
AcDbEntity
  8
1
  6
CONTINUOUS
 62
     7
100
AcDbLine
 10
184.7
 20
70.65
 30
0.0
 11
184.7
 21
89.93249022683847
 31
0.0
  0
LINE
  5
2A6
330
1F
100
AcDbEntity
  8
1
  6
CONTINUOUS
 62
     7
100
AcDbLine
 10
192.8250047597982
 20
72.64988577064236
 30
0.0
 11
192.7
 21
71.64992384757818
 31
0.0
  0
LINE
  5
2A7
330
1F
100
AcDbEntity
  8
1
  6
CONTINUOUS
 62
     7
100
AcDbLine
 10
269.7165696662422
 20
90.42087891173945
 30
0.0
 11
269.7244965202651
 21
90.41944848244322
 31
0.0
  0
ARC
  5
2A8
330
1F
100
AcDbEntity
  8
1
  6
CONTINUOUS
 62
     7
100
AcDbCircle
 10
-263.892125411574
 20
86.35000000000001
 30
0.0
 40
5.000000000000003
210
0.0
220
0.0
230
-1.0
100
AcDbArc
 50
90.0
 51
90.0950640469099
  0
LINE
  5
2A9
330
1F
100
AcDbEntity
  8
1
  6
CONTINUOUS
 62
     7
100
AcDbLine
 10
265.9412719832973
 20
88.83842917166439
 30
0.0
 11
266.1000152783329
 21
70.64824927645641
 31
0.0
  0
LINE
  5
2AA
330
1F
100
AcDbEntity
  8
1
  6
CONTINUOUS
 62
     7
100
AcDbLine
 10
192.9500095195964
 20
73.64984769370652
 30
0.0
 11
192.8250047597982
 21
72.64988577064236
 31
0.0
  0
LINE
  5
2AB
330
1F
100
AcDbEntity
  8
1
  6
CONTINUOUS
 62
     7
100
AcDbLine
 10
231.507874588426
 20
91.35
 30
0.0
 11
215.754228560512
 21
91.35
 31
0.0
  0
LINE
  5
2AC
330
1F
100
AcDbEntity
  8
1
  6
CONTINUOUS
 62
     7
100
AcDbLine
 10
225.1
 20
70.65
 30
0.0
 11
223.6355896683142
 21
70.65
 31
0.0
  0
LINE
  5
2AD
330
1F
100
AcDbEntity
  8
1
  6
CONTINUOUS
 62
     7
100
AcDbLine
 10
202.7
 20
70.64999999999999
 30
0.0
 11
211.0289321881345
 21
70.65
 31
0.0
  0
ELLIPSE
  5
2AE
330
1F
100
AcDbEntity
  8
1
  6
CONTINUOUS
 62
     7
100
AcDbEllipse
 10
195.465556098261
 20
77.64939078207541
 30
0.0
 11
-2.000000000000002
 21
0.0
 31
0.0
210
0.0
220
0.0
230
1.0
 40
0.9999619230641712
 41
5.7594106528175
 42
6.158825626065059
  0
LINE
  5
2AF
330
1F
100
AcDbEntity
  8
1
  6
CONTINUOUS
 62
     7
100
AcDbLine
 10
193.0750142793947
 20
74.6498096167707
 30
0.0
 11
192.9500095195964
 21
73.64984769370652
 31
0.0
  0
LINE
  5
2B0
330
1F
100
AcDbEntity
  8
1
  6
CONTINUOUS
 62
     7
100
AcDbLine
 10
263.892125411574
 20
91.35000000000001
 30
0.0
 11
231.507874588426
 21
91.35
 31
0.0
  0
LINE
  5
2B1
330
1F
100
AcDbEntity
  8
1
  6
CONTINUOUS
 62
     7
100
AcDbLine
 10
204.7
 20
71.6499238475782
 30
0.0
 11
204.5749952402018
 21
72.64988577064236
 31
0.0
  0
LINE
  5
2B2
330
1F
100
AcDbEntity
  8
1
  6
CONTINUOUS
 62
     7
100
AcDbLine
 10
184.7
 20
70.65
 30
0.0
 11
194.7
 21
70.64999999999999
 31
0.0
  0
ELLIPSE
  5
2B3
330
1F
100
AcDbEntity
  8
1
  6
CONTINUOUS
 62
     7
100
AcDbEllipse
 10
201.9344439017391
 20
77.64939078207541
 30
0.0
 11
-2.000000000000002
 21
-4.734904034201340E-12
 31
0.0
210
0.0
220
0.0
230
1.0
 40
0.9999619230641712
 41
3.265952334701994
 42
3.665367307949544
  0
LINE
  5
2B4
330
1F
100
AcDbEntity
  8
1
  6
CONTINUOUS
 62
     7
100
AcDbLine
 10
180.5038838648618
 20
70.65
 30
0.0
 11
184.7
 21
70.65
 31
0.0
  0
LINE
  5
2B5
330
1F
100
AcDbEntity
  8
1
  6
CONTINUOUS
 62
     7
100
AcDbLine
 10
192.7
 20
71.64992384757818
 30
0.0
 11
194.7
 21
71.6499238475782
 31
0.0
  0
LINE
  5
2B6
330
1F
100
AcDbEntity
  8
1
  6
CONTINUOUS
 62
     7
100
AcDbLine
 10
192.8250047597982
 20
72.64988577064236
 30
0.0
 11
192.8250047597982
 21
72.6437771957935
 31
0.0
  0
ELLIPSE
  5
2B7
330
1F
100
AcDbEntity
  8
1
  6
CONTINUOUS
 62
     7
100
AcDbEllipse
 10
201.9344439017391
 20
77.64939078207541
 30
0.0
 11
-2.000000000000002
 21
0.0
 31
0.0
210
0.0
220
0.0
230
1.0
 40
0.9999619230641712
 41
3.665367307951864
 42
4.712388980384635
  0
LINE
  5
2B8
330
1F
100
AcDbEntity
  8
1
  6
CONTINUOUS
 62
     7
100
AcDbLine
 10
204.5749952402018
 20
72.64988577064236
 30
0.0
 11
204.4499904804036
 21
73.64984769370652
 31
0.0
  0
LINE
  5
2B9
330
1F
100
AcDbEntity
  8
1
  6
CONTINUOUS
 62
     7
100
AcDbLine
 10
203.9499714412107
 20
77.64969538596321
 30
0.0
 11
203.9189984925502
 21
77.89746010592681
 31
0.0
  0
LINE
  5
2BA
330
1F
100
AcDbEntity
  8
1
  6
CONTINUOUS
 62
     7
100
AcDbLine
 10
192.8250047597982
 20
72.6437771957935
 30
0.0
 11
192.7
 21
71.64992384757818
 31
0.0
  0
LINE
  5
2BB
330
1F
100
AcDbEntity
  8
1
  6
CONTINUOUS
 62
     7
100
AcDbLine
 10
193.4810015074498
 20
77.89746010592681
 30
0.0
 11
193.4500285587893
 21
77.64969538596321
 31
0.0
  0
ARC
  5
2BC
330
1F
100
AcDbEntity
  8
1
  6
CONTINUOUS
 62
     7
100
AcDbCircle
 10
-231.507874588426
 20
86.35000000000001
 30
0.0
 40
5.000000000000003
210
0.0
220
0.0
230
-1.0
100
AcDbArc
 50
89.90493595309042
 51
90.0
  0
LINE
  5
2BD
330
1F
100
AcDbEntity
  8
1
  6
CONTINUOUS
 62
     7
100
AcDbLine
 10
204.5749952402018
 20
72.6437771957935
 30
0.0
 11
202.7
 21
72.6437771957935
 31
0.0
  0
LINE
  5
2BE
330
1F
100
AcDbEntity
  8
1
  6
CONTINUOUS
 62
     7
100
AcDbLine
 10
204.7
 20
71.6499238475782
 30
0.0
 11
204.5749952402018
 21
72.6437771957935
 31
0.0
  0
LINE
  5
2BF
330
1F
100
AcDbEntity
  8
1
  6
CONTINUOUS
 62
     7
100
AcDbLine
 10
193.3250237989911
 20
76.64973346289904
 30
0.0
 11
193.2000190391929
 21
75.64977153983487
 31
0.0
  0
LINE
  5
2C0
330
1F
100
AcDbEntity
  8
1
  6
CONTINUOUS
 62
     7
100
AcDbLine
 10
202.7
 20
71.6499238475782
 30
0.0
 11
202.7
 21
72.6437771957935
 31
0.0
  0
LINE
  5
2C1
330
1F
100
AcDbEntity
  8
1
  6
CONTINUOUS
 62
     7
100
AcDbLine
 10
204.4499904804036
 20
73.64373911885768
 30
0.0
 11
192.9500095195964
 21
73.64373911885767
 31
0.0
  0
LINE
  5
2C2
330
1F
100
AcDbEntity
  8
1
  6
CONTINUOUS
 62
     7
100
AcDbLine
 10
204.5749952402018
 20
72.64988577064236
 30
0.0
 11
192.8250047597982
 21
72.64988577064236
 31
0.0
  0
LINE
  5
2C3
330
1F
100
AcDbEntity
  8
1
  6
CONTINUOUS
 62
     7
100
AcDbLine
 10
193.4810015074498
 20
77.89594655895877
 30
0.0
 11
193.4500285587893
 21
77.64969538596321
 31
0.0
  0
ELLIPSE
  5
2C4
330
1F
100
AcDbEntity
  8
1
  6
CONTINUOUS
 62
     7
100
AcDbEllipse
 10
201.9344439017391
 20
77.65550121769077
 30
0.0
 11
-2.000000000000001
 21
0.0
 31
0.0
210
0.0
220
0.0
230
1.0
 40
0.993853348215309
 41
3.66536730795191
 42
4.712388980384683
  0
LINE
  5
2C5
330
1F
100
AcDbEntity
  8
1
  6
CONTINUOUS
 62
     7
100
AcDbLine
 10
184.7
 20
90.42087891173945
 30
0.0
 11
184.6996755942866
 21
90.4194484824432
 31
0.0
  0
LINE
  5
2C6
330
1F
100
AcDbEntity
  8
1
  6
CONTINUOUS
 62
     7
100
AcDbLine
 10
204.0749762010089
 20
76.64973346289904
 30
0.0
 11
203.9499714412107
 21
77.64358681111437
 31
0.0
  0
LINE
  5
2C7
330
1F
100
AcDbEntity
  8
1
  6
CONTINUOUS
 62
     7
100
AcDbLine
 10
179.7
 20
89.53019609728143
 30
0.0
 11
179.7
 21
89.47333773593964
 31
0.0
  0
LINE
  5
2C8
330
1F
100
AcDbEntity
  8
1
  6
CONTINUOUS
 62
     7
100
AcDbLine
 10
64.6
 20
70.65
 30
0.0
 11
64.21987319791351
 21
70.65
 31
0.0
  0
LINE
  5
2C9
330
1F
100
AcDbEntity
  8
1
  6
CONTINUOUS
 62
     7
100
AcDbLine
 10
64.7047224134891
 20
58.65000000000001
 30
0.0
 11
64.21980390271855
 21
58.65000000000001
 31
0.0
  0
LINE
  5
2CA
330
1F
100
AcDbEntity
  8
1
  6
CONTINUOUS
 62
     7
100
AcDbLine
 10
204.3249857206054
 20
74.6498096167707
 30
0.0
 11
193.0750142793947
 21
74.6498096167707
 31
0.0
  0
LINE
  5
2CB
330
1F
100
AcDbEntity
  8
1
  6
CONTINUOUS
 62
     7
100
AcDbLine
 10
204.1999809608072
 20
75.64366296498602
 30
0.0
 11
204.1999809608072
 21
75.64977153983486
 31
0.0
  0
LINE
  5
2CC
330
1F
100
AcDbEntity
  8
1
  6
CONTINUOUS
 62
     7
100
AcDbLine
 10
203.9499714412107
 20
77.64969538596321
 30
0.0
 11
203.9189984925502
 21
77.89594655895877
 31
0.0
  0
LINE
  5
2CD
330
1F
100
AcDbEntity
  8
1
  6
CONTINUOUS
 62
     7
100
AcDbLine
 10
193.4500285587893
 20
77.64358681111436
 30
0.0
 11
193.3250237989911
 21
76.64973346289904
 31
0.0
  0
LINE
  5
2CE
330
1F
100
AcDbEntity
  8
1
  6
CONTINUOUS
 62
     7
100
AcDbLine
 10
204.0749762010089
 20
76.6436248880502
 30
0.0
 11
204.0749762010089
 21
76.64973346289904
 31
0.0
  0
LINE
  5
2CF
330
1F
100
AcDbEntity
  8
1
  6
CONTINUOUS
 62
     7
100
AcDbLine
 10
203.666318803756
 20
78.64965730902743
 30
0.0
 11
193.733681196244
 21
78.64965730902745
 31
0.0
  0
LINE
  5
2D0
330
1F
100
AcDbEntity
  8
1
  6
CONTINUOUS
 62
     7
100
AcDbLine
 10
193.2000190391929
 20
75.643662964986
 30
0.0
 11
193.0750142793947
 21
74.6498096167707
 31
0.0
  0
LINE
  5
2D1
330
1F
100
AcDbEntity
  8
1
  6
CONTINUOUS
 62
     7
100
AcDbLine
 10
204.0749762010089
 20
76.64973346289904
 30
0.0
 11
193.3250237989911
 21
76.64973346289904
 31
0.0
  0
ELLIPSE
  5
2D2
330
1F
100
AcDbEntity
  8
1
  6
CONTINUOUS
 62
     7
100
AcDbEllipse
 10
195.465556098261
 20
77.64939264284192
 30
0.0
 11
-2.000000000000001
 21
0.0
 31
0.0
210
0.0
220
0.0
230
1.0
 40
0.9938533482153092
 41
5.759410652817482
 42
6.158825626065011
  0
LINE
  5
2D3
330
1F
100
AcDbEntity
  8
1
  6
CONTINUOUS
 62
     7
100
AcDbLine
 10
193.733681196244
 20
78.64965730902745
 30
0.0
 11
193.733681196244
 21
78.64354873417852
 31
0.0
  0
LINE
  5
2D4
330
1F
100
AcDbEntity
  8
1
  6
CONTINUOUS
 62
     7
100
AcDbLine
 10
193.3250237989911
 20
76.64362488805018
 30
0.0
 11
193.2000190391929
 21
75.64977153983487
 31
0.0
  0
LINE
  5
2D5
330
1F
100
AcDbEntity
  8
1
  6
CONTINUOUS
 62
     7
100
AcDbLine
 10
179.7
 20
88.81444707922083
 30
0.0
 11
179.7
 21
70.65
 31
0.0
  0
LINE
  5
2D6
330
1F
100
AcDbEntity
  8
1
  6
CONTINUOUS
 62
     7
100
AcDbLine
 10
179.7
 20
70.65
 30
0.0
 11
180.5038838648618
 21
70.65
 31
0.0
  0
LINE
  5
2D7
330
1F
100
AcDbEntity
  8
1
  6
CONTINUOUS
 62
     7
100
AcDbLine
 10
215.754228560512
 20
91.35
 30
0.0
 11
184.7
 21
91.35
 31
0.0
  0
LINE
  5
2D8
330
1F
100
AcDbEntity
  8
1
  6
CONTINUOUS
 62
     7
100
AcDbLine
 10
64.21980390271855
 20
58.65000000000001
 30
0.0
 11
63.23922322702763
 21
58.65000000000001
 31
0.0
  0
LINE
  5
2D9
330
1F
100
AcDbEntity
  8
1
  6
CONTINUOUS
 62
     7
100
AcDbLine
 10
204.1999809608072
 20
75.64366296498602
 30
0.0
 11
193.2000190391929
 21
75.643662964986
 31
0.0
  0
LINE
  5
2DA
330
1F
100
AcDbEntity
  8
1
  6
CONTINUOUS
 62
     7
100
AcDbLine
 10
204.1999809608072
 20
75.64977153983486
 30
0.0
 11
193.2000190391929
 21
75.64977153983487
 31
0.0
  0
LINE
  5
2DB
330
1F
100
AcDbEntity
  8
1
  6
CONTINUOUS
 62
     7
100
AcDbLine
 10
254.9816560756442
 20
61.55560632591623
 30
0.0
 11
254.7329372258622
 21
61.89350069441499
 31
0.0
  0
LINE
  5
2DC
330
1F
100
AcDbEntity
  8
1
  6
CONTINUOUS
 62
     7
100
AcDbLine
 10
203.666318803756
 20
78.64354873417852
 30
0.0
 11
203.666318803756
 21
78.64965730902743
 31
0.0
  0
LINE
  5
2DD
330
1F
100
AcDbEntity
  8
1
  6
CONTINUOUS
 62
     7
100
AcDbLine
 10
204.3249857206054
 20
74.64370104192184
 30
0.0
 11
204.3249857206054
 21
74.6498096167707
 31
0.0
  0
LINE
  5
2DE
330
1F
100
AcDbEntity
  8
1
  6
CONTINUOUS
 62
     7
100
AcDbLine
 10
204.3249857206054
 20
74.6498096167707
 30
0.0
 11
204.1999809608072
 21
75.64366296498602
 31
0.0
  0
LINE
  5
2DF
330
1F
100
AcDbEntity
  8
1
  6
CONTINUOUS
 62
     7
100
AcDbLine
 10
193.3250237989911
 20
76.64973346289904
 30
0.0
 11
193.3250237989911
 21
76.64362488805018
 31
0.0
  0
LINE
  5
2E0
330
1F
100
AcDbEntity
  8
1
  6
CONTINUOUS
 62
     7
100
AcDbLine
 10
203.9499714412107
 20
77.64358681111437
 30
0.0
 11
193.4500285587893
 21
77.64358681111436
 31
0.0
  0
LINE
  5
2E1
330
1F
100
AcDbEntity
  8
1
  6
CONTINUOUS
 62
     7
100
AcDbLine
 10
203.9499714412107
 20
77.64969538596321
 30
0.0
 11
193.4500285587893
 21
77.64969538596321
 31
0.0
  0
ELLIPSE
  5
2E2
330
1F
100
AcDbEntity
  8
1
  6
CONTINUOUS
 62
     7
100
AcDbEllipse
 10
195.465556098261
 20
77.65550121769077
 30
0.0
 11
-2.000000000000001
 21
0.0
 31
0.0
210
0.0
220
0.0
230
1.0
 40
0.9938533482153092
 41
4.712388980384683
 42
5.759410652817445
  0
LINE
  5
2E3
330
1F
100
AcDbEntity
  8
1
  6
CONTINUOUS
 62
     7
100
AcDbLine
 10
184.6996755942872
 20
89.94054397580325
 30
0.0
 11
184.6996755942872
 21
90.41944848244326
 31
0.0
  0
LINE
  5
2E4
330
1F
100
AcDbEntity
  8
1
  6
CONTINUOUS
 62
     7
100
AcDbLine
 10
193.0750142793947
 20
74.64370104192183
 30
0.0
 11
192.9500095195964
 21
73.64984769370652
 31
0.0
  0
LINE
  5
2E5
330
1F
100
AcDbEntity
  8
1
  6
CONTINUOUS
 62
     7
100
AcDbLine
 10
201.9344439017391
 20
79.64320791412139
 30
0.0
 11
195.465556098261
 21
79.64320791412139
 31
0.0
  0
LINE
  5
2E6
330
1F
100
AcDbEntity
  8
1
  6
CONTINUOUS
 62
     7
100
AcDbLine
 10
184.7
 20
90.42087891173945
 30
0.0
 11
184.7
 21
91.27751952650182
 31
0.0
  0
LINE
  5
2E7
330
1F
100
AcDbEntity
  8
1
  6
CONTINUOUS
 62
     7
100
AcDbLine
 10
179.7
 20
89.47333773593964
 30
0.0
 11
179.7
 21
88.81444707922083
 31
0.0
  0
ARC
  5
2E8
330
1F
100
AcDbEntity
  8
1
  6
CONTINUOUS
 62
     7
100
AcDbCircle
 10
-180.7
 20
89.53019609728143
 30
0.0
 40
1.000000000000001
210
0.0
220
0.0
230
-1.0
100
AcDbArc
 50
0.0
 51
78.69006752597994
  0
ELLIPSE
  5
2E9
330
1F
100
AcDbEntity
  8
1
  6
CONTINUOUS
 62
     7
100
AcDbEllipse
 10
201.9344439017391
 20
77.64939264284192
 30
0.0
 11
-2.000000000000001
 21
0.0
 31
0.0
210
0.0
220
0.0
230
1.0
 40
0.993853348215309
 41
3.265952334704354
 42
3.665367307951885
  0
LINE
  5
2EA
330
1F
100
AcDbEntity
  8
1
  6
CONTINUOUS
 62
     7
100
AcDbLine
 10
240.6670627741295
 20
61.89350069440786
 30
0.0
 11
240.41834392437
 21
61.55560632594815
 31
0.0
  0
ELLIPSE
  5
2EB
330
1F
100
AcDbEntity
  8
1
  6
CONTINUOUS
 62
     7
100
AcDbEllipse
 10
159.7
 20
86.35
 30
0.0
 11
24.9994808685161
 21
4.932883742496371
 31
0.0
210
0.0
220
0.0
230
-1.0
 40
0.0326603287314575
 41
0.0047852481729189
 42
0.006444428791768
  0
LINE
  5
2EC
330
1F
100
AcDbEntity
  8
1
  6
CONTINUOUS
 62
     7
100
AcDbLine
 10
204.1999809608072
 20
75.64977153983486
 30
0.0
 11
204.0749762010089
 21
76.6436248880502
 31
0.0
  0
LINE
  5
2ED
330
1F
100
AcDbEntity
  8
1
  6
CONTINUOUS
 62
     7
100
AcDbLine
 10
184.6999655890038
 20
91.34999311780076
 30
0.0
 11
180.5038838648618
 21
90.51077677297236
 31
0.0
  0
LINE
  5
2EE
330
1F
100
AcDbEntity
  8
1
  6
CONTINUOUS
 62
     7
100
AcDbLine
 10
64.7047224134891
 20
58.65000000000001
 30
0.0
 11
64.6
 21
70.65
 31
0.0
  0
LINE
  5
2EF
330
1F
100
AcDbEntity
  8
1
  6
CONTINUOUS
 62
     7
100
AcDbLine
 10
63.23922322702763
 20
70.65
 30
0.0
 11
64.21980390271855
 21
70.65
 31
0.0
  0
LINE
  5
2F0
330
1F
100
AcDbEntity
  8
1
  6
CONTINUOUS
 62
     7
100
AcDbLine
 10
193.2000190391929
 20
75.64977153983487
 30
0.0
 11
193.2000190391929
 21
75.643662964986
 31
0.0
  0
LINE
  5
2F1
330
1F
100
AcDbEntity
  8
1
  6
CONTINUOUS
 62
     7
100
AcDbLine
 10
204.0749762010089
 20
76.6436248880502
 30
0.0
 11
193.3250237989911
 21
76.64362488805018
 31
0.0
  0
LINE
  5
2F2
330
1F
100
AcDbEntity
  8
1
  6
CONTINUOUS
 62
     7
100
AcDbLine
 10
105.7801960972814
 20
58.65000000000001
 30
0.0
 11
106.7607767729723
 21
58.65000000000001
 31
0.0
  0
LINE
  5
2F3
330
1F
100
AcDbEntity
  8
1
  6
CONTINUOUS
 62
     7
100
AcDbLine
 10
106.7607767729723
 20
70.65
 30
0.0
 11
105.7801960972814
 21
70.65
 31
0.0
  0
LINE
  5
2F4
330
1F
100
AcDbEntity
  8
1
  6
CONTINUOUS
 62
     7
100
AcDbLine
 10
193.0750142793947
 20
74.6498096167707
 30
0.0
 11
193.0750142793947
 21
74.64370104192183
 31
0.0
  0
ELLIPSE
  5
2F5
330
1F
100
AcDbEntity
  8
1
  6
CONTINUOUS
 62
     7
100
AcDbEllipse
 10
185.195097567964
 20
86.35000000000001
 30
0.0
 11
0.4950973975958898
 21
-4.999998279449895
 31
0.0
210
0.0
220
0.0
230
-1.0
 40
0.0083780506451285
 41
2.973604132703032
 42
3.140763063280323
  0
LINE
  5
2F6
330
1F
100
AcDbEntity
  8
1
  6
CONTINUOUS
 62
     7
100
AcDbLine
 10
105.2952775865109
 20
58.65000000000001
 30
0.0
 11
105.4
 21
70.65
 31
0.0
  0
LINE
  5
2F7
330
1F
100
AcDbEntity
  8
1
  6
CONTINUOUS
 62
     7
100
AcDbLine
 10
203.666318803756
 20
78.64354873417852
 30
0.0
 11
193.733681196244
 21
78.64354873417852
 31
0.0
  0
LINE
  5
2F8
330
1F
100
AcDbEntity
  8
1
  6
CONTINUOUS
 62
     7
100
AcDbLine
 10
203.9499714412107
 20
77.64358681111437
 30
0.0
 11
203.9499714412107
 21
77.64969538596321
 31
0.0
  0
LINE
  5
2F9
330
1F
100
AcDbEntity
  8
1
  6
CONTINUOUS
 62
     7
100
AcDbLine
 10
204.4499904804036
 20
73.64984769370652
 30
0.0
 11
192.9500095195964
 21
73.64984769370652
 31
0.0
  0
LINE
  5
2FA
330
1F
100
AcDbEntity
  8
1
  6
CONTINUOUS
 62
     7
100
AcDbLine
 10
193.4500285587893
 20
77.64969538596321
 30
0.0
 11
193.4500285587893
 21
77.64358681111436
 31
0.0
  0
ENDSEC
  0
SECTION
  2
OBJECTS
  0
DICTIONARY
  5
C
330
0
100
AcDbDictionary
  3
ACAD_GROUP
350
D
  3
ACAD_LAYOUT
350
1A
  3
ACAD_MATERIAL
350
43
  3
ACAD_MLEADERSTYLE
350
6B
  3
ACAD_MLINESTYLE
350
17
  3
ACAD_PLOTSETTINGS
350
19
  3
ACAD_SCALELIST
350
47
  3
ACAD_VISUALSTYLE
350
2A
  3
ACDBHEADERROUNDTRIPXREC
350
2FB
  3
ACDBVARIABLEDICTIONARY
350
31C
  0
DICTIONARY
  5
323
330
8
100
AcDbDictionary
280
     1
  3
ACAD_XREC_ROUNDTRIP
360
324
  0
DICTIONARY
  5
D
102
{ACAD_REACTORS
330
C
102
}
330
C
100
AcDbDictionary
  0
DICTIONARY
  5
1A
102
{ACAD_REACTORS
330
C
102
}
330
C
100
AcDbDictionary
  0
DICTIONARY
  5
43
102
{ACAD_REACTORS
330
C
102
}
330
C
100
AcDbDictionary
  3
BYBLOCK
350
45
  3
BYLAYER
350
44
  3
GLOBAL
350
46
  0
DICTIONARY
  5
6B
102
{ACAD_REACTORS
330
C
102
}
330
C
100
AcDbDictionary
  3
STANDARD
350
6C
  0
DICTIONARY
  5
17
102
{ACAD_REACTORS
330
C
102
}
330
C
100
AcDbDictionary
  3
STANDARD
350
18
  0
DICTIONARY
  5
19
102
{ACAD_REACTORS
330
C
102
}
330
C
100
AcDbDictionary
  0
DICTIONARY
  5
47
102
{ACAD_REACTORS
330
C
102
}
330
C
100
AcDbDictionary
  3
A0
350
48
  3
A1
350
49
  3
A2
350
4A
  3
A3
350
4B
  3
A4
350
4C
  3
A5
350
4D
  3
A6
350
4E
  3
A7
350
4F
  3
A8
350
50
  3
A9
350
51
  3
B0
350
52
  3
B1
350
53
  3
B2
350
54
  3
B3
350
55
  3
B4
350
56
  3
B5
350
57
  3
B6
350
58
  3
B7
350
59
  3
B8
350
5A
  3
B9
350
5B
  3
C0
350
5C
  3
C1
350
5D
  3
C2
350
5E
  3
C3
350
5F
  3
C4
350
60
  3
C5
350
61
  3
C6
350
62
  3
C7
350
63
  3
C8
350
64
  3
C9
350
65
  3
D0
350
66
  3
D1
350
67
  3
D2
350
68
  0
DICTIONARY
  5
2A
102
{ACAD_REACTORS
330
C
102
}
330
C
100
AcDbDictionary
  3
2DWIREFRAME
350
2F
  3
BASIC
350
32
  3
BRIGHTEN
350
36
  3
COLORCHANGE
350
3A
  3
CONCEPTUAL
350
34
  3
DIM
350
35
  3
EDGECOLOROFF
350
3D
  3
FACEPATTERN
350
39
  3
FLAT
350
2B
  3
FLATWITHEDGES
350
2C
  3
GOURAUD
350
2D
  3
GOURAUDWITHEDGES
350
2E
  3
HIDDEN
350
31
  3
JITTEROFF
350
3B
  3
LINEPATTERN
350
38
  3
OVERHANGOFF
350
3C
  3
REALISTIC
350
33
  3
SHADED
350
42
  3
SHADED_WITH_EDGES
350
41
  3
SHADES_OF_GRAY
350
3E
  3
SKETCHY
350
3F
  3
THICKEN
350
37
  3
WIREFRAME
350
30
  3
X-RAY
350
40
  0
DICTIONARY
  5
2FB
102
{ACAD_REACTORS
330
C
102
}
330
C
100
AcDbDictionary
  3
CEPSNID
350
305
  3
CEPSNTYPE
350
304
  3
DIMSTYLEDATA
350
31B
  3
FINGERPRINTGUID
350
306
  3
HYPERLINKBASE
350
2FE
  3
INSUNITS
350
303
  3
LAYOUTDICT
350
300
  3
LWETCUNION
350
302
  3
PLOTSETDICT
350
301
  3
PSVPSCALE
350
308
  3
PUCSBASE
350
30B
  3
PUCSORGBACK
350
311
  3
PUCSORGBOTTOM
350
30D
  3
PUCSORGFRONT
350
310
  3
PUCSORGLEFT
350
30E
  3
PUCSORGRIGHT
350
30F
  3
PUCSORGTOP
350
30C
  3
PUCSORTHOREF
350
309
  3
PUCSORTHOVIEW
350
30A
  3
STYLESHEET
350
2FF
  3
TSTACKALIGN
350
2FC
  3
TSTACKSIZE
350
2FD
  3
UCSBASE
350
314
  3
UCSORGBACK
350
31A
  3
UCSORGBOTTOM
350
316
  3
UCSORGFRONT
350
319
  3
UCSORGLEFT
350
317
  3
UCSORGRIGHT
350
318
  3
UCSORGTOP
350
315
  3
UCSORTHOREF
350
312
  3
UCSORTHOVIEW
350
313
  3
VERSIONGUID
350
307
  0
DICTIONARY
  5
31C
102
{ACAD_REACTORS
330
C
102
}
330
C
100
AcDbDictionary
  3
CANNOSCALE
350
325
  3
CMLEADERSTYLE
350
31E
  3
CTABLESTYLE
350
31D
  3
DIMASSOC
350
321
  3
HIDETEXT
350
322
  3
MSLTSCALE
350
326
  0
XRECORD
  5
324
102
{ACAD_REACTORS
330
323
102
}
330
323
100
AcDbXrecord
102
VTR_0.000_0.000_1.000_1.000_VISUALSTYLE
340
2F
102
VTR_0.000_0.000_1.000_1.000_GRIDDISPLAY
 70
     3
102
VTR_0.000_0.000_1.000_1.000_GRIDMAJOR
 70
     5
102
VTR_0.000_0.000_1.000_1.000_DEFAULTLIGHTING
280
     1
102
VTR_0.000_0.000_1.000_1.000_DEFAULTLIGHTINGTYPE
 70
     1
102
VTR_0.000_0.000_1.000_1.000_BRIGHTNESS
141
0.0
102
VTR_0.000_0.000_1.000_1.000_CONTRAST
142
0.0
  0
MATERIAL
  5
45
102
{ACAD_REACTORS
330
43
102
}
102
{ACAD_XDICTIONARY
360
329
102
}
330
43
100
AcDbMaterial
  1
BYBLOCK
  0
MATERIAL
  5
44
102
{ACAD_REACTORS
330
43
102
}
102
{ACAD_XDICTIONARY
360
327
102
}
330
43
100
AcDbMaterial
  1
BYLAYER
  0
MATERIAL
  5
46
102
{ACAD_REACTORS
330
43
102
}
102
{ACAD_XDICTIONARY
360
32B
102
}
330
43
100
AcDbMaterial
  1
GLOBAL
  0
ACAD_PROXY_OBJECT
  5
6C
102
{ACAD_REACTORS
330
6B
102
}
330
6B
100
AcDbProxyObject
 90
      499
 91
      505
 93
      610
310
40901902A4063FBFFFFFE056BD1B81E855B9FC0AD7A3703D0AD73F4214DD185B99185C9900AD7A3703D0AC73F90141901A02B5E8DC0F42B1CFC02B5E8DC0F42B1CFE5764000000000000300FC0
340
14
340
0
340
11
340
0
 94
        0
1001
ACAD_MLEADERVER
1070
     2
  0
MLINESTYLE
  5
18
102
{ACAD_REACTORS
330
17
102
}
330
17
100
AcDbMlineStyle
  2
Standard
 70
     0
  3

 62
   256
 51
90.0
 52
90.0
 71
     2
 49
0.5
 62
   256
  6
BYLAYER
 49
-0.5
 62
   256
  6
BYLAYER
  0
ACAD_PROXY_OBJECT
  5
48
102
{ACAD_REACTORS
330
47
102
}
330
47
100
AcDbProxyObject
 90
      499
 91
      503
 93
       41
310
903313A31580
  0
ACAD_PROXY_OBJECT
  5
49
102
{ACAD_REACTORS
330
47
102
}
330
47
100
AcDbProxyObject
 90
      499
 91
      503
 93
      105
310
903313A324000000000000004000
  0
ACAD_PROXY_OBJECT
  5
4A
102
{ACAD_REACTORS
330
47
102
}
330
47
100
AcDbProxyObject
 90
      499
 91
      503
 93
      105
310
903313A344000000000000104000
  0
ACAD_PROXY_OBJECT
  5
4B
102
{ACAD_REACTORS
330
47
102
}
330
47
100
AcDbProxyObject
 90
      499
 91
      503
 93
      105
310
903313A354000000000000144000
  0
ACAD_PROXY_OBJECT
  5
4C
102
{ACAD_REACTORS
330
47
102
}
330
47
100
AcDbProxyObject
 90
      499
 91
      503
 93
      105
310
903313A384000000000000204000
  0
ACAD_PROXY_OBJECT
  5
4D
102
{ACAD_REACTORS
330
47
102
}
330
47
100
AcDbProxyObject
 90
      499
 91
      503
 93
      113
310
904313A31304000000000000244000
  0
ACAD_PROXY_OBJECT
  5
4E
102
{ACAD_REACTORS
330
47
102
}
330
47
100
AcDbProxyObject
 90
      499
 91
      503
 93
      113
310
904313A31364000000000000304000
  0
ACAD_PROXY_OBJECT
  5
4F
102
{ACAD_REACTORS
330
47
102
}
330
47
100
AcDbProxyObject
 90
      499
 91
      503
 93
      113
310
904313A32304000000000000344000
  0
ACAD_PROXY_OBJECT
  5
50
102
{ACAD_REACTORS
330
47
102
}
330
47
100
AcDbProxyObject
 90
      499
 91
      503
 93
      113
310
904313A333040000000000003E4000
  0
ACAD_PROXY_OBJECT
  5
51
102
{ACAD_REACTORS
330
47
102
}
330
47
100
AcDbProxyObject
 90
      499
 91
      503
 93
      113
310
904313A34304000000000000444000
  0
ACAD_PROXY_OBJECT
  5
52
102
{ACAD_REACTORS
330
47
102
}
330
47
100
AcDbProxyObject
 90
      499
 91
      503
 93
      113
310
904313A35304000000000000494000
  0
ACAD_PROXY_OBJECT
  5
53
102
{ACAD_REACTORS
330
47
102
}
330
47
100
AcDbProxyObject
 90
      499
 91
      503
 93
      121
310
905313A3130304000000000000594000
  0
ACAD_PROXY_OBJECT
  5
54
102
{ACAD_REACTORS
330
47
102
}
330
47
100
AcDbProxyObject
 90
      499
 91
      503
 93
      105
310
903323A310000000000000010100
  0
ACAD_PROXY_OBJECT
  5
55
102
{ACAD_REACTORS
330
47
102
}
330
47
100
AcDbProxyObject
 90
      499
 91
      503
 93
      105
310
903343A310000000000000410100
  0
ACAD_PROXY_OBJECT
  5
56
102
{ACAD_REACTORS
330
47
102
}
330
47
100
AcDbProxyObject
 90
      499
 91
      503
 93
      105
310
903383A310000000000000810100
  0
ACAD_PROXY_OBJECT
  5
57
102
{ACAD_REACTORS
330
47
102
}
330
47
100
AcDbProxyObject
 90
      499
 91
      503
 93
      113
310
90431303A310000000000000910100
  0
ACAD_PROXY_OBJECT
  5
58
102
{ACAD_REACTORS
330
47
102
}
330
47
100
AcDbProxyObject
 90
      499
 91
      503
 93
      121
310
9053130303A310000000000001650100
  0
ACAD_PROXY_OBJECT
  5
59
102
{ACAD_REACTORS
330
47
102
}
330
47
100
AcDbProxyObject
 90
      499
 91
      503
 93
      257
310
90E312F31323822203D2031272D3022000000000000200FC000000000000284000
  0
ACAD_PROXY_OBJECT
  5
5A
102
{ACAD_REACTORS
330
47
102
}
330
47
100
AcDbProxyObject
 90
      499
 91
      503
 93
      249
310
90D312F363422203D2031272D3022000000000000240FC000000000000284000
  0
ACAD_PROXY_OBJECT
  5
5B
102
{ACAD_REACTORS
330
47
102
}
330
47
100
AcDbProxyObject
 90
      499
 91
      503
 93
      249
310
90D312F333222203D2031272D3022000000000000280FC000000000000284000
  0
ACAD_PROXY_OBJECT
  5
5C
102
{ACAD_REACTORS
330
47
102
}
330
47
100
AcDbProxyObject
 90
      499
 91
      503
 93
      249
310
90D312F313622203D2031272D30220000000000002C0FC000000000000284000
  0
ACAD_PROXY_OBJECT
  5
5D
102
{ACAD_REACTORS
330
47
102
}
330
47
100
AcDbProxyObject
 90
      499
 91
      503
 93
      249
310
90D332F333222203D2031272D30220000000000002E0FC000000000000284000
  0
ACAD_PROXY_OBJECT
  5
5E
102
{ACAD_REACTORS
330
47
102
}
330
47
100
AcDbProxyObject
 90
      499
 91
      503
 93
      241
310
90C312F3822203D2031272D3022000000000000300FC000000000000284000
  0
ACAD_PROXY_OBJECT
  5
5F
102
{ACAD_REACTORS
330
47
102
}
330
47
100
AcDbProxyObject
 90
      499
 91
      503
 93
      249
310
90D332F313622203D2031272D3022000000000000320FC000000000000284000
  0
ACAD_PROXY_OBJECT
  5
60
102
{ACAD_REACTORS
330
47
102
}
330
47
100
AcDbProxyObject
 90
      499
 91
      503
 93
      241
310
90C312F3422203D2031272D3022000000000000340FC000000000000284000
  0
ACAD_PROXY_OBJECT
  5
61
102
{ACAD_REACTORS
330
47
102
}
330
47
100
AcDbProxyObject
 90
      499
 91
      503
 93
      241
310
90C332F3822203D2031272D3022000000000000360FC000000000000284000
  0
ACAD_PROXY_OBJECT
  5
62
102
{ACAD_REACTORS
330
47
102
}
330
47
100
AcDbProxyObject
 90
      499
 91
      503
 93
      241
310
90C312F3222203D2031272D3022000000000000380FC000000000000284000
  0
ACAD_PROXY_OBJECT
  5
63
102
{ACAD_REACTORS
330
47
102
}
330
47
100
AcDbProxyObject
 90
      499
 91
      503
 93
      241
310
90C332F3422203D2031272D30220000000000003A0FC000000000000284000
  0
ACAD_PROXY_OBJECT
  5
64
102
{ACAD_REACTORS
330
47
102
}
330
47
100
AcDbProxyObject
 90
      499
 91
      503
 93
      161
310
90A3122203D2031272D30224000000000000284000
  0
ACAD_PROXY_OBJECT
  5
65
102
{ACAD_REACTORS
330
47
102
}
330
47
100
AcDbProxyObject
 90
      499
 91
      503
 93
      257
310
90E312D312F3222203D2031272D30220000000000003E0FC000000000000284000
  0
ACAD_PROXY_OBJECT
  5
66
102
{ACAD_REACTORS
330
47
102
}
330
47
100
AcDbProxyObject
 90
      499
 91
      503
 93
      225
310
90A3322203D2031272D302200000000000002100000000000000284000
  0
ACAD_PROXY_OBJECT
  5
67
102
{ACAD_REACTORS
330
47
102
}
330
47
100
AcDbProxyObject
 90
      499
 91
      503
 93
      225
310
90A3622203D2031272D302200000000000006100000000000000284000
  0
ACAD_PROXY_OBJECT
  5
68
102
{ACAD_REACTORS
330
47
102
}
330
47
100
AcDbProxyObject
 90
      499
 91
      503
 93
      249
310
90D31272D3022203D2031272D30220000000000000A100000000000000284000
  0
ACAD_PROXY_OBJECT
  5
2F
102
{ACAD_REACTORS
330
2A
102
}
330
2A
100
AcDbProxyObject
 90
      499
 91
      501
 93
      436
310
42CC9915DA5C99599C985B595049028333333333333E33F0000000000000F90107901411070040501600405405064090741402480A0340
1001
ACAD
1000
AcDbSavedByObjectVersion
1070
     0
  0
ACAD_PROXY_OBJECT
  5
32
102
{ACAD_REACTORS
330
2A
102
}
330
2A
100
AcDbProxyObject
 90
      499
 91
      501
 93
      388
310
4150985CDA58D07406404333333333333E33F0000000000000F90107A41107004050150841D405064090741402480A0350
1001
ACAD
1000
AcDbSavedByObjectVersion
1070
     0
  0
ACAD_PROXY_OBJECT
  5
36
102
{ACAD_REACTORS
330
2A
102
}
330
2A
100
AcDbProxyObject
 90
      499
 91
      501
 93
      428
310
42109C9A59DA1D195B90C409028333333333333E33F0000000000000F9010790141107004050150841D405064090741402480A029950
1001
ACAD
1000
AcDbSavedByObjectVersion
1070
     0
  0
ACAD_PROXY_OBJECT
  5
3A
102
{ACAD_REACTORS
330
2A
102
}
330
2A
100
AcDbProxyObject
 90
      499
 91
      501
 93
      452
310
42D0DBDB1BDC90DA185B99D95104090240C333333333333E33F0000000000000F90108901411070040501508421405064090741402480A0350
1001
ACAD
1000
AcDbSavedByObjectVersion
1070
     0
  0
ACAD_PROXY_OBJECT
  5
34
102
{ACAD_REACTORS
330
2A
102
}
330
2A
100
AcDbProxyObject
 90
      499
 91
      501
 93
      500
310
4290DBDB98D95C1D1D585B10940D028333333333333E33F0000000000000F90107902409070040501000000000018199010841D405064090740C02480A0340
1001
ACAD
1000
AcDbSavedByObjectVersion
1070
     0
  0
ACAD_PROXY_OBJECT
  5
35
102
{ACAD_REACTORS
330
2A
102
}
330
2A
100
AcDbProxyObject
 90
      499
 91
      501
 93
      412
310
40D11A5B50B409028333333333333E33F0000000000000F9010790141107004050150841D405064090741402480A02677FFFFFD0
1001
ACAD
1000
AcDbSavedByObjectVersion
1070
     0
  0
ACAD_PROXY_OBJECT
  5
3D
102
{ACAD_REACTORS
330
2A
102
}
330
2A
100
AcDbProxyObject
 90
      499
 91
      501
 93
      452
310
43115919D950DBDB1BDC93D999916409028333333333333E33F0000000000000F9010790141107004050150841D405064090741402480A0350
1001
ACAD
1000
AcDbSavedByObjectVersion
1070
     0
  0
ACAD_PROXY_OBJECT
  5
39
102
{ACAD_REACTORS
330
2A
102
}
330
2A
100
AcDbProxyObject
 90
      499
 91
      501
 93
      444
310
42D19858D95C185D1D195C9B90F409028333333333333E33F0000000000000F9010790141107004050150841D405064090741402480A0350
1001
ACAD
1000
AcDbSavedByObjectVersion
1070
     0
  0
ACAD_PROXY_OBJECT
  5
2B
102
{ACAD_REACTORS
330
2A
102
}
330
2A
100
AcDbProxyObject
 90
      499
 91
      501
 93
      380
310
41119B185D240901404333333333333E33F0000000000000F9010740A907004050150841D405064090741402480A1B50
1001
ACAD
1000
AcDbSavedByObjectVersion
1070
     0
  0
ACAD_PROXY_OBJECT
  5
2C
102
{ACAD_REACTORS
330
2A
102
}
330
2A
100
AcDbProxyObject
 90
      499
 91
      501
 93
      468
310
43519B185D15DA5D1A115919D95CD0140901404333333333333E33F0000000000000F90107409019070040501600405405064090741402480A1B50
1001
ACAD
1000
AcDbSavedByObjectVersion
1070
     0
  0
ACAD_PROXY_OBJECT
  5
2D
102
{ACAD_REACTORS
330
2A
102
}
330
2A
100
AcDbProxyObject
 90
      499
 91
      501
 93
      404
310
41D1DBDD5C985D5910240902404333333333333E33F0000000000000F9010740A9070040501641D405064090741402480A1B50
1001
ACAD
1000
AcDbSavedByObjectVersion
1070
     0
  0
ACAD_PROXY_OBJECT
  5
2E
102
{ACAD_REACTORS
330
2A
102
}
330
2A
100
AcDbProxyObject
 90
      499
 91
      501
 93
      492
310
4411DBDD5C985D5915DA5D1A115919D95CD0340902404333333333333E33F0000000000000F90107409019070040501600405405064090741402480A1B50
1001
ACAD
1000
AcDbSavedByObjectVersion
1070
     0
  0
ACAD_PROXY_OBJECT
  5
31
102
{ACAD_REACTORS
330
2A
102
}
330
2A
100
AcDbProxyObject
 90
      499
 91
      501
 93
      476
310
41921A5919195B90640502408333333333333E33F0000000000000F901079024090700405020000000000001110200405405064090740C02480A0340
1001
ACAD
1000
AcDbSavedByObjectVersion
1070
     0
  0
ACAD_PROXY_OBJECT
  5
3B
102
{ACAD_REACTORS
330
2A
102
}
330
2A
100
AcDbProxyObject
 90
      499
 91
      501
 93
      428
310
42529A5D1D195C93D999914409028333333333333E33F0000000000000F9010790141107004050150A41D405064090741402480A0350
1001
ACAD
1000
AcDbSavedByObjectVersion
1070
     0
  0
ACAD_PROXY_OBJECT
  5
38
102
{ACAD_REACTORS
330
2A
102
}
330
2A
100
AcDbProxyObject
 90
      499
 91
      501
 93
      444
310
42D31A5B995C185D1D195C9B90E409028333333333333E33F0000000000000F9010790141107004050750841D405064090741402483A0350
1001
ACAD
1000
AcDbSavedByObjectVersion
1070
     0
  0
ACAD_PROXY_OBJECT
  5
3C
102
{ACAD_REACTORS
330
2A
102
}
330
2A
100
AcDbProxyObject
 90
      499
 91
      501
 93
      444
310
42D3DD995C9A185B99D3D999915409028333333333333E33F0000000000000F9010790141107004050150941D405064090741402480A0350
1001
ACAD
1000
AcDbSavedByObjectVersion
1070
     0
  0
ACAD_PROXY_OBJECT
  5
33
102
{ACAD_REACTORS
330
2A
102
}
330
2A
100
AcDbProxyObject
 90
      499
 91
      501
 93
      428
310
425499585B1A5CDD1A58D08409038333333333333E33F0000000000000F9010740A907004050150800405405064090740C02480A1B40
1001
ACAD
1000
AcDbSavedByObjectVersion
1070
     0
  0
ACAD_PROXY_OBJECT
  5
42
102
{ACAD_REACTORS
330
2A
102
}
330
2A
100
AcDbProxyObject
 90
      499
 91
      501
 93
      420
310
4194DA1859195911B40902404333333333333E33F0000000000000F9010740A41107004050150800405405064090840C02480A0B40
1001
ACAD
1000
AcDbSavedByObjectVersion
1070
     0
  0
ACAD_PROXY_OBJECT
  5
41
102
{ACAD_REACTORS
330
2A
102
}
330
2A
100
AcDbProxyObject
 90
      499
 91
      501
 93
      516
310
4454DA18591959081DDA5D1A08195919D95CD1A40902404333333333333E33F0000000000000F901074090142907004050250800405405064090740C02480A0B40
1001
ACAD
1000
AcDbSavedByObjectVersion
1070
     0
  0
ACAD_PROXY_OBJECT
  5
3E
102
{ACAD_REACTORS
330
2A
102
}
330
2A
100
AcDbProxyObject
 90
      499
 91
      501
 93
      532
310
4394DA1859195CC81BD98811DC985E5174090240C333333333333E33F0000000000000F901079024090741D01000000000000111010841D405064090740C02480A0340
1001
ACAD
1000
AcDbSavedByObjectVersion
1070
     0
  0
ACAD_PROXY_OBJECT
  5
3F
102
{ACAD_REACTORS
330
2A
102
}
330
2A
100
AcDbProxyObject
 90
      499
 91
      501
 93
      476
310
41D4DAD95D18DA1E51840502408333333333333E33F0000000000000F901079024090741D01000000000000111010B41D405064090741802480A0340
1001
ACAD
1000
AcDbSavedByObjectVersion
1070
     0
  0
ACAD_PROXY_OBJECT
  5
37
102
{ACAD_REACTORS
330
2A
102
}
330
2A
100
AcDbProxyObject
 90
      499
 91
      501
 93
      412
310
41D51A1A58DAD95B90D409028333333333333E33F0000000000000F9010790141107004050150C41D405064090741402480A0350
1001
ACAD
1000
AcDbSavedByObjectVersion
1070
     0
  0
ACAD_PROXY_OBJECT
  5
30
102
{ACAD_REACTORS
330
2A
102
}
330
2A
100
AcDbProxyObject
 90
      499
 91
      501
 93
      420
310
4255DA5C99599C985B595059028333333333333E33F0000000000000F90107901411070040501600405405064090740C02480A0340
1001
ACAD
1000
AcDbSavedByObjectVersion
1070
     0
  0
ACAD_PROXY_OBJECT
  5
40
102
{ACAD_REACTORS
330
2A
102
}
330
2A
100
AcDbProxyObject
 90
      499
 91
      501
 93
      404
310
41560B54985E51940902404000000000000E03F0000000000000F9010740501907004050150841D405064090740C02480A1B40
1001
ACAD
1000
AcDbSavedByObjectVersion
1070
     0
  0
XRECORD
  5
305
102
{ACAD_REACTORS
330
2FB
102
}
330
2FB
100
AcDbXrecord
340
0
  0
XRECORD
  5
304
102
{ACAD_REACTORS
330
2FB
102
}
330
2FB
100
AcDbXrecord
 90
        0
  0
XRECORD
  5
31B
102
{ACAD_REACTORS
330
2FB
102
}
330
2FB
100
AcDbXrecord
1000
DSTYLE
1002
{
1070
   179
 70
     2
1070
   171
 70
     2
1070
   143
 40
25.4
1070
   274
 70
     2
1070
    41
 40
3.0
1070
   141
 40
0.09
1070
    43
 40
0.38
1070
   278
 70
    46
1070
    44
 40
1.5
1070
    42
 40
0.0625
1070
   147
 40
1.5
1070
   272
 70
     4
1070
    73
 70
     1
1070
   172
 70
     0
1070
    74
 70
     1
1070
   283
 70
     1
1070
   340
340
6F
1070
   140
 40
3.0
1070
   284
 70
     0
1070
    78
 70
     0
1002
}
  0
XRECORD
  5
306
102
{ACAD_REACTORS
330
2FB
102
}
330
2FB
100
AcDbXrecord
  1
{6C0334B9-652E-4F7A-85B3-B8ABDF10817A}
  0
XRECORD
  5
2FE
102
{ACAD_REACTORS
330
2FB
102
}
330
2FB
100
AcDbXrecord
  1

  0
XRECORD
  5
303
102
{ACAD_REACTORS
330
2FB
102
}
330
2FB
100
AcDbXrecord
 90
        4
  0
XRECORD
  5
300
102
{ACAD_REACTORS
330
2FB
102
}
330
2FB
100
AcDbXrecord
340
1A
  0
XRECORD
  5
302
102
{ACAD_REACTORS
330
2FB
102
}
330
2FB
100
AcDbXrecord
 90
    10269
  0
XRECORD
  5
301
102
{ACAD_REACTORS
330
2FB
102
}
330
2FB
100
AcDbXrecord
340
19
  0
XRECORD
  5
308
102
{ACAD_REACTORS
330
2FB
102
}
330
2FB
100
AcDbXrecord
 40
0.0
  0
XRECORD
  5
30B
102
{ACAD_REACTORS
330
2FB
102
}
330
2FB
100
AcDbXrecord
340
0
  0
XRECORD
  5
311
102
{ACAD_REACTORS
330
2FB
102
}
330
2FB
100
AcDbXrecord
 10
0.0
 20
0.0
 30
0.0
  0
XRECORD
  5
30D
102
{ACAD_REACTORS
330
2FB
102
}
330
2FB
100
AcDbXrecord
 10
0.0
 20
0.0
 30
0.0
  0
XRECORD
  5
310
102
{ACAD_REACTORS
330
2FB
102
}
330
2FB
100
AcDbXrecord
 10
0.0
 20
0.0
 30
0.0
  0
XRECORD
  5
30E
102
{ACAD_REACTORS
330
2FB
102
}
330
2FB
100
AcDbXrecord
 10
0.0
 20
0.0
 30
0.0
  0
XRECORD
  5
30F
102
{ACAD_REACTORS
330
2FB
102
}
330
2FB
100
AcDbXrecord
 10
0.0
 20
0.0
 30
0.0
  0
XRECORD
  5
30C
102
{ACAD_REACTORS
330
2FB
102
}
330
2FB
100
AcDbXrecord
 10
0.0
 20
0.0
 30
0.0
  0
XRECORD
  5
309
102
{ACAD_REACTORS
330
2FB
102
}
330
2FB
100
AcDbXrecord
340
0
  0
XRECORD
  5
30A
102
{ACAD_REACTORS
330
2FB
102
}
330
2FB
100
AcDbXrecord
 70
     0
  0
XRECORD
  5
2FF
102
{ACAD_REACTORS
330
2FB
102
}
330
2FB
100
AcDbXrecord
  1

  0
XRECORD
  5
2FC
102
{ACAD_REACTORS
330
2FB
102
}
330
2FB
100
AcDbXrecord
 90
        1
  0
XRECORD
  5
2FD
102
{ACAD_REACTORS
330
2FB
102
}
330
2FB
100
AcDbXrecord
 90
       70
  0
XRECORD
  5
314
102
{ACAD_REACTORS
330
2FB
102
}
330
2FB
100
AcDbXrecord
340
0
  0
XRECORD
  5
31A
102
{ACAD_REACTORS
330
2FB
102
}
330
2FB
100
AcDbXrecord
 10
0.0
 20
0.0
 30
0.0
  0
XRECORD
  5
316
102
{ACAD_REACTORS
330
2FB
102
}
330
2FB
100
AcDbXrecord
 10
0.0
 20
0.0
 30
0.0
  0
XRECORD
  5
319
102
{ACAD_REACTORS
330
2FB
102
}
330
2FB
100
AcDbXrecord
 10
0.0
 20
0.0
 30
0.0
  0
XRECORD
  5
317
102
{ACAD_REACTORS
330
2FB
102
}
330
2FB
100
AcDbXrecord
 10
0.0
 20
0.0
 30
0.0
  0
XRECORD
  5
318
102
{ACAD_REACTORS
330
2FB
102
}
330
2FB
100
AcDbXrecord
 10
0.0
 20
0.0
 30
0.0
  0
XRECORD
  5
315
102
{ACAD_REACTORS
330
2FB
102
}
330
2FB
100
AcDbXrecord
 10
0.0
 20
0.0
 30
0.0
  0
XRECORD
  5
312
102
{ACAD_REACTORS
330
2FB
102
}
330
2FB
100
AcDbXrecord
340
0
  0
XRECORD
  5
313
102
{ACAD_REACTORS
330
2FB
102
}
330
2FB
100
AcDbXrecord
 70
     0
  0
XRECORD
  5
307
102
{ACAD_REACTORS
330
2FB
102
}
330
2FB
100
AcDbXrecord
  1
{FAEB1C32-E019-11D5-929B-00C0DF256EC4}
  0
DICTIONARYVAR
  5
325
102
{ACAD_REACTORS
330
31C
102
}
330
31C
100
DictionaryVariables
280
     0
  1
1:1
  0
DICTIONARYVAR
  5
31E
102
{ACAD_REACTORS
330
31C
102
}
330
31C
100
DictionaryVariables
280
     0
  1
Standard
  0
DICTIONARYVAR
  5
31D
102
{ACAD_REACTORS
330
31C
102
}
330
31C
100
DictionaryVariables
280
     0
  1
Standard
  0
DICTIONARYVAR
  5
321
102
{ACAD_REACTORS
330
31C
102
}
330
31C
100
DictionaryVariables
280
     0
  1
2
  0
DICTIONARYVAR
  5
322
102
{ACAD_REACTORS
330
31C
102
}
330
31C
100
DictionaryVariables
280
     0
  1
1
  0
DICTIONARYVAR
  5
326
102
{ACAD_REACTORS
330
31C
102
}
330
31C
100
DictionaryVariables
280
     0
  1
1
  0
DICTIONARY
  5
329
330
45
100
AcDbDictionary
280
     1
  3
ACAD_XREC_ROUNDTRIP
360
32A
  0
DICTIONARY
  5
327
330
44
100
AcDbDictionary
280
     1
  3
ACAD_XREC_ROUNDTRIP
360
328
  0
DICTIONARY
  5
32B
330
46
100
AcDbDictionary
280
     1
  3
ACAD_XREC_ROUNDTRIP
360
32C
  0
XRECORD
  5
32A
102
{ACAD_REACTORS
330
329
102
}
330
329
100
AcDbXrecord
102
MATERIAL
148
0.0
149
0.0
149
0.0
 93
        0
 94
      127
282
     0
 72
     1
 77
     1
171
     1
175
     1
179
     1
273
     0
  0
XRECORD
  5
328
102
{ACAD_REACTORS
330
327
102
}
330
327
100
AcDbXrecord
102
MATERIAL
148
0.0
149
0.0
149
0.0
 93
        0
 94
      127
282
     0
 72
     1
 77
     1
171
     1
175
     1
179
     1
273
     0
  0
XRECORD
  5
32C
102
{ACAD_REACTORS
330
32B
102
}
330
32B
100
AcDbXrecord
102
MATERIAL
148
0.0
149
0.0
149
0.0
 93
        0
 94
      127
282
     0
 72
     1
 77
     1
171
     1
175
     1
179
     1
273
     0
  0
ENDSEC
  0
EOF
