  0
SECTION
  2
HEADER
  9
$ACADVER
  1
AC1014
  9
$ACADMAINTVER
 70
     9
  9
$DWGCODEPAGE
  3
ANSI_932
  9
$INSBASE
 10
0.0
 20
0.0
 30
0.0
  9
$EXTMIN
 10
9.000000000000007
 20
-2.007502813555078
 30
0.0
  9
$EXTMAX
 10
320.4561038152841
 20
208.4561038152841
 30
0.0
  9
$LIMMIN
 10
0.0
 20
0.0
  9
$LIMMAX
 10
12.0
 20
9.0
  9
$ORTHOMODE
 70
     0
  9
$REGENMODE
 70
     1
  9
$FILLMODE
 70
     1
  9
$QTEXTMODE
 70
     0
  9
$MIRRTEXT
 70
     1
  9
$DRAGMODE
 70
     2
  9
$LTSCALE
 40
1.0
  9
$OSMODE
 70
    37
  9
$ATTMODE
 70
     1
  9
$TEXTSIZE
 40
0.2
  9
$TRACEWID
 40
0.05
  9
$TEXTSTYLE
  7
STANDARD
  9
$CLAYER
  8
0
  9
$CELTYPE
  6
BYLAYER
  9
$CECOLOR
 62
   256
  9
$CELTSCALE
 40
1.0
  9
$DELOBJ
 70
     1
  9
$DISPSILH
 70
     0
  9
$DIMSCALE
 40
1.0
  9
$DIMASZ
 40
3.0
  9
$DIMEXO
 40
0.0625
  9
$DIMDLI
 40
0.38
  9
$DIMRND
 40
0.0
  9
$DIMDLE
 40
0.0
  9
$DIMEXE
 40
1.5
  9
$DIMTP
 40
0.0
  9
$DIMTM
 40
0.0
  9
$DIMTXT
 40
3.0
  9
$DIMCEN
 40
0.09
  9
$DIMTSZ
 40
0.0
  9
$DIMTOL
 70
     0
  9
$DIMLIM
 70
     0
  9
$DIMTIH
 70
     1
  9
$DIMTOH
 70
     1
  9
$DIMSE1
 70
     0
  9
$DIMSE2
 70
     0
  9
$DIMTAD
 70
     1
  9
$DIMZIN
 70
     0
  9
$DIMBLK
  1

  9
$DIMASO
 70
     1
  9
$DIMSHO
 70
     1
  9
$DIMPOST
  1

  9
$DIMAPOST
  1

  9
$DIMALT
 70
     0
  9
$DIMALTD
 70
     2
  9
$DIMALTF
 40
25.4
  9
$DIMLFAC
 40
1.0
  9
$DIMTOFL
 70
     0
  9
$DIMTVP
 40
0.0
  9
$DIMTIX
 70
     0
  9
$DIMSOXD
 70
     0
  9
$DIMSAH
 70
     0
  9
$DIMBLK1
  1

  9
$DIMBLK2
  1

  9
$DIMSTYLE
  2
STANDARD
  9
$DIMCLRD
 70
     0
  9
$DIMCLRE
 70
     0
  9
$DIMCLRT
 70
     0
  9
$DIMTFAC
 40
1.0
  9
$DIMGAP
 40
1.5
  9
$DIMJUST
 70
     0
  9
$DIMSD1
 70
     0
  9
$DIMSD2
 70
     0
  9
$DIMTOLJ
 70
     1
  9
$DIMTZIN
 70
     0
  9
$DIMALTZ
 70
     0
  9
$DIMALTTZ
 70
     0
  9
$DIMFIT
 70
     3
  9
$DIMUPT
 70
     0
  9
$DIMUNIT
 70
     2
  9
$DIMDEC
 70
     2
  9
$DIMTDEC
 70
     4
  9
$DIMALTU
 70
     2
  9
$DIMALTTD
 70
     2
  9
$DIMTXSTY
  7
ＭＳ_ゴシック
  9
$DIMAUNIT
 70
     0
  9
$LUNITS
 70
     2
  9
$LUPREC
 70
     4
  9
$SKETCHINC
 40
0.1
  9
$FILLETRAD
 40
0.5
  9
$AUNITS
 70
     0
  9
$AUPREC
 70
     0
  9
$MENU
  1
.
  9
$ELEVATION
 40
0.0
  9
$PELEVATION
 40
0.0
  9
$THICKNESS
 40
0.0
  9
$LIMCHECK
 70
     0
  9
$CHAMFERA
 40
0.0
  9
$CHAMFERB
 40
0.0
  9
$CHAMFERC
 40
0.0
  9
$CHAMFERD
 40
0.0
  9
$SKPOLY
 70
     0
  9
$TDCREATE
 40
2459235.533026238
  9
$TDUPDATE
 40
2459235.533026435
  9
$TDINDWG
 40
0.0000000116
  9
$TDUSRTIMER
 40
0.0000000116
  9
$USRTIMER
 70
     1
  9
$ANGBASE
 50
0.0
  9
$ANGDIR
 70
     0
  9
$PDMODE
 70
     0
  9
$PDSIZE
 40
0.0
  9
$PLINEWID
 40
0.0
  9
$COORDS
 70
     1
  9
$SPLFRAME
 70
     0
  9
$SPLINETYPE
 70
     6
  9
$SPLINESEGS
 70
     8
  9
$ATTDIA
 70
     0
  9
$ATTREQ
 70
     1
  9
$HANDLING
 70
     1
  9
$HANDSEED
  5
2DB
  9
$SURFTAB1
 70
     6
  9
$SURFTAB2
 70
     6
  9
$SURFTYPE
 70
     6
  9
$SURFU
 70
     6
  9
$SURFV
 70
     6
  9
$UCSNAME
  2

  9
$UCSORG
 10
0.0
 20
0.0
 30
0.0
  9
$UCSXDIR
 10
1.0
 20
0.0
 30
0.0
  9
$UCSYDIR
 10
0.0
 20
1.0
 30
0.0
  9
$PUCSNAME
  2

  9
$PUCSORG
 10
0.0
 20
0.0
 30
0.0
  9
$PUCSXDIR
 10
1.0
 20
0.0
 30
0.0
  9
$PUCSYDIR
 10
0.0
 20
1.0
 30
0.0
  9
$USERI1
 70
     0
  9
$USERI2
 70
     0
  9
$USERI3
 70
     0
  9
$USERI4
 70
     0
  9
$USERI5
 70
     0
  9
$USERR1
 40
0.0
  9
$USERR2
 40
0.0
  9
$USERR3
 40
0.0
  9
$USERR4
 40
0.0
  9
$USERR5
 40
0.0
  9
$WORLDVIEW
 70
     1
  9
$SHADEDGE
 70
     3
  9
$SHADEDIF
 70
    70
  9
$TILEMODE
 70
     1
  9
$MAXACTVP
 70
    64
  9
$PINSBASE
 10
0.0
 20
0.0
 30
0.0
  9
$PLIMCHECK
 70
     0
  9
$PEXTMIN
 10
1.000000000000000E+20
 20
1.000000000000000E+20
 30
1.000000000000000E+20
  9
$PEXTMAX
 10
-1.000000000000000E+20
 20
-1.000000000000000E+20
 30
-1.000000000000000E+20
  9
$PLIMMIN
 10
0.0
 20
0.0
  9
$PLIMMAX
 10
12.0
 20
9.0
  9
$UNITMODE
 70
     0
  9
$VISRETAIN
 70
     1
  9
$PLINEGEN
 70
     0
  9
$PSLTSCALE
 70
     1
  9
$TREEDEPTH
 70
  3020
  9
$PICKSTYLE
 70
     1
  9
$CMLSTYLE
  2
STANDARD
  9
$CMLJUST
 70
     0
  9
$CMLSCALE
 40
1.0
  9
$PROXYGRAPHICS
 70
     1
  9
$MEASUREMENT
 70
     1
  0
ENDSEC
  0
SECTION
  2
CLASSES
  0
CLASS
  1
ACDBDICTIONARYWDFLT
  2
AcDbDictionaryWithDefault
  3
ObjectDBX Classes
 90
        0
280
     0
281
     0
  0
CLASS
  1
VISUALSTYLE
  2
AcDbVisualStyle
  3
ObjectDBX Classes
 90
     4095
280
     0
281
     0
  0
CLASS
  1
MATERIAL
  2
AcDbMaterial
  3
ObjectDBX Classes
 90
     1153
280
     0
281
     0
  0
CLASS
  1
SCALE
  2
AcDbScale
  3
ObjectDBX Classes
 90
     1153
280
     0
281
     0
  0
CLASS
  1
TABLESTYLE
  2
AcDbTableStyle
  3
ObjectDBX Classes
 90
     4095
280
     0
281
     0
  0
CLASS
  1
MLEADERSTYLE
  2
AcDbMLeaderStyle
  3
ACDB_MLEADERSTYLE_CLASS
 90
     4095
280
     0
281
     0
  0
CLASS
  1
SUN
  2
AcDbSun
  3
SCENEOE
 90
     1153
280
     0
281
     0
  0
CLASS
  1
DICTIONARYVAR
  2
AcDbDictionaryVar
  3
ObjectDBX Classes
 90
        0
280
     0
281
     0
  0
CLASS
  1
XRECORD
  2
AcDbXrecord
  3
ObjectDBX Classes
 90
        0
280
     0
281
     0
  0
CLASS
  1
LWPOLYLINE
  2
AcDbPolyline
  3
ObjectDBX Classes
 90
        0
280
     0
281
     1
  0
CLASS
  1
HATCH
  2
AcDbHatch
  3
ObjectDBX Classes
 90
        0
280
     0
281
     1
  0
CLASS
  1
ACDBPLACEHOLDER
  2
AcDbPlaceHolder
  3
ObjectDBX Classes
 90
        0
280
     0
281
     0
  0
CLASS
  1
LAYOUT
  2
AcDbLayout
  3
ObjectDBX Classes
 90
        0
280
     0
281
     0
  0
ENDSEC
  0
SECTION
  2
TABLES
  0
TABLE
  2
VPORT
  5
8
102
{ACAD_XDICTIONARY
360
2D0
102
}
330
0
100
AcDbSymbolTable
 70
     1
  0
VPORT
  5
29
330
8
100
AcDbSymbolTableRecord
100
AcDbViewportTableRecord
  2
*ACTIVE
 70
     0
 10
0.0
 20
0.0
 11
1.0
 21
1.0
 12
164.7280519076421
 22
103.2243005008645
 13
0.0
 23
0.0
 14
0.5
 24
0.5
 15
0.5
 25
0.5
 16
0.0
 26
0.0
 36
1.0
 17
0.0
 27
0.0
 37
0.0
 40
210.4636066288392
 41
1.6
 42
50.0
 43
0.0
 44
0.0
 50
0.0
 51
0.0
 71
     0
 72
   100
 73
     1
 74
     3
 75
     0
 76
     0
 77
     0
 78
     0
  0
ENDTAB
  0
TABLE
  2
LTYPE
  5
5
330
0
100
AcDbSymbolTable
 70
     2
  0
LTYPE
  5
14
330
5
100
AcDbSymbolTableRecord
100
AcDbLinetypeTableRecord
  2
BYBLOCK
 70
     0
  3

 72
    65
 73
     0
 40
0.0
  0
LTYPE
  5
15
330
5
100
AcDbSymbolTableRecord
100
AcDbLinetypeTableRecord
  2
BYLAYER
 70
     0
  3

 72
    65
 73
     0
 40
0.0
  0
LTYPE
  5
16
330
5
100
AcDbSymbolTableRecord
100
AcDbLinetypeTableRecord
  2
CONTINUOUS
 70
     0
  3
Solid line
 72
    65
 73
     0
 40
0.0
  0
LTYPE
  5
247
330
5
100
AcDbSymbolTableRecord
100
AcDbLinetypeTableRecord
  2
CENTER
 70
     0
  3

 72
    65
 73
     0
 40
0.0
  0
ENDTAB
  0
TABLE
  2
LAYER
  5
2
330
0
100
AcDbSymbolTable
 70
     2
  0
LAYER
  5
10
330
2
100
AcDbSymbolTableRecord
100
AcDbLayerTableRecord
  2
0
 70
     0
 62
     7
  6
CONTINUOUS
  0
LAYER
  5
6E
330
2
100
AcDbSymbolTableRecord
100
AcDbLayerTableRecord
  2
1
 70
     0
 62
     7
  6
CONTINUOUS
  0
ENDTAB
  0
TABLE
  2
STYLE
  5
3
330
0
100
AcDbSymbolTable
 70
     2
  0
STYLE
  5
11
330
3
100
AcDbSymbolTableRecord
100
AcDbTextStyleTableRecord
  2
STANDARD
 70
     0
 40
0.0
 41
1.0
 50
0.0
 71
     0
 42
0.2
  3
txt
  4

  0
STYLE
  5
6F
330
3
100
AcDbSymbolTableRecord
100
AcDbTextStyleTableRecord
  2
ＭＳ_ゴシック
 70
     0
 40
0.0
 41
1.0
 50
0.0
 71
     0
 42
0.2
  3
ＭＳ ゴシック.shx
  4

  0
ENDTAB
  0
TABLE
  2
VIEW
  5
6
330
0
100
AcDbSymbolTable
 70
     0
  0
ENDTAB
  0
TABLE
  2
UCS
  5
7
330
0
100
AcDbSymbolTable
 70
     0
  0
ENDTAB
  0
TABLE
  2
APPID
  5
9
330
0
100
AcDbSymbolTable
 70
     2
  0
APPID
  5
12
330
9
100
AcDbSymbolTableRecord
100
AcDbRegAppTableRecord
  2
ACAD
 70
     0
  0
APPID
  5
2DA
330
9
100
AcDbSymbolTableRecord
100
AcDbRegAppTableRecord
  2
ACAD_MLEADERVER
 70
     0
  0
ENDTAB
  0
TABLE
  2
DIMSTYLE
  5
A
330
0
100
AcDbSymbolTable
 70
     1
  0
DIMSTYLE
105
27
330
A
100
AcDbSymbolTableRecord
100
AcDbDimStyleTableRecord
  2
STANDARD
 70
     0
  3

  4

  5

  6

  7

 40
1.0
 41
0.18
 42
0.0625
 43
0.38
 44
0.18
 45
0.0
 46
0.0
 47
0.0
 48
0.0
140
0.18
141
0.09
142
0.0
143
25.4
144
1.0
145
0.0
146
1.0
147
0.09
 71
     0
 72
     0
 73
     1
 74
     1
 75
     0
 76
     0
 77
     0
 78
     0
170
     0
171
     2
172
     0
173
     0
174
     0
175
     0
176
     0
177
     0
178
     0
270
     2
271
     4
272
     4
273
     2
274
     2
340
11
275
     0
280
     0
281
     0
282
     0
283
     1
284
     0
285
     0
286
     0
287
     3
288
     0
  0
ENDTAB
  0
TABLE
  2
BLOCK_RECORD
  5
1
330
0
100
AcDbSymbolTable
 70
     0
  0
BLOCK_RECORD
  5
1F
330
1
100
AcDbSymbolTableRecord
100
AcDbBlockTableRecord
  2
*MODEL_SPACE
  0
BLOCK_RECORD
  5
1B
330
1
100
AcDbSymbolTableRecord
100
AcDbBlockTableRecord
  2
*PAPER_SPACE
  0
ENDTAB
  0
ENDSEC
  0
SECTION
  2
BLOCKS
  0
BLOCK
  5
20
330
1F
100
AcDbEntity
  8
0
100
AcDbBlockBegin
  2
*MODEL_SPACE
 70
     0
 10
0.0
 20
0.0
 30
0.0
  3
*MODEL_SPACE
  1

  0
ENDBLK
  5
21
330
1F
100
AcDbEntity
  8
0
100
AcDbBlockEnd
  0
BLOCK
  5
1C
330
1B
100
AcDbEntity
 67
     1
  8
0
100
AcDbBlockBegin
  2
*PAPER_SPACE
 70
     0
 10
0.0
 20
0.0
 30
0.0
  3
*PAPER_SPACE
  1

  0
ENDBLK
  5
1D
330
1B
100
AcDbEntity
 67
     1
  8
0
100
AcDbBlockEnd
  0
ENDSEC
  0
SECTION
  2
ENTITIES
  0
LINE
  5
70
330
1F
100
AcDbEntity
  8
1
  6
CONTINUOUS
 62
     7
100
AcDbLine
 10
254.4561038152841
 20
33.50000000000007
 30
0.0
 11
252.9916934835983
 21
33.50000000000007
 31
0.0
  0
LINE
  5
71
330
1F
100
AcDbEntity
  8
1
  6
CONTINUOUS
 62
     7
100
AcDbLine
 10
227.706132372986
 20
40.49977153838513
 30
0.0
 11
227.8311276133691
 21
39.49980961532096
 31
0.0
  0
LINE
  5
72
330
1F
100
AcDbEntity
  8
1
  6
CONTINUOUS
 62
     7
100
AcDbLine
 10
217.2060752575823
 20
40.49977153838513
 30
0.0
 11
217.2371124989315
 21
40.74806946917848
 31
0.0
  0
LINE
  5
73
330
1F
100
AcDbEntity
  8
1
  6
CONTINUOUS
 62
     7
100
AcDbLine
 10
216.8310895364333
 20
37.49988576919225
 30
0.0
 11
228.0811180941352
 21
37.4998857691924
 31
0.0
  0
LINE
  5
74
330
1F
100
AcDbEntity
  8
1
  6
CONTINUOUS
 62
     7
100
AcDbLine
 10
254.4561038152841
 20
33.50000000000007
 30
0.0
 11
255.2953255488115
 21
33.50000000000007
 31
0.0
  0
LINE
  5
75
330
1F
100
AcDbEntity
  8
1
  6
CONTINUOUS
 62
     7
100
AcDbLine
 10
216.5810990556672
 20
35.49996192306427
 30
0.0
 11
228.3311085749012
 21
35.49996192306428
 31
0.0
  0
LINE
  5
76
330
1F
100
AcDbEntity
  8
1
  6
CONTINUOUS
 62
     7
100
AcDbLine
 10
255.0838406569681
 20
60.22553662031484
 30
0.0
 11
255.08702195903
 21
60.22618362874928
 31
0.0
  0
ARC
  5
77
330
1F
100
AcDbEntity
  8
1
  6
CONTINUOUS
 62
     7
100
AcDbCircle
 10
-312.9610062473201
 20
56.50000000000009
 30
0.0
 40
5.000000000000016
210
0.0
220
0.0
230
-1.0
100
AcDbArc
 50
101.1997692941218
 51
101.30993247402
  0
LINE
  5
78
330
1F
100
AcDbEntity
  8
1
  6
CONTINUOUS
 62
     7
100
AcDbLine
 10
228.3311085749012
 20
35.49996192306428
 30
0.0
 11
228.4561038152842
 21
34.50000000000006
 31
0.0
  0
ARC
  5
79
330
1F
100
AcDbEntity
  8
1
  6
CONTINUOUS
 62
     7
100
AcDbCircle
 10
-312.9610062473201
 20
56.50000000000009
 30
0.0
 40
5.000000000000018
210
0.0
220
0.0
230
-1.0
100
AcDbArc
 50
90.0
 51
90.11016317989959
  0
LINE
  5
7A
330
1F
100
AcDbEntity
  8
1
  6
CONTINUOUS
 62
     7
100
AcDbLine
 10
319.8251856715381
 20
60.22618362874927
 30
0.0
 11
319.8283669736
 21
60.22553662031483
 31
0.0
  0
ARC
  5
7B
330
1F
100
AcDbEntity
  8
1
  6
CONTINUOUS
 62
     7
100
AcDbCircle
 10
-225.6913089713434
 20
40.50129967464047
 30
0.0
 40
1.998700473524275
210
0.0
220
0.0
230
-1.0
100
AcDbArc
 50
89.97793844541268
 51
150.0303309977124
  0
LINE
  5
7C
330
1F
100
AcDbEntity
  8
1
  6
CONTINUOUS
 62
     7
100
AcDbLine
 10
216.8310895364333
 20
37.49988576919225
 30
0.0
 11
216.9560847768163
 21
38.49984769225679
 31
0.0
  0
LINE
  5
7D
330
1F
100
AcDbEntity
  8
1
  6
CONTINUOUS
 62
     7
100
AcDbLine
 10
227.9561228537521
 20
38.49984769225679
 30
0.0
 11
228.0811180941352
 21
37.4998857691924
 31
0.0
  0
LINE
  5
7E
330
1F
100
AcDbEntity
  8
1
  6
CONTINUOUS
 62
     7
100
AcDbLine
 10
216.5810990556672
 20
35.49996192306427
 30
0.0
 11
216.7060942960503
 21
36.49992384612844
 31
0.0
  0
LINE
  5
7F
330
1F
100
AcDbEntity
  8
1
  6
CONTINUOUS
 62
     7
100
AcDbLine
 10
320.2268438153154
 20
59.75273692820807
 30
0.0
 11
320.2271085655011
 21
59.740256558653
 31
0.0
  0
LINE
  5
80
330
1F
100
AcDbEntity
  8
1
  6
CONTINUOUS
 62
     7
100
AcDbLine
 10
315.2375506636232
 20
58.54371063033227
 30
0.0
 11
315.460213989617
 21
33.02902067138466
 31
0.0
  0
ARC
  5
81
330
1F
100
AcDbEntity
  8
1
  6
CONTINUOUS
 62
     7
100
AcDbCircle
 10
261.9512013832481
 20
56.50000000000006
 30
0.0
 40
5.000000000000012
100
AcDbArc
 50
90.11016317989896
 51
101.1997692941212
  0
LINE
  5
82
330
1F
100
AcDbEntity
  8
1
  6
CONTINUOUS
 62
     7
100
AcDbLine
 10
259.4519936409511
 20
33.02902067138493
 30
0.0
 11
259.6746569669451
 21
58.54371063033227
 31
0.0
  0
LINE
  5
83
330
1F
100
AcDbEntity
  8
1
  6
CONTINUOUS
 62
     7
100
AcDbLine
 10
228.4561038152842
 20
34.50000000000006
 30
0.0
 11
226.4561038152841
 21
34.50000000000006
 31
0.0
  0
LINE
  5
84
330
1F
100
AcDbEntity
  8
1
  6
CONTINUOUS
 62
     7
100
AcDbLine
 10
227.8311276133691
 20
39.49980961532096
 30
0.0
 11
227.9561228537521
 21
38.49984769225679
 31
0.0
  0
LINE
  5
85
330
1F
100
AcDbEntity
  8
1
  6
CONTINUOUS
 62
     7
100
AcDbLine
 10
240.9205699093514
 20
33.50000000000007
 30
0.0
 11
252.9916377212168
 21
33.50000000000007
 31
0.0
  0
LINE
  5
86
330
1F
100
AcDbEntity
  8
1
  6
CONTINUOUS
 62
     7
100
AcDbLine
 10
254.6850990650671
 20
59.74025655865299
 30
0.0
 11
254.6853638152528
 21
59.75273692820807
 31
0.0
  0
LINE
  5
87
330
1F
100
AcDbEntity
  8
1
  6
CONTINUOUS
 62
     7
100
AcDbLine
 10
217.2371124989315
 20
40.74806946917848
 30
0.0
 11
217.4893978354182
 21
41.49973346144905
 31
0.0
  0
LINE
  5
88
330
1F
100
AcDbEntity
  8
1
  6
CONTINUOUS
 62
     7
100
AcDbLine
 10
218.4561038152841
 20
34.50000000000006
 30
0.0
 11
216.4561038152842
 21
34.50000000000006
 31
0.0
  0
ARC
  5
89
330
1F
100
AcDbEntity
  8
1
  6
CONTINUOUS
 62
     7
100
AcDbCircle
 10
-261.9512013832481
 20
56.50000000000008
 30
0.0
 40
5.000000000000018
210
0.0
220
0.0
230
-1.0
100
AcDbArc
 50
89.88983682010104
 51
90.0
  0
LINE
  5
8A
330
1F
100
AcDbEntity
  8
1
  6
CONTINUOUS
 62
     7
100
AcDbLine
 10
255.2953255488115
 20
33.50000000000007
 30
0.0
 11
256.275946550489
 21
33.50000000000007
 31
0.0
  0
LINE
  5
8B
330
1F
100
AcDbEntity
  8
1
  6
CONTINUOUS
 62
     7
100
AcDbLine
 10
260.9706207075571
 20
61.40290337845468
 30
0.0
 11
255.08702195903
 21
60.22618362874927
 31
0.0
  0
LINE
  5
8C
330
1F
100
AcDbEntity
  8
1
  6
CONTINUOUS
 62
     7
100
AcDbLine
 10
319.6168820817567
 20
33.50000000000008
 30
0.0
 11
320.4561038152841
 21
33.50000000000008
 31
0.0
  0
LINE
  5
8D
330
1F
100
AcDbEntity
  8
1
  6
CONTINUOUS
 62
     7
100
AcDbLine
 10
228.0811180941352
 20
37.4998857691924
 30
0.0
 11
228.2061133345181
 21
36.49992384612844
 31
0.0
  0
LINE
  5
8E
330
1F
100
AcDbEntity
  8
1
  6
CONTINUOUS
 62
     7
100
AcDbLine
 10
218.4561038152841
 20
33.50000000000001
 30
0.0
 11
218.4561038152841
 21
34.50000000000006
 31
0.0
  0
LINE
  5
8F
330
1F
100
AcDbEntity
  8
1
  6
CONTINUOUS
 62
     7
100
AcDbLine
 10
217.4893978354182
 20
41.49973346144905
 30
0.0
 11
227.4227631452172
 21
41.49973346144929
 31
0.0
  0
LINE
  5
90
330
1F
100
AcDbEntity
  8
1
  6
CONTINUOUS
 62
     7
100
AcDbLine
 10
216.4561038152842
 20
34.50000000000006
 30
0.0
 11
216.5810990556672
 21
35.49996192306427
 31
0.0
  0
LINE
  5
91
330
1F
100
AcDbEntity
  8
1
  6
CONTINUOUS
 62
     7
100
AcDbLine
 10
219.1862032783835
 20
42.49969538451401
 30
0.0
 11
225.725932776362
 21
42.49969538451419
 31
0.0
  0
LINE
  5
92
330
1F
100
AcDbEntity
  8
1
  6
CONTINUOUS
 62
     7
100
AcDbLine
 10
226.4561038152841
 20
33.50000000000006
 30
0.0
 11
226.4561038152841
 21
34.50000000000006
 31
0.0
  0
LINE
  5
93
330
1F
100
AcDbEntity
  8
1
  6
CONTINUOUS
 62
     7
100
AcDbLine
 10
216.7060942960503
 20
36.49992384612844
 30
0.0
 11
216.8310895364333
 21
37.49988576919225
 31
0.0
  0
LINE
  5
94
330
1F
100
AcDbEntity
  8
1
  6
CONTINUOUS
 62
     7
100
AcDbLine
 10
228.2061133345181
 20
36.49992384612844
 30
0.0
 11
228.3311085749012
 21
35.49996192306428
 31
0.0
  0
LINE
  5
95
330
1F
100
AcDbEntity
  8
1
  6
CONTINUOUS
 62
     7
100
AcDbLine
 10
227.4227631452172
 20
41.49973346144929
 30
0.0
 11
227.6750951316369
 21
40.74806946917849
 31
0.0
  0
LINE
  5
96
330
1F
100
AcDbEntity
  8
1
  6
CONTINUOUS
 62
     7
100
AcDbLine
 10
216.9560847768163
 20
38.49984769225679
 30
0.0
 11
217.0810800171993
 21
39.49980961532096
 31
0.0
  0
LINE
  5
97
330
1F
100
AcDbEntity
  8
1
  6
CONTINUOUS
 62
     7
100
AcDbLine
 10
218.4561038152841
 20
33.50000000000001
 30
0.0
 11
204.4561038152841
 21
33.50000000000007
 31
0.0
  0
LINE
  5
98
330
1F
100
AcDbEntity
  8
1
  6
CONTINUOUS
 62
     7
100
AcDbLine
 10
237.3850360034186
 20
33.50000000000007
 30
0.0
 11
226.4561038152841
 21
33.50000000000006
 31
0.0
  0
LINE
  5
99
330
1F
100
AcDbEntity
  8
1
  6
CONTINUOUS
 62
     7
100
AcDbLine
 10
200.2599951476475
 20
33.50000000000006
 30
0.0
 11
204.4561038152841
 21
33.50000000000007
 31
0.0
  0
ARC
  5
9A
330
1F
100
AcDbEntity
  8
1
  6
CONTINUOUS
 62
     7
100
AcDbCircle
 10
-219.2208836053634
 20
40.501244993265
 30
0.0
 40
1.998755160748669
210
0.0
220
0.0
230
-1.0
100
AcDbArc
 50
29.97057444895014
 51
90.02249248096192
  0
LINE
  5
9B
330
1F
100
AcDbEntity
  8
1
  6
CONTINUOUS
 62
     7
100
AcDbLine
 10
226.4561038152841
 20
34.50000000000006
 30
0.0
 11
226.4561038152841
 21
35.49996192306427
 31
0.0
  0
LINE
  5
9C
330
1F
100
AcDbEntity
  8
1
  6
CONTINUOUS
 62
     7
100
AcDbLine
 10
216.7060942960503
 20
36.49992384612844
 30
0.0
 11
228.2061133345181
 21
36.49992384612844
 31
0.0
  0
LINE
  5
9D
330
1F
100
AcDbEntity
  8
1
  6
CONTINUOUS
 62
     7
100
AcDbLine
 10
216.9560847768163
 20
38.49984769225679
 30
0.0
 11
227.9561228537521
 21
38.49984769225679
 31
0.0
  0
LINE
  5
9E
330
1F
100
AcDbEntity
  8
1
  6
CONTINUOUS
 62
     7
100
AcDbLine
 10
217.0810800171993
 20
39.49980961532096
 30
0.0
 11
227.8311276133691
 21
39.49980961532096
 31
0.0
  0
LINE
  5
9F
330
1F
100
AcDbEntity
  8
1
  6
CONTINUOUS
 62
     7
100
AcDbLine
 10
217.2060752575823
 20
40.49977153838513
 30
0.0
 11
227.706132372986
 21
40.49977153838513
 31
0.0
  0
LINE
  5
A0
330
1F
100
AcDbEntity
  8
1
  6
CONTINUOUS
 62
     7
100
AcDbLine
 10
199.4561038152842
 20
58.65289603961196
 30
0.0
 11
199.4561038152842
 21
33.50000000000007
 31
0.0
  0
LINE
  5
A1
330
1F
100
AcDbEntity
  8
1
  6
CONTINUOUS
 62
     7
100
AcDbLine
 10
199.4561038152842
 20
33.50000000000006
 30
0.0
 11
200.2599951476475
 21
33.50000000000006
 31
0.0
  0
LINE
  5
A2
330
1F
100
AcDbEntity
  8
1
  6
CONTINUOUS
 62
     7
100
AcDbLine
 10
242.5606748792444
 20
61.50000000000008
 30
0.0
 11
204.4561038152842
 21
61.50000000000008
 31
0.0
  0
LINE
  5
A3
330
1F
100
AcDbEntity
  8
1
  6
CONTINUOUS
 62
     7
100
AcDbLine
 10
319.8251856715381
 20
60.22618362874927
 30
0.0
 11
313.9415869230111
 21
61.40290337845469
 31
0.0
  0
LINE
  5
A4
330
1F
100
AcDbEntity
  8
1
  6
CONTINUOUS
 62
     7
100
AcDbLine
 10
254.6850990650671
 20
59.74025655865299
 30
0.0
 11
254.4561038152841
 21
33.50000000000007
 31
0.0
  0
LINE
  5
A5
330
1F
100
AcDbEntity
  8
1
  6
CONTINUOUS
 62
     7
100
AcDbLine
 10
227.6750951316369
 20
40.74806946917849
 30
0.0
 11
227.706132372986
 21
40.49977153838513
 31
0.0
  0
LINE
  5
A6
330
1F
100
AcDbEntity
  8
1
  6
CONTINUOUS
 62
     7
100
AcDbLine
 10
217.0810800171993
 20
39.49980961532096
 30
0.0
 11
217.2060752575823
 21
40.49977153838513
 31
0.0
  0
ARC
  5
A7
330
1F
100
AcDbEntity
  8
1
  6
CONTINUOUS
 62
     7
100
AcDbCircle
 10
-261.9512013832481
 20
56.50000000000008
 30
0.0
 40
5.000000000000019
210
0.0
220
0.0
230
-1.0
100
AcDbArc
 50
78.69006752598003
 51
78.80023070587889
  0
LINE
  5
A8
330
1F
100
AcDbEntity
  8
1
  6
CONTINUOUS
 62
     7
100
AcDbLine
 10
199.4561038152842
 20
59.60402724067168
 30
0.0
 11
199.4561038152842
 21
58.65289603961196
 31
0.0
  0
LINE
  5
A9
330
1F
100
AcDbEntity
  8
1
  6
CONTINUOUS
 62
     7
100
AcDbLine
 10
204.4560576051168
 20
61.49999075796661
 30
0.0
 11
200.259987680146
 21
60.66077677297243
 31
0.0
  0
LINE
  5
AA
330
1F
100
AcDbEntity
  8
1
  6
CONTINUOUS
 62
     7
100
AcDbLine
 10
312.9610062473201
 20
61.50000000000008
 30
0.0
 11
261.9512013832481
 21
61.50000000000008
 31
0.0
  0
ARC
  5
AB
330
1F
100
AcDbEntity
  8
1
  6
CONTINUOUS
 62
     7
100
AcDbCircle
 10
-312.9610062473201
 20
56.50000000000011
 30
0.0
 40
5.00000000000001
210
0.0
220
0.0
230
-1.0
100
AcDbArc
 50
90.11016317989959
 51
101.1997692941218
  0
LINE
  5
AC
330
1F
100
AcDbEntity
  8
1
  6
CONTINUOUS
 62
     7
100
AcDbLine
 10
320.4561038152841
 20
33.50000000000008
 30
0.0
 11
320.2271085655011
 21
59.740256558653
 31
0.0
  0
LINE
  5
AD
330
1F
100
AcDbEntity
  8
1
  6
CONTINUOUS
 62
     7
100
AcDbLine
 10
261.9512013832481
 20
61.50000000000008
 30
0.0
 11
242.5606748792444
 21
61.50000000000008
 31
0.0
  0
LINE
  5
AE
330
1F
100
AcDbEntity
  8
1
  6
CONTINUOUS
 62
     7
100
AcDbLine
 10
219.2216682523589
 20
42.50000000000008
 30
0.0
 11
225.6905393782096
 21
42.50000000000007
 31
0.0
  0
LINE
  5
AF
330
1F
100
AcDbEntity
  8
1
  6
CONTINUOUS
 62
     7
100
AcDbLine
 10
218.4561038152841
 20
34.50000000000006
 30
0.0
 11
218.4561038152841
 21
35.49996192306423
 31
0.0
  0
LINE
  5
B0
330
1F
100
AcDbEntity
  8
1
  6
CONTINUOUS
 62
     7
100
AcDbLine
 10
276.9779019462932
 20
18.50000000000007
 30
0.0
 11
276.4779209847611
 21
18.50000000000007
 31
0.0
  0
LINE
  5
B1
330
1F
100
AcDbEntity
  8
1
  6
CONTINUOUS
 62
     7
100
AcDbLine
 10
277.6422738540182
 20
22.05233595624301
 30
0.0
 11
277.7268567988617
 21
22.40560921029005
 31
0.0
  0
LINE
  5
B2
330
1F
100
AcDbEntity
  8
1
  6
CONTINUOUS
 62
     7
100
AcDbLine
 10
277.5926088859784
 20
21.10467191248596
 30
0.0
 11
277.6107110230949
 21
21.45008126514475
 31
0.0
  0
LINE
  5
B3
330
1F
100
AcDbEntity
  8
1
  6
CONTINUOUS
 62
     7
100
AcDbLine
 10
317.7419217266563
 20
58.04283641772562
 30
0.0
 11
317.9561038152841
 21
33.50000000000009
 31
0.0
  0
LINE
  5
B4
330
1F
100
AcDbEntity
  8
1
  6
CONTINUOUS
 62
     7
100
AcDbLine
 10
286.7464380072289
 20
20.52616797812155
 30
0.0
 11
286.7055484653376
 21
18.50000000000007
 31
0.0
  0
LINE
  5
B5
330
1F
100
AcDbEntity
  8
1
  6
CONTINUOUS
 62
     7
100
AcDbLine
 10
287.4561038152842
 20
21.00000000000007
 30
0.0
 11
287.8822648748578
 21
21.00000000000007
 31
0.0
  0
LINE
  5
B6
330
1F
100
AcDbEntity
  8
1
  6
CONTINUOUS
 62
     7
100
AcDbLine
 10
297.9517974975175
 20
21.00000000000007
 30
0.0
 11
297.3250843670766
 21
21.00000000000007
 31
0.0
  0
LINE
  5
B7
330
1F
100
AcDbEntity
  8
1
  6
CONTINUOUS
 62
     7
100
AcDbLine
 10
297.1853508109662
 20
22.40560925702884
 30
0.0
 11
297.2652840240327
 21
22.1095636459046
 31
0.0
  0
LINE
  5
B8
330
1F
100
AcDbEntity
  8
1
  6
CONTINUOUS
 62
     7
100
AcDbLine
 10
318.6362610800791
 20
33.50000000000008
 30
0.0
 11
317.9561038152841
 21
33.50000000000008
 31
0.0
  0
LINE
  5
B9
330
1F
100
AcDbEntity
  8
1
  6
CONTINUOUS
 62
     7
100
AcDbLine
 10
204.4561038152841
 20
33.50000000000007
 30
0.0
 11
200.2599876801459
 21
33.50000000000006
 31
0.0
  0
LINE
  5
BA
330
1F
100
AcDbEntity
  8
1
  6
CONTINUOUS
 62
     7
100
AcDbLine
 10
287.4561038152842
 20
18.50000000000007
 30
0.0
 11
287.4561038152842
 21
21.00000000000007
 31
0.0
  0
LINE
  5
BB
330
1F
100
AcDbEntity
  8
1
  6
CONTINUOUS
 62
     7
100
AcDbLine
 10
240.9205699093514
 20
18.50000000000007
 30
0.0
 11
252.9916377212168
 21
18.50000000000007
 31
0.0
  0
LINE
  5
BC
330
1F
100
AcDbEntity
  8
1
  6
CONTINUOUS
 62
     7
100
AcDbLine
 10
204.4561038152841
 20
33.50000000000007
 30
0.0
 11
218.4561038152841
 21
33.50000000000007
 31
0.0
  0
LINE
  5
BD
330
1F
100
AcDbEntity
  8
1
  6
CONTINUOUS
 62
     7
100
AcDbLine
 10
277.5871232634918
 20
21.00000000000007
 30
0.0
 11
276.9604101330509
 21
21.00000000000007
 31
0.0
  0
LINE
  5
BE
330
1F
100
AcDbEntity
  8
1
  6
CONTINUOUS
 62
     7
100
AcDbLine
 10
240.9205699093514
 20
18.50000000000007
 30
0.0
 11
237.3850360034186
 21
18.50000000000007
 31
0.0
  0
LINE
  5
BF
330
1F
100
AcDbEntity
  8
1
  6
CONTINUOUS
 62
     7
100
AcDbLine
 10
287.0299427557106
 20
21.00000000000007
 30
0.0
 11
287.4561038152842
 21
21.00000000000007
 31
0.0
  0
LINE
  5
C0
330
1F
100
AcDbEntity
  8
1
  6
CONTINUOUS
 62
     7
100
AcDbLine
 10
287.4561038152842
 20
18.50000000000007
 30
0.0
 11
288.2066591652307
 21
18.50000000000007
 31
0.0
  0
LINE
  5
C1
330
1F
100
AcDbEntity
  8
1
  6
CONTINUOUS
 62
     7
100
AcDbLine
 10
289.4574742805297
 20
18.50000000000007
 30
0.0
 11
288.2066591652307
 21
18.50000000000007
 31
0.0
  0
LINE
  5
C2
330
1F
100
AcDbEntity
  8
1
  6
CONTINUOUS
 62
     7
100
AcDbLine
 10
199.4561038152841
 20
33.50000000000006
 30
0.0
 11
199.4561038152841
 21
18.50000000000007
 31
0.0
  0
LINE
  5
C3
330
1F
100
AcDbEntity
  8
1
  6
CONTINUOUS
 62
     7
100
AcDbLine
 10
317.7419217266563
 20
58.04283641772562
 30
0.0
 11
312.9561038152841
 21
59.00000000000008
 31
0.0
  0
LINE
  5
C4
330
1F
100
AcDbEntity
  8
1
  6
CONTINUOUS
 62
     7
100
AcDbLine
 10
261.9561038152841
 20
59.00000000000008
 30
0.0
 11
257.1702859039118
 21
58.04283641772562
 31
0.0
  0
LINE
  5
C5
330
1F
100
AcDbEntity
  8
1
  6
CONTINUOUS
 62
     7
100
AcDbLine
 10
297.2652840240327
 20
22.1095636459046
 30
0.0
 11
297.2699337765502
 21
22.05233595624301
 31
0.0
  0
LINE
  5
C6
330
1F
100
AcDbEntity
  8
1
  6
CONTINUOUS
 62
     7
100
AcDbLine
 10
252.9916377212168
 20
33.50000000000007
 30
0.0
 11
254.4561038152841
 21
33.50000000000007
 31
0.0
  0
LINE
  5
C7
330
1F
100
AcDbEntity
  8
1
  6
CONTINUOUS
 62
     7
100
AcDbLine
 10
312.9561038152841
 20
59.00000000000008
 30
0.0
 11
261.9561038152841
 21
59.00000000000008
 31
0.0
  0
LINE
  5
C8
330
1F
100
AcDbEntity
  8
1
  6
CONTINUOUS
 62
     7
100
AcDbLine
 10
257.1702859039118
 20
58.04283641772562
 30
0.0
 11
256.9561038152841
 21
33.50000000000007
 31
0.0
  0
LINE
  5
C9
330
1F
100
AcDbEntity
  8
1
  6
CONTINUOUS
 62
     7
100
AcDbLine
 10
256.9561038152841
 20
33.50000000000007
 30
0.0
 11
256.275946550489
 21
33.50000000000007
 31
0.0
  0
LINE
  5
CA
330
1F
100
AcDbEntity
  8
1
  6
CONTINUOUS
 62
     7
100
AcDbLine
 10
297.9517974975175
 20
21.00000000000007
 30
0.0
 11
298.9517594205817
 21
21.00000000000007
 31
0.0
  0
LINE
  5
CB
330
1F
100
AcDbEntity
  8
1
  6
CONTINUOUS
 62
     7
100
AcDbLine
 10
254.4561038152841
 20
18.50000000000007
 30
0.0
 11
252.9916377212168
 21
18.50000000000007
 31
0.0
  0
LINE
  5
CC
330
1F
100
AcDbEntity
  8
1
  6
CONTINUOUS
 62
     7
100
AcDbLine
 10
290.4561038152842
 20
18.50000000000007
 30
0.0
 11
289.4574742805297
 21
18.50000000000007
 31
0.0
  0
LINE
  5
CD
330
1F
100
AcDbEntity
  8
1
  6
CONTINUOUS
 62
     7
100
AcDbLine
 10
275.9604482099867
 20
21.00000000000007
 30
0.0
 11
276.9604101330509
 21
21.00000000000007
 31
0.0
  0
LINE
  5
CE
330
1F
100
AcDbEntity
  8
1
  6
CONTINUOUS
 62
     7
100
AcDbLine
 10
285.4547333500388
 20
18.50000000000007
 30
0.0
 11
284.4561038152842
 21
18.50000000000007
 31
0.0
  0
LINE
  5
CF
330
1F
100
AcDbEntity
  8
1
  6
CONTINUOUS
 62
     7
100
AcDbLine
 10
286.7055484653376
 20
18.50000000000007
 30
0.0
 11
287.4561038152842
 21
18.50000000000007
 31
0.0
  0
LINE
  5
D0
330
1F
100
AcDbEntity
  8
1
  6
CONTINUOUS
 62
     7
100
AcDbLine
 10
297.9343056842752
 20
18.50000000000007
 30
0.0
 11
297.4561038152842
 21
18.50000000000008
 31
0.0
  0
LINE
  5
D1
330
1F
100
AcDbEntity
  8
1
  6
CONTINUOUS
 62
     7
100
AcDbLine
 10
298.4342866458073
 20
18.50000000000007
 30
0.0
 11
297.9343056842752
 21
18.50000000000007
 31
0.0
  0
LINE
  5
D2
330
1F
100
AcDbEntity
  8
1
  6
CONTINUOUS
 62
     7
100
AcDbLine
 10
289.5636612447174
 20
21.00000000000007
 30
0.0
 11
290.5871232634918
 21
21.00000000000007
 31
0.0
  0
LINE
  5
D3
330
1F
100
AcDbEntity
  8
1
  6
CONTINUOUS
 62
     7
100
AcDbLine
 10
286.7055484653376
 20
18.50000000000007
 30
0.0
 11
285.4547333500388
 21
18.50000000000007
 31
0.0
  0
LINE
  5
D4
330
1F
100
AcDbEntity
  8
1
  6
CONTINUOUS
 62
     7
100
AcDbLine
 10
289.5636612447174
 20
21.00000000000007
 30
0.0
 11
287.8822648748578
 21
21.00000000000007
 31
0.0
  0
LINE
  5
D5
330
1F
100
AcDbEntity
  8
1
  6
CONTINUOUS
 62
     7
100
AcDbLine
 10
218.4561038152841
 20
33.50000000000007
 30
0.0
 11
226.4561038152841
 21
33.50000000000007
 31
0.0
  0
LINE
  5
D6
330
1F
100
AcDbEntity
  8
1
  6
CONTINUOUS
 62
     7
100
AcDbLine
 10
226.4561038152841
 20
33.50000000000007
 30
0.0
 11
237.3850360034186
 21
33.50000000000007
 31
0.0
  0
LINE
  5
D7
330
1F
100
AcDbEntity
  8
1
  6
CONTINUOUS
 62
     7
100
AcDbLine
 10
204.4561038152841
 20
18.50000000000007
 30
0.0
 11
237.3850360034186
 21
18.50000000000007
 31
0.0
  0
LINE
  5
D8
330
1F
100
AcDbEntity
  8
1
  6
CONTINUOUS
 62
     7
100
AcDbLine
 10
200.2599876801459
 20
18.50000000000007
 30
0.0
 11
204.4561038152841
 21
18.50000000000007
 31
0.0
  0
LINE
  5
D9
330
1F
100
AcDbEntity
  8
1
  6
CONTINUOUS
 62
     7
100
AcDbLine
 10
237.3850360034186
 20
33.50000000000007
 30
0.0
 11
240.9205699093514
 21
33.50000000000007
 31
0.0
  0
LINE
  5
DA
330
1F
100
AcDbEntity
  8
1
  6
CONTINUOUS
 62
     7
100
AcDbLine
 10
284.3250843670766
 20
21.00000000000007
 30
0.0
 11
285.348546385851
 21
21.00000000000007
 31
0.0
  0
LINE
  5
DB
330
1F
100
AcDbEntity
  8
1
  6
CONTINUOUS
 62
     7
100
AcDbLine
 10
288.2066591652307
 20
18.50000000000007
 30
0.0
 11
288.1657696233394
 21
20.52616797812155
 31
0.0
  0
LINE
  5
DC
330
1F
100
AcDbEntity
  8
1
  6
CONTINUOUS
 62
     7
100
AcDbLine
 10
252.9916377212168
 20
33.50000000000007
 30
0.0
 11
240.9205699093514
 21
33.50000000000007
 31
0.0
  0
LINE
  5
DD
330
1F
100
AcDbEntity
  8
1
  6
CONTINUOUS
 62
     7
100
AcDbLine
 10
277.4561038152842
 20
18.50000000000007
 30
0.0
 11
276.9779019462932
 21
18.50000000000007
 31
0.0
  0
LINE
  5
DE
330
1F
100
AcDbEntity
  8
1
  6
CONTINUOUS
 62
     7
100
AcDbLine
 10
287.0299427557106
 20
21.00000000000007
 30
0.0
 11
285.348546385851
 21
21.00000000000007
 31
0.0
  0
LINE
  5
DF
330
1F
100
AcDbEntity
  8
1
  6
CONTINUOUS
 62
     7
100
AcDbLine
 10
200.2599876801459
 20
33.50000000000006
 30
0.0
 11
199.4561038152841
 21
33.50000000000006
 31
0.0
  0
LINE
  5
E0
330
1F
100
AcDbEntity
  8
1
  6
CONTINUOUS
 62
     7
100
AcDbLine
 10
199.4561038152841
 20
18.50000000000007
 30
0.0
 11
200.2599876801459
 21
18.50000000000007
 31
0.0
  0
LINE
  5
E1
330
1F
100
AcDbEntity
  8
1
  6
CONTINUOUS
 62
     7
100
AcDbLine
 10
92.1834291082432
 20
23.00000000000007
 30
0.0
 11
91.18479957348863
 21
23.00000000000007
 31
0.0
  0
LINE
  5
E2
330
1F
100
AcDbEntity
  8
1
  6
CONTINUOUS
 62
     7
100
AcDbLine
 10
100.0000000000001
 20
21.50000000000007
 30
0.0
 11
99.34021758648362
 21
21.50000000000007
 31
0.0
  0
LINE
  5
E3
330
1F
100
AcDbEntity
  8
1
  6
CONTINUOUS
 62
     7
100
AcDbLine
 10
107.8165708917569
 20
23.00000000000007
 30
0.0
 11
100.0665109972572
 21
23.00000000000007
 31
0.0
  0
LINE
  5
E4
330
1F
100
AcDbEntity
  8
1
  6
CONTINUOUS
 62
     7
100
AcDbLine
 10
96.84277666215094
 20
21.50000000000007
 30
0.0
 11
96.86760914617078
 21
21.02616797812154
 31
0.0
  0
LINE
  5
E5
330
1F
100
AcDbEntity
  8
1
  6
CONTINUOUS
 62
     7
100
AcDbLine
 10
90.13239085382935
 20
21.02616797812154
 30
0.0
 11
90.15722333784919
 21
21.50000000000007
 31
0.0
  0
LWPOLYLINE
  5
E6
330
1F
100
AcDbEntity
  8
1
  6
CONTINUOUS
 62
     7
100
AcDbPolyline
 90
        8
 70
     0
 43
0.0
 10
-100.0665109972572
 20
23.00000000000007
 10
-100.1915109972572
 20
22.97628120948839
 10
-100.2858639596828
 20
22.92501417091033
 10
-100.3653293115771
 20
22.85564177380562
 10
-100.4353295462866
 20
22.76936163891899
 10
-100.4998153926567
 20
22.6608645116682
 10
-100.5474370431626
 20
22.55328942999455
 42
0.0828953145871785
 10
-100.6430700279685
 20
22.05233595624301
210
0.0
220
0.0
230
-1.0
  0
LINE
  5
E7
330
1F
100
AcDbEntity
  8
1
  6
CONTINUOUS
 62
     7
100
AcDbLine
 10
103.0695309552556
 20
19.82672966125995
 30
0.0
 11
103.1323908538293
 21
21.02616797812154
 31
0.0
  0
LINE
  5
E8
330
1F
100
AcDbEntity
  8
1
  6
CONTINUOUS
 62
     7
100
AcDbLine
 10
100.6430700279685
 20
22.05233595624301
 30
0.0
 11
100.6597824135165
 21
21.50000000000007
 31
0.0
  0
LINE
  5
E9
330
1F
100
AcDbEntity
  8
1
  6
CONTINUOUS
 62
     7
100
AcDbLine
 10
109.9304690447445
 20
19.82672966125995
 30
0.0
 11
109.8676091461708
 21
21.02616797812154
 31
0.0
  0
LINE
  5
EA
330
1F
100
AcDbEntity
  8
1
  6
CONTINUOUS
 62
     7
100
AcDbLine
 10
103.1323908538293
 20
21.02616797812154
 30
0.0
 11
103.1572233378492
 21
21.50000000000007
 31
0.0
  0
LINE
  5
EB
330
1F
100
AcDbEntity
  8
1
  6
CONTINUOUS
 62
     7
100
AcDbLine
 10
68.81980390271858
 20
18.50000000000007
 30
0.0
 11
67.83922322702765
 21
18.50000000000007
 31
0.0
  0
LINE
  5
EC
330
1F
100
AcDbEntity
  8
1
  6
CONTINUOUS
 62
     7
100
AcDbLine
 10
109.8427766621509
 20
21.50000000000007
 30
0.0
 11
109.8676091461708
 21
21.02616797812154
 31
0.0
  0
LINE
  5
ED
330
1F
100
AcDbEntity
  8
1
  6
CONTINUOUS
 62
     7
100
AcDbLine
 10
96.86760914617078
 20
21.02616797812154
 30
0.0
 11
96.93046904474448
 21
19.82672966125995
 31
0.0
  0
LINE
  5
EE
330
1F
100
AcDbEntity
  8
1
  6
CONTINUOUS
 62
     7
100
AcDbLine
 10
90.06953095525563
 20
19.82672966125995
 30
0.0
 11
90.13239085382935
 21
21.02616797812154
 31
0.0
  0
LINE
  5
EF
330
1F
100
AcDbEntity
  8
1
  6
CONTINUOUS
 62
     7
100
AcDbLine
 10
100.0665109972572
 20
23.00000000000007
 30
0.0
 11
100.0000000000001
 21
23.00000000000007
 31
0.0
  0
LINE
  5
F0
330
1F
100
AcDbEntity
  8
1
  6
CONTINUOUS
 62
     7
100
AcDbLine
 10
103.0000000000001
 20
18.50000000000007
 30
0.0
 11
110.0
 21
18.50000000000007
 31
0.0
  0
LINE
  5
F1
330
1F
100
AcDbEntity
  8
1
  6
CONTINUOUS
 62
     7
100
AcDbLine
 10
103.0000000000001
 20
18.50000000000006
 30
0.0
 11
103.0695309552556
 21
19.82672966125995
 31
0.0
  0
LINE
  5
F2
330
1F
100
AcDbEntity
  8
1
  6
CONTINUOUS
 62
     7
100
AcDbLine
 10
109.8427766621509
 20
21.50000000000007
 30
0.0
 11
109.8138299613702
 21
22.05233595425619
 31
0.0
  0
LINE
  5
F3
330
1F
100
AcDbEntity
  8
1
  6
CONTINUOUS
 62
     7
100
AcDbLine
 10
108.8152004265115
 20
23.00000000000007
 30
0.0
 11
107.8165708917569
 21
23.00000000000007
 31
0.0
  0
LINE
  5
F4
330
1F
100
AcDbEntity
  8
1
  6
CONTINUOUS
 62
     7
100
AcDbLine
 10
110.0000000000001
 20
18.50000000000006
 30
0.0
 11
109.9304690447445
 21
19.82672966125995
 31
0.0
  0
LWPOLYLINE
  5
F5
330
1F
100
AcDbEntity
  8
1
  6
CONTINUOUS
 62
     7
100
AcDbPolyline
 90
        8
 70
     0
 43
0.0
 10
-99.35692997203166
 20
22.05233595624301
 42
0.0936545632559419
 10
-99.47526139510417
 20
22.60834396421199
 10
-99.53327427503353
 20
22.72075274205071
 10
-99.60006964528445
 20
22.81639120292713
 10
-99.68149453427556
 20
22.89972015848578
 10
-99.76969741469954
 20
22.95891446284787
 10
-99.8710654682039
 20
22.99413766442823
 10
-99.93348900274292
 20
23.00000000000007
210
0.0
220
0.0
230
-1.0
  0
LINE
  5
F6
330
1F
100
AcDbEntity
  8
1
  6
CONTINUOUS
 62
     7
100
AcDbLine
 10
90.00000000000007
 20
18.50000000000007
 30
0.0
 11
97.00000000000006
 21
18.50000000000007
 31
0.0
  0
LINE
  5
F7
330
1F
100
AcDbEntity
  8
1
  6
CONTINUOUS
 62
     7
100
AcDbLine
 10
130.5
 20
18.49999999999996
 30
0.0
 11
131.1801960972814
 21
18.50000000000007
 31
0.0
  0
LINE
  5
F8
330
1F
100
AcDbEntity
  8
1
  6
CONTINUOUS
 62
     7
100
AcDbLine
 10
96.93046904474448
 20
19.82672966125995
 30
0.0
 11
97.00000000000006
 21
18.50000000000006
 31
0.0
  0
LINE
  5
F9
330
1F
100
AcDbEntity
  8
1
  6
CONTINUOUS
 62
     7
100
AcDbLine
 10
130.5
 20
33.50000000000006
 30
0.0
 11
131.1801572647951
 21
33.50000000000006
 31
0.0
  0
LINE
  5
FA
330
1F
100
AcDbEntity
  8
1
  6
CONTINUOUS
 62
     7
100
AcDbLine
 10
109.7753765192676
 20
22.06166753534075
 30
0.0
 11
109.813829961266
 21
22.05233595624301
 31
0.0
  0
LINE
  5
FB
330
1F
100
AcDbEntity
  8
1
  6
CONTINUOUS
 62
     7
100
AcDbLine
 10
90.06953095525563
 20
19.82672966125995
 30
0.0
 11
90.00000000000007
 21
18.50000000000006
 31
0.0
  0
LINE
  5
FC
330
1F
100
AcDbEntity
  8
1
  6
CONTINUOUS
 62
     7
100
AcDbLine
 10
110.9956746437654
 20
20.50436326774926
 30
0.0
 11
110.9781828305231
 21
18.50000000000007
 31
0.0
  0
LINE
  5
FD
330
1F
100
AcDbEntity
  8
1
  6
CONTINUOUS
 62
     7
100
AcDbLine
 10
112.0
 20
18.50000000000007
 30
0.0
 11
112.0
 21
20.50436326774926
 31
0.0
  0
LINE
  5
FE
330
1F
100
AcDbEntity
  8
1
  6
CONTINUOUS
 62
     7
100
AcDbLine
 10
110.9781828305231
 20
18.50000000000007
 30
0.0
 11
112.0
 21
18.50000000000007
 31
0.0
  0
LINE
  5
FF
330
1F
100
AcDbEntity
  8
1
  6
CONTINUOUS
 62
     7
100
AcDbLine
 10
67.83922322702765
 20
18.50000000000007
 30
0.0
 11
67.0
 21
18.50000000000007
 31
0.0
  0
LINE
  5
100
330
1F
100
AcDbEntity
  8
1
  6
CONTINUOUS
 62
     7
100
AcDbLine
 10
108.8152004265115
 20
23.00000000000007
 30
0.0
 11
109.1724250469576
 21
22.93401850653357
 31
0.0
  0
LINE
  5
101
330
1F
100
AcDbEntity
  8
1
  6
CONTINUOUS
 62
     7
100
AcDbLine
 10
67.0
 20
33.50000000000007
 30
0.0
 11
67.83922322702765
 21
33.50000000000006
 31
0.0
  0
LINE
  5
102
330
1F
100
AcDbEntity
  8
1
  6
CONTINUOUS
 62
     7
100
AcDbLine
 10
199.4561038152842
 20
59.60402724067169
 30
0.0
 11
199.4561038152842
 21
59.68019609728153
 31
0.0
  0
LINE
  5
103
330
1F
100
AcDbEntity
  8
1
  6
CONTINUOUS
 62
     7
100
AcDbLine
 10
277.980449474491
 20
22.74801845225115
 30
0.0
 11
277.7268560810939
 21
22.40560759278543
 31
0.0
  0
LINE
  5
104
330
1F
100
AcDbEntity
  8
1
  6
CONTINUOUS
 62
     7
100
AcDbLine
 10
297.1853515494835
 20
22.40560759276493
 30
0.0
 11
296.9317581560632
 21
22.74801845226321
 31
0.0
  0
LINE
  5
105
330
1F
100
AcDbEntity
  8
1
  6
CONTINUOUS
 62
     7
100
AcDbLine
 10
133.0
 20
33.50000000000007
 30
0.0
 11
132.1607767729724
 21
33.50000000000006
 31
0.0
  0
LINE
  5
106
330
1F
100
AcDbEntity
  8
1
  6
CONTINUOUS
 62
     7
100
AcDbLine
 10
69.50000000000001
 20
18.49999999999996
 30
0.0
 11
69.5
 21
33.50000000000006
 31
0.0
  0
LINE
  5
107
330
1F
100
AcDbEntity
  8
1
  6
CONTINUOUS
 62
     7
100
AcDbLine
 10
132.1607767729724
 20
18.50000000000007
 30
0.0
 11
133.0
 21
18.50000000000007
 31
0.0
  0
LINE
  5
108
330
1F
100
AcDbEntity
  8
1
  6
CONTINUOUS
 62
     7
100
AcDbLine
 10
132.1607767729724
 20
33.50000000000006
 30
0.0
 11
131.1801960972814
 21
33.50000000000006
 31
0.0
  0
LINE
  5
109
330
1F
100
AcDbEntity
  8
1
  6
CONTINUOUS
 62
     7
100
AcDbLine
 10
107.8455175926418
 20
21.50000000000007
 30
0.0
 11
109.8427766621509
 21
21.50000000000007
 31
0.0
  0
LINE
  5
10A
330
1F
100
AcDbEntity
  8
1
  6
CONTINUOUS
 62
     7
100
AcDbLine
 10
67.83922322702765
 20
33.50000000000006
 30
0.0
 11
68.81980390271858
 21
33.50000000000006
 31
0.0
  0
LINE
  5
10B
330
1F
100
AcDbEntity
  8
1
  6
CONTINUOUS
 62
     7
100
AcDbLine
 10
90.18617003873405
 20
22.05233595624301
 30
0.0
 11
90.22462348073243
 21
22.06166753534143
 31
0.0
  0
LINE
  5
10C
330
1F
100
AcDbEntity
  8
1
  6
CONTINUOUS
 62
     7
100
AcDbLine
 10
100.6597824135165
 20
21.50000000000007
 30
0.0
 11
100.0000000000001
 21
21.50000000000007
 31
0.0
  0
LINE
  5
10D
330
1F
100
AcDbEntity
  8
1
  6
CONTINUOUS
 62
     7
100
AcDbLine
 10
67.0
 20
18.50000000000007
 30
0.0
 11
67.0
 21
33.50000000000007
 31
0.0
  0
LINE
  5
10E
330
1F
100
AcDbEntity
  8
1
  6
CONTINUOUS
 62
     7
100
AcDbLine
 10
69.50000000000001
 20
18.49999999999996
 30
0.0
 11
68.81980390271858
 21
18.50000000000007
 31
0.0
  0
LINE
  5
10F
330
1F
100
AcDbEntity
  8
1
  6
CONTINUOUS
 62
     7
100
AcDbLine
 10
100.0000000000001
 20
23.00000000000007
 30
0.0
 11
100.0000000000001
 21
21.50000000000007
 31
0.0
  0
LINE
  5
110
330
1F
100
AcDbEntity
  8
1
  6
CONTINUOUS
 62
     7
100
AcDbLine
 10
69.5
 20
33.50000000000006
 30
0.0
 11
68.81984273520497
 21
33.50000000000006
 31
0.0
  0
LINE
  5
111
330
1F
100
AcDbEntity
  8
1
  6
CONTINUOUS
 62
     7
100
AcDbLine
 10
133.0
 20
18.50000000000007
 30
0.0
 11
133.0
 21
33.50000000000007
 31
0.0
  0
LINE
  5
112
330
1F
100
AcDbEntity
  8
1
  6
CONTINUOUS
 62
     7
100
AcDbLine
 10
99.34021758648362
 20
21.50000000000007
 30
0.0
 11
99.35692997203166
 21
22.05233595624301
 31
0.0
  0
LINE
  5
113
330
1F
100
AcDbEntity
  8
1
  6
CONTINUOUS
 62
     7
100
AcDbLine
 10
99.34021758648362
 20
21.50000000000007
 30
0.0
 11
92.15448240735832
 21
21.50000000000007
 31
0.0
  0
LINE
  5
114
330
1F
100
AcDbEntity
  8
1
  6
CONTINUOUS
 62
     7
100
AcDbLine
 10
91.18479957348863
 20
23.00000000000007
 30
0.0
 11
90.82757495302015
 21
22.93401850652505
 31
0.0
  0
ARC
  5
115
330
1F
100
AcDbEntity
  8
1
  6
CONTINUOUS
 62
     7
100
AcDbCircle
 10
200.4561038152842
 20
59.68019609728152
 30
0.0
 40
0.9999999999999927
100
AcDbArc
 50
101.3099324740201
 51
180.0
  0
LINE
  5
116
330
1F
100
AcDbEntity
  8
1
  6
CONTINUOUS
 62
     7
100
AcDbLine
 10
130.5
 20
18.49999999999996
 30
0.0
 11
130.5
 21
33.50000000000006
 31
0.0
  0
LINE
  5
117
330
1F
100
AcDbEntity
  8
1
  6
CONTINUOUS
 62
     7
100
AcDbLine
 10
131.1801960972814
 20
18.50000000000007
 30
0.0
 11
132.1607767729724
 21
18.50000000000007
 31
0.0
  0
LINE
  5
118
330
1F
100
AcDbEntity
  8
1
  6
CONTINUOUS
 62
     7
100
AcDbLine
 10
90.15722333784919
 20
21.50000000000007
 30
0.0
 11
92.15448240735832
 21
21.50000000000007
 31
0.0
  0
LINE
  5
119
330
1F
100
AcDbEntity
  8
1
  6
CONTINUOUS
 62
     7
100
AcDbLine
 10
90.18617003873405
 20
22.05233595624301
 30
0.0
 11
90.15722333784919
 21
21.50000000000007
 31
0.0
  0
LINE
  5
11A
330
1F
100
AcDbEntity
  8
1
  6
CONTINUOUS
 62
     7
100
AcDbLine
 10
99.9334890027429
 20
23.00000000000007
 30
0.0
 11
92.1834291082432
 21
23.00000000000007
 31
0.0
  0
LINE
  5
11B
330
1F
100
AcDbEntity
  8
1
  6
CONTINUOUS
 62
     7
100
AcDbLine
 10
107.8455175926418
 20
21.50000000000007
 30
0.0
 11
100.6597824135165
 21
21.50000000000007
 31
0.0
  0
LINE
  5
11C
330
1F
100
AcDbEntity
  8
1
  6
CONTINUOUS
 62
     7
100
AcDbLine
 10
100.0000000000001
 20
23.00000000000007
 30
0.0
 11
99.93348900274292
 21
23.00000000000007
 31
0.0
  0
LINE
  5
11D
330
1F
100
AcDbEntity
  8
1
  6
CONTINUOUS
 62
     7
100
AcDbLine
 10
99.24944465005356
 20
18.50000000000007
 30
0.0
 11
99.29033419194481
 21
20.52616797812154
 31
0.0
  0
LINE
  5
11E
330
1F
100
AcDbEntity
  8
1
  6
CONTINUOUS
 62
     7
100
AcDbLine
 10
89.02181716947696
 20
18.50000000000007
 30
0.0
 11
89.00432535623466
 21
20.50436326774926
 31
0.0
  0
LINE
  5
11F
330
1F
100
AcDbEntity
  8
1
  6
CONTINUOUS
 62
     7
100
AcDbLine
 10
49.92893218813453
 20
18.50000000000007
 30
0.0
 11
53.46446609406727
 21
18.50000000000007
 31
0.0
  0
LINE
  5
120
330
1F
100
AcDbEntity
  8
1
  6
CONTINUOUS
 62
     7
100
AcDbLine
 10
150.0710678118655
 20
18.50000000000007
 30
0.0
 11
146.5355339059327
 21
18.50000000000007
 31
0.0
  0
LINE
  5
121
330
1F
100
AcDbEntity
  8
1
  6
CONTINUOUS
 62
     7
100
AcDbLine
 10
102.1075574294332
 20
21.00000000000007
 30
0.0
 11
103.1310194482077
 21
21.00000000000007
 31
0.0
  0
LINE
  5
122
330
1F
100
AcDbEntity
  8
1
  6
CONTINUOUS
 62
     7
100
AcDbLine
 10
100.0
 20
18.50000000000007
 30
0.0
 11
100.0
 21
21.00000000000007
 31
0.0
  0
LINE
  5
123
330
1F
100
AcDbEntity
  8
1
  6
CONTINUOUS
 62
     7
100
AcDbLine
 10
17.00000000000001
 20
18.50000000000007
 30
0.0
 11
12.80388386486181
 21
18.50000000000007
 31
0.0
  0
LINE
  5
124
330
1F
100
AcDbEntity
  8
1
  6
CONTINUOUS
 62
     7
100
AcDbLine
 10
49.92893218813453
 20
33.50000000000007
 30
0.0
 11
39.00000000000004
 21
33.50000000000007
 31
0.0
  0
LINE
  5
125
330
1F
100
AcDbEntity
  8
1
  6
CONTINUOUS
 62
     7
100
AcDbLine
 10
150.0710678118655
 20
33.50000000000007
 30
0.0
 11
161.0
 21
33.50000000000007
 31
0.0
  0
LINE
  5
126
330
1F
100
AcDbEntity
  8
1
  6
CONTINUOUS
 62
     7
100
AcDbLine
 10
161.0
 20
33.50000000000007
 30
0.0
 11
169.0
 21
33.50000000000007
 31
0.0
  0
LINE
  5
127
330
1F
100
AcDbEntity
  8
1
  6
CONTINUOUS
 62
     7
100
AcDbLine
 10
100.0
 20
18.50000000000007
 30
0.0
 11
99.24944465005356
 21
18.50000000000007
 31
0.0
  0
LINE
  5
128
330
1F
100
AcDbEntity
  8
1
  6
CONTINUOUS
 62
     7
100
AcDbLine
 10
89.50430631776675
 20
21.00000000000007
 30
0.0
 11
88.50434439470257
 21
21.00000000000007
 31
0.0
  0
LINE
  5
129
330
1F
100
AcDbEntity
  8
1
  6
CONTINUOUS
 62
     7
100
AcDbLine
 10
31.00000000000003
 20
33.50000000000007
 30
0.0
 11
17.00000000000001
 21
33.50000000000007
 31
0.0
  0
LINE
  5
12A
330
1F
100
AcDbEntity
  8
1
  6
CONTINUOUS
 62
     7
100
AcDbLine
 10
74.85271911209375
 20
21.00000000000007
 30
0.0
 11
87.79469272601959
 21
21.00000000000007
 31
0.0
  0
LINE
  5
12B
330
1F
100
AcDbEntity
  8
1
  6
CONTINUOUS
 62
     7
100
AcDbLine
 10
97.99862953475463
 20
18.50000000000007
 30
0.0
 11
97.00000000000007
 21
18.50000000000007
 31
0.0
  0
LINE
  5
12C
330
1F
100
AcDbEntity
  8
1
  6
CONTINUOUS
 62
     7
100
AcDbLine
 10
100.7505553499466
 20
18.50000000000007
 30
0.0
 11
100.0
 21
18.50000000000007
 31
0.0
  0
LINE
  5
12D
330
1F
100
AcDbEntity
  8
1
  6
CONTINUOUS
 62
     7
100
AcDbLine
 10
99.57383894042654
 20
21.00000000000007
 30
0.0
 11
97.89244257056689
 21
21.00000000000007
 31
0.0
  0
LINE
  5
12E
330
1F
100
AcDbEntity
  8
1
  6
CONTINUOUS
 62
     7
100
AcDbLine
 10
100.7096658080553
 20
20.52616797812154
 30
0.0
 11
100.7505553499466
 21
18.50000000000007
 31
0.0
  0
LINE
  5
12F
330
1F
100
AcDbEntity
  8
1
  6
CONTINUOUS
 62
     7
100
AcDbLine
 10
111.4956556052975
 20
21.00000000000007
 30
0.0
 11
112.2053072739804
 21
21.00000000000007
 31
0.0
  0
ARC
  5
130
330
1F
100
AcDbEntity
  8
1
  6
CONTINUOUS
 62
     7
100
AcDbCircle
 10
128.8527191120938
 20
32.50000000000007
 30
0.0
 40
1.0
100
AcDbArc
 50
90.0
 51
170.9097230791777
  0
ARC
  5
131
330
1F
100
AcDbEntity
  8
1
  6
CONTINUOUS
 62
     7
100
AcDbCircle
 10
-71.1472808879062
 20
32.50000000000007
 30
0.0
 40
1.0
210
0.0
220
0.0
230
-1.0
100
AcDbArc
 50
90.0
 51
170.9097230791777
  0
LINE
  5
132
330
1F
100
AcDbEntity
  8
1
  6
CONTINUOUS
 62
     7
100
AcDbLine
 10
110.4782018689911
 20
18.50000000000007
 30
0.0
 11
110.0000000000001
 21
18.50000000000007
 31
0.0
  0
LINE
  5
133
330
1F
100
AcDbEntity
  8
1
  6
CONTINUOUS
 62
     7
100
AcDbLine
 10
99.24944465005356
 20
18.50000000000007
 30
0.0
 11
97.99862953475463
 21
18.50000000000007
 31
0.0
  0
LINE
  5
134
330
1F
100
AcDbEntity
  8
1
  6
CONTINUOUS
 62
     7
100
AcDbLine
 10
133.0
 20
33.50000000000007
 30
0.0
 11
134.4644660940673
 21
33.50000000000007
 31
0.0
  0
LINE
  5
135
330
1F
100
AcDbEntity
  8
1
  6
CONTINUOUS
 62
     7
100
AcDbLine
 10
72.13472151982292
 20
32.65799050110675
 30
0.0
 11
73.86527848017704
 21
21.84200949889339
 31
0.0
  0
LINE
  5
136
330
1F
100
AcDbEntity
  8
1
  6
CONTINUOUS
 62
     7
100
AcDbLine
 10
134.4644660940673
 20
18.50000000000007
 30
0.0
 11
133.0
 21
18.50000000000007
 31
0.0
  0
LINE
  5
137
330
1F
100
AcDbEntity
  8
1
  6
CONTINUOUS
 62
     7
100
AcDbLine
 10
67.0
 20
33.50000000000007
 30
0.0
 11
65.53553390593275
 21
33.50000000000007
 31
0.0
  0
LINE
  5
138
330
1F
100
AcDbEntity
  8
1
  6
CONTINUOUS
 62
     7
100
AcDbLine
 10
65.53553390593275
 20
18.50000000000007
 30
0.0
 11
53.46446609406727
 21
18.50000000000007
 31
0.0
  0
LINE
  5
139
330
1F
100
AcDbEntity
  8
1
  6
CONTINUOUS
 62
     7
100
AcDbLine
 10
146.5355339059327
 20
33.50000000000007
 30
0.0
 11
134.4644660940673
 21
33.50000000000007
 31
0.0
  0
LINE
  5
13A
330
1F
100
AcDbEntity
  8
1
  6
CONTINUOUS
 62
     7
100
AcDbLine
 10
112.0
 20
20.56576869268263
 30
0.0
 11
112.0
 21
20.50436326774926
 31
0.0
  0
LINE
  5
13B
330
1F
100
AcDbEntity
  8
1
  6
CONTINUOUS
 62
     7
100
AcDbLine
 10
53.46446609406727
 20
33.50000000000007
 30
0.0
 11
49.92893218813453
 21
33.50000000000007
 31
0.0
  0
LINE
  5
13C
330
1F
100
AcDbEntity
  8
1
  6
CONTINUOUS
 62
     7
100
AcDbLine
 10
12.80388386486182
 20
33.50000000000007
 30
0.0
 11
17.00000000000001
 21
33.50000000000007
 31
0.0
  0
LINE
  5
13D
330
1F
100
AcDbEntity
  8
1
  6
CONTINUOUS
 62
     7
100
AcDbLine
 10
39.00000000000004
 20
33.50000000000007
 30
0.0
 11
31.00000000000003
 21
33.50000000000007
 31
0.0
  0
LINE
  5
13E
330
1F
100
AcDbEntity
  8
1
  6
CONTINUOUS
 62
     7
100
AcDbLine
 10
49.92893218813453
 20
18.50000000000007
 30
0.0
 11
17.00000000000001
 21
18.50000000000007
 31
0.0
  0
LINE
  5
13F
330
1F
100
AcDbEntity
  8
1
  6
CONTINUOUS
 62
     7
100
AcDbLine
 10
169.0
 20
33.50000000000007
 30
0.0
 11
183.0
 21
33.50000000000007
 31
0.0
  0
LINE
  5
140
330
1F
100
AcDbEntity
  8
1
  6
CONTINUOUS
 62
     7
100
AcDbLine
 10
150.0710678118655
 20
18.50000000000007
 30
0.0
 11
183.0
 21
18.50000000000007
 31
0.0
  0
LINE
  5
141
330
1F
100
AcDbEntity
  8
1
  6
CONTINUOUS
 62
     7
100
AcDbLine
 10
90.00000000000007
 20
18.50000000000007
 30
0.0
 11
89.52179813100905
 21
18.50000000000007
 31
0.0
  0
LINE
  5
142
330
1F
100
AcDbEntity
  8
1
  6
CONTINUOUS
 62
     7
100
AcDbLine
 10
88.00000000000006
 20
18.50000000000007
 30
0.0
 11
89.02181716947696
 21
18.50000000000007
 31
0.0
  0
LINE
  5
143
330
1F
100
AcDbEntity
  8
1
  6
CONTINUOUS
 62
     7
100
AcDbLine
 10
127.8652784801771
 20
32.65799050110675
 30
0.0
 11
126.134721519823
 21
21.84200949889339
 31
0.0
  0
LINE
  5
144
330
1F
100
AcDbEntity
  8
1
  6
CONTINUOUS
 62
     7
100
AcDbLine
 10
109.8689805517924
 20
21.00000000000007
 30
0.0
 11
110.4956936822334
 21
21.00000000000007
 31
0.0
  0
LINE
  5
145
330
1F
100
AcDbEntity
  8
1
  6
CONTINUOUS
 62
     7
100
AcDbLine
 10
130.5
 20
33.50000000000007
 30
0.0
 11
128.8527191120938
 21
33.50000000000007
 31
0.0
  0
LINE
  5
146
330
1F
100
AcDbEntity
  8
1
  6
CONTINUOUS
 62
     7
100
AcDbLine
 10
112.0
 20
18.50000000000006
 30
0.0
 11
130.5
 21
18.50000000000007
 31
0.0
  0
LINE
  5
147
330
1F
100
AcDbEntity
  8
1
  6
CONTINUOUS
 62
     7
100
AcDbLine
 10
125.1472808879063
 20
21.00000000000007
 30
0.0
 11
112.2053072739804
 21
21.00000000000007
 31
0.0
  0
LINE
  5
148
330
1F
100
AcDbEntity
  8
1
  6
CONTINUOUS
 62
     7
100
AcDbLine
 10
88.00000000000006
 20
20.50436326774926
 30
0.0
 11
88.00000000000006
 21
20.56576869268262
 31
0.0
  0
LINE
  5
149
330
1F
100
AcDbEntity
  8
1
  6
CONTINUOUS
 62
     7
100
AcDbLine
 10
89.50430631776675
 20
21.00000000000007
 30
0.0
 11
90.13101944820767
 21
21.00000000000007
 31
0.0
  0
LINE
  5
14A
330
1F
100
AcDbEntity
  8
1
  6
CONTINUOUS
 62
     7
100
AcDbLine
 10
100.4261610595736
 20
21.00000000000007
 30
0.0
 11
100.0
 21
21.00000000000007
 31
0.0
  0
ARC
  5
14B
330
1F
100
AcDbEntity
  8
1
  6
CONTINUOUS
 62
     7
100
AcDbCircle
 10
-125.1472808879063
 20
22.00000000000007
 30
0.0
 40
1.000000000000001
210
0.0
220
0.0
230
-1.0
100
AcDbArc
 50
189.0902769208227
 51
270.0
  0
LINE
  5
14C
330
1F
100
AcDbEntity
  8
1
  6
CONTINUOUS
 62
     7
100
AcDbLine
 10
69.5
 20
33.50000000000007
 30
0.0
 11
71.1472808879062
 21
33.50000000000007
 31
0.0
  0
LINE
  5
14D
330
1F
100
AcDbEntity
  8
1
  6
CONTINUOUS
 62
     7
100
AcDbLine
 10
89.52179813100905
 20
18.50000000000007
 30
0.0
 11
89.02181716947696
 21
18.50000000000007
 31
0.0
  0
LINE
  5
14E
330
1F
100
AcDbEntity
  8
1
  6
CONTINUOUS
 62
     7
100
AcDbLine
 10
87.79469272601959
 20
21.00000000000007
 30
0.0
 11
88.50434439470257
 21
21.00000000000007
 31
0.0
  0
LINE
  5
14F
330
1F
100
AcDbEntity
  8
1
  6
CONTINUOUS
 62
     7
100
AcDbLine
 10
111.4956556052975
 20
21.00000000000007
 30
0.0
 11
110.4956936822334
 21
21.00000000000007
 31
0.0
  0
ARC
  5
150
330
1F
100
AcDbEntity
  8
1
  6
CONTINUOUS
 62
     7
100
AcDbCircle
 10
74.85271911209375
 20
22.00000000000007
 30
0.0
 40
1.000000000000001
100
AcDbArc
 50
189.0902769208226
 51
270.0
  0
LINE
  5
151
330
1F
100
AcDbEntity
  8
1
  6
CONTINUOUS
 62
     7
100
AcDbLine
 10
96.86898055179246
 20
21.00000000000007
 30
0.0
 11
97.89244257056689
 21
21.00000000000007
 31
0.0
  0
LINE
  5
152
330
1F
100
AcDbEntity
  8
1
  6
CONTINUOUS
 62
     7
100
AcDbLine
 10
88.00000000000006
 20
18.50000000000007
 30
0.0
 11
88.00000000000004
 21
20.50436326774926
 31
0.0
  0
LINE
  5
153
330
1F
100
AcDbEntity
  8
1
  6
CONTINUOUS
 62
     7
100
AcDbLine
 10
103.0000000000001
 20
18.50000000000007
 30
0.0
 11
102.0013704652455
 21
18.50000000000007
 31
0.0
  0
LINE
  5
154
330
1F
100
AcDbEntity
  8
1
  6
CONTINUOUS
 62
     7
100
AcDbLine
 10
65.53553390593275
 20
18.50000000000007
 30
0.0
 11
67.0
 21
18.50000000000007
 31
0.0
  0
LINE
  5
155
330
1F
100
AcDbEntity
  8
1
  6
CONTINUOUS
 62
     7
100
AcDbLine
 10
102.0013704652455
 20
18.50000000000007
 30
0.0
 11
100.7505553499466
 21
18.50000000000007
 31
0.0
  0
LINE
  5
156
330
1F
100
AcDbEntity
  8
1
  6
CONTINUOUS
 62
     7
100
AcDbLine
 10
53.46446609406727
 20
33.50000000000007
 30
0.0
 11
65.53553390593275
 21
33.50000000000007
 31
0.0
  0
LINE
  5
157
330
1F
100
AcDbEntity
  8
1
  6
CONTINUOUS
 62
     7
100
AcDbLine
 10
134.4644660940673
 20
18.50000000000007
 30
0.0
 11
146.5355339059327
 21
18.50000000000007
 31
0.0
  0
LINE
  5
158
330
1F
100
AcDbEntity
  8
1
  6
CONTINUOUS
 62
     7
100
AcDbLine
 10
102.1075574294332
 20
21.00000000000007
 30
0.0
 11
100.4261610595736
 21
21.00000000000007
 31
0.0
  0
LINE
  5
159
330
1F
100
AcDbEntity
  8
1
  6
CONTINUOUS
 62
     7
100
AcDbLine
 10
88.00000000000004
 20
18.50000000000007
 30
0.0
 11
69.5
 21
18.50000000000007
 31
0.0
  0
LINE
  5
15A
330
1F
100
AcDbEntity
  8
1
  6
CONTINUOUS
 62
     7
100
AcDbLine
 10
146.5355339059327
 20
33.50000000000007
 30
0.0
 11
150.0710678118655
 21
33.50000000000007
 31
0.0
  0
LINE
  5
15B
330
1F
100
AcDbEntity
  8
1
  6
CONTINUOUS
 62
     7
100
AcDbLine
 10
110.9781828305232
 20
18.50000000000007
 30
0.0
 11
110.4782018689911
 21
18.50000000000007
 31
0.0
  0
LINE
  5
15C
330
1F
100
AcDbEntity
  8
1
  6
CONTINUOUS
 62
     7
100
AcDbLine
 10
100.0
 20
21.00000000000007
 30
0.0
 11
99.57383894042654
 21
21.00000000000007
 31
0.0
  0
LINE
  5
15D
330
1F
100
AcDbEntity
  8
1
  6
CONTINUOUS
 62
     7
100
AcDbLine
 10
39.96665932993296
 20
41.49973346144929
 30
0.0
 11
40.21899131635269
 21
40.7480694691785
 31
0.0
  0
LINE
  5
15E
330
1F
100
AcDbEntity
  8
1
  6
CONTINUOUS
 62
     7
100
AcDbLine
 10
132.1607782664727
 20
33.50000000000006
 30
0.0
 11
133.0
 21
33.50000000000007
 31
0.0
  0
LINE
  5
15F
330
1F
100
AcDbEntity
  8
1
  6
CONTINUOUS
 62
     7
100
AcDbLine
 10
40.87500475961697
 20
35.49996192306427
 30
0.0
 11
40.99999999999999
 21
34.50000000000009
 31
0.0
  0
LINE
  5
160
330
1F
100
AcDbEntity
  8
1
  6
CONTINUOUS
 62
     7
100
AcDbLine
 10
31.00000000000001
 20
34.50000000000005
 30
0.0
 11
28.99999999999998
 21
34.50000000000009
 31
0.0
  0
LINE
  5
161
330
1F
100
AcDbEntity
  8
1
  6
CONTINUOUS
 62
     7
100
AcDbLine
 10
188.0
 20
33.50000000000007
 30
0.0
 11
187.1961161351382
 21
33.50000000000007
 31
0.0
  0
LINE
  5
162
330
1F
100
AcDbEntity
  8
1
  6
CONTINUOUS
 62
     7
100
AcDbLine
 10
187.1961161351382
 20
18.50000000000007
 30
0.0
 11
188.0
 21
18.50000000000007
 31
0.0
  0
LINE
  5
163
330
1F
100
AcDbEntity
  8
1
  6
CONTINUOUS
 62
     7
100
AcDbLine
 10
40.5000190384679
 20
38.49984769225679
 30
0.0
 11
40.62501427885093
 21
37.49988576919261
 31
0.0
  0
LINE
  5
164
330
1F
100
AcDbEntity
  8
1
  6
CONTINUOUS
 62
     7
100
AcDbLine
 10
31.73009946306987
 20
42.49969538451352
 30
0.0
 11
38.26982896111812
 21
42.49969538451309
 31
0.0
  0
LINE
  5
165
330
1F
100
AcDbEntity
  8
1
  6
CONTINUOUS
 62
     7
100
AcDbLine
 10
31.76556443707465
 20
42.50000000000009
 30
0.0
 11
38.23443556292537
 21
42.50000000000008
 31
0.0
  0
LINE
  5
166
330
1F
100
AcDbEntity
  8
1
  6
CONTINUOUS
 62
     7
100
AcDbLine
 10
12.00000000000001
 20
33.50000000000007
 30
0.0
 11
12.80388386486182
 21
33.50000000000007
 31
0.0
  0
LINE
  5
167
330
1F
100
AcDbEntity
  8
1
  6
CONTINUOUS
 62
     7
100
AcDbLine
 10
12.00000000000001
 20
18.50000000000007
 30
0.0
 11
12.00000000000001
 21
33.50000000000007
 31
0.0
  0
LINE
  5
168
330
1F
100
AcDbEntity
  8
1
  6
CONTINUOUS
 62
     7
100
AcDbLine
 10
134.4644660940673
 20
33.50000000000007
 30
0.0
 11
146.5355339059327
 21
33.50000000000007
 31
0.0
  0
ARC
  5
169
330
1F
100
AcDbEntity
  8
1
  6
CONTINUOUS
 62
     7
100
AcDbCircle
 10
-125.5049024320361
 20
56.50000000000008
 30
0.0
 40
5.000000000000004
210
0.0
220
0.0
230
-1.0
100
AcDbArc
 50
89.99999999999969
 51
90.11016317989896
  0
LINE
  5
16A
330
1F
100
AcDbEntity
  8
1
  6
CONTINUOUS
 62
     7
100
AcDbLine
 10
130.2858179113723
 20
58.04283641772562
 30
0.0
 11
125.5
 21
59.00000000000008
 31
0.0
  0
LINE
  5
16B
330
1F
100
AcDbEntity
  8
1
  6
CONTINUOUS
 62
     7
100
AcDbLine
 10
130.2858179113723
 20
58.04283641772562
 30
0.0
 11
130.5
 21
33.50000000000006
 31
0.0
  0
LINE
  5
16C
330
1F
100
AcDbEntity
  8
1
  6
CONTINUOUS
 62
     7
100
AcDbLine
 10
188.0
 20
18.50000000000007
 30
0.0
 11
188.0
 21
33.50000000000007
 31
0.0
  0
LINE
  5
16D
330
1F
100
AcDbEntity
  8
1
  6
CONTINUOUS
 62
     7
100
AcDbLine
 10
74.50000000000001
 20
59.00000000000006
 30
0.0
 11
125.5
 21
59.00000000000008
 31
0.0
  0
ARC
  5
16E
330
1F
100
AcDbEntity
  8
1
  6
CONTINUOUS
 62
     7
100
AcDbCircle
 10
74.49509756796394
 20
56.50000000000006
 30
0.0
 40
5.000000000000001
100
AcDbArc
 50
90.11016317989896
 51
101.1997692941214
  0
ARC
  5
16F
330
1F
100
AcDbEntity
  8
1
  6
CONTINUOUS
 62
     7
100
AcDbCircle
 10
74.49509756796397
 20
56.50000000000006
 30
0.0
 40
5.000000000000004
100
AcDbArc
 50
90.00000000000016
 51
90.11016317989929
  0
LINE
  5
170
330
1F
100
AcDbEntity
  8
1
  6
CONTINUOUS
 62
     7
100
AcDbLine
 10
67.83922173352737
 20
33.50000000000006
 30
0.0
 11
67.00000000000003
 21
33.50000000000007
 31
0.0
  0
LINE
  5
171
330
1F
100
AcDbEntity
  8
1
  6
CONTINUOUS
 62
     7
100
AcDbLine
 10
132.7707400000313
 20
59.75273692820808
 30
0.0
 11
132.7710047502171
 21
59.74025655865299
 31
0.0
  0
LINE
  5
172
330
1F
100
AcDbEntity
  8
1
  6
CONTINUOUS
 62
     7
100
AcDbLine
 10
127.7814468483388
 20
58.54371063033233
 30
0.0
 11
128.0041101743327
 21
33.02902067138453
 31
0.0
  0
LINE
  5
173
330
1F
100
AcDbEntity
  8
1
  6
CONTINUOUS
 62
     7
100
AcDbLine
 10
65.53553390593275
 20
33.50000000000007
 30
0.0
 11
53.46446609406727
 21
33.50000000000007
 31
0.0
  0
LINE
  5
174
330
1F
100
AcDbEntity
  8
1
  6
CONTINUOUS
 62
     7
100
AcDbLine
 10
187.1961161351382
 20
33.50000000000007
 30
0.0
 11
183.0
 21
33.50000000000007
 31
0.0
  0
ARC
  5
175
330
1F
100
AcDbEntity
  8
1
  6
CONTINUOUS
 62
     7
100
AcDbCircle
 10
-125.5049024320361
 20
56.50000000000008
 30
0.0
 40
5.000000000000004
210
0.0
220
0.0
230
-1.0
100
AcDbArc
 50
101.1997692941212
 51
101.30993247402
  0
LINE
  5
176
330
1F
100
AcDbEntity
  8
1
  6
CONTINUOUS
 62
     7
100
AcDbLine
 10
169.9667059798662
 20
41.4997334614493
 30
0.0
 11
160.0333406700671
 21
41.4997334614493
 31
0.0
  0
LINE
  5
177
330
1F
100
AcDbEntity
  8
1
  6
CONTINUOUS
 62
     7
100
AcDbLine
 10
40.99999999999999
 20
34.50000000000009
 30
0.0
 11
39.00000000000001
 21
34.50000000000009
 31
0.0
  0
LINE
  5
178
330
1F
100
AcDbEntity
  8
1
  6
CONTINUOUS
 62
     7
100
AcDbLine
 10
40.25002855770186
 20
40.49977153838513
 30
0.0
 11
40.37502379808488
 21
39.49980961532095
 31
0.0
  0
LINE
  5
179
330
1F
100
AcDbEntity
  8
1
  6
CONTINUOUS
 62
     7
100
AcDbLine
 10
72.21855315166123
 20
58.54371063033231
 30
0.0
 11
71.99588982566729
 21
33.02902067138449
 31
0.0
  0
LINE
  5
17A
330
1F
100
AcDbEntity
  8
1
  6
CONTINUOUS
 62
     7
100
AcDbLine
 10
69.71418208862772
 20
58.0428364177256
 30
0.0
 11
74.50000000000001
 21
59.00000000000006
 31
0.0
  0
LINE
  5
17B
330
1F
100
AcDbEntity
  8
1
  6
CONTINUOUS
 62
     7
100
AcDbLine
 10
68.81984273520497
 20
33.50000000000006
 30
0.0
 11
69.50000000000001
 21
33.50000000000006
 31
0.0
  0
ARC
  5
17C
330
1F
100
AcDbEntity
  8
1
  6
CONTINUOUS
 62
     7
100
AcDbCircle
 10
74.49509756796397
 20
56.50000000000006
 30
0.0
 40
5.000000000000002
100
AcDbArc
 50
101.1997692941216
 51
101.3099324740203
  0
LINE
  5
17D
330
1F
100
AcDbEntity
  8
1
  6
CONTINUOUS
 62
     7
100
AcDbLine
 10
12.80388386486181
 20
18.50000000000007
 30
0.0
 11
12.00000000000001
 21
18.50000000000007
 31
0.0
  0
LINE
  5
17E
330
1F
100
AcDbEntity
  8
1
  6
CONTINUOUS
 62
     7
100
AcDbLine
 10
133.0
 20
33.50000000000007
 30
0.0
 11
132.7710047502171
 21
59.74025655865299
 31
0.0
  0
LINE
  5
17F
330
1F
100
AcDbEntity
  8
1
  6
CONTINUOUS
 62
     7
100
AcDbLine
 10
55.10457106396028
 20
61.50000000000006
 30
0.0
 11
74.49509756796395
 21
61.50000000000006
 31
0.0
  0
LINE
  5
180
330
1F
100
AcDbEntity
  8
1
  6
CONTINUOUS
 62
     7
100
AcDbLine
 10
168.2699005369302
 20
42.49969538451352
 30
0.0
 11
161.730171038882
 21
42.49969538451309
 31
0.0
  0
LINE
  5
181
330
1F
100
AcDbEntity
  8
1
  6
CONTINUOUS
 62
     7
100
AcDbLine
 10
67.63091814374597
 20
60.22618362874926
 30
0.0
 11
67.62773684168408
 21
60.22553662031483
 31
0.0
  0
LINE
  5
182
330
1F
100
AcDbEntity
  8
1
  6
CONTINUOUS
 62
     7
100
AcDbLine
 10
132.3690818562541
 20
60.22618362874928
 30
0.0
 11
126.485483107727
 21
61.40290337845468
 31
0.0
  0
LINE
  5
183
330
1F
100
AcDbEntity
  8
1
  6
CONTINUOUS
 62
     7
100
AcDbLine
 10
132.3690818562541
 20
60.22618362874928
 30
0.0
 11
132.3722631583159
 21
60.22553662031483
 31
0.0
  0
LINE
  5
184
330
1F
100
AcDbEntity
  8
1
  6
CONTINUOUS
 62
     7
100
AcDbLine
 10
30.03329402013383
 20
41.49973346144929
 30
0.0
 11
39.96665932993296
 21
41.49973346144929
 31
0.0
  0
LINE
  5
185
330
1F
100
AcDbEntity
  8
1
  6
CONTINUOUS
 62
     7
100
AcDbLine
 10
67.00000000000003
 20
33.50000000000007
 30
0.0
 11
67.22899524978298
 21
59.74025655865299
 31
0.0
  0
LINE
  5
186
330
1F
100
AcDbEntity
  8
1
  6
CONTINUOUS
 62
     7
100
AcDbLine
 10
144.8954289360398
 20
61.50000000000008
 30
0.0
 11
125.5049024320361
 21
61.50000000000008
 31
0.0
  0
LINE
  5
187
330
1F
100
AcDbEntity
  8
1
  6
CONTINUOUS
 62
     7
100
AcDbLine
 10
69.71418208862772
 20
58.0428364177256
 30
0.0
 11
69.50000000000001
 21
33.50000000000007
 31
0.0
  0
LINE
  5
188
330
1F
100
AcDbEntity
  8
1
  6
CONTINUOUS
 62
     7
100
AcDbLine
 10
40.62501427885093
 20
37.49988576919261
 30
0.0
 11
40.75000951923395
 21
36.49992384612844
 31
0.0
  0
LINE
  5
189
330
1F
100
AcDbEntity
  8
1
  6
CONTINUOUS
 62
     7
100
AcDbLine
 10
65.53558966831424
 20
33.50000000000007
 30
0.0
 11
67.00000000000003
 21
33.50000000000007
 31
0.0
  0
LINE
  5
18A
330
1F
100
AcDbEntity
  8
1
  6
CONTINUOUS
 62
     7
100
AcDbLine
 10
183.0
 20
18.50000000000007
 30
0.0
 11
187.1961161351382
 21
18.50000000000007
 31
0.0
  0
LINE
  5
18B
330
1F
100
AcDbEntity
  8
1
  6
CONTINUOUS
 62
     7
100
AcDbLine
 10
40.37502379808488
 20
39.49980961532095
 30
0.0
 11
40.5000190384679
 21
38.49984769225679
 31
0.0
  0
LINE
  5
18C
330
1F
100
AcDbEntity
  8
1
  6
CONTINUOUS
 62
     7
100
AcDbLine
 10
40.21899131635269
 20
40.7480694691785
 30
0.0
 11
40.25002855770186
 21
40.49977153838513
 31
0.0
  0
ARC
  5
18D
330
1F
100
AcDbEntity
  8
1
  6
CONTINUOUS
 62
     7
100
AcDbCircle
 10
-31.76466245587414
 20
40.50144819367616
 30
0.0
 40
1.998552009863827
210
0.0
220
0.0
230
-1.0
100
AcDbArc
 50
29.96720834957049
 51
90.02585858035646
  0
LINE
  5
18E
330
1F
100
AcDbEntity
  8
1
  6
CONTINUOUS
 62
     7
100
AcDbLine
 10
29.74997144229814
 20
40.49977153838513
 30
0.0
 11
29.7810086836473
 21
40.7480694691785
 31
0.0
  0
LINE
  5
18F
330
1F
100
AcDbEntity
  8
1
  6
CONTINUOUS
 62
     7
100
AcDbLine
 10
67.63091814374597
 20
60.22618362874926
 30
0.0
 11
73.51451689227304
 21
61.40290337845467
 31
0.0
  0
LINE
  5
190
330
1F
100
AcDbEntity
  8
1
  6
CONTINUOUS
 62
     7
100
AcDbLine
 10
134.4644103316858
 20
33.50000000000007
 30
0.0
 11
133.0
 21
33.50000000000007
 31
0.0
  0
LINE
  5
191
330
1F
100
AcDbEntity
  8
1
  6
CONTINUOUS
 62
     7
100
AcDbLine
 10
131.1801572647951
 20
33.50000000000006
 30
0.0
 11
130.5
 21
33.50000000000006
 31
0.0
  0
LINE
  5
192
330
1F
100
AcDbEntity
  8
1
  6
CONTINUOUS
 62
     7
100
AcDbLine
 10
40.75000951923395
 20
36.49992384612844
 30
0.0
 11
40.87500475961697
 21
35.49996192306427
 31
0.0
  0
ARC
  5
193
330
1F
100
AcDbEntity
  8
1
  6
CONTINUOUS
 62
     7
100
AcDbCircle
 10
-125.5049024320361
 20
56.50000000000008
 30
0.0
 40
5.000000000000003
210
0.0
220
0.0
230
-1.0
100
AcDbArc
 50
90.11016317989896
 51
101.1997692941212
  0
LINE
  5
194
330
1F
100
AcDbEntity
  8
1
  6
CONTINUOUS
 62
     7
100
AcDbLine
 10
67.2292599999687
 20
59.75273692820807
 30
0.0
 11
67.22899524978298
 21
59.74025655865299
 31
0.0
  0
LINE
  5
195
330
1F
100
AcDbEntity
  8
1
  6
CONTINUOUS
 62
     7
100
AcDbLine
 10
29.4999809615321
 20
38.49984769225679
 30
0.0
 11
29.62497620191512
 21
39.49980961532095
 31
0.0
  0
LINE
  5
196
330
1F
100
AcDbEntity
  8
1
  6
CONTINUOUS
 62
     7
100
AcDbLine
 10
29.7810086836473
 20
40.7480694691785
 30
0.0
 11
30.03329402013383
 21
41.49973346144929
 31
0.0
  0
LINE
  5
197
330
1F
100
AcDbEntity
  8
1
  6
CONTINUOUS
 62
     7
100
AcDbLine
 10
29.62497620191512
 20
39.49980961532095
 30
0.0
 11
29.74997144229814
 21
40.49977153838513
 31
0.0
  0
LINE
  5
198
330
1F
100
AcDbEntity
  8
1
  6
CONTINUOUS
 62
     7
100
AcDbLine
 10
29.37498572114908
 20
37.49988576919261
 30
0.0
 11
29.4999809615321
 21
38.49984769225679
 31
0.0
  0
LINE
  5
199
330
1F
100
AcDbEntity
  8
1
  6
CONTINUOUS
 62
     7
100
AcDbLine
 10
29.24999048076605
 20
36.49992384612844
 30
0.0
 11
29.37498572114908
 21
37.49988576919261
 31
0.0
  0
LINE
  5
19A
330
1F
100
AcDbEntity
  8
1
  6
CONTINUOUS
 62
     7
100
AcDbLine
 10
74.49509756796395
 20
61.50000000000006
 30
0.0
 11
125.5049024320361
 21
61.50000000000008
 31
0.0
  0
LINE
  5
19B
330
1F
100
AcDbEntity
  8
1
  6
CONTINUOUS
 62
     7
100
AcDbLine
 10
28.99999999999998
 20
34.50000000000009
 30
0.0
 11
29.12499524038303
 21
35.49996192306427
 31
0.0
  0
LINE
  5
19C
330
1F
100
AcDbEntity
  8
1
  6
CONTINUOUS
 62
     7
100
AcDbLine
 10
29.12499524038303
 20
35.49996192306427
 30
0.0
 11
29.24999048076605
 21
36.49992384612844
 31
0.0
  0
LINE
  5
19D
330
1F
100
AcDbEntity
  8
1
  6
CONTINUOUS
 62
     7
100
AcDbLine
 10
170.875004759617
 20
35.49996192306427
 30
0.0
 11
170.750009519234
 21
36.49992384612844
 31
0.0
  0
LINE
  5
19E
330
1F
100
AcDbEntity
  8
1
  6
CONTINUOUS
 62
     7
100
AcDbLine
 10
160.0333406700671
 20
41.4997334614493
 30
0.0
 11
159.7810086836474
 21
40.7480694691785
 31
0.0
  0
LINE
  5
19F
330
1F
100
AcDbEntity
  8
1
  6
CONTINUOUS
 62
     7
100
AcDbLine
 10
159.3749857211491
 20
37.49988576919261
 30
0.0
 11
159.2499904807661
 21
36.49992384612844
 31
0.0
  0
LINE
  5
1A0
330
1F
100
AcDbEntity
  8
1
  6
CONTINUOUS
 62
     7
100
AcDbLine
 10
39.00000000000001
 20
34.50000000000009
 30
0.0
 11
39.0
 21
35.49996192306429
 31
0.0
  0
LINE
  5
1A1
330
1F
100
AcDbEntity
  8
1
  6
CONTINUOUS
 62
     7
100
AcDbLine
 10
169.0
 20
34.50000000000005
 30
0.0
 11
169.0
 21
35.49996192306428
 31
0.0
  0
LINE
  5
1A2
330
1F
100
AcDbEntity
  8
1
  6
CONTINUOUS
 62
     7
100
AcDbLine
 10
170.2500285577019
 20
40.49977153838513
 30
0.0
 11
170.2189913163528
 21
40.7480694691785
 31
0.0
  0
LINE
  5
1A3
330
1F
100
AcDbEntity
  8
1
  6
CONTINUOUS
 62
     7
100
AcDbLine
 10
31.00000000000001
 20
34.50000000000005
 30
0.0
 11
31.00000000000003
 21
35.49996192306428
 31
0.0
  0
LINE
  5
1A4
330
1F
100
AcDbEntity
  8
1
  6
CONTINUOUS
 62
     7
100
AcDbLine
 10
170.625014278851
 20
37.49988576919261
 30
0.0
 11
170.500019038468
 21
38.49984769225679
 31
0.0
  0
LINE
  5
1A5
330
1F
100
AcDbEntity
  8
1
  6
CONTINUOUS
 62
     7
100
AcDbLine
 10
170.500019038468
 20
38.49984769225679
 30
0.0
 11
170.375023798085
 21
39.49980961532096
 31
0.0
  0
LINE
  5
1A6
330
1F
100
AcDbEntity
  8
1
  6
CONTINUOUS
 62
     7
100
AcDbLine
 10
183.0000000000001
 20
33.50000000000007
 30
0.0
 11
169.0
 21
33.50000000000004
 31
0.0
  0
LINE
  5
1A7
330
1F
100
AcDbEntity
  8
1
  6
CONTINUOUS
 62
     7
100
AcDbLine
 10
39.00000000000003
 20
33.50000000000008
 30
0.0
 11
49.92893218813453
 21
33.50000000000007
 31
0.0
  0
LINE
  5
1A8
330
1F
100
AcDbEntity
  8
1
  6
CONTINUOUS
 62
     7
100
AcDbLine
 10
39.00000000000003
 20
33.50000000000008
 30
0.0
 11
39.00000000000001
 21
34.50000000000009
 31
0.0
  0
LINE
  5
1A9
330
1F
100
AcDbEntity
  8
1
  6
CONTINUOUS
 62
     7
100
AcDbLine
 10
159.6249762019152
 20
39.49980961532096
 30
0.0
 11
159.4999809615322
 21
38.49984769225679
 31
0.0
  0
LINE
  5
1AA
330
1F
100
AcDbEntity
  8
1
  6
CONTINUOUS
 62
     7
100
AcDbLine
 10
17.00000000000001
 20
33.50000000000007
 30
0.0
 11
12.80389133236337
 21
33.50000000000007
 31
0.0
  0
ARC
  5
1AB
330
1F
100
AcDbEntity
  8
1
  6
CONTINUOUS
 62
     7
100
AcDbCircle
 10
-38.23539096435346
 20
40.50162145041821
 30
0.0
 40
1.99837877796499
210
0.0
220
0.0
230
-1.0
100
AcDbArc
 50
89.97260755955817
 51
150.0356618835661
  0
LINE
  5
1AC
330
1F
100
AcDbEntity
  8
1
  6
CONTINUOUS
 62
     7
100
AcDbLine
 10
159.4999809615322
 20
38.49984769225679
 30
0.0
 11
159.3749857211491
 21
37.49988576919261
 31
0.0
  0
LINE
  5
1AD
330
1F
100
AcDbEntity
  8
1
  6
CONTINUOUS
 62
     7
100
AcDbLine
 10
170.750009519234
 20
36.49992384612844
 30
0.0
 11
170.625014278851
 21
37.49988576919261
 31
0.0
  0
LINE
  5
1AE
330
1F
100
AcDbEntity
  8
1
  6
CONTINUOUS
 62
     7
100
AcDbLine
 10
168.2344355629254
 20
42.50000000000009
 30
0.0
 11
161.7655644370747
 21
42.50000000000009
 31
0.0
  0
LINE
  5
1AF
330
1F
100
AcDbEntity
  8
1
  6
CONTINUOUS
 62
     7
100
AcDbLine
 10
159.0000000000001
 20
34.5000000000001
 30
0.0
 11
161.0000000000001
 21
34.50000000000009
 31
0.0
  0
LINE
  5
1B0
330
1F
100
AcDbEntity
  8
1
  6
CONTINUOUS
 62
     7
100
AcDbLine
 10
17.00000000000001
 20
33.50000000000007
 30
0.0
 11
31.00000000000003
 21
33.50000000000004
 31
0.0
  0
LINE
  5
1B1
330
1F
100
AcDbEntity
  8
1
  6
CONTINUOUS
 62
     7
100
AcDbLine
 10
31.00000000000003
 20
33.50000000000004
 30
0.0
 11
31.00000000000001
 21
34.50000000000005
 31
0.0
  0
LINE
  5
1B2
330
1F
100
AcDbEntity
  8
1
  6
CONTINUOUS
 62
     7
100
AcDbLine
 10
170.2189913163528
 20
40.7480694691785
 30
0.0
 11
169.9667059798662
 21
41.4997334614493
 31
0.0
  0
LINE
  5
1B3
330
1F
100
AcDbEntity
  8
1
  6
CONTINUOUS
 62
     7
100
AcDbLine
 10
170.375023798085
 20
39.49980961532096
 30
0.0
 11
170.2500285577019
 21
40.49977153838513
 31
0.0
  0
LINE
  5
1B4
330
1F
100
AcDbEntity
  8
1
  6
CONTINUOUS
 62
     7
100
AcDbLine
 10
159.7810086836474
 20
40.7480694691785
 30
0.0
 11
159.7499714422982
 21
40.49977153838513
 31
0.0
  0
LINE
  5
1B5
330
1F
100
AcDbEntity
  8
1
  6
CONTINUOUS
 62
     7
100
AcDbLine
 10
159.7499714422982
 20
40.49977153838513
 30
0.0
 11
159.6249762019152
 21
39.49980961532096
 31
0.0
  0
LINE
  5
1B6
330
1F
100
AcDbEntity
  8
1
  6
CONTINUOUS
 62
     7
100
AcDbLine
 10
169.0
 20
33.50000000000004
 30
0.0
 11
169.0
 21
34.50000000000005
 31
0.0
  0
LINE
  5
1B7
330
1F
100
AcDbEntity
  8
1
  6
CONTINUOUS
 62
     7
100
AcDbLine
 10
161.0
 20
33.50000000000008
 30
0.0
 11
161.0000000000001
 21
34.50000000000009
 31
0.0
  0
LINE
  5
1B8
330
1F
100
AcDbEntity
  8
1
  6
CONTINUOUS
 62
     7
100
AcDbLine
 10
159.2499904807661
 20
36.49992384612844
 30
0.0
 11
159.1249952403831
 21
35.49996192306427
 31
0.0
  0
ARC
  5
1B9
330
1F
100
AcDbEntity
  8
1
  6
CONTINUOUS
 62
     7
100
AcDbCircle
 10
168.235337544126
 20
40.50144819367625
 30
0.0
 40
1.998552009863741
100
AcDbArc
 50
29.9672083495694
 51
90.02585858035805
  0
ARC
  5
1BA
330
1F
100
AcDbEntity
  8
1
  6
CONTINUOUS
 62
     7
100
AcDbCircle
 10
161.7646090356467
 20
40.50162145041815
 30
0.0
 40
1.998378777965052
100
AcDbArc
 50
89.97260755955998
 51
150.0356618835652
  0
LINE
  5
1BB
330
1F
100
AcDbEntity
  8
1
  6
CONTINUOUS
 62
     7
100
AcDbLine
 10
161.0
 20
33.50000000000008
 30
0.0
 11
150.0710678118655
 21
33.50000000000007
 31
0.0
  0
LINE
  5
1BC
330
1F
100
AcDbEntity
  8
1
  6
CONTINUOUS
 62
     7
100
AcDbLine
 10
169.0
 20
34.50000000000005
 30
0.0
 11
171.0000000000001
 21
34.5000000000001
 31
0.0
  0
LINE
  5
1BD
330
1F
100
AcDbEntity
  8
1
  6
CONTINUOUS
 62
     7
100
AcDbLine
 10
171.0000000000001
 20
34.5000000000001
 30
0.0
 11
170.875004759617
 21
35.49996192306427
 31
0.0
  0
LINE
  5
1BE
330
1F
100
AcDbEntity
  8
1
  6
CONTINUOUS
 62
     7
100
AcDbLine
 10
159.1249952403831
 20
35.49996192306427
 30
0.0
 11
159.0000000000001
 21
34.5000000000001
 31
0.0
  0
LINE
  5
1BF
330
1F
100
AcDbEntity
  8
1
  6
CONTINUOUS
 62
     7
100
AcDbLine
 10
183.0000000000001
 20
33.50000000000007
 30
0.0
 11
187.1961086676367
 21
33.50000000000007
 31
0.0
  0
LINE
  5
1C0
330
1F
100
AcDbEntity
  8
1
  6
CONTINUOUS
 62
     7
100
AcDbLine
 10
12.00000000000007
 20
58.65289603961195
 30
0.0
 11
12.00000000000007
 21
59.60402724067166
 31
0.0
  0
LINE
  5
1C1
330
1F
100
AcDbEntity
  8
1
  6
CONTINUOUS
 62
     7
100
AcDbLine
 10
12.80388386486188
 20
60.66077677297242
 30
0.0
 11
16.99995378983272
 21
61.49999075796659
 31
0.0
  0
LINE
  5
1C2
330
1F
100
AcDbEntity
  8
1
  6
CONTINUOUS
 62
     7
100
AcDbLine
 10
49.92893218813452
 20
139.4561038152841
 30
0.0
 11
39.00000000000003
 21
139.4561038152841
 31
0.0
  0
ARC
  5
1C3
330
1F
100
AcDbEntity
  8
1
  6
CONTINUOUS
 62
     7
100
AcDbCircle
 10
68.81980390271856
 20
85.45610381528405
 30
0.0
 40
1.000000000000001
100
AcDbArc
 50
268.1500553297796
 51
270.0
  0
LINE
  5
1C4
330
1F
100
AcDbEntity
  8
1
  6
CONTINUOUS
 62
     7
100
AcDbLine
 10
12.80389133236337
 20
33.50000000000007
 30
0.0
 11
12.00000000000007
 21
33.50000000000007
 31
0.0
  0
LINE
  5
1C5
330
1F
100
AcDbEntity
  8
1
  6
CONTINUOUS
 62
     7
100
AcDbLine
 10
29.24999048076605
 20
36.49992384612844
 30
0.0
 11
40.75000951923395
 21
36.49992384612844
 31
0.0
  0
ARC
  5
1C6
330
1F
100
AcDbEntity
  8
1
  6
CONTINUOUS
 62
     7
100
AcDbCircle
 10
187.0
 20
59.68019609728152
 30
0.0
 40
1.000000000000001
100
AcDbArc
 50
0.0
 51
78.69006752597956
  0
LINE
  5
1C7
330
1F
100
AcDbEntity
  8
1
  6
CONTINUOUS
 62
     7
100
AcDbLine
 10
67.0
 20
103.456103815284
 30
0.0
 11
67.0
 21
111.456103815284
 31
0.0
  0
LINE
  5
1C8
330
1F
100
AcDbEntity
  8
1
  6
CONTINUOUS
 62
     7
100
AcDbLine
 10
12.00000000000007
 20
59.68019609728152
 30
0.0
 11
12.00000000000007
 21
59.60402724067168
 31
0.0
  0
ARC
  5
1C9
330
1F
100
AcDbEntity
  8
1
  6
CONTINUOUS
 62
     7
100
AcDbCircle
 10
13.00000000000001
 20
141.2759077180026
 30
0.0
 40
1.000000000000001
100
AcDbArc
 50
180.0
 51
256.8440088305354
  0
ARC
  5
1CA
330
1F
100
AcDbEntity
  8
1
  6
CONTINUOUS
 62
     7
100
AcDbCircle
 10
-187.0
 20
141.2759077180026
 30
0.0
 40
1.000000000000001
210
0.0
220
0.0
230
-1.0
100
AcDbArc
 50
180.0
 51
256.8440088306031
  0
LINE
  5
1CB
330
1F
100
AcDbEntity
  8
1
  6
CONTINUOUS
 62
     7
100
AcDbLine
 10
150.0710678118655
 20
139.4561038152841
 30
0.0
 11
161.0
 21
139.4561038152841
 31
0.0
  0
ARC
  5
1CC
330
1F
100
AcDbEntity
  8
1
  6
CONTINUOUS
 62
     7
100
AcDbCircle
 10
68.81980390271856
 20
85.45610381528405
 30
0.0
 40
0.9999999999999989
100
AcDbArc
 50
191.3099324740204
 51
268.1500553297795
  0
LINE
  5
1CD
330
1F
100
AcDbEntity
  8
1
  6
CONTINUOUS
 62
     7
100
AcDbLine
 10
29.37498572114908
 20
37.49988576919261
 30
0.0
 11
40.62501427885093
 21
37.49988576919261
 31
0.0
  0
LINE
  5
1CE
330
1F
100
AcDbEntity
  8
1
  6
CONTINUOUS
 62
     7
100
AcDbLine
 10
39.00000000000003
 20
139.4561038152841
 30
0.0
 11
31.00000000000003
 21
139.4561038152841
 31
0.0
  0
LINE
  5
1CF
330
1F
100
AcDbEntity
  8
1
  6
CONTINUOUS
 62
     7
100
AcDbLine
 10
29.62497620191512
 20
39.49980961532095
 30
0.0
 11
40.37502379808488
 21
39.49980961532095
 31
0.0
  0
LINE
  5
1D0
330
1F
100
AcDbEntity
  8
1
  6
CONTINUOUS
 62
     7
100
AcDbLine
 10
187.1961086676367
 20
33.50000000000007
 30
0.0
 11
188.0
 21
33.50000000000007
 31
0.0
  0
ARC
  5
1D1
330
1F
100
AcDbEntity
  8
1
  6
CONTINUOUS
 62
     7
100
AcDbCircle
 10
-13.00000000000007
 20
59.6801960972815
 30
0.0
 40
1.000000000000001
210
0.0
220
0.0
230
-1.0
100
AcDbArc
 50
0.0
 51
78.69006752597956
  0
LINE
  5
1D2
330
1F
100
AcDbEntity
  8
1
  6
CONTINUOUS
 62
     7
100
AcDbLine
 10
187.1961161351382
 20
60.66077677297243
 30
0.0
 11
183.0000462101673
 21
61.49999075796661
 31
0.0
  0
LINE
  5
1D3
330
1F
100
AcDbEntity
  8
1
  6
CONTINUOUS
 62
     7
100
AcDbLine
 10
161.0
 20
139.4561038152841
 30
0.0
 11
169.0
 21
139.4561038152841
 31
0.0
  0
LINE
  5
1D4
330
1F
100
AcDbEntity
  8
1
  6
CONTINUOUS
 62
     7
100
AcDbLine
 10
169.0
 20
139.4561038152841
 30
0.0
 11
183.0
 21
139.4561038152841
 31
0.0
  0
LINE
  5
1D5
330
1F
100
AcDbEntity
  8
1
  6
CONTINUOUS
 62
     7
100
AcDbLine
 10
188.0
 20
58.65289603961195
 30
0.0
 11
188.0
 21
59.60402724067168
 31
0.0
  0
LINE
  5
1D6
330
1F
100
AcDbEntity
  8
1
  6
CONTINUOUS
 62
     7
100
AcDbLine
 10
12.00000000000007
 20
33.50000000000007
 30
0.0
 11
12.00000000000007
 21
58.65289603961195
 31
0.0
  0
LINE
  5
1D7
330
1F
100
AcDbEntity
  8
1
  6
CONTINUOUS
 62
     7
100
AcDbLine
 10
67.0
 20
89.45610381528404
 30
0.0
 11
67.0
 21
103.456103815284
 31
0.0
  0
LINE
  5
1D8
330
1F
100
AcDbEntity
  8
1
  6
CONTINUOUS
 62
     7
100
AcDbLine
 10
17.00000000000007
 20
61.50000000000006
 30
0.0
 11
55.10457106396028
 21
61.50000000000006
 31
0.0
  0
ARC
  5
1D9
330
1F
100
AcDbEntity
  8
1
  6
CONTINUOUS
 62
     7
100
AcDbCircle
 10
-62.0
 20
122.3850360034186
 30
0.0
 40
4.999999999999999
210
0.0
220
0.0
230
-1.0
100
AcDbArc
 50
135.0000000000001
 51
180.0
  0
LINE
  5
1DA
330
1F
100
AcDbEntity
  8
1
  6
CONTINUOUS
 62
     7
100
AcDbLine
 10
29.4999809615321
 20
38.49984769225679
 30
0.0
 11
40.5000190384679
 21
38.49984769225679
 31
0.0
  0
LINE
  5
1DB
330
1F
100
AcDbEntity
  8
1
  6
CONTINUOUS
 62
     7
100
AcDbLine
 10
29.74997144229814
 20
40.49977153838513
 30
0.0
 11
40.25002855770186
 21
40.49977153838513
 31
0.0
  0
LINE
  5
1DC
330
1F
100
AcDbEntity
  8
1
  6
CONTINUOUS
 62
     7
100
AcDbLine
 10
183.0
 20
61.50000000000008
 30
0.0
 11
144.8954289360398
 21
61.50000000000008
 31
0.0
  0
LINE
  5
1DD
330
1F
100
AcDbEntity
  8
1
  6
CONTINUOUS
 62
     7
100
AcDbLine
 10
67.0
 20
111.456103815284
 30
0.0
 11
67.0
 21
122.3850360034186
 31
0.0
  0
LINE
  5
1DE
330
1F
100
AcDbEntity
  8
1
  6
CONTINUOUS
 62
     7
100
AcDbLine
 10
12.80388386486182
 20
140.2953270423117
 30
0.0
 11
17.00000000000001
 21
139.456103815284
 31
0.0
  0
ARC
  5
1DF
330
1F
100
AcDbEntity
  8
1
  6
CONTINUOUS
 62
     7
100
AcDbCircle
 10
13.00000000000001
 20
141.2759077180026
 30
0.0
 40
0.9999999999999996
100
AcDbArc
 50
256.8440088305354
 51
258.6900675259795
  0
ARC
  5
1E0
330
1F
100
AcDbEntity
  8
1
  6
CONTINUOUS
 62
     7
100
AcDbCircle
 10
-187.0
 20
141.2759077180026
 30
0.0
 40
1.0
210
0.0
220
0.0
230
-1.0
100
AcDbArc
 50
256.8440088306031
 51
258.6900675259795
  0
ARC
  5
1E1
330
1F
100
AcDbEntity
  8
1
  6
CONTINUOUS
 62
     7
100
AcDbCircle
 10
150.0710678118655
 20
134.4561038152841
 30
0.0
 40
4.999999999999998
100
AcDbArc
 50
90.00000000000001
 51
135.0000000000001
  0
LINE
  5
1E2
330
1F
100
AcDbEntity
  8
1
  6
CONTINUOUS
 62
     7
100
AcDbLine
 10
67.0
 20
89.45610381528404
 30
0.0
 11
67.83922322702765
 21
85.25998768014587
 31
0.0
  0
ARC
  5
1E3
330
1F
100
AcDbEntity
  8
1
  6
CONTINUOUS
 62
     7
100
AcDbCircle
 10
138.0
 20
122.3850360034186
 30
0.0
 40
4.999999999999999
100
AcDbArc
 50
135.0000000000001
 51
151.1446072717808
  0
ARC
  5
1E4
330
1F
100
AcDbEntity
  8
1
  6
CONTINUOUS
 62
     7
100
AcDbCircle
 10
138.0
 20
122.3850360034186
 30
0.0
 40
5.000000000000002
100
AcDbArc
 50
163.8553927218497
 51
180.0
  0
LINE
  5
1E5
330
1F
100
AcDbEntity
  8
1
  6
CONTINUOUS
 62
     7
100
AcDbLine
 10
133.0
 20
89.45610381528405
 30
0.0
 11
133.0
 21
103.456103815284
 31
0.0
  0
LINE
  5
1E6
330
1F
100
AcDbEntity
  8
1
  6
CONTINUOUS
 62
     7
100
AcDbLine
 10
133.0
 20
103.456103815284
 30
0.0
 11
133.0
 21
111.4561038152841
 31
0.0
  0
LINE
  5
1E7
330
1F
100
AcDbEntity
  8
1
  6
CONTINUOUS
 62
     7
100
AcDbLine
 10
170.625014278851
 20
37.49988576919261
 30
0.0
 11
159.3749857211491
 21
37.49988576919261
 31
0.0
  0
LINE
  5
1E8
330
1F
100
AcDbEntity
  8
1
  6
CONTINUOUS
 62
     7
100
AcDbLine
 10
188.0
 20
33.50000000000007
 30
0.0
 11
188.0
 21
58.65289603961195
 31
0.0
  0
LINE
  5
1E9
330
1F
100
AcDbEntity
  8
1
  6
CONTINUOUS
 62
     7
100
AcDbLine
 10
31.00000000000003
 20
139.4561038152841
 30
0.0
 11
17.00000000000001
 21
139.4561038152841
 31
0.0
  0
LINE
  5
1EA
330
1F
100
AcDbEntity
  8
1
  6
CONTINUOUS
 62
     7
100
AcDbLine
 10
133.0
 20
111.4561038152841
 30
0.0
 11
133.0
 21
122.3850360034186
 31
0.0
  0
LINE
  5
1EB
330
1F
100
AcDbEntity
  8
1
  6
CONTINUOUS
 62
     7
100
AcDbLine
 10
133.0
 20
89.45610381528405
 30
0.0
 11
132.1607767729724
 21
85.25998768014587
 31
0.0
  0
LINE
  5
1EC
330
1F
100
AcDbEntity
  8
1
  6
CONTINUOUS
 62
     7
100
AcDbLine
 10
188.0
 20
59.68019609728155
 30
0.0
 11
188.0
 21
59.60402724067172
 31
0.0
  0
ARC
  5
1ED
330
1F
100
AcDbEntity
  8
1
  6
CONTINUOUS
 62
     7
100
AcDbCircle
 10
-131.1801960972814
 20
85.45610381528405
 30
0.0
 40
0.9999999999999989
210
0.0
220
0.0
230
-1.0
100
AcDbArc
 50
191.3099324740204
 51
239.9516260944962
  0
ARC
  5
1EE
330
1F
100
AcDbEntity
  8
1
  6
CONTINUOUS
 62
     7
100
AcDbCircle
 10
-131.1801960972814
 20
85.45610381528405
 30
0.0
 40
0.9999999999999929
210
0.0
220
0.0
230
-1.0
100
AcDbArc
 50
239.9516260944962
 51
270.0
  0
LINE
  5
1EF
330
1F
100
AcDbEntity
  8
1
  6
CONTINUOUS
 62
     7
100
AcDbLine
 10
17.0
 20
205.4561038152841
 30
0.0
 11
12.80388386486181
 21
204.6168805882564
 31
0.0
  0
ARC
  5
1F0
330
1F
100
AcDbEntity
  8
1
  6
CONTINUOUS
 62
     7
100
AcDbCircle
 10
138.0
 20
122.3850360034186
 30
0.0
 40
4.999999999999998
100
AcDbArc
 50
151.1446072717808
 51
163.8553927218499
  0
ARC
  5
1F1
330
1F
100
AcDbEntity
  8
1
  6
CONTINUOUS
 62
     7
100
AcDbCircle
 10
13.0
 20
203.6362999125655
 30
0.0
 40
1.000000000000009
100
AcDbArc
 50
101.3099324740203
 51
178.1500553295284
  0
ARC
  5
1F2
330
1F
100
AcDbEntity
  8
1
  6
CONTINUOUS
 62
     7
100
AcDbCircle
 10
-49.92893218813452
 20
134.4561038152841
 30
0.0
 40
5.000000000000001
210
0.0
220
0.0
230
-1.0
100
AcDbArc
 50
118.8553927461463
 51
135.0000000000001
  0
LINE
  5
1F3
330
1F
100
AcDbEntity
  8
1
  6
CONTINUOUS
 62
     7
100
AcDbLine
 10
17.0
 20
205.4561038152841
 30
0.0
 11
31.00000000000001
 21
205.4561038152841
 31
0.0
  0
LINE
  5
1F4
330
1F
100
AcDbEntity
  8
1
  6
CONTINUOUS
 62
     7
100
AcDbLine
 10
170.2500285577019
 20
40.49977153838513
 30
0.0
 11
159.7499714422982
 21
40.49977153838513
 31
0.0
  0
LINE
  5
1F5
330
1F
100
AcDbEntity
  8
1
  6
CONTINUOUS
 62
     7
100
AcDbLine
 10
31.00000000000001
 20
205.4561038152841
 30
0.0
 11
39.00000000000002
 21
205.4561038152841
 31
0.0
  0
ARC
  5
1F6
330
1F
100
AcDbEntity
  8
1
  6
CONTINUOUS
 62
     7
100
AcDbCircle
 10
-49.92893218813452
 20
134.4561038152841
 30
0.0
 40
5.000000000000001
210
0.0
220
0.0
230
-1.0
100
AcDbArc
 50
106.1446072538113
 51
118.8553927461463
  0
LINE
  5
1F7
330
1F
100
AcDbEntity
  8
1
  6
CONTINUOUS
 62
     7
100
AcDbLine
 10
53.46446609406726
 20
137.9916377212168
 30
0.0
 11
65.53553390593274
 21
125.9205699093513
 31
0.0
  0
LINE
  5
1F8
330
1F
100
AcDbEntity
  8
1
  6
CONTINUOUS
 62
     7
100
AcDbLine
 10
146.5355339059327
 20
137.9916377212168
 30
0.0
 11
134.4644660940673
 21
125.9205699093513
 31
0.0
  0
LINE
  5
1F9
330
1F
100
AcDbEntity
  8
1
  6
CONTINUOUS
 62
     7
100
AcDbLine
 10
170.875004759617
 20
35.49996192306427
 30
0.0
 11
159.1249952403831
 21
35.49996192306427
 31
0.0
  0
LINE
  5
1FA
330
1F
100
AcDbEntity
  8
1
  6
CONTINUOUS
 62
     7
100
AcDbLine
 10
161.0000000000001
 20
34.50000000000009
 30
0.0
 11
161.0000000000001
 21
35.49996192306429
 31
0.0
  0
LINE
  5
1FB
330
1F
100
AcDbEntity
  8
1
  6
CONTINUOUS
 62
     7
100
AcDbLine
 10
29.12499524038303
 20
35.49996192306427
 30
0.0
 11
40.87500475961697
 21
35.49996192306427
 31
0.0
  0
LINE
  5
1FC
330
1F
100
AcDbEntity
  8
1
  6
CONTINUOUS
 62
     7
100
AcDbLine
 10
170.750009519234
 20
36.49992384612844
 30
0.0
 11
159.2499904807661
 21
36.49992384612844
 31
0.0
  0
LINE
  5
1FD
330
1F
100
AcDbEntity
  8
1
  6
CONTINUOUS
 62
     7
100
AcDbLine
 10
170.375023798085
 20
39.49980961532096
 30
0.0
 11
159.6249762019152
 21
39.49980961532096
 31
0.0
  0
ARC
  5
1FE
330
1F
100
AcDbEntity
  8
1
  6
CONTINUOUS
 62
     7
100
AcDbCircle
 10
-49.92893218813452
 20
134.4561038152841
 30
0.0
 40
5.000000000000001
210
0.0
220
0.0
230
-1.0
100
AcDbArc
 50
90.0
 51
106.1446072538114
  0
LINE
  5
1FF
330
1F
100
AcDbEntity
  8
1
  6
CONTINUOUS
 62
     7
100
AcDbLine
 10
170.500019038468
 20
38.49984769225679
 30
0.0
 11
159.4999809615322
 21
38.49984769225679
 31
0.0
  0
LINE
  5
200
330
1F
100
AcDbEntity
  8
1
  6
CONTINUOUS
 62
     7
100
AcDbLine
 10
12.00000000000007
 20
147.0246863987471
 30
0.0
 11
12.00000000000007
 21
146.2554556295163
 31
0.0
  0
LINE
  5
201
330
1F
100
AcDbEntity
  8
1
  6
CONTINUOUS
 62
     7
100
AcDbLine
 10
125.431417416537
 20
84.45610381528412
 30
0.0
 11
74.56858258346307
 21
84.45610381528405
 31
0.0
  0
LINE
  5
202
330
1F
100
AcDbEntity
  8
1
  6
CONTINUOUS
 62
     7
100
AcDbLine
 10
126.2006481857678
 20
84.45610381528412
 30
0.0
 11
130.9563041910664
 21
84.45610381528412
 31
0.0
  0
LINE
  5
203
330
1F
100
AcDbEntity
  8
1
  6
CONTINUOUS
 62
     7
100
AcDbLine
 10
12.00000000000007
 20
141.4997996242177
 30
0.0
 11
12.00000000000007
 21
146.2554556295163
 31
0.0
  0
LINE
  5
204
330
1F
100
AcDbEntity
  8
1
  6
CONTINUOUS
 62
     7
100
AcDbLine
 10
67.83922173352735
 20
85.25999514764736
 30
0.0
 11
67.00000000000001
 21
89.45610381528404
 31
0.0
  0
ELLIPSE
  5
205
330
1F
100
AcDbEntity
  8
1
  6
CONTINUOUS
 62
     7
100
AcDbEllipse
 10
138.0001903919287
 20
122.3849571404996
 30
0.0
 11
-4.619603740621899
 21
1.913502522155067
 31
0.0
210
0.0
220
0.0
230
-1.0
 40
0.999955390531953
 41
0.1109254601034056
 42
0.3926833097670098
  0
ELLIPSE
  5
206
330
1F
100
AcDbEntity
  8
1
  6
CONTINUOUS
 62
     7
100
AcDbEllipse
 10
150.0711466747846
 20
134.4559134233554
 30
0.0
 11
1.91350252215507
 21
-4.619603740621886
 31
0.0
210
0.0
220
0.0
230
-1.0
 40
0.9999553905319527
 41
2.748909343822787
 42
3.534275963356796
  0
ELLIPSE
  5
207
330
1F
100
AcDbEntity
  8
1
  6
CONTINUOUS
 62
     7
100
AcDbEllipse
 10
49.9288533252155
 20
134.4559134233554
 30
0.0
 11
-1.913502522155068
 21
-4.619603740621892
 31
0.0
210
0.0
220
0.0
230
1.0
 40
0.999955390531953
 41
2.748909343822787
 42
3.0306671931735
  0
LINE
  5
208
330
1F
100
AcDbEntity
  8
1
  6
CONTINUOUS
 62
     7
100
AcDbLine
 10
134.4644660940673
 20
125.9205699093513
 30
0.0
 11
146.5355339059327
 21
137.9916377212168
 31
0.0
  0
LINE
  5
209
330
1F
100
AcDbEntity
  8
1
  6
CONTINUOUS
 62
     7
100
AcDbLine
 10
12.00000000000007
 20
147.0246863987471
 30
0.0
 11
12.00000000000007
 21
197.887521231821
 31
0.0
  0
ARC
  5
20A
330
1F
100
AcDbEntity
  8
1
  6
CONTINUOUS
 62
     7
100
AcDbCircle
 10
-187.0
 20
203.6362999125655
 30
0.0
 40
1.000000000000009
210
0.0
220
0.0
230
-1.0
100
AcDbArc
 50
101.3099324740203
 51
178.1500553299178
  0
LINE
  5
20B
330
1F
100
AcDbEntity
  8
1
  6
CONTINUOUS
 62
     7
100
AcDbLine
 10
133.0
 20
122.3850360034185
 30
0.0
 11
133.0000000000002
 21
111.456103815284
 31
0.0
  0
LINE
  5
20C
330
1F
100
AcDbEntity
  8
1
  6
CONTINUOUS
 62
     7
100
AcDbLine
 10
126.2006481857678
 20
84.45610381528412
 30
0.0
 11
125.431417416537
 21
84.45610381528412
 31
0.0
  0
LINE
  5
20D
330
1F
100
AcDbEntity
  8
1
  6
CONTINUOUS
 62
     7
100
AcDbLine
 10
132.1607782664726
 20
85.25999514764743
 30
0.0
 11
133.0
 21
89.4561038152841
 31
0.0
  0
LINE
  5
20E
330
1F
100
AcDbEntity
  8
1
  6
CONTINUOUS
 62
     7
100
AcDbLine
 10
169.0
 20
205.456103815284
 30
0.0
 11
183.0000000000001
 21
205.456103815284
 31
0.0
  0
LINE
  5
20F
330
1F
100
AcDbEntity
  8
1
  6
CONTINUOUS
 62
     7
100
AcDbLine
 10
31.00000000000001
 20
205.4561038152841
 30
0.0
 11
16.99999999999997
 21
205.4561038152841
 31
0.0
  0
LINE
  5
210
330
1F
100
AcDbEntity
  8
1
  6
CONTINUOUS
 62
     7
100
AcDbLine
 10
67.00000000000001
 20
122.3850360034186
 30
0.0
 11
66.99999999999982
 21
111.456103815284
 31
0.0
  0
LINE
  5
211
330
1F
100
AcDbEntity
  8
1
  6
CONTINUOUS
 62
     7
100
AcDbLine
 10
67.00872686779078
 20
113.4561038152841
 30
0.0
 11
67.00872686779059
 21
111.456103815284
 31
0.0
  0
LINE
  5
212
330
1F
100
AcDbEntity
  8
1
  6
CONTINUOUS
 62
     7
100
AcDbLine
 10
67.01745340328915
 20
113.3311085749011
 30
0.0
 11
67.00872686779077
 21
113.4561038152841
 31
0.0
  0
LINE
  5
213
330
1F
100
AcDbEntity
  8
1
  6
CONTINUOUS
 62
     7
100
AcDbLine
 10
66.99999999999982
 20
111.456103815284
 30
0.0
 11
67.00872686779059
 21
111.456103815284
 31
0.0
  0
ELLIPSE
  5
214
330
1F
100
AcDbEntity
  8
1
  6
CONTINUOUS
 62
     7
100
AcDbEllipse
 10
131.1801572647951
 20
85.45610381528412
 30
0.0
 11
-1.000039601491012
 21
0.0
 31
0.0
210
0.0
220
0.0
230
1.0
 40
0.999960400077206
 41
1.570796326794897
 42
2.09525655078747
  0
LINE
  5
215
330
1F
100
AcDbEntity
  8
1
  6
CONTINUOUS
 62
     7
100
AcDbLine
 10
183.0000000000001
 20
139.4561038152841
 30
0.0
 11
169.0
 21
139.4561038152841
 31
0.0
  0
ELLIPSE
  5
216
330
1F
100
AcDbEntity
  8
1
  6
CONTINUOUS
 62
     7
100
AcDbEllipse
 10
68.81984273520497
 20
85.45610381528405
 30
0.0
 11
1.000039601491008
 21
0.0
 31
0.0
210
0.0
220
0.0
230
-1.0
 40
0.9999604000772095
 41
1.570796326794897
 42
2.94420470912128
  0
LINE
  5
217
330
1F
100
AcDbEntity
  8
1
  6
CONTINUOUS
 62
     7
100
AcDbLine
 10
73.79935181423228
 20
84.45610381528405
 30
0.0
 11
74.56858258346305
 21
84.45610381528405
 31
0.0
  0
LINE
  5
218
330
1F
100
AcDbEntity
  8
1
  6
CONTINUOUS
 62
     7
100
AcDbLine
 10
183.0000000000001
 20
139.4561038152841
 30
0.0
 11
187.1961086676367
 21
140.2953255488114
 31
0.0
  0
LINE
  5
219
330
1F
100
AcDbEntity
  8
1
  6
CONTINUOUS
 62
     7
100
AcDbLine
 10
12.80389133236336
 20
204.6168820817567
 30
0.0
 11
16.99999999999997
 21
205.4561038152841
 31
0.0
  0
ELLIPSE
  5
21A
330
1F
100
AcDbEntity
  8
1
  6
CONTINUOUS
 62
     7
100
AcDbEllipse
 10
138.0001903919287
 20
122.3849571404996
 30
0.0
 11
-4.619603740621899
 21
1.913502522155067
 31
0.0
210
0.0
220
0.0
230
-1.0
 40
0.999955390531953
 41
5.890501997412576
 42
6.172259847187344
  0
LINE
  5
21B
330
1F
100
AcDbEntity
  8
1
  6
CONTINUOUS
 62
     7
100
AcDbLine
 10
133.0000000000003
 20
103.456103815284
 30
0.0
 11
133.0
 21
89.4561038152841
 31
0.0
  0
LINE
  5
21C
330
1F
100
AcDbEntity
  8
1
  6
CONTINUOUS
 62
     7
100
AcDbLine
 10
161.0
 20
139.4561038152841
 30
0.0
 11
150.0710678118655
 21
139.4561038152841
 31
0.0
  0
LINE
  5
21D
330
1F
100
AcDbEntity
  8
1
  6
CONTINUOUS
 62
     7
100
AcDbLine
 10
39.00000000000002
 20
139.4561038152841
 30
0.0
 11
49.92893218813454
 21
139.4561038152841
 31
0.0
  0
ELLIPSE
  5
21E
330
1F
100
AcDbEntity
  8
1
  6
CONTINUOUS
 62
     7
100
AcDbEllipse
 10
131.1801572647951
 20
85.45610381528412
 30
0.0
 11
-1.000039601491012
 21
0.0
 31
0.0
210
0.0
220
0.0
230
1.0
 40
0.999960400077206
 41
2.09525655078747
 42
2.944204709121282
  0
LINE
  5
21F
330
1F
100
AcDbEntity
  8
1
  6
CONTINUOUS
 62
     7
100
AcDbLine
 10
39.00000000000002
 20
205.4561038152841
 30
0.0
 11
161.0000000000001
 21
205.4561038152841
 31
0.0
  0
LINE
  5
220
330
1F
100
AcDbEntity
  8
1
  6
CONTINUOUS
 62
     7
100
AcDbLine
 10
69.04369580893369
 20
84.45610381528405
 30
0.0
 11
68.81984273520497
 21
84.45610381528405
 31
0.0
  0
ELLIPSE
  5
221
330
1F
100
AcDbEntity
  8
1
  6
CONTINUOUS
 62
     7
100
AcDbEllipse
 10
187.0
 20
141.275946550489
 30
0.0
 11
0.0
 21
-1.000039601491007
 31
0.0
210
0.0
220
0.0
230
1.0
 40
0.9999604000772068
 41
0.1973879444685219
 42
1.570796326794865
  0
LINE
  5
222
330
1F
100
AcDbEntity
  8
1
  6
CONTINUOUS
 62
     7
100
AcDbLine
 10
183.0
 20
205.4561038152841
 30
0.0
 11
187.1961161351382
 21
204.6168805882564
 31
0.0
  0
LINE
  5
223
330
1F
100
AcDbEntity
  8
1
  6
CONTINUOUS
 62
     7
100
AcDbLine
 10
161.0
 20
205.456103815284
 30
0.0
 11
39.00000000000002
 21
205.456103815284
 31
0.0
  0
LINE
  5
224
330
1F
100
AcDbEntity
  8
1
  6
CONTINUOUS
 62
     7
100
AcDbLine
 10
67.02617993878754
 20
113.2061133345181
 30
0.0
 11
67.01745340328917
 21
113.3311085749011
 31
0.0
  0
LINE
  5
225
330
1F
100
AcDbEntity
  8
1
  6
CONTINUOUS
 62
     7
100
AcDbLine
 10
188.0
 20
141.275946550489
 30
0.0
 11
188.0
 21
141.4997996242177
 31
0.0
  0
LINE
  5
226
330
1F
100
AcDbEntity
  8
1
  6
CONTINUOUS
 62
     7
100
AcDbLine
 10
12.00000000000007
 20
198.6567520010518
 30
0.0
 11
12.00000000000005
 21
203.4124080063504
 31
0.0
  0
ELLIPSE
  5
227
330
1F
100
AcDbEntity
  8
1
  6
CONTINUOUS
 62
     7
100
AcDbEllipse
 10
49.9288533252155
 20
134.4559134233554
 30
0.0
 11
-1.913502522155068
 21
-4.619603740621892
 31
0.0
210
0.0
220
0.0
230
1.0
 40
0.999955390531953
 41
3.0306671931735
 42
3.252518114006828
  0
LINE
  5
228
330
1F
100
AcDbEntity
  8
1
  6
CONTINUOUS
 62
     7
100
AcDbLine
 10
169.0000000000001
 20
205.4561038152841
 30
0.0
 11
183.0
 21
205.4561038152841
 31
0.0
  0
LINE
  5
229
330
1F
100
AcDbEntity
  8
1
  6
CONTINUOUS
 62
     7
100
AcDbLine
 10
188.0
 20
198.6567520010518
 30
0.0
 11
188.0
 21
197.887521231821
 31
0.0
  0
LINE
  5
22A
330
1F
100
AcDbEntity
  8
1
  6
CONTINUOUS
 62
     7
100
AcDbLine
 10
66.99999999999969
 20
103.456103815284
 30
0.0
 11
67.00000000000001
 21
89.45610381528404
 31
0.0
  0
ELLIPSE
  5
22B
330
1F
100
AcDbEntity
  8
1
  6
CONTINUOUS
 62
     7
100
AcDbEllipse
 10
13.00000000000005
 20
203.6362610800791
 30
0.0
 11
0.0
 21
-1.000039601491004
 31
0.0
210
0.0
220
0.0
230
-1.0
 40
0.9999604000772129
 41
1.570796326794897
 42
2.944204709121274
  0
LINE
  5
22C
330
1F
100
AcDbEntity
  8
1
  6
CONTINUOUS
 62
     7
100
AcDbLine
 10
187.1961086676367
 20
204.6168820817567
 30
0.0
 11
183.0000000000001
 21
205.456103815284
 31
0.0
  0
LINE
  5
22D
330
1F
100
AcDbEntity
  8
1
  6
CONTINUOUS
 62
     7
100
AcDbLine
 10
12.00000000000005
 20
203.4124080063504
 30
0.0
 11
12.00000000000005
 21
203.6362610800791
 31
0.0
  0
LINE
  5
22E
330
1F
100
AcDbEntity
  8
1
  6
CONTINUOUS
 62
     7
100
AcDbLine
 10
188.0
 20
147.0246863987471
 30
0.0
 11
188.0
 21
197.887521231821
 31
0.0
  0
ELLIPSE
  5
22F
330
1F
100
AcDbEntity
  8
1
  6
CONTINUOUS
 62
     7
100
AcDbEllipse
 10
138.0001903919287
 20
122.3849571404996
 30
0.0
 11
-4.619603740621899
 21
1.913502522155067
 31
0.0
210
0.0
220
0.0
230
-1.0
 40
0.999955390531953
 41
6.172259847187344
 42
6.39411076728299
  0
LINE
  5
230
330
1F
100
AcDbEntity
  8
1
  6
CONTINUOUS
 62
     7
100
AcDbLine
 10
188.0
 20
141.4997996242177
 30
0.0
 11
188.0
 21
146.2554556295163
 31
0.0
  0
LINE
  5
231
330
1F
100
AcDbEntity
  8
1
  6
CONTINUOUS
 62
     7
100
AcDbLine
 10
161.0000000000001
 20
205.4561038152841
 30
0.0
 11
169.0000000000001
 21
205.4561038152841
 31
0.0
  0
LINE
  5
232
330
1F
100
AcDbEntity
  8
1
  6
CONTINUOUS
 62
     7
100
AcDbLine
 10
65.53553390593275
 20
125.9205699093513
 30
0.0
 11
53.46446609406728
 21
137.9916377212168
 31
0.0
  0
ELLIPSE
  5
233
330
1F
100
AcDbEntity
  8
1
  6
CONTINUOUS
 62
     7
100
AcDbEllipse
 10
187.0
 20
203.6362610800791
 30
0.0
 11
0.0
 21
-1.000039601491003
 31
0.0
210
0.0
220
0.0
230
1.0
 40
0.9999604000772129
 41
1.570796326794897
 42
2.944204709121273
  0
LINE
  5
234
330
1F
100
AcDbEntity
  8
1
  6
CONTINUOUS
 62
     7
100
AcDbLine
 10
130.9563041910664
 20
84.45610381528412
 30
0.0
 11
131.1801572647951
 21
84.45610381528412
 31
0.0
  0
LINE
  5
235
330
1F
100
AcDbEntity
  8
1
  6
CONTINUOUS
 62
     7
100
AcDbLine
 10
188.0
 20
203.4124080063503
 30
0.0
 11
188.0
 21
203.6362610800791
 31
0.0
  0
ELLIPSE
  5
236
330
1F
100
AcDbEntity
  8
1
  6
CONTINUOUS
 62
     7
100
AcDbEllipse
 10
13.00000000000007
 20
141.275946550489
 30
0.0
 11
0.0
 21
-1.000039601491008
 31
0.0
210
0.0
220
0.0
230
-1.0
 40
0.9999604000772072
 41
0.1973879444685215
 42
1.570796326794864
  0
LINE
  5
237
330
1F
100
AcDbEntity
  8
1
  6
CONTINUOUS
 62
     7
100
AcDbLine
 10
12.00000000000007
 20
141.275946550489
 30
0.0
 11
12.00000000000007
 21
141.4997996242177
 31
0.0
  0
LINE
  5
238
330
1F
100
AcDbEntity
  8
1
  6
CONTINUOUS
 62
     7
100
AcDbLine
 10
12.00000000000007
 20
198.6567520010518
 30
0.0
 11
12.00000000000007
 21
197.887521231821
 31
0.0
  0
LINE
  5
239
330
1F
100
AcDbEntity
  8
1
  6
CONTINUOUS
 62
     7
100
AcDbLine
 10
17.00000000000001
 20
139.4561038152841
 30
0.0
 11
12.80389133236337
 21
140.2953255488114
 31
0.0
  0
ELLIPSE
  5
23A
330
1F
100
AcDbEntity
  8
1
  6
CONTINUOUS
 62
     7
100
AcDbEllipse
 10
61.99980960807133
 20
122.3849571404995
 30
0.0
 11
4.619603740621897
 21
1.913502522155069
 31
0.0
210
0.0
220
0.0
230
1.0
 40
0.999955390531953
 41
5.890501997412576
 42
6.675868616946596
  0
ELLIPSE
  5
23B
330
1F
100
AcDbEntity
  8
1
  6
CONTINUOUS
 62
     7
100
AcDbEllipse
 10
49.9288533252155
 20
134.4559134233554
 30
0.0
 11
-1.913502522155068
 21
-4.619603740621892
 31
0.0
210
0.0
220
0.0
230
1.0
 40
0.999955390531953
 41
3.252518114006828
 42
3.534275963356796
  0
LINE
  5
23C
330
1F
100
AcDbEntity
  8
1
  6
CONTINUOUS
 62
     7
100
AcDbLine
 10
73.79935181423228
 20
84.45610381528405
 30
0.0
 11
69.04369580893369
 21
84.45610381528405
 31
0.0
  0
LINE
  5
23D
330
1F
100
AcDbEntity
  8
1
  6
CONTINUOUS
 62
     7
100
AcDbLine
 10
17.00000000000001
 20
139.4561038152841
 30
0.0
 11
31.00000000000003
 21
139.4561038152841
 31
0.0
  0
LINE
  5
23E
330
1F
100
AcDbEntity
  8
1
  6
CONTINUOUS
 62
     7
100
AcDbLine
 10
188.0
 20
147.0246863987471
 30
0.0
 11
188.0
 21
146.2554556295163
 31
0.0
  0
LINE
  5
23F
330
1F
100
AcDbEntity
  8
1
  6
CONTINUOUS
 62
     7
100
AcDbLine
 10
188.0
 20
198.6567520010518
 30
0.0
 11
188.0
 21
203.4124080063503
 31
0.0
  0
LINE
  5
240
330
1F
100
AcDbEntity
  8
1
  6
CONTINUOUS
 62
     7
100
AcDbLine
 10
67.00872686779059
 20
111.456103815284
 30
0.0
 11
67.01745340328915
 21
111.456103815284
 31
0.0
  0
LINE
  5
241
330
1F
100
AcDbEntity
  8
1
  6
CONTINUOUS
 62
     7
100
AcDbLine
 10
67.01745340328932
 20
112.6666426990356
 30
0.0
 11
67.01745340328917
 21
113.3311085749011
 31
0.0
  0
LINE
  5
242
330
1F
100
AcDbEntity
  8
1
  6
CONTINUOUS
 62
     7
100
AcDbLine
 10
258.6033847031903
 20
33.50000000000007
 30
0.0
 11
256.9561038152841
 21
33.50000000000007
 31
0.0
  0
MTEXT
  5
243
330
1F
100
AcDbEntity
  8
1
 62
     7
100
AcDbMText
 10
86.02507190196327
 20
6.856133550081285
 30
0.0
 40
10.0
 41
0.0
 71
     1
 72
     1
  1
{\fＭＳ ゴシック;MIDT-60}
  0
LINE
  5
244
330
1F
100
AcDbEntity
  8
1
  6
CONTINUOUS
 62
     7
100
AcDbLine
 10
295.3016214079259
 20
21.50000000000007
 30
0.0
 11
297.2988804774351
 21
21.50000000000007
 31
0.0
  0
LINE
  5
245
330
1F
100
AcDbEntity
  8
1
  6
CONTINUOUS
 62
     7
100
AcDbLine
 10
320.4561038152841
 20
18.50000000000007
 30
0.0
 11
320.4561038152841
 21
33.50000000000008
 31
0.0
  0
LINE
  5
246
330
1F
100
AcDbEntity
  8
1
  6
CENTER
 62
     1
100
AcDbLine
 10
287.389592818027
 20
15.49999999999993
 30
0.0
 11
287.389592818027
 21
64.50000000000009
 31
0.0
  0
LINE
  5
248
330
1F
100
AcDbEntity
  8
1
  6
CONTINUOUS
 62
     7
100
AcDbLine
 10
319.6168805882564
 20
33.50000000000008
 30
0.0
 11
318.6362999125655
 21
33.50000000000008
 31
0.0
  0
LINE
  5
249
330
1F
100
AcDbEntity
  8
1
  6
CONTINUOUS
 62
     7
100
AcDbLine
 10
277.6422738540182
 20
22.05233595624302
 30
0.0
 11
277.6807272960165
 21
22.06166753534144
 31
0.0
  0
LINE
  5
24A
330
1F
100
AcDbEntity
  8
1
  6
CONTINUOUS
 62
     7
100
AcDbLine
 10
255.2953270423118
 20
18.50000000000007
 30
0.0
 11
256.2759077180027
 21
18.50000000000007
 31
0.0
  0
LINE
  5
24B
330
1F
100
AcDbEntity
  8
1
  6
CONTINUOUS
 62
     7
100
AcDbLine
 10
277.6133271531333
 20
21.50000000000007
 30
0.0
 11
279.6105862226424
 21
21.50000000000007
 31
0.0
  0
LINE
  5
24C
330
1F
100
AcDbEntity
  8
1
  6
CONTINUOUS
 62
     7
100
AcDbLine
 10
277.6422738540182
 20
22.05233595624301
 30
0.0
 11
277.6133271531333
 21
21.50000000000007
 31
0.0
  0
LINE
  5
24D
330
1F
100
AcDbEntity
  8
1
  6
CONTINUOUS
 62
     7
100
AcDbLine
 10
256.275946550489
 20
33.50000000000007
 30
0.0
 11
256.9561038152841
 21
33.50000000000007
 31
0.0
  0
LINE
  5
24E
330
1F
100
AcDbEntity
  8
1
  6
CONTINUOUS
 62
     7
100
AcDbLine
 10
319.6168805882565
 20
18.50000000000007
 30
0.0
 11
320.4561038152841
 21
18.50000000000007
 31
0.0
  0
LINE
  5
24F
330
1F
100
AcDbEntity
  8
1
  6
CENTER
 62
     1
100
AcDbLine
 10
100.0
 20
15.49999999999996
 30
0.0
 11
100.0
 21
64.50000000000009
 31
0.0
  0
LINE
  5
250
330
1F
100
AcDbEntity
  8
1
  6
CENTER
 62
     1
100
AcDbLine
 10
100.0
 20
81.45610381528405
 30
0.0
 11
100.0
 21
208.4561038152841
 31
0.0
  0
LINE
  5
251
330
1F
100
AcDbEntity
  8
1
  6
CONTINUOUS
 62
     7
100
AcDbLine
 10
256.2759077180027
 20
18.50000000000007
 30
0.0
 11
256.9561038152842
 21
18.49999999999993
 31
0.0
  0
LINE
  5
252
330
1F
100
AcDbEntity
  8
1
  6
CONTINUOUS
 62
     7
100
AcDbLine
 10
254.4561038152841
 20
33.50000000000007
 30
0.0
 11
254.4561038152841
 21
18.50000000000007
 31
0.0
  0
LINE
  5
253
330
1F
100
AcDbEntity
  8
1
  6
CONTINUOUS
 62
     7
100
AcDbLine
 10
255.2953270423117
 20
33.50000000000007
 30
0.0
 11
254.4561038152841
 21
33.50000000000007
 31
0.0
  0
LINE
  5
254
330
1F
100
AcDbEntity
  8
1
  6
CONTINUOUS
 62
     7
100
AcDbLine
 10
320.4561038152841
 20
33.50000000000008
 30
0.0
 11
319.6168805882565
 21
33.50000000000008
 31
0.0
  0
LINE
  5
255
330
1F
100
AcDbEntity
  8
1
  6
CONTINUOUS
 62
     7
100
AcDbLine
 10
317.9561038152842
 20
18.49999999999994
 30
0.0
 11
318.6362999125655
 21
18.50000000000007
 31
0.0
  0
LINE
  5
256
330
1F
100
AcDbEntity
  8
1
  6
CONTINUOUS
 62
     7
100
AcDbLine
 10
317.9561038152841
 20
33.50000000000008
 30
0.0
 11
318.6362610800791
 21
33.50000000000008
 31
0.0
  0
LINE
  5
257
330
1F
100
AcDbEntity
  8
1
  6
CENTER
 62
     1
100
AcDbLine
 10
9.000000000000007
 20
172.4561038152841
 30
0.0
 11
191.0
 21
172.4561038152841
 31
0.0
  0
LINE
  5
258
330
1F
100
AcDbEntity
  8
1
  6
CONTINUOUS
 62
     7
100
AcDbLine
 10
318.6362999125655
 20
18.50000000000007
 30
0.0
 11
319.6168805882564
 21
18.50000000000007
 31
0.0
  0
LINE
  5
259
330
1F
100
AcDbEntity
  8
1
  6
CONTINUOUS
 62
     7
100
AcDbLine
 10
254.4561038152841
 20
18.50000000000007
 30
0.0
 11
255.2953270423118
 21
18.50000000000007
 31
0.0
  0
LINE
  5
25A
330
1F
100
AcDbEntity
  8
1
  6
CONTINUOUS
 62
     7
100
AcDbLine
 10
297.2988804774351
 20
21.50000000000007
 30
0.0
 11
297.2699337766543
 21
22.0523359542562
 31
0.0
  0
LINE
  5
25B
330
1F
100
AcDbEntity
  8
1
  6
CONTINUOUS
 62
     7
100
AcDbLine
 10
317.9561038152842
 20
18.49999999999994
 30
0.0
 11
317.9561038152841
 21
33.50000000000007
 31
0.0
  0
LINE
  5
25C
330
1F
100
AcDbEntity
  8
1
  6
CONTINUOUS
 62
     7
100
AcDbLine
 10
256.9561038152842
 20
18.49999999999993
 30
0.0
 11
256.9561038152841
 21
33.50000000000007
 31
0.0
  0
LINE
  5
25D
330
1F
100
AcDbEntity
  8
1
  6
CONTINUOUS
 62
     7
100
AcDbLine
 10
286.7963214017677
 20
21.50000000000007
 30
0.0
 11
279.6105862226424
 21
21.50000000000007
 31
0.0
  0
LINE
  5
25E
330
1F
100
AcDbEntity
  8
1
  6
CONTINUOUS
 62
     7
100
AcDbLine
 10
284.298880477435
 20
21.50000000000007
 30
0.0
 11
284.3237129614549
 21
21.02616797812155
 31
0.0
  0
LINE
  5
25F
330
1F
100
AcDbEntity
  8
1
  6
CONTINUOUS
 62
     7
100
AcDbLine
 10
275.4561038152842
 20
18.50000000000007
 30
0.0
 11
275.4561038152842
 21
20.50436326774926
 31
0.0
  0
LINE
  5
260
330
1F
100
AcDbEntity
  8
1
  6
CONTINUOUS
 62
     7
100
AcDbLine
 10
275.4561038152842
 20
18.50000000000007
 30
0.0
 11
276.4779209847611
 21
18.50000000000007
 31
0.0
  0
LINE
  5
261
330
1F
100
AcDbEntity
  8
1
  6
CONTINUOUS
 62
     7
100
AcDbLine
 10
298.4342866458073
 20
18.50000000000007
 30
0.0
 11
299.4561038152842
 21
18.50000000000007
 31
0.0
  0
LINE
  5
262
330
1F
100
AcDbEntity
  8
1
  6
CONTINUOUS
 62
     7
100
AcDbLine
 10
299.4561038152842
 20
18.50000000000007
 30
0.0
 11
317.9561038152842
 21
18.50000000000007
 31
0.0
  0
LINE
  5
263
330
1F
100
AcDbEntity
  8
1
  6
CONTINUOUS
 62
     7
100
AcDbLine
 10
290.4561038152842
 20
18.50000000000007
 30
0.0
 11
297.4561038152842
 21
18.50000000000007
 31
0.0
  0
LINE
  5
264
330
1F
100
AcDbEntity
  8
1
  6
CONTINUOUS
 62
     7
100
AcDbLine
 10
275.4561038152842
 20
20.56576869268244
 30
0.0
 11
275.4561038152842
 21
20.50436326774926
 31
0.0
  0
LINE
  5
265
330
1F
100
AcDbEntity
  8
1
  6
CONTINUOUS
 62
     7
100
AcDbLine
 10
277.5256347705397
 20
19.82672966125995
 30
0.0
 11
277.5884946691135
 21
21.02616797812155
 31
0.0
  0
LINE
  5
266
330
1F
100
AcDbEntity
  8
1
  6
CONTINUOUS
 62
     7
100
AcDbLine
 10
295.2726747070411
 20
23.00000000000007
 30
0.0
 11
287.5226148125413
 21
23.00000000000007
 31
0.0
  0
LINE
  5
267
330
1F
100
AcDbEntity
  8
1
  6
CONTINUOUS
 62
     7
100
AcDbLine
 10
288.0991738432526
 20
22.05233595624301
 30
0.0
 11
288.1158862288006
 21
21.50000000000007
 31
0.0
  0
LINE
  5
268
330
1F
100
AcDbEntity
  8
1
  6
CONTINUOUS
 62
     7
100
AcDbLine
 10
277.5256347705397
 20
19.82672966125995
 30
0.0
 11
277.4561038152842
 21
18.50000000000007
 31
0.0
  0
LINE
  5
269
330
1F
100
AcDbEntity
  8
1
  6
CONTINUOUS
 62
     7
100
AcDbLine
 10
279.6395329235273
 20
23.00000000000007
 30
0.0
 11
278.6409033887728
 21
23.00000000000007
 31
0.0
  0
LINE
  5
26A
330
1F
100
AcDbEntity
  8
1
  6
CONTINUOUS
 62
     7
100
AcDbLine
 10
287.5226148125413
 20
23.00000000000007
 30
0.0
 11
287.4561038152842
 21
23.00000000000007
 31
0.0
  0
LINE
  5
26B
330
1F
100
AcDbEntity
  8
1
  6
CONTINUOUS
 62
     7
100
AcDbLine
 10
287.4561038152842
 20
21.50000000000007
 30
0.0
 11
286.7963214017677
 21
21.50000000000007
 31
0.0
  0
LINE
  5
26C
330
1F
100
AcDbEntity
  8
1
  6
CONTINUOUS
 62
     7
100
AcDbLine
 10
297.3865728600286
 20
19.82672966125995
 30
0.0
 11
297.3237129614549
 21
21.02616797812155
 31
0.0
  0
LINE
  5
26D
330
1F
100
AcDbEntity
  8
1
  6
CONTINUOUS
 62
     7
100
AcDbLine
 10
298.4517784590496
 20
20.50436326774926
 30
0.0
 11
298.4342866458073
 21
18.50000000000007
 31
0.0
  0
LINE
  5
26E
330
1F
100
AcDbEntity
  8
1
  6
CONTINUOUS
 62
     7
100
AcDbLine
 10
286.7963214017677
 20
21.50000000000007
 30
0.0
 11
286.8130337873158
 21
22.05233595624302
 31
0.0
  0
LINE
  5
26F
330
1F
100
AcDbEntity
  8
1
  6
CONTINUOUS
 62
     7
100
AcDbLine
 10
277.4561038152842
 20
18.50000000000007
 30
0.0
 11
284.4561038152842
 21
18.50000000000007
 31
0.0
  0
LINE
  5
270
330
1F
100
AcDbEntity
  8
1
  6
CONTINUOUS
 62
     7
100
AcDbLine
 10
297.2314803345517
 20
22.06166753534076
 30
0.0
 11
297.2699337765502
 21
22.05233595624301
 31
0.0
  0
LINE
  5
271
330
1F
100
AcDbEntity
  8
1
  6
CONTINUOUS
 62
     7
100
AcDbLine
 10
299.4561038152842
 20
18.50000000000007
 30
0.0
 11
299.4561038152842
 21
20.50436326774926
 31
0.0
  0
LINE
  5
272
330
1F
100
AcDbEntity
  8
1
  6
CONTINUOUS
 62
     7
100
AcDbLine
 10
290.4561038152842
 20
18.50000000000007
 30
0.0
 11
290.5256347705398
 21
19.82672966125995
 31
0.0
  0
LWPOLYLINE
  5
273
330
1F
100
AcDbEntity
  8
1
  6
CONTINUOUS
 62
     7
100
AcDbPolyline
 90
        7
 70
     0
 43
0.0
 10
-287.5226148125413
 20
23.00000000000007
 10
-287.6476148125413
 20
22.9762812094884
 10
-287.7421481623871
 20
22.92487942946519
 10
-287.8216268413918
 20
22.85543022044597
 10
-287.8915337657032
 20
22.76920945242258
 10
-287.9559192079409
 20
22.6608645116682
 42
0.1068926718382835
 10
-288.0991738432526
 20
22.05233595624301
210
0.0
220
0.0
230
-1.0
  0
LINE
  5
274
330
1F
100
AcDbEntity
  8
1
  6
CONTINUOUS
 62
     7
100
AcDbLine
 10
296.2713042417956
 20
23.00000000000007
 30
0.0
 11
295.2726747070411
 21
23.00000000000007
 31
0.0
  0
LINE
  5
275
330
1F
100
AcDbEntity
  8
1
  6
CONTINUOUS
 62
     7
100
AcDbLine
 10
295.3016214079259
 20
21.50000000000007
 30
0.0
 11
288.1158862288006
 21
21.50000000000007
 31
0.0
  0
LINE
  5
276
330
1F
100
AcDbEntity
  8
1
  6
CONTINUOUS
 62
     7
100
AcDbLine
 10
296.2713042417956
 20
23.00000000000007
 30
0.0
 11
296.6285288622418
 21
22.93401850653359
 31
0.0
  0
LINE
  5
277
330
1F
100
AcDbEntity
  8
1
  6
CONTINUOUS
 62
     7
100
AcDbLine
 10
297.2988804774351
 20
21.50000000000007
 30
0.0
 11
297.3237129614549
 21
21.02616797812155
 31
0.0
  0
LINE
  5
278
330
1F
100
AcDbEntity
  8
1
  6
CONTINUOUS
 62
     7
100
AcDbLine
 10
256.9561038152842
 20
18.50000000000007
 30
0.0
 11
275.4561038152842
 21
18.50000000000007
 31
0.0
  0
LINE
  5
279
330
1F
100
AcDbEntity
  8
1
  6
CONTINUOUS
 62
     7
100
AcDbLine
 10
275.9604482099867
 20
21.00000000000007
 30
0.0
 11
275.2507965413037
 21
21.00000000000007
 31
0.0
  0
LINE
  5
27A
330
1F
100
AcDbEntity
  8
1
  6
CONTINUOUS
 62
     7
100
AcDbLine
 10
290.5256347705398
 20
19.82672966125995
 30
0.0
 11
290.5884946691135
 21
21.02616797812155
 31
0.0
  0
LINE
  5
27B
330
1F
100
AcDbEntity
  8
1
  6
CONTINUOUS
 62
     7
100
AcDbLine
 10
299.6614110892647
 20
21.00000000000007
 30
0.0
 11
298.9517594205817
 21
21.00000000000007
 31
0.0
  0
LINE
  5
27C
330
1F
100
AcDbEntity
  8
1
  6
CONTINUOUS
 62
     7
100
AcDbLine
 10
277.5884946691135
 20
21.02616797812155
 30
0.0
 11
277.6133271531333
 21
21.50000000000007
 31
0.0
  0
LINE
  5
27D
330
1F
100
AcDbEntity
  8
1
  6
CONTINUOUS
 62
     7
100
AcDbLine
 10
299.4561038152842
 20
20.50436326774926
 30
0.0
 11
299.4561038152842
 21
20.56576869268231
 31
0.0
  0
ARC
  5
27E
330
1F
100
AcDbEntity
  8
1
  6
CONTINUOUS
 62
     7
100
AcDbCircle
 10
-262.3088229273779
 20
22.00000000000007
 30
0.0
 40
1.000000000000001
210
0.0
220
0.0
230
-1.0
100
AcDbArc
 50
270.0
 51
350.9097230791776
  0
LINE
  5
27F
330
1F
100
AcDbEntity
  8
1
  6
CONTINUOUS
 62
     7
100
AcDbLine
 10
275.2507965413037
 20
21.00000000000007
 30
0.0
 11
262.3088229273779
 21
21.00000000000007
 31
0.0
  0
LINE
  5
280
330
1F
100
AcDbEntity
  8
1
  6
CONTINUOUS
 62
     7
100
AcDbLine
 10
287.389592818027
 20
23.00000000000007
 30
0.0
 11
279.6395329235273
 21
23.00000000000007
 31
0.0
  0
LINE
  5
281
330
1F
100
AcDbEntity
  8
1
  6
CONTINUOUS
 62
     7
100
AcDbLine
 10
287.4561038152842
 20
23.00000000000007
 30
0.0
 11
287.389592818027
 21
23.00000000000007
 31
0.0
  0
LINE
  5
282
330
1F
100
AcDbEntity
  8
1
  6
CONTINUOUS
 62
     7
100
AcDbLine
 10
312.6033847031905
 20
21.00000000000007
 30
0.0
 11
299.6614110892647
 21
21.00000000000007
 31
0.0
  0
ARC
  5
283
330
1F
100
AcDbEntity
  8
1
  6
CONTINUOUS
 62
     7
100
AcDbCircle
 10
-312.6033847031905
 20
22.00000000000007
 30
0.0
 40
1.000000000000001
210
0.0
220
0.0
230
-1.0
100
AcDbArc
 50
189.0902769208225
 51
269.9999999999999
  0
LINE
  5
284
330
1F
100
AcDbEntity
  8
1
  6
CONTINUOUS
 62
     7
100
AcDbLine
 10
288.1158862288006
 20
21.50000000000007
 30
0.0
 11
287.4561038152842
 21
21.50000000000007
 31
0.0
  0
LINE
  5
285
330
1F
100
AcDbEntity
  8
1
  6
CONTINUOUS
 62
     7
100
AcDbLine
 10
261.3213822954612
 20
21.8420094988934
 30
0.0
 11
259.590825335107
 21
32.65799050110675
 31
0.0
  0
LINE
  5
286
330
1F
100
AcDbEntity
  8
1
  6
CONTINUOUS
 62
     7
100
AcDbLine
 10
290.5884946691135
 20
21.02616797812155
 30
0.0
 11
290.6133271531333
 21
21.50000000000007
 31
0.0
  0
LINE
  5
287
330
1F
100
AcDbEntity
  8
1
  6
CONTINUOUS
 62
     7
100
AcDbLine
 10
276.4779209847611
 20
18.50000000000007
 30
0.0
 11
276.4604291715188
 21
20.50436326774926
 31
0.0
  0
LINE
  5
288
330
1F
100
AcDbEntity
  8
1
  6
CONTINUOUS
 62
     7
100
AcDbLine
 10
278.6409033887728
 20
23.00000000000007
 30
0.0
 11
278.2836787683043
 21
22.93401850652505
 31
0.0
  0
LINE
  5
289
330
1F
100
AcDbEntity
  8
1
  6
CONTINUOUS
 62
     7
100
AcDbLine
 10
297.4561038152842
 20
18.50000000000007
 30
0.0
 11
297.3865728600286
 21
19.82672966125995
 31
0.0
  0
LINE
  5
28A
330
1F
100
AcDbEntity
  8
1
  6
CONTINUOUS
 62
     7
100
AcDbLine
 10
284.3237129614549
 20
21.02616797812155
 30
0.0
 11
284.3865728600286
 21
19.82672966125995
 31
0.0
  0
LINE
  5
28B
330
1F
100
AcDbEntity
  8
1
  6
CONTINUOUS
 62
     7
100
AcDbLine
 10
287.4561038152842
 20
23.00000000000007
 30
0.0
 11
287.4561038152842
 21
21.50000000000007
 31
0.0
  0
LWPOLYLINE
  5
28C
330
1F
100
AcDbEntity
  8
1
  6
CONTINUOUS
 62
     7
100
AcDbPolyline
 90
        8
 70
     0
 43
0.0
 10
-286.8130337873158
 20
22.05233595624302
 42
0.0936530815066363
 10
-286.9313652103883
 20
22.608343964212
 10
-286.9891999945435
 20
22.72045593946374
 10
-287.0561734605686
 20
22.81639120292713
 10
-287.1373539935765
 20
22.89951471712227
 10
-287.2258012299837
 20
22.95891446284788
 10
-287.3270872949107
 20
22.99412220787083
 10
-287.389592818027
 20
23.00000000000007
210
0.0
220
0.0
230
-1.0
  0
LINE
  5
28D
330
1F
100
AcDbEntity
  8
1
  6
CONTINUOUS
 62
     7
100
AcDbLine
 10
284.3865728600286
 20
19.82672966125995
 30
0.0
 11
284.4561038152842
 21
18.50000000000007
 31
0.0
  0
ARC
  5
28E
330
1F
100
AcDbEntity
  8
1
  6
CONTINUOUS
 62
     7
100
AcDbCircle
 10
258.6033847031903
 20
32.50000000000007
 30
0.0
 40
1.0
100
AcDbArc
 50
9.090276920822472
 51
89.99999999999999
  0
LINE
  5
28F
330
1F
100
AcDbEntity
  8
1
  6
CONTINUOUS
 62
     7
100
AcDbLine
 10
317.9561038152841
 20
33.50000000000008
 30
0.0
 11
316.3088229273781
 21
33.50000000000007
 31
0.0
  0
LINE
  5
290
330
1F
100
AcDbEntity
  8
1
  6
CONTINUOUS
 62
     7
100
AcDbLine
 10
315.3213822954614
 20
32.65799050110675
 30
0.0
 11
313.5908253351072
 21
21.8420094988934
 31
0.0
  0
ARC
  5
291
330
1F
100
AcDbEntity
  8
1
  6
CONTINUOUS
 62
     7
100
AcDbCircle
 10
316.3088229273781
 20
32.50000000000008
 30
0.0
 40
1.0
100
AcDbArc
 50
90.0
 51
170.9097230791779
  0
LWPOLYLINE
  5
292
330
1F
100
AcDbEntity
  8
1
  6
CONTINUOUS
 62
     7
100
AcDbPolyline
 90
       33
 70
     0
 43
0.0
 10
288.1657696233395
 20
20.52616797812155
 10
288.1649668771735
 20
20.5498226877968
 10
288.16351637309
 20
20.57336523722775
 10
288.1614213764467
 20
20.59674262770615
 10
288.1586866034752
 20
20.61990223232758
 10
288.1553182106639
 20
20.64279191446462
 10
288.151323780899
 20
20.66536014513609
 10
288.1467123063932
 20
20.68755611900859
 10
288.1414941684434
 20
20.70932986876879
 10
288.1356811140599
 20
20.73063237760926
 10
288.1292862295218
 20
20.75141568957459
 10
288.1223239109174
 20
20.77163301751919
 10
288.1148098317358
 20
20.79123884843397
 10
288.106760907583
 20
20.81018904590476
 10
288.0981952581018
 20
20.8284409494716
 10
288.0891321661805
 20
20.84595347066546
 10
288.0795920345445
 20
20.86268718550621
 10
288.069596339825
 20
20.87860442325331
 10
288.0591675842115
 20
20.89366935120979
 10
288.0483292447949
 20
20.90784805538836
 10
288.0371057207166
 20
20.92110861685822
 10
288.0255222782409
 20
20.93342118360054
 10
288.0136049938764
 20
20.944758037711
 10
288.0013806956722
 20
20.95509365779798
 10
287.9888769028236
 20
20.96440477643604
 10
287.976121763721
 20
20.97267043254523
 10
287.9631439925822
 20
20.9798720185785
 10
287.9499728048119
 20
20.98599332241071
 10
287.9366378512319
 20
20.99102056383523
 10
287.9231691513316
 20
20.99494242558572
 10
287.9095970256887
 20
20.99775007881351
 10
287.8959520277115
 20
20.99943720296293
 10
287.8822648748578
 20
21.00000000000007
  0
LWPOLYLINE
  5
293
330
1F
100
AcDbEntity
  8
1
  6
CONTINUOUS
 62
     7
100
AcDbPolyline
 90
       33
 70
     0
 43
0.0
 10
276.4604291715188
 20
20.50436326774926
 10
276.4596206873666
 20
20.52875478788744
 10
276.4576229749014
 20
20.55307780263031
 10
276.4544407934726
 20
20.57727436483714
 10
276.4500817243079
 20
20.60128682862771
 10
276.4445561524522
 20
20.62505798671776
 10
276.4378772420254
 20
20.64853120670963
 10
276.4300609048613
 20
20.67165056601329
 10
276.4211257625983
 20
20.69436098507627
 10
276.4110931023159
 20
20.71660835860516
 10
276.39998682582
 20
20.73833968446604
 10
276.3878333926993
 20
20.75950318995677
 10
276.3746617572881
 20
20.78004845515023
 10
276.3605032996854
 20
20.79992653301473
 10
276.3453917509949
 20
20.81909006602541
 10
276.3293631129644
 20
20.8374933989888
 10
276.3124555722147
 20
20.85509268781172
 10
276.2947094092642
 20
20.87184600395542
 10
276.2761669025646
 20
20.88771343432614
 10
276.2568722277765
 20
20.90265717636403
 10
276.2368713525254
 20
20.91664162810395
 10
276.2162119268887
 20
20.92963347299361
 10
276.1949431698738
 20
20.94160175926688
 10
276.1731157521591
 20
20.95251797368326
 10
276.150781675376
 20
20.96235610945783
 10
276.12799414822
 20
20.97109272821981
 10
276.104807459687
 20
20.97870701585212
 10
276.0812768497345
 20
20.9851808320789
 10
276.0574583776784
 20
20.99049875368293
 10
276.033408788637
 20
20.99464811124989
 10
276.0091853783419
 20
20.99761901935194
 10
275.9848458566362
 20
20.9994044000988
 10
275.9604482099867
 20
21.00000000000007
  0
LWPOLYLINE
  5
294
330
1F
100
AcDbEntity
  8
1
  6
CONTINUOUS
 62
     7
100
AcDbPolyline
 90
       33
 70
     0
 43
0.0
 10
-275.2507965413037
 20
21.00000000000007
 10
-275.260105938248
 20
20.99949462470827
 10
-275.2693965162355
 20
20.9979795204496
 10
-275.278649494352
 20
20.9954577500091
 10
-275.2878461676914
 20
20.99193441114865
 10
-275.2969679451678
 20
20.98741662630188
 10
-275.3059963870974
 20
20.98191352817611
 10
-275.3149132424742
 20
20.97543624129065
 10
-275.3237004858648
 20
20.96799785948847
 10
-275.3323403538465
 20
20.95961341946709
 10
-275.3408153809158
 20
20.9502998703818
 10
-275.3491084347958
 20
20.94007603958293
 10
-275.3572027510684
 20
20.92896259455638
 10
-275.3650819670637
 20
20.91698200114425
 10
-275.3727301549375
 20
20.9041584781301
 10
-275.380131853869
 20
20.89051794828067
 10
-275.3872721013151
 20
20.87608798594298
 10
-275.3941364632574
 20
20.86089776130272
 10
-275.4007110633802
 20
20.84497798141675
 10
-275.4069826111217
 20
20.82836082813869
 10
-275.4129384285407
 20
20.81107989306328
 10
-275.4185664759453
 20
20.79317010962094
 10
-275.4238553762312
 20
20.77466768245981
 10
-275.4287944378804
 20
20.755610014258
 10
-275.4333736765739
 20
20.73603563011401
 10
-275.4375838353753
 20
20.71598409966824
 10
-275.4414164034438
 20
20.6954959571129
 10
-275.4448636332384
 20
20.67461261925206
 10
-275.4479185561802
 20
20.65337630177761
 10
-275.4505749967388
 20
20.63182993393007
 10
-275.4528275849166
 20
20.61001707171724
 10
-275.4546717671038
 20
20.58798180986551
 10
-275.4561038152842
 20
20.56576869268244
210
0.0
220
0.0
230
-1.0
  0
LWPOLYLINE
  5
295
330
1F
100
AcDbEntity
  8
1
  6
CONTINUOUS
 62
     7
100
AcDbPolyline
 90
       33
 70
     0
 43
0.0
 10
-99.29033419194481
 20
20.52616797812154
 10
-99.29113693811085
 20
20.54982268779679
 10
-99.2925874421943
 20
20.57336523722775
 10
-99.2946824388376
 20
20.59674262770614
 10
-99.2974172118091
 20
20.61990223232758
 10
-99.30078560462034
 20
20.64279191446461
 10
-99.3047800343853
 20
20.66536014513608
 10
-99.30939150889107
 20
20.68755611900859
 10
-99.31460964684085
 20
20.70932986876878
 10
-99.32042270122437
 20
20.73063237760926
 10
-99.32681758576247
 20
20.75141568957459
 10
-99.33377990436689
 20
20.77163301751918
 10
-99.34129398354848
 20
20.79123884843397
 10
-99.34934290770127
 20
20.81018904590476
 10
-99.35790855718255
 20
20.82844094947159
 10
-99.36697164910375
 20
20.84595347066546
 10
-99.37651178073976
 20
20.86268718550621
 10
-99.38650747545928
 20
20.87860442325331
 10
-99.39693623107284
 20
20.89366935120978
 10
-99.40777457048938
 20
20.90784805538835
 10
-99.41899809456768
 20
20.92110861685821
 10
-99.43058153704331
 20
20.93342118360054
 10
-99.4424988214079
 20
20.94475803771099
 10
-99.4547231196121
 20
20.95509365779798
 10
-99.46722691246065
 20
20.96440477643603
 10
-99.4799820515633
 20
20.97267043254523
 10
-99.49295982270206
 20
20.9798720185785
 10
-99.50613101047236
 20
20.98599332241071
 10
-99.51946596405237
 20
20.99102056383522
 10
-99.53293466395264
 20
20.99494242558572
 10
-99.54650678959558
 20
20.99775007881351
 10
-99.56015178757279
 20
20.99943720296292
 10
-99.57383894042654
 20
21.00000000000007
210
0.0
220
0.0
230
-1.0
  0
LWPOLYLINE
  5
296
330
1F
100
AcDbEntity
  8
1
  6
CONTINUOUS
 62
     7
100
AcDbPolyline
 90
       33
 70
     0
 43
0.0
 10
88.00000000000003
 20
20.56576869268262
 10
87.99856795181967
 20
20.58798180986568
 10
87.99672376963237
 20
20.6100170717174
 10
87.9944711814546
 20
20.63182993393023
 10
87.991814740896
 20
20.65337630177775
 10
87.98875981795423
 20
20.67461261925221
 10
87.9853125881596
 20
20.69549595711304
 10
87.98148002009115
 20
20.71598409966837
 10
87.97726986128973
 20
20.73603563011413
 10
87.97269062259625
 20
20.75561001425811
 10
87.96775156094708
 20
20.77466768245992
 10
87.9624626606611
 20
20.79317010962103
 10
87.95683461325643
 20
20.81107989306336
 10
87.95087879583744
 20
20.82836082813877
 10
87.94460724809603
 20
20.84497798141683
 10
87.93803264797326
 20
20.86089776130279
 10
87.93116828603095
 20
20.87608798594304
 10
87.92402803858478
 20
20.89051794828072
 10
87.91662633965329
 20
20.90415847813015
 10
87.90897815177954
 20
20.91698200114429
 10
87.90109893578419
 20
20.92896259455642
 10
87.89300461951161
 20
20.94007603958296
 10
87.8847115656316
 20
20.95029987038182
 10
87.87623653856224
 20
20.95961341946711
 10
87.86759667058064
 20
20.96799785948849
 10
87.85880942719001
 20
20.97543624129066
 10
87.84989257181314
 20
20.98191352817612
 10
87.84086412988357
 20
20.98741662630188
 10
87.83174235240719
 20
20.99193441114865
 10
87.82254567906782
 20
20.9954577500091
 10
87.81329270095135
 20
20.9979795204496
 10
87.80400212296385
 20
20.99949462470827
 10
87.79469272601958
 20
21.00000000000007
  0
LWPOLYLINE
  5
297
330
1F
100
AcDbEntity
  8
1
  6
CONTINUOUS
 62
     7
100
AcDbPolyline
 90
       25
 70
     0
 43
0.0
 10
90.82757647936194
 20
22.93401909028815
 10
90.78314736205465
 20
22.91577112114098
 10
90.73940822486225
 20
22.89523666143849
 10
90.69654082414105
 20
22.87243983369526
 10
90.65472558773614
 20
22.84742203247708
 10
90.61413935764215
 20
22.82024194903764
 10
90.57495312341283
 20
22.79097527736219
 10
90.53732980467144
 20
22.75971409816208
 10
90.50142214140818
 20
22.72656594835948
 10
90.46737074849453
 20
22.69165259463242
 10
90.43530238604238
 20
22.65510854004571
 10
90.40532849010555
 20
22.61707930208892
 10
90.37754399913722
 20
22.57771950806025
 10
90.35202650108701
 20
22.53719085927012
 10
90.32883571463888
 20
22.4956600187277
 10
90.30801330649354
 20
22.45329647771639
 10
90.28958303540905
 20
22.41027045501997
 10
90.27355120350096
 20
22.36675087874285
 10
90.2599073865336
 20
22.32290349500928
 10
90.24862540795469
 20
22.27888914075583
 10
90.23966451643574
 20
22.23486220982413
 10
90.23297072374416
 20
22.19096933310495
 10
90.22847825882215
 20
22.14734828504196
 10
90.22611109480292
 20
22.10412712078088
 10
90.22578450809883
 20
22.06142354097675
  0
LWPOLYLINE
  5
298
330
1F
100
AcDbEntity
  8
1
  6
CONTINUOUS
 62
     7
100
AcDbPolyline
 90
       33
 70
     0
 43
0.0
 10
287.0299427557106
 20
21.00000000000007
 10
287.0162556028569
 20
20.99943720296293
 10
287.0026106048797
 20
20.99775007881351
 10
286.9890384792367
 20
20.99494242558572
 10
286.9755697793365
 20
20.99102056383523
 10
286.9622348257565
 20
20.98599332241071
 10
286.9490636379862
 20
20.9798720185785
 10
286.9360858668474
 20
20.97267043254523
 10
286.9233307277448
 20
20.96440477643604
 10
286.9108269348962
 20
20.95509365779798
 10
286.898602636692
 20
20.944758037711
 10
286.8866853523274
 20
20.93342118360054
 10
286.8751019098518
 20
20.92110861685822
 10
286.8638783857735
 20
20.90784805538836
 10
286.8530400463569
 20
20.89366935120979
 10
286.8426112907434
 20
20.87860442325331
 10
286.8326155960239
 20
20.86268718550621
 10
286.8230754643878
 20
20.84595347066546
 10
286.8140123724667
 20
20.8284409494716
 10
286.8054467229854
 20
20.81018904590476
 10
286.7973977988326
 20
20.79123884843397
 10
286.789883719651
 20
20.77163301751919
 10
286.7829214010466
 20
20.75141568957459
 10
286.7765265165085
 20
20.73063237760926
 10
286.7707134621249
 20
20.70932986876879
 10
286.7654953241752
 20
20.68755611900859
 10
286.7608838496694
 20
20.66536014513609
 10
286.7568894199044
 20
20.64279191446462
 10
286.7535210270932
 20
20.61990223232758
 10
286.7507862541217
 20
20.59674262770615
 10
286.7486912574784
 20
20.57336523722775
 10
286.747240753395
 20
20.5498226877968
 10
286.7464380072289
 20
20.52616797812155
  0
LWPOLYLINE
  5
299
330
1F
100
AcDbEntity
  8
1
  6
CONTINUOUS
 62
     7
100
AcDbPolyline
 90
       25
 70
     0
 43
0.0
 10
278.2836802946461
 20
22.93401909028815
 10
278.2392511773388
 20
22.91577112114099
 10
278.1955120401464
 20
22.8952366614385
 10
278.1526446394252
 20
22.87243983369528
 10
278.1108294030203
 20
22.84742203247709
 10
278.0702431729263
 20
22.82024194903764
 10
278.031056938697
 20
22.7909752773622
 10
277.9934336199556
 20
22.75971409816209
 10
277.9575259566923
 20
22.72656594835949
 10
277.9234745637787
 20
22.69165259463243
 10
277.8914062013265
 20
22.65510854004572
 10
277.8614323053897
 20
22.61707930208892
 10
277.8336478144214
 20
22.57771950806026
 10
277.8081303163711
 20
22.53719085927012
 10
277.784939529923
 20
22.49566001872771
 10
277.7641171217776
 20
22.45329647771639
 10
277.7456868506932
 20
22.41027045501998
 10
277.7296550187851
 20
22.36675087874286
 10
277.7160112018177
 20
22.32290349500928
 10
277.7047292232389
 20
22.27888914075583
 10
277.6957683317199
 20
22.23486220982413
 10
277.6890745390283
 20
22.19096933310495
 10
277.6845820741063
 20
22.14734828504196
 10
277.6822149100871
 20
22.10412712078088
 10
277.681888323383
 20
22.06142354097675
  0
LWPOLYLINE
  5
29A
330
1F
100
AcDbEntity
  8
1
  6
CONTINUOUS
 62
     7
100
AcDbPolyline
 90
       17
 70
     0
 43
0.0
 10
296.9317581560632
 20
22.74801845226321
 10
296.9238641675757
 20
22.75470704117498
 10
296.885697654921
 20
22.78501117806378
 10
296.8462062751877
 20
22.81310334533577
 10
296.8055614281735
 20
22.83889083169824
 10
296.7639412206463
 20
22.86230009581095
 10
296.7215281505534
 20
22.88327722603085
 10
296.6785067781559
 20
22.90178803286013
 10
296.6350614428701
 20
22.91781778545564
 10
296.5913740803324
 20
22.93137061478589
 10
296.5476221879001
 20
22.94246861565793
 10
296.5039769789078
 20
22.95115068748855
 10
296.4606017570699
 20
22.95747115912879
 10
296.4176505329739
 20
22.96149824619079
 10
296.3752668951862
 20
22.96331239024263
 10
296.3335831395441
 20
22.96300452812639
 10
296.2927196521023
 20
22.96067433680792
  0
LWPOLYLINE
  5
29B
330
1F
100
AcDbEntity
  8
1
  6
CONTINUOUS
 62
     7
100
AcDbPolyline
 90
       33
 70
     0
 43
0.0
 10
89.00432535623465
 20
20.50436326774926
 10
89.00351687208244
 20
20.52875478788743
 10
89.00151915961722
 20
20.5530778026303
 10
88.99833697818842
 20
20.57727436483714
 10
88.99397790902378
 20
20.6012868286277
 10
88.98845233716801
 20
20.62505798671775
 10
88.98177342674126
 20
20.64853120670963
 10
88.97395708957711
 20
20.67165056601329
 10
88.96502194731416
 20
20.69436098507627
 10
88.95498928703178
 20
20.71660835860515
 10
88.94388301053587
 20
20.73833968446603
 10
88.93172957741518
 20
20.75950318995676
 10
88.91855794200397
 20
20.78004845515022
 10
88.90439948440124
 20
20.79992653301472
 10
88.88928793571078
 20
20.8190900660254
 10
88.87325929768025
 20
20.83749339898879
 10
88.85635175693055
 20
20.85509268781171
 10
88.83860559398009
 20
20.87184600395541
 10
88.82006308728045
 20
20.88771343432613
 10
88.8007684124923
 20
20.90265717636402
 10
88.78076753724123
 20
20.91664162810394
 10
88.76010811160454
 20
20.9296334729936
 10
88.73883935458969
 20
20.94160175926687
 10
88.71701193687501
 20
20.95251797368325
 10
88.69467786009184
 20
20.96235610945782
 10
88.67189033293589
 20
20.9710927282198
 10
88.64870364440286
 20
20.97870701585211
 10
88.62517303445034
 20
20.98518083207889
 10
88.60135456239422
 20
20.99049875368292
 10
88.5773049733529
 20
20.99464811124988
 10
88.5530815630578
 20
20.99761901935193
 10
88.52874204135205
 20
20.99940440009879
 10
88.50434439470257
 20
21.00000000000007
  0
LWPOLYLINE
  5
29C
330
1F
100
AcDbEntity
  8
1
  6
CONTINUOUS
 62
     7
100
AcDbPolyline
 90
       25
 70
     0
 43
0.0
 10
297.2303193071858
 20
22.06142354097625
 10
297.2299927204816
 20
22.10412712078132
 10
297.2276255564621
 20
22.14734828504335
 10
297.2231330915398
 20
22.19096933310731
 10
297.2164392988478
 20
22.23486220982747
 10
297.2074784073284
 20
22.27888914076012
 10
297.1961964287489
 20
22.32290349501453
 10
297.1825526117808
 20
22.36675087874902
 10
297.166520779872
 20
22.41027045502702
 10
297.1480905087867
 20
22.45329647772426
 10
297.1272681006404
 20
22.49566001873635
 10
297.1040773141913
 20
22.53719085927946
 10
297.0785598161399
 20
22.57771950807021
 10
297.0507753251705
 20
22.61707930209939
 10
297.0208014292324
 20
22.65510854005661
 10
296.988733066779
 20
22.69165259464364
 10
296.9546816738641
 20
22.72656594837089
 10
296.9187740105995
 20
22.75971409817356
 10
296.8811506918568
 20
22.79097527737362
 10
296.841964457626
 20
22.8202419490489
 10
296.8013782275307
 20
22.84742203248806
 10
296.7595629911245
 20
22.87243983370582
 10
296.716695590402
 20
22.89523666144851
 10
296.6729564532083
 20
22.91577112115036
 10
296.6285273358997
 20
22.93401909029677
  0
LWPOLYLINE
  5
29D
330
1F
100
AcDbEntity
  8
1
  6
CONTINUOUS
 62
     7
100
AcDbPolyline
 90
       33
 70
     0
 43
0.0
 10
-299.4561038152842
 20
20.56576869268232
 10
-299.4575358634645
 20
20.58798180986539
 10
-299.4593800456518
 20
20.61001707171712
 10
-299.4616326338296
 20
20.63182993392996
 10
-299.4642890743882
 20
20.6533763017775
 10
-299.46734399733
 20
20.67461261925196
 10
-299.4707912271246
 20
20.69549595711281
 10
-299.474623795193
 20
20.71598409966816
 10
-299.4788339539944
 20
20.73603563011392
 10
-299.4834131926879
 20
20.75561001425792
 10
-299.4883522543371
 20
20.77466768245974
 10
-299.493641154623
 20
20.79317010962087
 10
-299.4992692020277
 20
20.81107989306322
 10
-299.5052250194467
 20
20.82836082813864
 10
-299.5114965671881
 20
20.8449779814167
 10
-299.5180711673109
 20
20.86089776130268
 10
-299.5249355292532
 20
20.87608798594294
 10
-299.5320757766994
 20
20.89051794828064
 10
-299.5394774756309
 20
20.90415847813007
 10
-299.5471256635047
 20
20.91698200114423
 10
-299.5550048795
 20
20.92896259455636
 10
-299.5630991957726
 20
20.94007603958292
 10
-299.5713922496525
 20
20.95029987038179
 10
-299.579867276722
 20
20.95961341946709
 10
-299.5885071447035
 20
20.96799785948847
 10
-299.5972943880942
 20
20.97543624129064
 10
-299.6062112434711
 20
20.98191352817611
 10
-299.6152396854006
 20
20.98741662630187
 10
-299.624361462877
 20
20.99193441114865
 10
-299.6335581362164
 20
20.9954577500091
 10
-299.6428111143329
 20
20.99797952044961
 10
-299.6521016923203
 20
20.99949462470827
 10
-299.6614110892646
 20
21.00000000000007
210
0.0
220
0.0
230
-1.0
  0
LWPOLYLINE
  5
29E
330
1F
100
AcDbEntity
  8
1
  6
CONTINUOUS
 62
     7
100
AcDbPolyline
 90
       33
 70
     0
 43
0.0
 10
-112.0
 20
20.56576869268262
 10
-112.0014320481803
 20
20.58798180986568
 10
-112.0032762303676
 20
20.6100170717174
 10
-112.0055288185454
 20
20.63182993393023
 10
-112.008185259104
 20
20.65337630177775
 10
-112.0112401820458
 20
20.67461261925221
 10
-112.0146874118404
 20
20.69549595711304
 10
-112.0185199799089
 20
20.71598409966837
 10
-112.0227301387103
 20
20.73603563011413
 10
-112.0273093774038
 20
20.75561001425811
 10
-112.0322484390529
 20
20.77466768245992
 10
-112.0375373393389
 20
20.79317010962103
 10
-112.0431653867436
 20
20.81107989306336
 10
-112.0491212041626
 20
20.82836082813877
 10
-112.055392751904
 20
20.84497798141683
 10
-112.0619673520268
 20
20.86089776130279
 10
-112.0688317139691
 20
20.87608798594304
 10
-112.0759719614152
 20
20.89051794828072
 10
-112.0833736603467
 20
20.90415847813015
 10
-112.0910218482205
 20
20.91698200114429
 10
-112.0989010642158
 20
20.92896259455642
 10
-112.1069953804884
 20
20.94007603958296
 10
-112.1152884343684
 20
20.95029987038182
 10
-112.1237634614378
 20
20.95961341946711
 10
-112.1324033294194
 20
20.96799785948849
 10
-112.14119057281
 20
20.97543624129066
 10
-112.1501074281869
 20
20.98191352817612
 10
-112.1591358701164
 20
20.98741662630188
 10
-112.1682576475928
 20
20.99193441114865
 10
-112.1774543209322
 20
20.9954577500091
 10
-112.1867072990486
 20
20.9979795204496
 10
-112.1959978770361
 20
20.99949462470827
 10
-112.2053072739804
 20
21.00000000000007
210
0.0
220
0.0
230
-1.0
  0
LWPOLYLINE
  5
29F
330
1F
100
AcDbEntity
  8
1
  6
CONTINUOUS
 62
     7
100
AcDbPolyline
 90
       25
 70
     0
 43
0.0
 10
109.7742154919017
 20
22.06142354097624
 10
109.7738889051975
 20
22.10412712078131
 10
109.771521741178
 20
22.14734828504335
 10
109.7670292762556
 20
22.1909693331073
 10
109.7603354835637
 20
22.23486220982746
 10
109.7513745920442
 20
22.27888914076012
 10
109.7400926134647
 20
22.32290349501452
 10
109.7264487964967
 20
22.36675087874902
 10
109.7104169645878
 20
22.41027045502702
 10
109.6919866935025
 20
22.45329647772426
 10
109.6711642853562
 20
22.49566001873635
 10
109.6479734989071
 20
22.53719085927946
 10
109.6224560008558
 20
22.57771950807021
 10
109.5946715098863
 20
22.6170793020994
 10
109.5646976139483
 20
22.65510854005661
 10
109.5326292514949
 20
22.69165259464363
 10
109.4985778585799
 20
22.72656594837089
 10
109.4626701953153
 20
22.75971409817356
 10
109.4250468765726
 20
22.79097527737363
 10
109.3858606423419
 20
22.8202419490489
 10
109.3452744122466
 20
22.84742203248806
 10
109.3034591758403
 20
22.87243983370582
 10
109.2605917751178
 20
22.89523666144851
 10
109.2168526379241
 20
22.91577112115036
 10
109.1724235206156
 20
22.93401909029677
  0
LWPOLYLINE
  5
2A0
330
1F
100
AcDbEntity
  8
1
  6
CONTINUOUS
 62
     7
100
AcDbPolyline
 90
       33
 70
     0
 43
0.0
 10
-254.6853638152528
 20
59.75273692820807
 10
-254.6864804014442
 20
59.77326574724838
 10
-254.6884435328048
 20
59.79376511387452
 10
-254.6912488049908
 20
59.8141813074818
 10
-254.6948918136586
 20
59.83446060746553
 10
-254.6995157709543
 20
59.85516375427628
 10
-254.7050221543371
 20
59.87568257337917
 10
-254.7113959239325
 20
59.89596034732758
 10
-254.7186220398661
 20
59.9159403586749
 10
-254.7264593502991
 20
59.93505495226999
 10
-254.7350905290399
 20
59.95385295574295
 10
-254.7444928340651
 20
59.97228537829768
 10
-254.754643523352
 20
59.99030322913814
 10
-254.7658661564676
 20
60.00839615708767
 10
-254.777862990587
 20
60.02601546025519
 10
-254.7906002719149
 20
60.04311276442155
 10
-254.8040442466561
 20
60.05963969536749
 10
-254.8177287156356
 20
60.07508546448152
 10
-254.8320529007476
 20
60.08996793573026
 10
-254.846979040735
 20
60.10424915133775
 10
-254.8624693743408
 20
60.11789115352803
 10
-254.8789863139071
 20
60.13124726581795
 10
-254.896071440656
 20
60.14390150765011
 10
-254.9136773096564
 20
60.15582029841467
 10
-254.9317564759777
 20
60.16697005750174
 10
-254.9493582569029
 20
60.17683970484379
 10
-254.9673577801391
 20
60.18599810365465
 10
-254.9857103962627
 20
60.1944238166042
 10
-255.0043714558504
 20
60.20209540636232
 10
-255.0238507456583
 20
60.20918333616809
 10
-255.0436227934483
 20
60.21546279872397
 10
-255.0636364727189
 20
60.22091886858716
 10
-255.0838406569681
 20
60.22553662031484
210
0.0
220
0.0
230
-1.0
  0
LWPOLYLINE
  5
2A1
330
1F
100
AcDbEntity
  8
1
  6
CONTINUOUS
 62
     7
100
AcDbPolyline
 90
       17
 70
     0
 43
0.0
 10
278.6194879784649
 20
22.96067433680796
 10
278.578624491024
 20
22.96300452812643
 10
278.5369407353828
 20
22.96331239024276
 10
278.494557097596
 20
22.96149824619106
 10
278.451605873501
 20
22.95747115912931
 10
278.4082306516642
 20
22.9511506874894
 10
278.3645854426728
 20
22.94246861565922
 10
278.3208335502414
 20
22.9313706147877
 10
278.2771461877047
 20
22.91781778545807
 10
278.2337008524196
 20
22.90178803286329
 10
278.190679480023
 20
22.88327722603482
 10
278.1482664099308
 20
22.86230009581582
 10
278.1066462024043
 20
22.83889083170409
 10
278.0660013553907
 20
22.81310334534269
 10
278.0265099756578
 20
22.78501117807183
 10
277.9883434630035
 20
22.75470704118423
 10
277.980449474491
 20
22.74801845225115
  0
LWPOLYLINE
  5
2A2
330
1F
100
AcDbEntity
  8
1
  6
CONTINUOUS
 62
     7
100
AcDbPolyline
 90
       33
 70
     0
 43
0.0
 10
298.9517594205817
 20
21.00000000000007
 10
298.9273617739322
 20
20.9994044000988
 10
298.9030222522265
 20
20.99761901935194
 10
298.8787988419314
 20
20.99464811124989
 10
298.85474925289
 20
20.99049875368293
 10
298.8309307808339
 20
20.9851808320789
 10
298.8074001708814
 20
20.97870701585212
 10
298.7842134823483
 20
20.97109272821981
 10
298.7614259551924
 20
20.96235610945783
 10
298.7390918784092
 20
20.95251797368326
 10
298.7172644606946
 20
20.94160175926687
 10
298.6959957036797
 20
20.92963347299361
 10
298.675336278043
 20
20.91664162810395
 10
298.6553354027919
 20
20.90265717636402
 10
298.6360407280038
 20
20.88771343432613
 10
298.6174982213042
 20
20.87184600395542
 10
298.5997520583537
 20
20.85509268781172
 10
298.582844517604
 20
20.8374933989888
 10
298.5668158795734
 20
20.81909006602541
 10
298.551704330883
 20
20.79992653301472
 10
298.5375458732803
 20
20.78004845515023
 10
298.524374237869
 20
20.75950318995677
 10
298.5122208047484
 20
20.73833968446604
 10
298.5011145282525
 20
20.71660835860516
 10
298.4910818679701
 20
20.69436098507627
 10
298.4821467257071
 20
20.67165056601329
 10
298.474330388543
 20
20.64853120670963
 10
298.4676514781162
 20
20.62505798671776
 10
298.4621259062605
 20
20.60128682862771
 10
298.4577668370958
 20
20.57727436483714
 10
298.454584655667
 20
20.55307780263031
 10
298.4525869432018
 20
20.52875478788744
 10
298.4517784590496
 20
20.50436326774926
  0
LWPOLYLINE
  5
2A3
330
1F
100
AcDbEntity
  8
1
  6
CONTINUOUS
 62
     7
100
AcDbPolyline
 90
       33
 70
     0
 43
0.0
 10
-319.8283669736
 20
60.22553662031484
 10
-319.8484867366433
 20
60.22094151667402
 10
-319.8684007934563
 20
60.21552011035002
 10
-319.8882102308511
 20
60.20923481773984
 10
-319.9077427855407
 20
60.20213159497791
 10
-319.9273774981997
 20
60.1940414930459
 10
-319.9466524623419
 20
60.18512467511064
 10
-319.9656697639817
 20
60.17532181232708
 10
-319.9842514829818
 20
60.16471412859874
 10
-320.0017368542124
 20
60.15373246365164
 10
-320.0187545300049
 20
60.14203826010929
 10
-320.0353882912918
 20
60.12956213278625
 10
-320.0514889718748
 20
60.11640571252805
 10
-320.0673618105482
 20
60.10228171180293
 10
-320.0826196035251
 20
60.08749738395684
 10
-320.0973399170073
 20
60.07196266879013
 10
-320.1113806195759
 20
60.05581456246449
 10
-320.124214666855
 20
60.03973811848982
 10
-320.136374760949
 20
60.0231506050036
 10
-320.1480323318789
 20
60.00577738397064
 10
-320.1589599996745
 20
59.98792028167222
 10
-320.1691302314661
 20
59.9696279481421
 10
-320.1785154943842
 20
59.95094903341397
 10
-320.1872597135501
 20
59.93154151715177
 10
-320.1951673413307
 20
59.91178758941962
 10
-320.2018452828495
 20
59.89287404400576
 10
-320.207757066131
 20
59.87371680160462
 10
-320.2129702699295
 20
59.85402577528415
 10
-320.2173786293431
 20
59.83413304453894
 10
-320.2209734278151
 20
59.81408971274634
 10
-320.223745948789
 20
59.7939468832837
 10
-320.2257212487035
 20
59.77336571796481
 10
-320.2268438153154
 20
59.75273692820807
210
0.0
220
0.0
230
-1.0
  0
LWPOLYLINE
  5
2A4
330
1F
100
AcDbEntity
  8
1
  6
CONTINUOUS
 62
     7
100
AcDbPolyline
 90
       33
 70
     0
 43
0.0
 10
-100.4261610595736
 20
21.00000000000007
 10
-100.4398482124273
 20
20.99943720296292
 10
-100.4534932104045
 20
20.99775007881351
 10
-100.4670653360475
 20
20.99494242558572
 10
-100.4805340359478
 20
20.99102056383522
 10
-100.4938689895278
 20
20.98599332241071
 10
-100.5070401772981
 20
20.9798720185785
 10
-100.5200179484368
 20
20.97267043254523
 10
-100.5327730875395
 20
20.96440477643603
 10
-100.545276880388
 20
20.95509365779798
 10
-100.5575011785922
 20
20.944758037711
 10
-100.5694184629568
 20
20.93342118360054
 10
-100.5810019054325
 20
20.92110861685821
 10
-100.5922254295107
 20
20.90784805538835
 10
-100.6030637689273
 20
20.89366935120978
 10
-100.6134925245408
 20
20.87860442325331
 10
-100.6234882192604
 20
20.86268718550621
 10
-100.6330283508964
 20
20.84595347066546
 10
-100.6420914428176
 20
20.82844094947159
 10
-100.6506570922989
 20
20.81018904590476
 10
-100.6587060164516
 20
20.79123884843397
 10
-100.6662200956332
 20
20.77163301751918
 10
-100.6731824142377
 20
20.75141568957459
 10
-100.6795772987758
 20
20.73063237760926
 10
-100.6853903531593
 20
20.70932986876878
 10
-100.6906084911091
 20
20.68755611900859
 10
-100.6952199656148
 20
20.66536014513608
 10
-100.6992143953798
 20
20.64279191446461
 10
-100.702582788191
 20
20.61990223232758
 10
-100.7053175611625
 20
20.59674262770614
 10
-100.7074125578058
 20
20.57336523722775
 10
-100.7088630618893
 20
20.54982268779679
 10
-100.7096658080553
 20
20.52616797812154
210
0.0
220
0.0
230
-1.0
  0
LWPOLYLINE
  5
2A5
330
1F
100
AcDbEntity
  8
1
  6
CONTINUOUS
 62
     7
100
AcDbPolyline
 90
       33
 70
     0
 43
0.0
 10
-110.9956746437654
 20
20.50436326774926
 10
-110.9964831279177
 20
20.52875478788743
 10
-110.9984808403829
 20
20.5530778026303
 10
-111.0016630218117
 20
20.57727436483714
 10
-111.0060220909763
 20
20.6012868286277
 10
-111.0115476628321
 20
20.62505798671775
 10
-111.0182265732588
 20
20.64853120670963
 10
-111.026042910423
 20
20.67165056601329
 10
-111.0349780526859
 20
20.69436098507627
 10
-111.0450107129683
 20
20.71660835860515
 10
-111.0561169894642
 20
20.73833968446603
 10
-111.0682704225849
 20
20.75950318995676
 10
-111.0814420579961
 20
20.78004845515022
 10
-111.0956005155989
 20
20.79992653301472
 10
-111.1107120642893
 20
20.8190900660254
 10
-111.1267407023198
 20
20.83749339898879
 10
-111.1436482430695
 20
20.85509268781171
 10
-111.16139440602
 20
20.87184600395541
 10
-111.1799369127196
 20
20.88771343432613
 10
-111.1992315875078
 20
20.90265717636402
 10
-111.2192324627589
 20
20.91664162810394
 10
-111.2398918883956
 20
20.9296334729936
 10
-111.2611606454104
 20
20.94160175926687
 10
-111.2829880631251
 20
20.95251797368325
 10
-111.3053221399083
 20
20.96235610945782
 10
-111.3281096670642
 20
20.9710927282198
 10
-111.3512963555972
 20
20.97870701585211
 10
-111.3748269655497
 20
20.98518083207889
 10
-111.3986454376059
 20
20.99049875368292
 10
-111.4226950266472
 20
20.99464811124988
 10
-111.4469184369423
 20
20.99761901935193
 10
-111.4712579586481
 20
20.99940440009879
 10
-111.4956556052975
 20
21.00000000000007
210
0.0
220
0.0
230
-1.0
  0
LWPOLYLINE
  5
2A6
330
1F
100
AcDbEntity
  8
1
  6
CONTINUOUS
 62
     7
100
AcDbPolyline
 90
       33
 70
     0
 43
0.0
 10
-67.2292599999687
 20
59.75273692820807
 10
-67.23033713369607
 20
59.77273791638662
 10
-67.23221776149288
 20
59.79271140947166
 10
-67.23489792274056
 20
59.81260771537426
 10
-67.2383736568205
 20
59.83237714200553
 10
-67.24277416227272
 20
59.85253743713572
 10
-67.2480104566352
 20
59.87252748074866
 10
-67.25406905537353
 20
59.89229496684357
 10
-67.26093647395334
 20
59.9117875894196
 10
-67.26857757561693
 20
59.93090972585076
 10
-67.2770102862659
 20
59.94972454299958
 10
-67.28621254438214
 20
59.96818330365446
 10
-67.29616228844748
 20
59.98623727060374
 10
-67.30717521795934
 20
60.00437425557829
 10
-67.318961634133
 20
60.02204828258547
 10
-67.33148860427909
 20
60.03921112656698
 10
-67.34472319570817
 20
60.05581456246448
 10
-67.3582986395378
 20
60.07144720737418
 10
-67.37252376214597
 20
60.08651932518978
 10
-67.38736080253005
 20
60.10099218964037
 10
-67.4027719996874
 20
60.11482707445498
 10
-67.41922134494781
 20
60.12838535618464
 10
-67.43624961377192
 20
60.14124222353129
 10
-67.45380915870747
 20
60.15336327987571
 10
-67.4718523323022
 20
60.16471412859872
 10
-67.48983045181808
 20
60.17499195084501
 10
-67.508233687075
 20
60.18452427859601
 10
-67.52701393242096
 20
60.19328761220196
 10
-67.54612308220386
 20
60.2012584520131
 10
-67.56611300187548
 20
60.20862337409463
 10
-67.5864155792811
 20
60.21513559627024
 10
-67.60697534801815
 20
60.22077878839273
 10
-67.62773684168408
 20
60.22553662031483
210
0.0
220
0.0
230
-1.0
  0
LWPOLYLINE
  5
2A7
330
1F
100
AcDbEntity
  8
1
  6
CONTINUOUS
 62
     7
100
AcDbPolyline
 90
       33
 70
     0
 43
0.0
 10
132.7707400000313
 20
59.75273692820808
 10
132.7696634201008
 20
59.772749031046
 10
132.7677843205168
 20
59.79271735283353
 10
132.7645333023329
 20
59.81618669753379
 10
132.7601689023504
 20
59.83950665815726
 10
132.7547038166913
 20
59.86259621315821
 10
132.7475208048021
 20
59.88738629554032
 10
132.7390635260467
 20
59.91178758941962
 10
132.7314190784294
 20
59.93092146740693
 10
132.7229896964243
 20
59.94973159018936
 10
132.7120379613422
 20
59.97148835882403
 10
132.7000287575365
 20
59.9927069854156
 10
132.6870045601955
 20
60.01330994096924
 10
132.6769346570676
 20
60.02784527633379
 10
132.6663520869717
 20
60.04202256344
 10
132.6552768042919
 20
60.05581456246449
 10
132.6451874465294
 20
60.06755802794179
 10
132.6347384145359
 20
60.07898463579915
 10
132.6226076270984
 20
60.09140479595144
 10
132.610048427169
 20
60.10340100534936
 10
132.597083781272
 20
60.11495117729344
 10
132.5807435637347
 20
60.12841520737921
 10
132.5638479466004
 20
60.14117592381708
 10
132.5462492211735
 20
60.15332681609002
 10
132.5281476676978
 20
60.16471412859874
 10
132.5147442755998
 20
60.17247119448868
 10
132.5011076478108
 20
60.17980929396042
 10
132.4776836642886
 20
60.19118576006796
 10
132.4537015073645
 20
60.20132733682013
 10
132.4338443093385
 20
60.2086398168677
 10
132.4136969979222
 20
60.21510551462722
 10
132.3930909736796
 20
60.22076378488782
 10
132.3722631583159
 20
60.22553662031483
  0
ENDSEC
  0
SECTION
  2
OBJECTS
  0
DICTIONARY
  5
C
330
0
100
AcDbDictionary
  3
ACAD_GROUP
350
D
  3
ACAD_LAYOUT
350
1A
  3
ACAD_MATERIAL
350
43
  3
ACAD_MLEADERSTYLE
350
6B
  3
ACAD_MLINESTYLE
350
17
  3
ACAD_PLOTSETTINGS
350
19
  3
ACAD_SCALELIST
350
47
  3
ACAD_VISUALSTYLE
350
2A
  3
ACDBHEADERROUNDTRIPXREC
350
2A8
  3
ACDBVARIABLEDICTIONARY
350
2C9
  0
DICTIONARY
  5
2D0
330
8
100
AcDbDictionary
280
     1
  3
ACAD_XREC_ROUNDTRIP
360
2D1
  0
DICTIONARY
  5
D
102
{ACAD_REACTORS
330
C
102
}
330
C
100
AcDbDictionary
  0
DICTIONARY
  5
1A
102
{ACAD_REACTORS
330
C
102
}
330
C
100
AcDbDictionary
  0
DICTIONARY
  5
43
102
{ACAD_REACTORS
330
C
102
}
330
C
100
AcDbDictionary
  3
BYBLOCK
350
45
  3
BYLAYER
350
44
  3
GLOBAL
350
46
  0
DICTIONARY
  5
6B
102
{ACAD_REACTORS
330
C
102
}
330
C
100
AcDbDictionary
  3
STANDARD
350
6C
  0
DICTIONARY
  5
17
102
{ACAD_REACTORS
330
C
102
}
330
C
100
AcDbDictionary
  3
STANDARD
350
18
  0
DICTIONARY
  5
19
102
{ACAD_REACTORS
330
C
102
}
330
C
100
AcDbDictionary
  0
DICTIONARY
  5
47
102
{ACAD_REACTORS
330
C
102
}
330
C
100
AcDbDictionary
  3
A0
350
48
  3
A1
350
49
  3
A2
350
4A
  3
A3
350
4B
  3
A4
350
4C
  3
A5
350
4D
  3
A6
350
4E
  3
A7
350
4F
  3
A8
350
50
  3
A9
350
51
  3
B0
350
52
  3
B1
350
53
  3
B2
350
54
  3
B3
350
55
  3
B4
350
56
  3
B5
350
57
  3
B6
350
58
  3
B7
350
59
  3
B8
350
5A
  3
B9
350
5B
  3
C0
350
5C
  3
C1
350
5D
  3
C2
350
5E
  3
C3
350
5F
  3
C4
350
60
  3
C5
350
61
  3
C6
350
62
  3
C7
350
63
  3
C8
350
64
  3
C9
350
65
  3
D0
350
66
  3
D1
350
67
  3
D2
350
68
  0
DICTIONARY
  5
2A
102
{ACAD_REACTORS
330
C
102
}
330
C
100
AcDbDictionary
  3
2DWIREFRAME
350
2F
  3
BASIC
350
32
  3
BRIGHTEN
350
36
  3
COLORCHANGE
350
3A
  3
CONCEPTUAL
350
34
  3
DIM
350
35
  3
EDGECOLOROFF
350
3D
  3
FACEPATTERN
350
39
  3
FLAT
350
2B
  3
FLATWITHEDGES
350
2C
  3
GOURAUD
350
2D
  3
GOURAUDWITHEDGES
350
2E
  3
HIDDEN
350
31
  3
JITTEROFF
350
3B
  3
LINEPATTERN
350
38
  3
OVERHANGOFF
350
3C
  3
REALISTIC
350
33
  3
SHADED
350
42
  3
SHADED_WITH_EDGES
350
41
  3
SHADES_OF_GRAY
350
3E
  3
SKETCHY
350
3F
  3
THICKEN
350
37
  3
WIREFRAME
350
30
  3
X-RAY
350
40
  0
DICTIONARY
  5
2A8
102
{ACAD_REACTORS
330
C
102
}
330
C
100
AcDbDictionary
  3
CEPSNID
350
2B2
  3
CEPSNTYPE
350
2B1
  3
DIMSTYLEDATA
350
2C8
  3
FINGERPRINTGUID
350
2B3
  3
HYPERLINKBASE
350
2AB
  3
INSUNITS
350
2B0
  3
LAYOUTDICT
350
2AD
  3
LWETCUNION
350
2AF
  3
PLOTSETDICT
350
2AE
  3
PSVPSCALE
350
2B5
  3
PUCSBASE
350
2B8
  3
PUCSORGBACK
350
2BE
  3
PUCSORGBOTTOM
350
2BA
  3
PUCSORGFRONT
350
2BD
  3
PUCSORGLEFT
350
2BB
  3
PUCSORGRIGHT
350
2BC
  3
PUCSORGTOP
350
2B9
  3
PUCSORTHOREF
350
2B6
  3
PUCSORTHOVIEW
350
2B7
  3
STYLESHEET
350
2AC
  3
TSTACKALIGN
350
2A9
  3
TSTACKSIZE
350
2AA
  3
UCSBASE
350
2C1
  3
UCSORGBACK
350
2C7
  3
UCSORGBOTTOM
350
2C3
  3
UCSORGFRONT
350
2C6
  3
UCSORGLEFT
350
2C4
  3
UCSORGRIGHT
350
2C5
  3
UCSORGTOP
350
2C2
  3
UCSORTHOREF
350
2BF
  3
UCSORTHOVIEW
350
2C0
  3
VERSIONGUID
350
2B4
  0
DICTIONARY
  5
2C9
102
{ACAD_REACTORS
330
C
102
}
330
C
100
AcDbDictionary
  3
CANNOSCALE
350
2D2
  3
CMLEADERSTYLE
350
2CB
  3
CTABLESTYLE
350
2CA
  3
DIMASSOC
350
2CE
  3
HIDETEXT
350
2CF
  3
MSLTSCALE
350
2D3
  0
XRECORD
  5
2D1
102
{ACAD_REACTORS
330
2D0
102
}
330
2D0
100
AcDbXrecord
102
VTR_0.000_0.000_1.000_1.000_VISUALSTYLE
340
2F
102
VTR_0.000_0.000_1.000_1.000_GRIDDISPLAY
 70
     3
102
VTR_0.000_0.000_1.000_1.000_GRIDMAJOR
 70
     5
102
VTR_0.000_0.000_1.000_1.000_DEFAULTLIGHTING
280
     1
102
VTR_0.000_0.000_1.000_1.000_DEFAULTLIGHTINGTYPE
 70
     1
102
VTR_0.000_0.000_1.000_1.000_BRIGHTNESS
141
0.0
102
VTR_0.000_0.000_1.000_1.000_CONTRAST
142
0.0
  0
MATERIAL
  5
45
102
{ACAD_REACTORS
330
43
102
}
102
{ACAD_XDICTIONARY
360
2D6
102
}
330
43
100
AcDbMaterial
  1
BYBLOCK
  0
MATERIAL
  5
44
102
{ACAD_REACTORS
330
43
102
}
102
{ACAD_XDICTIONARY
360
2D4
102
}
330
43
100
AcDbMaterial
  1
BYLAYER
  0
MATERIAL
  5
46
102
{ACAD_REACTORS
330
43
102
}
102
{ACAD_XDICTIONARY
360
2D8
102
}
330
43
100
AcDbMaterial
  1
GLOBAL
  0
ACAD_PROXY_OBJECT
  5
6C
102
{ACAD_REACTORS
330
6B
102
}
330
6B
100
AcDbProxyObject
 90
      499
 91
      505
 93
      610
310
40901902A4063FBFFFFFE056BD1B81E855B9FC0AD7A3703D0AD73F4214DD185B99185C9900AD7A3703D0AC73F90141901A02B5E8DC0F42B1CFC02B5E8DC0F42B1CFE5764000000000000300FC0
340
14
340
0
340
11
340
0
 94
        0
1001
ACAD_MLEADERVER
1070
     2
  0
MLINESTYLE
  5
18
102
{ACAD_REACTORS
330
17
102
}
330
17
100
AcDbMlineStyle
  2
Standard
 70
     0
  3

 62
   256
 51
90.0
 52
90.0
 71
     2
 49
0.5
 62
   256
  6
BYLAYER
 49
-0.5
 62
   256
  6
BYLAYER
  0
ACAD_PROXY_OBJECT
  5
48
102
{ACAD_REACTORS
330
47
102
}
330
47
100
AcDbProxyObject
 90
      499
 91
      503
 93
       41
310
903313A31580
  0
ACAD_PROXY_OBJECT
  5
49
102
{ACAD_REACTORS
330
47
102
}
330
47
100
AcDbProxyObject
 90
      499
 91
      503
 93
      105
310
903313A324000000000000004000
  0
ACAD_PROXY_OBJECT
  5
4A
102
{ACAD_REACTORS
330
47
102
}
330
47
100
AcDbProxyObject
 90
      499
 91
      503
 93
      105
310
903313A344000000000000104000
  0
ACAD_PROXY_OBJECT
  5
4B
102
{ACAD_REACTORS
330
47
102
}
330
47
100
AcDbProxyObject
 90
      499
 91
      503
 93
      105
310
903313A354000000000000144000
  0
ACAD_PROXY_OBJECT
  5
4C
102
{ACAD_REACTORS
330
47
102
}
330
47
100
AcDbProxyObject
 90
      499
 91
      503
 93
      105
310
903313A384000000000000204000
  0
ACAD_PROXY_OBJECT
  5
4D
102
{ACAD_REACTORS
330
47
102
}
330
47
100
AcDbProxyObject
 90
      499
 91
      503
 93
      113
310
904313A31304000000000000244000
  0
ACAD_PROXY_OBJECT
  5
4E
102
{ACAD_REACTORS
330
47
102
}
330
47
100
AcDbProxyObject
 90
      499
 91
      503
 93
      113
310
904313A31364000000000000304000
  0
ACAD_PROXY_OBJECT
  5
4F
102
{ACAD_REACTORS
330
47
102
}
330
47
100
AcDbProxyObject
 90
      499
 91
      503
 93
      113
310
904313A32304000000000000344000
  0
ACAD_PROXY_OBJECT
  5
50
102
{ACAD_REACTORS
330
47
102
}
330
47
100
AcDbProxyObject
 90
      499
 91
      503
 93
      113
310
904313A333040000000000003E4000
  0
ACAD_PROXY_OBJECT
  5
51
102
{ACAD_REACTORS
330
47
102
}
330
47
100
AcDbProxyObject
 90
      499
 91
      503
 93
      113
310
904313A34304000000000000444000
  0
ACAD_PROXY_OBJECT
  5
52
102
{ACAD_REACTORS
330
47
102
}
330
47
100
AcDbProxyObject
 90
      499
 91
      503
 93
      113
310
904313A35304000000000000494000
  0
ACAD_PROXY_OBJECT
  5
53
102
{ACAD_REACTORS
330
47
102
}
330
47
100
AcDbProxyObject
 90
      499
 91
      503
 93
      121
310
905313A3130304000000000000594000
  0
ACAD_PROXY_OBJECT
  5
54
102
{ACAD_REACTORS
330
47
102
}
330
47
100
AcDbProxyObject
 90
      499
 91
      503
 93
      105
310
903323A310000000000000010100
  0
ACAD_PROXY_OBJECT
  5
55
102
{ACAD_REACTORS
330
47
102
}
330
47
100
AcDbProxyObject
 90
      499
 91
      503
 93
      105
310
903343A310000000000000410100
  0
ACAD_PROXY_OBJECT
  5
56
102
{ACAD_REACTORS
330
47
102
}
330
47
100
AcDbProxyObject
 90
      499
 91
      503
 93
      105
310
903383A310000000000000810100
  0
ACAD_PROXY_OBJECT
  5
57
102
{ACAD_REACTORS
330
47
102
}
330
47
100
AcDbProxyObject
 90
      499
 91
      503
 93
      113
310
90431303A310000000000000910100
  0
ACAD_PROXY_OBJECT
  5
58
102
{ACAD_REACTORS
330
47
102
}
330
47
100
AcDbProxyObject
 90
      499
 91
      503
 93
      121
310
9053130303A310000000000001650100
  0
ACAD_PROXY_OBJECT
  5
59
102
{ACAD_REACTORS
330
47
102
}
330
47
100
AcDbProxyObject
 90
      499
 91
      503
 93
      257
310
90E312F31323822203D2031272D3022000000000000200FC000000000000284000
  0
ACAD_PROXY_OBJECT
  5
5A
102
{ACAD_REACTORS
330
47
102
}
330
47
100
AcDbProxyObject
 90
      499
 91
      503
 93
      249
310
90D312F363422203D2031272D3022000000000000240FC000000000000284000
  0
ACAD_PROXY_OBJECT
  5
5B
102
{ACAD_REACTORS
330
47
102
}
330
47
100
AcDbProxyObject
 90
      499
 91
      503
 93
      249
310
90D312F333222203D2031272D3022000000000000280FC000000000000284000
  0
ACAD_PROXY_OBJECT
  5
5C
102
{ACAD_REACTORS
330
47
102
}
330
47
100
AcDbProxyObject
 90
      499
 91
      503
 93
      249
310
90D312F313622203D2031272D30220000000000002C0FC000000000000284000
  0
ACAD_PROXY_OBJECT
  5
5D
102
{ACAD_REACTORS
330
47
102
}
330
47
100
AcDbProxyObject
 90
      499
 91
      503
 93
      249
310
90D332F333222203D2031272D30220000000000002E0FC000000000000284000
  0
ACAD_PROXY_OBJECT
  5
5E
102
{ACAD_REACTORS
330
47
102
}
330
47
100
AcDbProxyObject
 90
      499
 91
      503
 93
      241
310
90C312F3822203D2031272D3022000000000000300FC000000000000284000
  0
ACAD_PROXY_OBJECT
  5
5F
102
{ACAD_REACTORS
330
47
102
}
330
47
100
AcDbProxyObject
 90
      499
 91
      503
 93
      249
310
90D332F313622203D2031272D3022000000000000320FC000000000000284000
  0
ACAD_PROXY_OBJECT
  5
60
102
{ACAD_REACTORS
330
47
102
}
330
47
100
AcDbProxyObject
 90
      499
 91
      503
 93
      241
310
90C312F3422203D2031272D3022000000000000340FC000000000000284000
  0
ACAD_PROXY_OBJECT
  5
61
102
{ACAD_REACTORS
330
47
102
}
330
47
100
AcDbProxyObject
 90
      499
 91
      503
 93
      241
310
90C332F3822203D2031272D3022000000000000360FC000000000000284000
  0
ACAD_PROXY_OBJECT
  5
62
102
{ACAD_REACTORS
330
47
102
}
330
47
100
AcDbProxyObject
 90
      499
 91
      503
 93
      241
310
90C312F3222203D2031272D3022000000000000380FC000000000000284000
  0
ACAD_PROXY_OBJECT
  5
63
102
{ACAD_REACTORS
330
47
102
}
330
47
100
AcDbProxyObject
 90
      499
 91
      503
 93
      241
310
90C332F3422203D2031272D30220000000000003A0FC000000000000284000
  0
ACAD_PROXY_OBJECT
  5
64
102
{ACAD_REACTORS
330
47
102
}
330
47
100
AcDbProxyObject
 90
      499
 91
      503
 93
      161
310
90A3122203D2031272D30224000000000000284000
  0
ACAD_PROXY_OBJECT
  5
65
102
{ACAD_REACTORS
330
47
102
}
330
47
100
AcDbProxyObject
 90
      499
 91
      503
 93
      257
310
90E312D312F3222203D2031272D30220000000000003E0FC000000000000284000
  0
ACAD_PROXY_OBJECT
  5
66
102
{ACAD_REACTORS
330
47
102
}
330
47
100
AcDbProxyObject
 90
      499
 91
      503
 93
      225
310
90A3322203D2031272D302200000000000002100000000000000284000
  0
ACAD_PROXY_OBJECT
  5
67
102
{ACAD_REACTORS
330
47
102
}
330
47
100
AcDbProxyObject
 90
      499
 91
      503
 93
      225
310
90A3622203D2031272D302200000000000006100000000000000284000
  0
ACAD_PROXY_OBJECT
  5
68
102
{ACAD_REACTORS
330
47
102
}
330
47
100
AcDbProxyObject
 90
      499
 91
      503
 93
      249
310
90D31272D3022203D2031272D30220000000000000A100000000000000284000
  0
ACAD_PROXY_OBJECT
  5
2F
102
{ACAD_REACTORS
330
2A
102
}
330
2A
100
AcDbProxyObject
 90
      499
 91
      501
 93
      436
310
42CC9915DA5C99599C985B595049028333333333333E33F0000000000000F90107901411070040501600405405064090741402480A0340
1001
ACAD
1000
AcDbSavedByObjectVersion
1070
     0
  0
ACAD_PROXY_OBJECT
  5
32
102
{ACAD_REACTORS
330
2A
102
}
330
2A
100
AcDbProxyObject
 90
      499
 91
      501
 93
      388
310
4150985CDA58D07406404333333333333E33F0000000000000F90107A41107004050150841D405064090741402480A0350
1001
ACAD
1000
AcDbSavedByObjectVersion
1070
     0
  0
ACAD_PROXY_OBJECT
  5
36
102
{ACAD_REACTORS
330
2A
102
}
330
2A
100
AcDbProxyObject
 90
      499
 91
      501
 93
      428
310
42109C9A59DA1D195B90C409028333333333333E33F0000000000000F9010790141107004050150841D405064090741402480A029950
1001
ACAD
1000
AcDbSavedByObjectVersion
1070
     0
  0
ACAD_PROXY_OBJECT
  5
3A
102
{ACAD_REACTORS
330
2A
102
}
330
2A
100
AcDbProxyObject
 90
      499
 91
      501
 93
      452
310
42D0DBDB1BDC90DA185B99D95104090240C333333333333E33F0000000000000F90108901411070040501508421405064090741402480A0350
1001
ACAD
1000
AcDbSavedByObjectVersion
1070
     0
  0
ACAD_PROXY_OBJECT
  5
34
102
{ACAD_REACTORS
330
2A
102
}
330
2A
100
AcDbProxyObject
 90
      499
 91
      501
 93
      500
310
4290DBDB98D95C1D1D585B10940D028333333333333E33F0000000000000F90107902409070040501000000000018199010841D405064090740C02480A0340
1001
ACAD
1000
AcDbSavedByObjectVersion
1070
     0
  0
ACAD_PROXY_OBJECT
  5
35
102
{ACAD_REACTORS
330
2A
102
}
330
2A
100
AcDbProxyObject
 90
      499
 91
      501
 93
      412
310
40D11A5B50B409028333333333333E33F0000000000000F9010790141107004050150841D405064090741402480A02677FFFFFD0
1001
ACAD
1000
AcDbSavedByObjectVersion
1070
     0
  0
ACAD_PROXY_OBJECT
  5
3D
102
{ACAD_REACTORS
330
2A
102
}
330
2A
100
AcDbProxyObject
 90
      499
 91
      501
 93
      452
310
43115919D950DBDB1BDC93D999916409028333333333333E33F0000000000000F9010790141107004050150841D405064090741402480A0350
1001
ACAD
1000
AcDbSavedByObjectVersion
1070
     0
  0
ACAD_PROXY_OBJECT
  5
39
102
{ACAD_REACTORS
330
2A
102
}
330
2A
100
AcDbProxyObject
 90
      499
 91
      501
 93
      444
310
42D19858D95C185D1D195C9B90F409028333333333333E33F0000000000000F9010790141107004050150841D405064090741402480A0350
1001
ACAD
1000
AcDbSavedByObjectVersion
1070
     0
  0
ACAD_PROXY_OBJECT
  5
2B
102
{ACAD_REACTORS
330
2A
102
}
330
2A
100
AcDbProxyObject
 90
      499
 91
      501
 93
      380
310
41119B185D240901404333333333333E33F0000000000000F9010740A907004050150841D405064090741402480A1B50
1001
ACAD
1000
AcDbSavedByObjectVersion
1070
     0
  0
ACAD_PROXY_OBJECT
  5
2C
102
{ACAD_REACTORS
330
2A
102
}
330
2A
100
AcDbProxyObject
 90
      499
 91
      501
 93
      468
310
43519B185D15DA5D1A115919D95CD0140901404333333333333E33F0000000000000F90107409019070040501600405405064090741402480A1B50
1001
ACAD
1000
AcDbSavedByObjectVersion
1070
     0
  0
ACAD_PROXY_OBJECT
  5
2D
102
{ACAD_REACTORS
330
2A
102
}
330
2A
100
AcDbProxyObject
 90
      499
 91
      501
 93
      404
310
41D1DBDD5C985D5910240902404333333333333E33F0000000000000F9010740A9070040501641D405064090741402480A1B50
1001
ACAD
1000
AcDbSavedByObjectVersion
1070
     0
  0
ACAD_PROXY_OBJECT
  5
2E
102
{ACAD_REACTORS
330
2A
102
}
330
2A
100
AcDbProxyObject
 90
      499
 91
      501
 93
      492
310
4411DBDD5C985D5915DA5D1A115919D95CD0340902404333333333333E33F0000000000000F90107409019070040501600405405064090741402480A1B50
1001
ACAD
1000
AcDbSavedByObjectVersion
1070
     0
  0
ACAD_PROXY_OBJECT
  5
31
102
{ACAD_REACTORS
330
2A
102
}
330
2A
100
AcDbProxyObject
 90
      499
 91
      501
 93
      476
310
41921A5919195B90640502408333333333333E33F0000000000000F901079024090700405020000000000001110200405405064090740C02480A0340
1001
ACAD
1000
AcDbSavedByObjectVersion
1070
     0
  0
ACAD_PROXY_OBJECT
  5
3B
102
{ACAD_REACTORS
330
2A
102
}
330
2A
100
AcDbProxyObject
 90
      499
 91
      501
 93
      428
310
42529A5D1D195C93D999914409028333333333333E33F0000000000000F9010790141107004050150A41D405064090741402480A0350
1001
ACAD
1000
AcDbSavedByObjectVersion
1070
     0
  0
ACAD_PROXY_OBJECT
  5
38
102
{ACAD_REACTORS
330
2A
102
}
330
2A
100
AcDbProxyObject
 90
      499
 91
      501
 93
      444
310
42D31A5B995C185D1D195C9B90E409028333333333333E33F0000000000000F9010790141107004050750841D405064090741402483A0350
1001
ACAD
1000
AcDbSavedByObjectVersion
1070
     0
  0
ACAD_PROXY_OBJECT
  5
3C
102
{ACAD_REACTORS
330
2A
102
}
330
2A
100
AcDbProxyObject
 90
      499
 91
      501
 93
      444
310
42D3DD995C9A185B99D3D999915409028333333333333E33F0000000000000F9010790141107004050150941D405064090741402480A0350
1001
ACAD
1000
AcDbSavedByObjectVersion
1070
     0
  0
ACAD_PROXY_OBJECT
  5
33
102
{ACAD_REACTORS
330
2A
102
}
330
2A
100
AcDbProxyObject
 90
      499
 91
      501
 93
      428
310
425499585B1A5CDD1A58D08409038333333333333E33F0000000000000F9010740A907004050150800405405064090740C02480A1B40
1001
ACAD
1000
AcDbSavedByObjectVersion
1070
     0
  0
ACAD_PROXY_OBJECT
  5
42
102
{ACAD_REACTORS
330
2A
102
}
330
2A
100
AcDbProxyObject
 90
      499
 91
      501
 93
      420
310
4194DA1859195911B40902404333333333333E33F0000000000000F9010740A41107004050150800405405064090840C02480A0B40
1001
ACAD
1000
AcDbSavedByObjectVersion
1070
     0
  0
ACAD_PROXY_OBJECT
  5
41
102
{ACAD_REACTORS
330
2A
102
}
330
2A
100
AcDbProxyObject
 90
      499
 91
      501
 93
      516
310
4454DA18591959081DDA5D1A08195919D95CD1A40902404333333333333E33F0000000000000F901074090142907004050250800405405064090740C02480A0B40
1001
ACAD
1000
AcDbSavedByObjectVersion
1070
     0
  0
ACAD_PROXY_OBJECT
  5
3E
102
{ACAD_REACTORS
330
2A
102
}
330
2A
100
AcDbProxyObject
 90
      499
 91
      501
 93
      532
310
4394DA1859195CC81BD98811DC985E5174090240C333333333333E33F0000000000000F901079024090741D01000000000000111010841D405064090740C02480A0340
1001
ACAD
1000
AcDbSavedByObjectVersion
1070
     0
  0
ACAD_PROXY_OBJECT
  5
3F
102
{ACAD_REACTORS
330
2A
102
}
330
2A
100
AcDbProxyObject
 90
      499
 91
      501
 93
      476
310
41D4DAD95D18DA1E51840502408333333333333E33F0000000000000F901079024090741D01000000000000111010B41D405064090741802480A0340
1001
ACAD
1000
AcDbSavedByObjectVersion
1070
     0
  0
ACAD_PROXY_OBJECT
  5
37
102
{ACAD_REACTORS
330
2A
102
}
330
2A
100
AcDbProxyObject
 90
      499
 91
      501
 93
      412
310
41D51A1A58DAD95B90D409028333333333333E33F0000000000000F9010790141107004050150C41D405064090741402480A0350
1001
ACAD
1000
AcDbSavedByObjectVersion
1070
     0
  0
ACAD_PROXY_OBJECT
  5
30
102
{ACAD_REACTORS
330
2A
102
}
330
2A
100
AcDbProxyObject
 90
      499
 91
      501
 93
      420
310
4255DA5C99599C985B595059028333333333333E33F0000000000000F90107901411070040501600405405064090740C02480A0340
1001
ACAD
1000
AcDbSavedByObjectVersion
1070
     0
  0
ACAD_PROXY_OBJECT
  5
40
102
{ACAD_REACTORS
330
2A
102
}
330
2A
100
AcDbProxyObject
 90
      499
 91
      501
 93
      404
310
41560B54985E51940902404000000000000E03F0000000000000F9010740501907004050150841D405064090740C02480A1B40
1001
ACAD
1000
AcDbSavedByObjectVersion
1070
     0
  0
XRECORD
  5
2B2
102
{ACAD_REACTORS
330
2A8
102
}
330
2A8
100
AcDbXrecord
340
0
  0
XRECORD
  5
2B1
102
{ACAD_REACTORS
330
2A8
102
}
330
2A8
100
AcDbXrecord
 90
        0
  0
XRECORD
  5
2C8
102
{ACAD_REACTORS
330
2A8
102
}
330
2A8
100
AcDbXrecord
1000
DSTYLE
1002
{
1070
   179
 70
     2
1070
   171
 70
     2
1070
   143
 40
25.4
1070
   274
 70
     2
1070
    41
 40
3.0
1070
   141
 40
0.09
1070
    43
 40
0.38
1070
   278
 70
    46
1070
    44
 40
1.5
1070
    42
 40
0.0625
1070
   147
 40
1.5
1070
   272
 70
     4
1070
    73
 70
     1
1070
   172
 70
     0
1070
    74
 70
     1
1070
   283
 70
     1
1070
   340
340
6F
1070
   140
 40
3.0
1070
   284
 70
     0
1070
    78
 70
     0
1002
}
  0
XRECORD
  5
2B3
102
{ACAD_REACTORS
330
2A8
102
}
330
2A8
100
AcDbXrecord
  1
{49E9B702-946E-46B6-AD6E-39F5CBC1DEAC}
  0
XRECORD
  5
2AB
102
{ACAD_REACTORS
330
2A8
102
}
330
2A8
100
AcDbXrecord
  1

  0
XRECORD
  5
2B0
102
{ACAD_REACTORS
330
2A8
102
}
330
2A8
100
AcDbXrecord
 90
        4
  0
XRECORD
  5
2AD
102
{ACAD_REACTORS
330
2A8
102
}
330
2A8
100
AcDbXrecord
340
1A
  0
XRECORD
  5
2AF
102
{ACAD_REACTORS
330
2A8
102
}
330
2A8
100
AcDbXrecord
 90
    10269
  0
XRECORD
  5
2AE
102
{ACAD_REACTORS
330
2A8
102
}
330
2A8
100
AcDbXrecord
340
19
  0
XRECORD
  5
2B5
102
{ACAD_REACTORS
330
2A8
102
}
330
2A8
100
AcDbXrecord
 40
0.0
  0
XRECORD
  5
2B8
102
{ACAD_REACTORS
330
2A8
102
}
330
2A8
100
AcDbXrecord
340
0
  0
XRECORD
  5
2BE
102
{ACAD_REACTORS
330
2A8
102
}
330
2A8
100
AcDbXrecord
 10
0.0
 20
0.0
 30
0.0
  0
XRECORD
  5
2BA
102
{ACAD_REACTORS
330
2A8
102
}
330
2A8
100
AcDbXrecord
 10
0.0
 20
0.0
 30
0.0
  0
XRECORD
  5
2BD
102
{ACAD_REACTORS
330
2A8
102
}
330
2A8
100
AcDbXrecord
 10
0.0
 20
0.0
 30
0.0
  0
XRECORD
  5
2BB
102
{ACAD_REACTORS
330
2A8
102
}
330
2A8
100
AcDbXrecord
 10
0.0
 20
0.0
 30
0.0
  0
XRECORD
  5
2BC
102
{ACAD_REACTORS
330
2A8
102
}
330
2A8
100
AcDbXrecord
 10
0.0
 20
0.0
 30
0.0
  0
XRECORD
  5
2B9
102
{ACAD_REACTORS
330
2A8
102
}
330
2A8
100
AcDbXrecord
 10
0.0
 20
0.0
 30
0.0
  0
XRECORD
  5
2B6
102
{ACAD_REACTORS
330
2A8
102
}
330
2A8
100
AcDbXrecord
340
0
  0
XRECORD
  5
2B7
102
{ACAD_REACTORS
330
2A8
102
}
330
2A8
100
AcDbXrecord
 70
     0
  0
XRECORD
  5
2AC
102
{ACAD_REACTORS
330
2A8
102
}
330
2A8
100
AcDbXrecord
  1

  0
XRECORD
  5
2A9
102
{ACAD_REACTORS
330
2A8
102
}
330
2A8
100
AcDbXrecord
 90
        1
  0
XRECORD
  5
2AA
102
{ACAD_REACTORS
330
2A8
102
}
330
2A8
100
AcDbXrecord
 90
       70
  0
XRECORD
  5
2C1
102
{ACAD_REACTORS
330
2A8
102
}
330
2A8
100
AcDbXrecord
340
0
  0
XRECORD
  5
2C7
102
{ACAD_REACTORS
330
2A8
102
}
330
2A8
100
AcDbXrecord
 10
0.0
 20
0.0
 30
0.0
  0
XRECORD
  5
2C3
102
{ACAD_REACTORS
330
2A8
102
}
330
2A8
100
AcDbXrecord
 10
0.0
 20
0.0
 30
0.0
  0
XRECORD
  5
2C6
102
{ACAD_REACTORS
330
2A8
102
}
330
2A8
100
AcDbXrecord
 10
0.0
 20
0.0
 30
0.0
  0
XRECORD
  5
2C4
102
{ACAD_REACTORS
330
2A8
102
}
330
2A8
100
AcDbXrecord
 10
0.0
 20
0.0
 30
0.0
  0
XRECORD
  5
2C5
102
{ACAD_REACTORS
330
2A8
102
}
330
2A8
100
AcDbXrecord
 10
0.0
 20
0.0
 30
0.0
  0
XRECORD
  5
2C2
102
{ACAD_REACTORS
330
2A8
102
}
330
2A8
100
AcDbXrecord
 10
0.0
 20
0.0
 30
0.0
  0
XRECORD
  5
2BF
102
{ACAD_REACTORS
330
2A8
102
}
330
2A8
100
AcDbXrecord
340
0
  0
XRECORD
  5
2C0
102
{ACAD_REACTORS
330
2A8
102
}
330
2A8
100
AcDbXrecord
 70
     0
  0
XRECORD
  5
2B4
102
{ACAD_REACTORS
330
2A8
102
}
330
2A8
100
AcDbXrecord
  1
{FAEB1C32-E019-11D5-929B-00C0DF256EC4}
  0
DICTIONARYVAR
  5
2D2
102
{ACAD_REACTORS
330
2C9
102
}
330
2C9
100
DictionaryVariables
280
     0
  1
1:1
  0
DICTIONARYVAR
  5
2CB
102
{ACAD_REACTORS
330
2C9
102
}
330
2C9
100
DictionaryVariables
280
     0
  1
Standard
  0
DICTIONARYVAR
  5
2CA
102
{ACAD_REACTORS
330
2C9
102
}
330
2C9
100
DictionaryVariables
280
     0
  1
Standard
  0
DICTIONARYVAR
  5
2CE
102
{ACAD_REACTORS
330
2C9
102
}
330
2C9
100
DictionaryVariables
280
     0
  1
2
  0
DICTIONARYVAR
  5
2CF
102
{ACAD_REACTORS
330
2C9
102
}
330
2C9
100
DictionaryVariables
280
     0
  1
1
  0
DICTIONARYVAR
  5
2D3
102
{ACAD_REACTORS
330
2C9
102
}
330
2C9
100
DictionaryVariables
280
     0
  1
1
  0
DICTIONARY
  5
2D6
330
45
100
AcDbDictionary
280
     1
  3
ACAD_XREC_ROUNDTRIP
360
2D7
  0
DICTIONARY
  5
2D4
330
44
100
AcDbDictionary
280
     1
  3
ACAD_XREC_ROUNDTRIP
360
2D5
  0
DICTIONARY
  5
2D8
330
46
100
AcDbDictionary
280
     1
  3
ACAD_XREC_ROUNDTRIP
360
2D9
  0
XRECORD
  5
2D7
102
{ACAD_REACTORS
330
2D6
102
}
330
2D6
100
AcDbXrecord
102
MATERIAL
148
0.0
149
0.0
149
0.0
 93
        0
 94
      127
282
     0
 72
     1
 77
     1
171
     1
175
     1
179
     1
273
     0
  0
XRECORD
  5
2D5
102
{ACAD_REACTORS
330
2D4
102
}
330
2D4
100
AcDbXrecord
102
MATERIAL
148
0.0
149
0.0
149
0.0
 93
        0
 94
      127
282
     0
 72
     1
 77
     1
171
     1
175
     1
179
     1
273
     0
  0
XRECORD
  5
2D9
102
{ACAD_REACTORS
330
2D8
102
}
330
2D8
100
AcDbXrecord
102
MATERIAL
148
0.0
149
0.0
149
0.0
 93
        0
 94
      127
282
     0
 72
     1
 77
     1
171
     1
175
     1
179
     1
273
     0
  0
ENDSEC
  0
EOF
