  0
SECTION
  2
HEADER
  9
$ACADVER
  1
AC1004
  9
$INSBASE
 10
0.0
 20
0.0
  9
$EXTMIN
 10
0.0
 20
-4.750000000000032
  9
$EXTMAX
 10
820.9
 20
288.9
  9
$LIMMIN
 10
0.0
 20
0.0
  9
$LIMMAX
 10
12.0
 20
9.0
  9
$ORTHOMODE
 70
     0
  9
$REGENMODE
 70
     1
  9
$FILLMODE
 70
     1
  9
$QTEXTMODE
 70
     0
  9
$DRAGMODE
 70
     2
  9
$LTSCALE
 40
1.0
  9
$OSMODE
 70
    37
  9
$ATTMODE
 70
     1
  9
$TEXTSIZE
 40
0.2
  9
$TRACEWID
 40
0.05
  9
$TEXTSTYLE
  7
STANDARD
  9
$CLAYER
  8
0
  9
$CELTYPE
  6
BYLAYER
  9
$CECOLOR
 62
   256
  9
$DIMSCALE
 40
1.0
  9
$DIMASZ
 40
3.0
  9
$DIMEXO
 40
0.0625
  9
$DIMDLI
 40
0.38
  9
$DIMRND
 40
0.0
  9
$DIMDLE
 40
0.0
  9
$DIMEXE
 40
1.5
  9
$DIMTP
 40
0.0
  9
$DIMTM
 40
0.0
  9
$DIMTXT
 40
3.0
  9
$DIMCEN
 40
0.09
  9
$DIMTSZ
 40
0.0
  9
$DIMTOL
 70
     0
  9
$DIMLIM
 70
     0
  9
$DIMTIH
 70
     1
  9
$DIMTOH
 70
     1
  9
$DIMSE1
 70
     0
  9
$DIMSE2
 70
     0
  9
$DIMTAD
 70
     1
  9
$DIMZIN
 70
     0
  9
$DIMBLK
  1

  9
$DIMASO
 70
     1
  9
$DIMSHO
 70
     1
  9
$DIMPOST
  1

  9
$DIMAPOST
  1

  9
$DIMALT
 70
     0
  9
$DIMALTD
 70
     2
  9
$DIMALTF
 40
25.4
  9
$DIMLFAC
 40
1.0
  9
$DIMTOFL
 70
     0
  9
$DIMTVP
 40
0.0
  9
$DIMTIX
 70
     0
  9
$DIMSOXD
 70
     0
  9
$DIMSAH
 70
     0
  9
$DIMBLK1
  1

  9
$DIMBLK2
  1

  9
$LUNITS
 70
     2
  9
$LUPREC
 70
     4
  9
$SKETCHINC
 40
0.1
  9
$FILLETRAD
 40
0.5
  9
$AUNITS
 70
     0
  9
$AUPREC
 70
     0
  9
$MENU
  1
.
  9
$ELEVATION
 40
0.0
  9
$THICKNESS
 40
0.0
  9
$LIMCHECK
 70
     0
  9
$CHAMFERA
 40
0.0
  9
$CHAMFERB
 40
0.0
  9
$SKPOLY
 70
     0
  9
$TDCREATE
 40
2460255.685911505
  9
$TDUPDATE
 40
2460255.685911805
  9
$TDINDWG
 40
0.0000000116
  9
$TDUSRTIMER
 40
0.0000000116
  9
$USRTIMER
 70
     1
  9
$ANGBASE
 50
0.0
  9
$ANGDIR
 70
     0
  9
$PDMODE
 70
     0
  9
$PDSIZE
 40
0.0
  9
$PLINEWID
 40
0.0
  9
$COORDS
 70
     1
  9
$SPLFRAME
 70
     0
  9
$SPLINETYPE
 70
     6
  9
$SPLINESEGS
 70
     8
  9
$ATTDIA
 70
     0
  9
$ATTREQ
 70
     1
  9
$SURFTAB1
 70
     6
  9
$SURFTAB2
 70
     6
  9
$SURFTYPE
 70
     6
  9
$SURFU
 70
     6
  9
$SURFV
 70
     6
  9
$UCSNAME
  2

  9
$UCSORG
 10
0.0
 20
0.0
 30
0.0
  9
$UCSXDIR
 10
1.0
 20
0.0
 30
0.0
  9
$UCSYDIR
 10
0.0
 20
1.0
 30
0.0
  9
$USERI1
 70
     0
  9
$USERI2
 70
     0
  9
$USERI3
 70
     0
  9
$USERI4
 70
     0
  9
$USERI5
 70
     0
  9
$USERR1
 40
0.0
  9
$USERR2
 40
0.0
  9
$USERR3
 40
0.0
  9
$USERR4
 40
0.0
  9
$USERR5
 40
0.0
  9
$WORLDVIEW
 70
     1
  0
ENDSEC
  0
SECTION
  2
TABLES
  0
TABLE
  2
LTYPE
 70
     2
  0
LTYPE
  2
CONTINUOUS
 70
     0
  3
Solid line
 72
    65
 73
     0
 40
0.0
  0
LTYPE
  2
CENTER
 70
     0
  3

 72
    65
 73
     0
 40
0.0
  0
ENDTAB
  0
TABLE
  2
LAYER
 70
     1
  0
LAYER
  2
0
 70
     0
 62
     7
  6
CONTINUOUS
  0
ENDTAB
  0
TABLE
  2
STYLE
 70
     2
  0
STYLE
  2
STANDARD
 70
     0
 40
0.0
 41
1.0
 50
0.0
 71
     0
 42
0.2
  3
txt
  4

  0
STYLE
  2
ＭＳ_ゴシック
 70
     0
 40
0.0
 41
1.0
 50
0.0
 71
     0
 42
0.2
  3
ＭＳ ゴシック.shx
  4

  0
ENDTAB
  0
TABLE
  2
VIEW
 70
     0
  0
ENDTAB
  0
ENDSEC
  0
SECTION
  2
BLOCKS
  0
BLOCK
  8
0
  2
D_FRAME_DRAWING_17
 70
     0
 10
0.0
 20
0.0
  0
LINE
  8
0
  6
CONTINUOUS
 62
     7
 10
0.0
 20
0.0
 11
210.0
 21
0.0
  0
LINE
  8
0
  6
CONTINUOUS
 62
     7
 10
210.0
 20
0.0
 11
210.0
 21
297.0
  0
LINE
  8
0
  6
CONTINUOUS
 62
     7
 10
210.0
 20
297.0
 11
0.0
 21
297.0
  0
LINE
  8
0
  6
CONTINUOUS
 62
     7
 10
0.0
 20
297.0
 11
0.0
 21
0.0
  0
ENDBLK
  8
0
  0
BLOCK
  8
0
  2
D_FRAME_VIEW_1288
 70
     0
 10
0.0
 20
0.0
  0
POLYLINE
  8
0
  6
CONTINUOUS
 62
     7
 66
     1
  0
VERTEX
  8
0
  6
CONTINUOUS
 62
     7
 10
592.4461086676366
 20
199.6392217335273
  0
VERTEX
  8
0
  6
CONTINUOUS
 62
     7
 10
592.6335055891171
 20
199.6962676064064
  0
VERTEX
  8
0
  6
CONTINUOUS
 62
     7
 10
592.8061867951802
 20
199.7887525162848
  0
VERTEX
  8
0
  6
CONTINUOUS
 62
     7
 10
592.9575262351017
 20
199.9131276710384
  0
VERTEX
  8
0
  6
CONTINUOUS
 62
     7
 10
593.0817167754461
 20
200.0646205994587
  0
VERTEX
  8
0
  6
CONTINUOUS
 62
     7
 10
593.1739930289514
 20
200.2374182785137
  0
VERTEX
  8
0
  6
CONTINUOUS
 62
     7
 10
593.2308142099682
 20
200.4248901882268
  0
VERTEX
  8
0
  6
CONTINUOUS
 62
     7
 10
593.2499999999999
 20
200.6198427352049
  0
SEQEND
  8
0
  6
CONTINUOUS
 62
     7
  0
LINE
  8
0
  6
CONTINUOUS
 62
     7
 10
592.4461086676367
 20
199.6392217335273
 11
588.2499999999999
 21
198.8
  0
LINE
  8
0
  6
CONTINUOUS
 62
     7
 10
562.25
 20
198.8
 11
570.25
 21
198.8
  0
LINE
  8
0
  6
CONTINUOUS
 62
     7
 10
570.25
 20
198.8
 11
588.25
 21
198.8
  0
POLYLINE
  8
0
  6
CONTINUOUS
 62
     7
 66
     1
  0
VERTEX
  8
0
  6
CONTINUOUS
 62
     7
 10
542.6209889519494
 20
198.8
  0
VERTEX
  8
0
  6
CONTINUOUS
 62
     7
 10
541.645572672252
 20
198.7039304362071
  0
VERTEX
  8
0
  6
CONTINUOUS
 62
     7
 10
540.7076441526294
 20
198.4194133486932
  0
VERTEX
  8
0
  6
CONTINUOUS
 62
     7
 10
539.8432445741917
 20
197.9573816941445
  0
VERTEX
  8
0
  6
CONTINUOUS
 62
     7
 10
539.0855896683142
 20
197.3355896683142
  0
SEQEND
  8
0
  6
CONTINUOUS
 62
     7
  0
LINE
  8
0
  6
CONTINUOUS
 62
     7
 10
539.0855896683142
 20
197.3355896683142
 11
530.0144103316857
 21
188.2644103316858
  0
POLYLINE
  8
0
  6
CONTINUOUS
 62
     7
 66
     1
  0
VERTEX
  8
0
  6
CONTINUOUS
 62
     7
 10
530.0144103316857
 20
188.2644103316858
  0
VERTEX
  8
0
  6
CONTINUOUS
 62
     7
 10
529.3926183058554
 20
187.5067554258084
  0
VERTEX
  8
0
  6
CONTINUOUS
 62
     7
 10
528.9305866513067
 20
186.6423558473705
  0
VERTEX
  8
0
  6
CONTINUOUS
 62
     7
 10
528.6460695637927
 20
185.7044273277481
  0
VERTEX
  8
0
  6
CONTINUOUS
 62
     7
 10
528.55
 20
184.7290110480507
  0
SEQEND
  8
0
  6
CONTINUOUS
 62
     7
  0
LINE
  8
0
  6
CONTINUOUS
 62
     7
 10
528.55
 20
139.1
 11
528.55
 21
157.1
  0
LINE
  8
0
  6
CONTINUOUS
 62
     7
 10
528.55
 20
157.1
 11
528.55
 21
165.1
  0
LINE
  8
0
  6
CONTINUOUS
 62
     7
 10
528.55
 20
165.1
 11
528.55
 21
184.7290110480507
  0
LINE
  8
0
  6
CONTINUOUS
 62
     7
 10
528.55
 20
139.1
 11
527.7107706510855
 21
134.9038532554275
  0
POLYLINE
  8
0
  6
CONTINUOUS
 62
     7
 66
     1
  0
VERTEX
  8
0
  6
CONTINUOUS
 62
     7
 10
526.730227312902
 20
134.1
  0
VERTEX
  8
0
  6
CONTINUOUS
 62
     7
 10
526.9251661158703
 20
134.119184569846
  0
VERTEX
  8
0
  6
CONTINUOUS
 62
     7
 10
527.1126231740903
 20
134.1760022119719
  0
VERTEX
  8
0
  6
CONTINUOUS
 62
     7
 10
527.2854061953797
 20
134.2682729653395
  0
VERTEX
  8
0
  6
CONTINUOUS
 62
     7
 10
527.4368858962906
 20
134.392456615329
  0
VERTEX
  8
0
  6
CONTINUOUS
 62
     7
 10
527.561250352327
 20
134.5437885235561
  0
VERTEX
  8
0
  6
CONTINUOUS
 62
     7
 10
527.6537279879965
 20
134.716462435987
  0
VERTEX
  8
0
  6
CONTINUOUS
 62
     7
 10
527.7107706510855
 20
134.9038532554275
  0
SEQEND
  8
0
  6
CONTINUOUS
 62
     7
  0
LINE
  8
0
  6
CONTINUOUS
 62
     7
 10
526.7301268020864
 20
134.1
 11
526.730227312902
 21
134.1
  0
LINE
  8
0
  6
CONTINUOUS
 62
     7
 10
443.2698731979135
 20
134.1
 11
443.2697726870979
 21
134.1
  0
POLYLINE
  8
0
  6
CONTINUOUS
 62
     7
 66
     1
  0
VERTEX
  8
0
  6
CONTINUOUS
 62
     7
 10
442.2892293489145
 20
134.9038532554275
  0
VERTEX
  8
0
  6
CONTINUOUS
 62
     7
 10
442.3442915958236
 20
134.7212667477189
  0
VERTEX
  8
0
  6
CONTINUOUS
 62
     7
 10
442.4330142366145
 20
134.5524554886667
  0
VERTEX
  8
0
  6
CONTINUOUS
 62
     7
 10
442.5521705845255
 20
134.4035588475452
  0
VERTEX
  8
0
  6
CONTINUOUS
 62
     7
 10
442.6974271322699
 20
134.2799919339191
  0
VERTEX
  8
0
  6
CONTINUOUS
 62
     7
 10
442.8635011540917
 20
134.1862486596109
  0
VERTEX
  8
0
  6
CONTINUOUS
 62
     7
 10
443.0443528292316
 20
134.1257383030134
  0
SEQEND
  8
0
  6
CONTINUOUS
 62
     7
  0
LINE
  8
0
  6
CONTINUOUS
 62
     7
 10
443.0443528292316
 20
134.1257383030134
 11
443.2697726870979
 21
134.1
  0
LINE
  8
0
  6
CONTINUOUS
 62
     7
 10
441.45
 20
139.1
 11
442.2892293489145
 21
134.9038532554275
  0
LINE
  8
0
  6
CONTINUOUS
 62
     7
 10
441.45
 20
139.1
 11
441.45
 21
157.1
  0
LINE
  8
0
  6
CONTINUOUS
 62
     7
 10
441.45
 20
157.1
 11
441.45
 21
165.1
  0
LINE
  8
0
  6
CONTINUOUS
 62
     7
 10
441.45
 20
165.0999999999999
 11
441.45
 21
184.7290110480506
  0
POLYLINE
  8
0
  6
CONTINUOUS
 62
     7
 66
     1
  0
VERTEX
  8
0
  6
CONTINUOUS
 62
     7
 10
441.45
 20
184.7290110480506
  0
VERTEX
  8
0
  6
CONTINUOUS
 62
     7
 10
441.3539304362071
 20
185.704427327748
  0
VERTEX
  8
0
  6
CONTINUOUS
 62
     7
 10
441.0694133486932
 20
186.6423558473705
  0
VERTEX
  8
0
  6
CONTINUOUS
 62
     7
 10
440.6073816941444
 20
187.5067554258083
  0
VERTEX
  8
0
  6
CONTINUOUS
 62
     7
 10
439.9855896683142
 20
188.2644103316857
  0
SEQEND
  8
0
  6
CONTINUOUS
 62
     7
  0
LINE
  8
0
  6
CONTINUOUS
 62
     7
 10
430.9144103316858
 20
197.3355896683142
 11
439.9855896683142
 21
188.2644103316858
  0
POLYLINE
  8
0
  6
CONTINUOUS
 62
     7
 66
     1
  0
VERTEX
  8
0
  6
CONTINUOUS
 62
     7
 10
430.9144103316858
 20
197.3355896683142
  0
VERTEX
  8
0
  6
CONTINUOUS
 62
     7
 10
430.1567554258083
 20
197.9573816941445
  0
VERTEX
  8
0
  6
CONTINUOUS
 62
     7
 10
429.2923558473705
 20
198.4194133486932
  0
VERTEX
  8
0
  6
CONTINUOUS
 62
     7
 10
428.3544273277481
 20
198.7039304362071
  0
VERTEX
  8
0
  6
CONTINUOUS
 62
     7
 10
427.3790110480506
 20
198.8
  0
SEQEND
  8
0
  6
CONTINUOUS
 62
     7
  0
LINE
  8
0
  6
CONTINUOUS
 62
     7
 10
427.3790110480506
 20
198.8
 11
407.7499999999999
 21
198.8
  0
LINE
  8
0
  6
CONTINUOUS
 62
     7
 10
407.7499999999999
 20
198.8
 11
399.7499999999999
 21
198.8
  0
LINE
  8
0
  6
CONTINUOUS
 62
     7
 10
399.7499999999999
 20
198.8
 11
381.7499999999999
 21
198.8
  0
LINE
  8
0
  6
CONTINUOUS
 62
     7
 10
377.5538913323633
 20
199.6392217335273
 11
381.7499999999999
 21
198.8
  0
POLYLINE
  8
0
  6
CONTINUOUS
 62
     7
 66
     1
  0
VERTEX
  8
0
  6
CONTINUOUS
 62
     7
 10
376.7499999999999
 20
200.6198427352049
  0
VERTEX
  8
0
  6
CONTINUOUS
 62
     7
 10
376.7691857900317
 20
200.4248901882268
  0
VERTEX
  8
0
  6
CONTINUOUS
 62
     7
 10
376.8260069710485
 20
200.2374182785137
  0
VERTEX
  8
0
  6
CONTINUOUS
 62
     7
 10
376.9182832245537
 20
200.0646205994587
  0
VERTEX
  8
0
  6
CONTINUOUS
 62
     7
 10
377.0424737648981
 20
199.9131276710384
  0
VERTEX
  8
0
  6
CONTINUOUS
 62
     7
 10
377.1938132048197
 20
199.7887525162848
  0
VERTEX
  8
0
  6
CONTINUOUS
 62
     7
 10
377.3664944108826
 20
199.6962676064064
  0
VERTEX
  8
0
  6
CONTINUOUS
 62
     7
 10
377.5538913323632
 20
199.6392217335273
  0
SEQEND
  8
0
  6
CONTINUOUS
 62
     7
  0
POLYLINE
  8
0
  6
CONTINUOUS
 62
     7
 66
     1
  0
VERTEX
  8
0
  6
CONTINUOUS
 62
     7
 10
377.5538532554274
 20
285.0607706510855
  0
VERTEX
  8
0
  6
CONTINUOUS
 62
     7
 10
377.3664624359869
 20
285.0037279879964
  0
VERTEX
  8
0
  6
CONTINUOUS
 62
     7
 10
377.193788523556
 20
284.9112503523269
  0
VERTEX
  8
0
  6
CONTINUOUS
 62
     7
 10
377.0424566153289
 20
284.7868858962905
  0
VERTEX
  8
0
  6
CONTINUOUS
 62
     7
 10
376.9182729653395
 20
284.6354061953795
  0
VERTEX
  8
0
  6
CONTINUOUS
 62
     7
 10
376.8260022119719
 20
284.4626231740902
  0
VERTEX
  8
0
  6
CONTINUOUS
 62
     7
 10
376.7691845698459
 20
284.2751661158703
  0
VERTEX
  8
0
  6
CONTINUOUS
 62
     7
 10
376.7499999999999
 20
284.080227312902
  0
SEQEND
  8
0
  6
CONTINUOUS
 62
     7
  0
LINE
  8
0
  6
CONTINUOUS
 62
     7
 10
381.7499999999999
 20
285.8999999999999
 11
377.5538532554274
 21
285.0607706510854
  0
LINE
  8
0
  6
CONTINUOUS
 62
     7
 10
381.7499999999999
 20
285.8999999999999
 11
399.7499999999999
 21
285.8999999999999
  0
LINE
  8
0
  6
CONTINUOUS
 62
     7
 10
399.7499999999999
 20
285.8999999999999
 11
407.7499999999999
 21
285.8999999999999
  0
LINE
  8
0
  6
CONTINUOUS
 62
     7
 10
407.7499999999999
 20
285.9
 11
562.25
 21
285.9
  0
LINE
  8
0
  6
CONTINUOUS
 62
     7
 10
562.25
 20
285.9
 11
570.25
 21
285.9
  0
LINE
  8
0
  6
CONTINUOUS
 62
     7
 10
570.25
 20
285.9
 11
588.2499999999999
 21
285.9
  0
LINE
  8
0
  6
CONTINUOUS
 62
     7
 10
588.2499999999999
 20
285.9
 11
592.4461467445725
 21
285.0607706510855
  0
POLYLINE
  8
0
  6
CONTINUOUS
 62
     7
 66
     1
  0
VERTEX
  8
0
  6
CONTINUOUS
 62
     7
 10
593.25
 20
284.080227312902
  0
VERTEX
  8
0
  6
CONTINUOUS
 62
     7
 10
593.230815430154
 20
284.2751661158703
  0
VERTEX
  8
0
  6
CONTINUOUS
 62
     7
 10
593.173997788028
 20
284.4626231740902
  0
VERTEX
  8
0
  6
CONTINUOUS
 62
     7
 10
593.0817270346604
 20
284.6354061953795
  0
VERTEX
  8
0
  6
CONTINUOUS
 62
     7
 10
592.957543384671
 20
284.7868858962905
  0
VERTEX
  8
0
  6
CONTINUOUS
 62
     7
 10
592.806211476444
 20
284.9112503523269
  0
VERTEX
  8
0
  6
CONTINUOUS
 62
     7
 10
592.6335375640131
 20
285.0037279879964
  0
VERTEX
  8
0
  6
CONTINUOUS
 62
     7
 10
592.4461467445726
 20
285.0607706510855
  0
SEQEND
  8
0
  6
CONTINUOUS
 62
     7
  0
LINE
  8
0
  6
CONTINUOUS
 62
     7
 10
588.25
 20
208.1889362366595
 11
588.2500632239216
 21
208.1776913407826
  0
LINE
  8
0
  6
CONTINUOUS
 62
     7
 10
588.2500632239214
 20
207.0569547513281
 11
588.2500632239214
 21
208.1776913407826
  0
LINE
  8
0
  6
CONTINUOUS
 62
     7
 10
588.2500632239216
 20
207.0569547513281
 11
588.25
 21
207.0460046888143
  0
LINE
  8
0
  6
CONTINUOUS
 62
     7
 10
588.2499999999999
 20
276.5110637633405
 11
588.2499999999999
 21
208.1889362366595
  0
LINE
  8
0
  6
CONTINUOUS
 62
     7
 10
588.2500632239216
 20
276.5223086592173
 11
588.25
 21
276.5110637633405
  0
LINE
  8
0
  6
CONTINUOUS
 62
     7
 10
588.25
 20
277.6539953111857
 11
588.2500632239216
 21
277.6430452486718
  0
LINE
  8
0
  6
CONTINUOUS
 62
     7
 10
588.2500632239214
 20
276.5223086592173
 11
588.2500632239214
 21
277.6430452486719
  0
LINE
  8
0
  6
CONTINUOUS
 62
     7
 10
381.75
 20
276.5110637633404
 11
381.7499367760784
 21
276.5223086592172
  0
LINE
  8
0
  6
CONTINUOUS
 62
     7
 10
381.7499367760784
 20
277.6430452486718
 11
381.7499367760784
 21
276.5223086592172
  0
LINE
  8
0
  6
CONTINUOUS
 62
     7
 10
381.7499367760784
 20
277.6430452486717
 11
381.75
 21
277.6539953111856
  0
LINE
  8
0
  6
CONTINUOUS
 62
     7
 10
381.7499999999999
 20
276.5110637633404
 11
381.7499999999999
 21
208.1889362366595
  0
LINE
  8
0
  6
CONTINUOUS
 62
     7
 10
450.8389362366595
 20
139.1
 11
519.1610637633405
 21
139.1
  0
LINE
  8
0
  6
CONTINUOUS
 62
     7
 10
450.8389362366595
 20
139.1
 11
450.8276913407827
 21
139.0999367760784
  0
LINE
  8
0
  6
CONTINUOUS
 62
     7
 10
519.1723086592174
 20
139.0999367760784
 11
519.1610637633405
 21
139.1
  0
LINE
  8
0
  6
CONTINUOUS
 62
     7
 10
449.7069547513281
 20
139.0999367760784
 11
450.8276913407827
 21
139.0999367760784
  0
LINE
  8
0
  6
CONTINUOUS
 62
     7
 10
449.7069547513282
 20
139.0999367760784
 11
449.6960046888143
 21
139.1
  0
LINE
  8
0
  6
CONTINUOUS
 62
     7
 10
381.7499367760784
 20
208.1776913407826
 11
381.75
 21
208.1889362366595
  0
LINE
  8
0
  6
CONTINUOUS
 62
     7
 10
520.3039953111856
 20
139.1
 11
520.2930452486719
 21
139.0999367760784
  0
LINE
  8
0
  6
CONTINUOUS
 62
     7
 10
519.1723086592174
 20
139.0999367760784
 11
520.2930452486718
 21
139.0999367760784
  0
LINE
  8
0
  6
CONTINUOUS
 62
     7
 10
381.75
 20
207.0460046888143
 11
381.7499367760784
 21
207.0569547513281
  0
LINE
  8
0
  6
CONTINUOUS
 62
     7
 10
381.7499367760784
 20
208.1776913407826
 11
381.7499367760784
 21
207.0569547513281
  0
LINE
  8
0
  6
CONTINUOUS
 62
     7
 10
442.1246120035619
 20
139.1
 11
442.1172458120262
 21
139.099712700182
  0
LINE
  8
0
  6
CONTINUOUS
 62
     7
 10
442.1246120035619
 20
139.1
 11
449.6960046888142
 21
139.1
  0
LINE
  8
0
  6
CONTINUOUS
 62
     7
 10
588.25
 20
199.4746120035619
 11
588.2502872998181
 21
199.4672458120262
  0
LINE
  8
0
  6
CONTINUOUS
 62
     7
 10
588.2499999999999
 20
207.0460046888143
 11
588.2499999999999
 21
199.474612003562
  0
LINE
  8
0
  6
CONTINUOUS
 62
     7
 10
381.75
 20
207.0460046888143
 11
381.75
 21
199.474612003562
  0
LINE
  8
0
  6
CONTINUOUS
 62
     7
 10
381.749712700182
 20
199.4672458120262
 11
381.75
 21
199.4746120035619
  0
LINE
  8
0
  6
CONTINUOUS
 62
     7
 10
527.8827541879735
 20
139.099712700182
 11
527.8753879964379
 21
139.1
  0
LINE
  8
0
  6
CONTINUOUS
 62
     7
 10
527.8753879964379
 20
139.1
 11
520.3039953111856
 21
139.1
  0
LINE
  8
0
  6
CONTINUOUS
 62
     7
 10
588.2499999999999
 20
285.225387996438
 11
588.2499999999999
 21
277.6539953111857
  0
LINE
  8
0
  6
CONTINUOUS
 62
     7
 10
588.2502872998181
 20
285.2327541879738
 11
588.25
 21
285.225387996438
  0
LINE
  8
0
  6
CONTINUOUS
 62
     7
 10
381.7499999999999
 20
285.225387996438
 11
381.7499999999999
 21
277.6539953111857
  0
LINE
  8
0
  6
CONTINUOUS
 62
     7
 10
381.7499999999999
 20
285.225387996438
 11
381.7497127001819
 21
285.2327541879737
  0
LINE
  8
0
  6
CONTINUOUS
 62
     7
 10
450.9248941535526
 20
134.1
 11
450.028304881989
 21
134.1
  0
LINE
  8
0
  6
CONTINUOUS
 62
     7
 10
376.7499999999999
 20
276.4251058464474
 11
376.7499999999999
 21
277.321695118011
  0
LINE
  8
0
  6
CONTINUOUS
 62
     7
 10
593.2499999999999
 20
208.2748941535526
 11
593.2499999999999
 21
276.4251058464474
  0
LINE
  8
0
  6
CONTINUOUS
 62
     7
 10
519.0751058464473
 20
134.1
 11
519.971695118011
 21
134.1
  0
LINE
  8
0
  6
CONTINUOUS
 62
     7
 10
376.7499999999999
 20
208.2748941535526
 11
376.7499999999999
 21
276.4251058464474
  0
LINE
  8
0
  6
CONTINUOUS
 62
     7
 10
519.0751058464473
 20
134.1
 11
450.9248941535525
 21
134.1
  0
LINE
  8
0
  6
CONTINUOUS
 62
     7
 10
376.7499999999999
 20
207.3783048819889
 11
376.7499999999999
 21
208.2748941535525
  0
LINE
  8
0
  6
CONTINUOUS
 62
     7
 10
593.2499999999999
 20
276.4251058464474
 11
593.2499999999999
 21
277.321695118011
  0
LINE
  8
0
  6
CONTINUOUS
 62
     7
 10
593.2499999999999
 20
207.378304881989
 11
593.2499999999999
 21
208.2748941535526
  0
LINE
  8
0
  6
CONTINUOUS
 62
     7
 10
450.028304881989
 20
134.1
 11
443.5496140885178
 21
134.1
  0
LINE
  8
0
  6
CONTINUOUS
 62
     7
 10
519.971695118011
 20
134.1
 11
526.450385911482
 21
134.1
  0
LINE
  8
0
  6
CONTINUOUS
 62
     7
 10
593.2499999999999
 20
200.8996140885179
 11
593.2499999999999
 21
207.378304881989
  0
LINE
  8
0
  6
CONTINUOUS
 62
     7
 10
376.7499999999999
 20
200.8996140885179
 11
376.7499999999999
 21
207.3783048819889
  0
LINE
  8
0
  6
CONTINUOUS
 62
     7
 10
376.7499999999999
 20
277.321695118011
 11
376.7499999999999
 21
283.8003859114821
  0
LINE
  8
0
  6
CONTINUOUS
 62
     7
 10
593.2499999999999
 20
277.321695118011
 11
593.2499999999999
 21
283.8003859114821
  0
LINE
  8
0
  6
CONTINUOUS
 62
     7
 10
441.7390478018799
 20
139.0997127001828
 11
442.1172458120262
 21
139.0997127001828
  0
LINE
  8
0
  6
CONTINUOUS
 62
     7
 10
441.73904780188
 20
139.099712700182
 11
441.7389241968144
 21
139.1
  0
LINE
  8
0
  6
CONTINUOUS
 62
     7
 10
528.26095219812
 20
139.099712700182
 11
528.2610758031856
 21
139.1
  0
LINE
  8
0
  6
CONTINUOUS
 62
     7
 10
528.2609521981201
 20
139.0997127001828
 11
527.8827541879738
 21
139.0997127001828
  0
LINE
  8
0
  6
CONTINUOUS
 62
     7
 10
381.7499999999999
 20
199.0889241968144
 11
381.7497127001819
 21
199.0890478018799
  0
LINE
  8
0
  6
CONTINUOUS
 62
     7
 10
381.7497127001822
 20
199.0890478018799
 11
381.7497127001822
 21
199.4672458120262
  0
LINE
  8
0
  6
CONTINUOUS
 62
     7
 10
588.250287299818
 20
285.6109521981201
 11
588.2499999999999
 21
285.6110758031856
  0
LINE
  8
0
  6
CONTINUOUS
 62
     7
 10
588.250287299818
 20
285.2327541879738
 11
588.250287299818
 21
285.6109521981201
  0
LINE
  8
0
  6
CONTINUOUS
 62
     7
 10
381.7497127001819
 20
285.2327541879737
 11
381.7497127001819
 21
285.61095219812
  0
LINE
  8
0
  6
CONTINUOUS
 62
     7
 10
381.7497127001819
 20
285.61095219812
 11
381.7499999999999
 21
285.6110758031855
  0
LINE
  8
0
  6
CONTINUOUS
 62
     7
 10
588.2502872998178
 20
199.0890478018799
 11
588.2502872998178
 21
199.4672458120262
  0
LINE
  8
0
  6
CONTINUOUS
 62
     7
 10
588.2499999999999
 20
199.0889241968144
 11
588.250287299818
 21
199.0890478018799
  0
LINE
  8
0
  6
CONTINUOUS
 62
     7
 10
588.2499999999999
 20
198.8
 11
592.446116135138
 21
199.6392551832934
  0
LINE
  8
0
  6
CONTINUOUS
 62
     7
 10
588.2499999999999
 20
199.0889241968144
 11
588.2499999999999
 21
198.8
  0
LINE
  8
0
  6
CONTINUOUS
 62
     7
 10
381.7499999999999
 20
199.0889241968144
 11
381.7499999999999
 21
198.8
  0
LINE
  8
0
  6
CONTINUOUS
 62
     7
 10
381.7499999999999
 20
198.8
 11
377.5538838648617
 21
199.6392551832934
  0
LINE
  8
0
  6
CONTINUOUS
 62
     7
 10
377.5538838648617
 20
285.0607448167066
 11
381.7499999999999
 21
285.9
  0
LINE
  8
0
  6
CONTINUOUS
 62
     7
 10
381.7499999999999
 20
285.8999999999999
 11
381.7499999999999
 21
285.6110758031855
  0
LINE
  8
0
  6
CONTINUOUS
 62
     7
 10
442.2892551832934
 20
134.9038838648617
 11
441.4499999999999
 21
139.1
  0
LINE
  8
0
  6
CONTINUOUS
 62
     7
 10
441.45
 20
139.1
 11
441.7389241968144
 21
139.1
  0
LINE
  8
0
  6
CONTINUOUS
 62
     7
 10
588.2499999999999
 20
285.9
 11
588.2499999999999
 21
285.6110758031855
  0
LINE
  8
0
  6
CONTINUOUS
 62
     7
 10
592.4461161351381
 20
285.0607448167066
 11
588.25
 21
285.9
  0
LINE
  8
0
  6
CONTINUOUS
 62
     7
 10
528.55
 20
139.1
 11
528.2610758031856
 21
139.1
  0
LINE
  8
0
  6
CONTINUOUS
 62
     7
 10
527.7107448167066
 20
134.9038838648617
 11
528.55
 21
139.1
  0
POLYLINE
  8
0
  6
CONTINUOUS
 62
     7
 66
     1
  0
VERTEX
  8
0
  6
CONTINUOUS
 62
     7
 10
430.9144103316858
 20
197.3355896683142
  0
VERTEX
  8
0
  6
CONTINUOUS
 62
     7
 10
430.1567554258083
 20
197.9573816941445
  0
VERTEX
  8
0
  6
CONTINUOUS
 62
     7
 10
429.2923558473705
 20
198.4194133486932
  0
VERTEX
  8
0
  6
CONTINUOUS
 62
     7
 10
428.3544273277481
 20
198.7039304362071
  0
VERTEX
  8
0
  6
CONTINUOUS
 62
     7
 10
427.3790110480506
 20
198.8
  0
SEQEND
  8
0
  6
CONTINUOUS
 62
     7
  0
POLYLINE
  8
0
  6
CONTINUOUS
 62
     7
 66
     1
  0
VERTEX
  8
0
  6
CONTINUOUS
 62
     7
 10
530.0144103316857
 20
188.2644103316858
  0
VERTEX
  8
0
  6
CONTINUOUS
 62
     7
 10
529.3926183058554
 20
187.5067554258084
  0
VERTEX
  8
0
  6
CONTINUOUS
 62
     7
 10
528.9305866513067
 20
186.6423558473705
  0
VERTEX
  8
0
  6
CONTINUOUS
 62
     7
 10
528.6460695637927
 20
185.7044273277481
  0
VERTEX
  8
0
  6
CONTINUOUS
 62
     7
 10
528.55
 20
184.7290110480507
  0
SEQEND
  8
0
  6
CONTINUOUS
 62
     7
  0
POLYLINE
  8
0
  6
CONTINUOUS
 62
     7
 66
     1
  0
VERTEX
  8
0
  6
CONTINUOUS
 62
     7
 10
441.45
 20
184.7290110480506
  0
VERTEX
  8
0
  6
CONTINUOUS
 62
     7
 10
441.3539304362071
 20
185.704427327748
  0
VERTEX
  8
0
  6
CONTINUOUS
 62
     7
 10
441.0694133486932
 20
186.6423558473705
  0
VERTEX
  8
0
  6
CONTINUOUS
 62
     7
 10
440.6073816941444
 20
187.5067554258083
  0
VERTEX
  8
0
  6
CONTINUOUS
 62
     7
 10
439.9855896683142
 20
188.2644103316857
  0
SEQEND
  8
0
  6
CONTINUOUS
 62
     7
  0
POLYLINE
  8
0
  6
CONTINUOUS
 62
     7
 66
     1
  0
VERTEX
  8
0
  6
CONTINUOUS
 62
     7
 10
542.6209889519494
 20
198.8
  0
VERTEX
  8
0
  6
CONTINUOUS
 62
     7
 10
541.645572672252
 20
198.7039304362071
  0
VERTEX
  8
0
  6
CONTINUOUS
 62
     7
 10
540.7076441526294
 20
198.4194133486932
  0
VERTEX
  8
0
  6
CONTINUOUS
 62
     7
 10
539.8432445741917
 20
197.9573816941445
  0
VERTEX
  8
0
  6
CONTINUOUS
 62
     7
 10
539.0855896683142
 20
197.3355896683142
  0
SEQEND
  8
0
  6
CONTINUOUS
 62
     7
  0
LINE
  8
0
  6
CONTINUOUS
 62
     7
 10
588.2499999999999
 20
285.9
 11
570.2499999999999
 21
285.9
  0
LINE
  8
0
  6
CONTINUOUS
 62
     7
 10
381.7499999999999
 20
285.8999999999999
 11
399.7499999999999
 21
285.8999999999999
  0
LINE
  8
0
  6
CONTINUOUS
 62
     7
 10
407.7499999999999
 20
285.8999999999999
 11
562.25
 21
285.8999999999999
  0
LINE
  8
0
  6
CONTINUOUS
 62
     7
 10
441.45
 20
139.1
 11
441.4499999999998
 21
157.1
  0
LINE
  8
0
  6
CONTINUOUS
 62
     7
 10
441.4499999999999
 20
165.0999999999999
 11
441.4499999999999
 21
184.7290110480506
  0
LINE
  8
0
  6
CONTINUOUS
 62
     7
 10
399.7499999999999
 20
198.8
 11
381.7499999999999
 21
198.8
  0
LINE
  8
0
  6
CONTINUOUS
 62
     7
 10
427.3790110480506
 20
198.8
 11
407.7499999999999
 21
198.8
  0
LINE
  8
0
  6
CONTINUOUS
 62
     7
 10
542.6209889519494
 20
198.8
 11
562.25
 21
198.8
  0
LINE
  8
0
  6
CONTINUOUS
 62
     7
 10
570.25
 20
198.8
 11
588.25
 21
198.8
  0
LINE
  8
0
  6
CONTINUOUS
 62
     7
 10
528.55
 20
139.1
 11
528.5500000000001
 21
157.1
  0
LINE
  8
0
  6
CONTINUOUS
 62
     7
 10
528.5500000000001
 20
165.1
 11
528.55
 21
184.7290110480507
  0
LINE
  8
0
  6
CONTINUOUS
 62
     7
 10
530.0144103316857
 20
188.2644103316857
 11
539.0855896683142
 21
197.3355896683142
  0
LINE
  8
0
  6
CONTINUOUS
 62
     7
 10
439.9855896683142
 20
188.2644103316857
 11
430.9144103316857
 21
197.3355896683142
  0
POLYLINE
  8
0
  6
CONTINUOUS
 62
     7
 66
     1
  0
VERTEX
  8
0
  6
CONTINUOUS
 62
     7
 10
376.7499999999999
 20
200.6198731979135
  0
VERTEX
  8
0
  6
CONTINUOUS
 62
     7
 10
376.7691855779495
 20
200.4249220149368
  0
VERTEX
  8
0
  6
CONTINUOUS
 62
     7
 10
376.8260061389956
 20
200.2374513341948
  0
VERTEX
  8
0
  6
CONTINUOUS
 62
     7
 10
376.9182814125321
 20
200.0646546224048
  0
VERTEX
  8
0
  6
CONTINUOUS
 62
     7
 10
377.0424706896525
 20
199.9131622891338
  0
VERTEX
  8
0
  6
CONTINUOUS
 62
     7
 10
377.1938086842433
 20
199.788787270319
  0
VERTEX
  8
0
  6
CONTINUOUS
 62
     7
 10
377.3664883825209
 20
199.6963019791976
  0
VERTEX
  8
0
  6
CONTINUOUS
 62
     7
 10
377.5538838648617
 20
199.6392551832934
  0
SEQEND
  8
0
  6
CONTINUOUS
 62
     7
  0
LINE
  8
0
  6
CONTINUOUS
 62
     7
 10
376.7499999999999
 20
200.6198731979135
 11
376.7499999999999
 21
200.8996140885179
  0
POLYLINE
  8
0
  6
CONTINUOUS
 62
     7
 66
     1
  0
VERTEX
  8
0
  6
CONTINUOUS
 62
     7
 10
592.446116135138
 20
199.6392551832934
  0
VERTEX
  8
0
  6
CONTINUOUS
 62
     7
 10
592.633511617479
 20
199.6963019791976
  0
VERTEX
  8
0
  6
CONTINUOUS
 62
     7
 10
592.8061913157565
 20
199.7887872703191
  0
VERTEX
  8
0
  6
CONTINUOUS
 62
     7
 10
592.9575293103474
 20
199.9131622891338
  0
VERTEX
  8
0
  6
CONTINUOUS
 62
     7
 10
593.0817185874678
 20
200.0646546224049
  0
VERTEX
  8
0
  6
CONTINUOUS
 62
     7
 10
593.1739938610042
 20
200.2374513341949
  0
VERTEX
  8
0
  6
CONTINUOUS
 62
     7
 10
593.2308144220503
 20
200.4249220149368
  0
VERTEX
  8
0
  6
CONTINUOUS
 62
     7
 10
593.2499999999999
 20
200.6198731979135
  0
SEQEND
  8
0
  6
CONTINUOUS
 62
     7
  0
LINE
  8
0
  6
CONTINUOUS
 62
     7
 10
593.2499999999999
 20
200.6198731979135
 11
593.2499999999999
 21
200.8996140885179
  0
LINE
  8
0
  6
CONTINUOUS
 62
     7
 10
443.044365561112
 20
134.1257566123518
 11
443.2698731979135
 21
134.1
  0
POLYLINE
  8
0
  6
CONTINUOUS
 62
     7
 66
     1
  0
VERTEX
  8
0
  6
CONTINUOUS
 62
     7
 10
442.2892551832934
 20
134.9038838648617
  0
VERTEX
  8
0
  6
CONTINUOUS
 62
     7
 10
442.3443166581008
 20
134.721304438954
  0
VERTEX
  8
0
  6
CONTINUOUS
 62
     7
 10
442.4330376457245
 20
134.55249695192
  0
VERTEX
  8
0
  6
CONTINUOUS
 62
     7
 10
442.5521916493577
 20
134.4036003888232
  0
VERTEX
  8
0
  6
CONTINUOUS
 62
     7
 10
442.6974454213384
 20
134.2800296384988
  0
VERTEX
  8
0
  6
CONTINUOUS
 62
     7
 10
442.8635165494213
 20
134.1862785714726
  0
VERTEX
  8
0
  6
CONTINUOUS
 62
     7
 10
443.044365561112
 20
134.1257566123518
  0
SEQEND
  8
0
  6
CONTINUOUS
 62
     7
  0
LINE
  8
0
  6
CONTINUOUS
 62
     7
 10
443.5496140885179
 20
134.1
 11
443.2698731979136
 21
134.1
  0
POLYLINE
  8
0
  6
CONTINUOUS
 62
     7
 66
     1
  0
VERTEX
  8
0
  6
CONTINUOUS
 62
     7
 10
526.7301268020864
 20
134.1
  0
VERTEX
  8
0
  6
CONTINUOUS
 62
     7
 10
526.925077985063
 20
134.1191855779495
  0
VERTEX
  8
0
  6
CONTINUOUS
 62
     7
 10
527.112548665805
 20
134.1760061389956
  0
VERTEX
  8
0
  6
CONTINUOUS
 62
     7
 10
527.285345377595
 20
134.2682814125321
  0
VERTEX
  8
0
  6
CONTINUOUS
 62
     7
 10
527.436837710866
 20
134.3924706896525
  0
VERTEX
  8
0
  6
CONTINUOUS
 62
     7
 10
527.5612127296808
 20
134.5438086842434
  0
VERTEX
  8
0
  6
CONTINUOUS
 62
     7
 10
527.6536980208023
 20
134.7164883825209
  0
VERTEX
  8
0
  6
CONTINUOUS
 62
     7
 10
527.7107448167066
 20
134.9038838648617
  0
SEQEND
  8
0
  6
CONTINUOUS
 62
     7
  0
LINE
  8
0
  6
CONTINUOUS
 62
     7
 10
526.450385911482
 20
134.1
 11
526.7301268020864
 21
134.1
  0
POLYLINE
  8
0
  6
CONTINUOUS
 62
     7
 66
     1
  0
VERTEX
  8
0
  6
CONTINUOUS
 62
     7
 10
593.2499999999999
 20
284.0801268020865
  0
VERTEX
  8
0
  6
CONTINUOUS
 62
     7
 10
593.2308144220503
 20
284.2750779850632
  0
VERTEX
  8
0
  6
CONTINUOUS
 62
     7
 10
593.1739938610042
 20
284.4625486658051
  0
VERTEX
  8
0
  6
CONTINUOUS
 62
     7
 10
593.0817185874678
 20
284.6353453775951
  0
VERTEX
  8
0
  6
CONTINUOUS
 62
     7
 10
592.9575293103474
 20
284.7868377108662
  0
VERTEX
  8
0
  6
CONTINUOUS
 62
     7
 10
592.8061913157565
 20
284.9112127296809
  0
VERTEX
  8
0
  6
CONTINUOUS
 62
     7
 10
592.6335116174789
 20
285.0036980208024
  0
VERTEX
  8
0
  6
CONTINUOUS
 62
     7
 10
592.446116135138
 20
285.0607448167066
  0
SEQEND
  8
0
  6
CONTINUOUS
 62
     7
  0
LINE
  8
0
  6
CONTINUOUS
 62
     7
 10
593.2499999999999
 20
283.8003859114821
 11
593.2499999999999
 21
284.0801268020865
  0
POLYLINE
  8
0
  6
CONTINUOUS
 62
     7
 66
     1
  0
VERTEX
  8
0
  6
CONTINUOUS
 62
     7
 10
377.5538838648617
 20
285.0607448167067
  0
VERTEX
  8
0
  6
CONTINUOUS
 62
     7
 10
377.3664883825209
 20
285.0036980208025
  0
VERTEX
  8
0
  6
CONTINUOUS
 62
     7
 10
377.1938086842434
 20
284.911212729681
  0
VERTEX
  8
0
  6
CONTINUOUS
 62
     7
 10
377.0424706896525
 20
284.7868377108662
  0
VERTEX
  8
0
  6
CONTINUOUS
 62
     7
 10
376.9182814125321
 20
284.6353453775952
  0
VERTEX
  8
0
  6
CONTINUOUS
 62
     7
 10
376.8260061389956
 20
284.4625486658052
  0
VERTEX
  8
0
  6
CONTINUOUS
 62
     7
 10
376.7691855779495
 20
284.2750779850632
  0
VERTEX
  8
0
  6
CONTINUOUS
 62
     7
 10
376.7499999999999
 20
284.0801268020865
  0
SEQEND
  8
0
  6
CONTINUOUS
 62
     7
  0
LINE
  8
0
  6
CONTINUOUS
 62
     7
 10
376.7499999999999
 20
283.8003859114821
 11
376.7499999999999
 21
284.0801268020865
  0
ENDBLK
  8
0
  0
BLOCK
  8
0
  2
D_FRAME_VIEW_2066
 70
     0
 10
0.0
 20
0.0
  0
LINE
  8
0
  6
CONTINUOUS
 62
     7
 10
525.5056477018587
 20
-1.749999999999988
 11
526.5299063452476
 21
-1.749999999999988
  0
LINE
  8
0
  6
CONTINUOUS
 62
     7
 10
525.7499999999999
 20
26.25000000000001
 11
526.7301268020864
 21
26.25000000000001
  0
LINE
  8
0
  6
CONTINUOUS
 62
     7
 10
526.7301268020864
 20
26.25000000000001
 11
526.730227312902
 21
26.25000000000001
  0
LINE
  8
0
  6
CONTINUOUS
 62
     7
 10
525.5056477018587
 20
-1.749999999999988
 11
525.7499999999999
 21
26.25000000000001
  0
LINE
  8
0
  6
CONTINUOUS
 62
     7
 10
443.4700936547524
 20
-1.749999999999988
 11
442.489550316569
 21
-1.749999999999988
  0
LINE
  8
0
  6
CONTINUOUS
 62
     7
 10
442.2892293489145
 20
26.25000000000001
 11
443.2697726870979
 21
26.25000000000001
  0
LINE
  8
0
  6
CONTINUOUS
 62
     7
 10
444.4943522981412
 20
-1.749999999999988
 11
444.2499999999999
 21
26.25000000000001
  0
LINE
  8
0
  6
CONTINUOUS
 62
     7
 10
444.4943522981412
 20
-1.749999999999988
 11
443.4700936547524
 21
-1.749999999999988
  0
LINE
  8
0
  6
CONTINUOUS
 62
     7
 10
444.2499999999999
 20
26.25000000000001
 11
443.2698731979135
 21
26.25000000000001
  0
LINE
  8
0
  6
CONTINUOUS
 62
     7
 10
443.2698731979135
 20
26.25000000000001
 11
443.2697726870979
 21
26.25000000000001
  0
LINE
  8
0
  6
CONTINUOUS
 62
     7
 10
526.5299063452476
 20
-1.749999999999988
 11
527.510449683431
 21
-1.749999999999988
  0
LINE
  8
0
  6
CONTINUOUS
 62
     7
 10
527.7107706510855
 20
26.25000000000001
 11
526.730227312902
 21
26.25000000000001
  0
LINE
  8
0
  6
CONTINUOUS
 62
     7
 10
528.3056477018587
 20
-1.749999999999988
 11
528.55
 21
26.25000000000001
  0
LINE
  8
0
  6
CONTINUOUS
 62
     7
 10
527.510449683431
 20
-1.749999999999988
 11
528.3056477018587
 21
-1.749999999999988
  0
LINE
  8
0
  6
CONTINUOUS
 62
     7
 10
528.55
 20
26.25000000000001
 11
527.7107706510855
 21
26.25000000000001
  0
LINE
  8
0
  6
CONTINUOUS
 62
     7
 10
441.6943522981412
 20
-1.749999999999988
 11
441.45
 21
26.25000000000001
  0
LINE
  8
0
  6
CONTINUOUS
 62
     7
 10
442.4895503165689
 20
-1.749999999999988
 11
441.6943522981412
 21
-1.749999999999988
  0
LINE
  8
0
  6
CONTINUOUS
 62
     7
 10
441.45
 20
26.25000000000001
 11
442.2892293489145
 21
26.25000000000001
  0
LINE
  8
0
  6
CONTINUOUS
 62
     7
 10
485.0
 20
1.550000000000013
 11
484.2499999999999
 21
1.550000000000013
  0
LINE
  8
0
  6
CONTINUOUS
 62
     7
 10
484.2499999999999
 20
1.550000000000013
 11
484.2499999999999
 21
2.050000000000014
  0
POLYLINE
  8
0
  6
CONTINUOUS
 62
     7
 66
     1
  0
VERTEX
  8
0
  6
CONTINUOUS
 62
     7
 10
484.8273502691896
 20
3.050000000000014
  0
VERTEX
  8
0
  6
CONTINUOUS
 62
     7
 10
484.7023502691896
 20
3.026281209488332
  0
VERTEX
  8
0
  6
CONTINUOUS
 62
     7
 10
484.607997306764
 20
2.97501417091028
  0
VERTEX
  8
0
  6
CONTINUOUS
 62
     7
 10
484.5285319548697
 20
2.905641773805569
  0
VERTEX
  8
0
  6
CONTINUOUS
 62
     7
 10
484.4585317201601
 20
2.81936163891891
  0
VERTEX
  8
0
  6
CONTINUOUS
 62
     7
 10
484.39404587379
 20
2.71086451166809
  0
VERTEX
  8
0
  6
CONTINUOUS
 62
     7
 10
484.3462161179909
 20
2.602735981100442
  0
SEQEND
  8
0
  6
CONTINUOUS
 62
     7
  0
ARC
  8
0
  6
CONTINUOUS
 62
     7
 10
485.8135054401545
 20
2.062579024001535
 40
1.563556040964911
 50
159.789696470723
 51
180.4609574212592
  0
LINE
  8
0
  6
CONTINUOUS
 62
     7
 10
484.8273502691896
 20
3.050000000000014
 11
485.0
 21
3.050000000000014
  0
LINE
  8
0
  6
CONTINUOUS
 62
     7
 10
484.8273502691896
 20
3.050000000000014
 11
472.7018942532713
 21
3.050000000000014
  0
ARC
  8
0
  6
CONTINUOUS
 62
     7
 10
484.2486883870491
 20
2.069579740453988
 40
1.50143928462571
 50
359.2528047572765
 51
24.86941635028069
  0
POLYLINE
  8
0
  6
CONTINUOUS
 62
     7
 66
     1
  0
VERTEX
  8
0
  6
CONTINUOUS
 62
     7
 10
485.6108971465724
 20
2.701012413741877
  0
VERTEX
  8
0
  6
CONTINUOUS
 62
     7
 10
485.5503509135002
 20
2.806323394844181
  0
VERTEX
  8
0
  6
CONTINUOUS
 62
     7
 10
485.4770710128366
 20
2.899695605899262
  0
VERTEX
  8
0
  6
CONTINUOUS
 62
     7
 10
485.3943979252895
 20
2.973299970602066
  0
VERTEX
  8
0
  6
CONTINUOUS
 62
     7
 10
485.2999373390871
 20
3.025393822820598
  0
VERTEX
  8
0
  6
CONTINUOUS
 62
     7
 10
485.1984446866379
 20
3.049001181434758
  0
VERTEX
  8
0
  6
CONTINUOUS
 62
     7
 10
485.1726497308103
 20
3.050000000000014
  0
SEQEND
  8
0
  6
CONTINUOUS
 62
     7
  0
LINE
  8
0
  6
CONTINUOUS
 62
     7
 10
497.2981057467286
 20
3.050000000000014
 11
485.1726497308103
 21
3.050000000000014
  0
LINE
  8
0
  6
CONTINUOUS
 62
     7
 10
470.7018923725188
 20
2.102335956242956
 11
470.7415279286918
 21
2.10167832672474
  0
LINE
  8
0
  6
CONTINUOUS
 62
     7
 10
470.672945671634
 20
1.550000000000013
 11
472.6756903636299
 21
1.550000000000013
  0
LINE
  8
0
  6
CONTINUOUS
 62
     7
 10
470.7018923725189
 20
2.102335956242956
 11
470.672945671634
 21
1.550000000000013
  0
LINE
  8
0
  6
CONTINUOUS
 62
     7
 10
484.2499999999999
 20
1.550000000000013
 11
472.6756903636299
 21
1.550000000000013
  0
LINE
  8
0
  6
CONTINUOUS
 62
     7
 10
499.3270543283659
 20
1.550000000000013
 11
499.2981076274992
 21
2.102335955896411
  0
LINE
  8
0
  6
CONTINUOUS
 62
     7
 10
497.3243096363701
 20
1.550000000000013
 11
499.3270543283659
 21
1.550000000000013
  0
LINE
  8
0
  6
CONTINUOUS
 62
     7
 10
497.3243096363701
 20
1.550000000000013
 11
485.75
 21
1.550000000000013
  0
LINE
  8
0
  6
CONTINUOUS
 62
     7
 10
485.75
 20
1.550000000000013
 11
485.75
 21
2.050000000000014
  0
LINE
  8
0
  6
CONTINUOUS
 62
     7
 10
485.75
 20
1.550000000000013
 11
485.0
 21
1.550000000000013
  0
LINE
  8
0
  6
CONTINUOUS
 62
     7
 10
485.0
 20
3.050000000000014
 11
485.1726497308103
 21
3.050000000000014
  0
LINE
  8
0
  6
CONTINUOUS
 62
     7
 10
499.2584720713082
 20
2.101678326724685
 11
499.298107627481
 21
2.102335956242956
  0
LINE
  8
0
  6
CONTINUOUS
 62
     7
 10
498.2994780927265
 20
3.050000000000014
 11
497.2981057467286
 21
3.050000000000014
  0
LINE
  8
0
  6
CONTINUOUS
 62
     7
 10
498.2994780927265
 20
3.050000000000014
 11
498.6567129184587
 21
2.984014603356997
  0
LINE
  8
0
  6
CONTINUOUS
 62
     7
 10
471.3432870450518
 20
2.984014589400778
 11
471.7005219072735
 21
3.050000000000014
  0
LINE
  8
0
  6
CONTINUOUS
 62
     7
 10
472.7018942532713
 20
3.050000000000014
 11
471.7005219072735
 21
3.050000000000014
  0
LINE
  8
0
  6
CONTINUOUS
 62
     7
 10
468.3518859764454
 20
1.050000000000013
 11
447.4531861385456
 21
1.050000000000013
  0
LINE
  8
0
  6
CONTINUOUS
 62
     7
 10
468.4986277584379
 20
-1.749999999999988
 11
468.3518859764454
 21
1.050000000000013
  0
LINE
  8
0
  6
CONTINUOUS
 62
     7
 10
468.4986277584379
 20
-1.749999999999988
 11
444.4943522981412
 21
-1.749999999999988
  0
LINE
  8
0
  6
CONTINUOUS
 62
     7
 10
501.5013722415621
 20
-1.749999999999988
 11
501.6481140235546
 21
1.050000000000013
  0
LINE
  8
0
  6
CONTINUOUS
 62
     7
 10
501.6481140235546
 20
1.050000000000013
 11
522.5468138614544
 21
1.050000000000013
  0
LINE
  8
0
  6
CONTINUOUS
 62
     7
 10
501.5013722415621
 20
-1.749999999999988
 11
525.5056477018587
 21
-1.749999999999988
  0
LINE
  8
0
  6
CONTINUOUS
 62
     7
 10
500.6467417819925
 20
1.050000000000013
 11
500.5000000000001
 21
-1.749999999999988
  0
LINE
  8
0
  6
CONTINUOUS
 62
     7
 10
501.6481140235546
 20
1.050000000000013
 11
500.6467417819925
 21
1.050000000000013
  0
LINE
  8
0
  6
CONTINUOUS
 62
     7
 10
500.5000000000001
 20
-1.749999999999988
 11
501.5013722415621
 21
-1.749999999999988
  0
LINE
  8
0
  6
CONTINUOUS
 62
     7
 10
468.3518859764454
 20
1.050000000000013
 11
469.3532582180075
 21
1.050000000000013
  0
LINE
  8
0
  6
CONTINUOUS
 62
     7
 10
469.3532582180075
 20
1.050000000000013
 11
469.4999999999999
 21
-1.749999999999988
  0
LINE
  8
0
  6
CONTINUOUS
 62
     7
 10
469.4999999999999
 20
-1.749999999999988
 11
468.4986277584379
 21
-1.749999999999988
  0
LINE
  8
0
  6
CONTINUOUS
 62
     7
 10
445.8298635240743
 20
25.33715574274767
 11
447.9547143208533
 21
1.050000000000009
  0
LINE
  8
0
  6
CONTINUOUS
 62
     7
 10
524.1701364759257
 20
25.33715574274767
 11
522.0452856791468
 21
1.050000000000009
  0
ARC
  8
0
  6
CONTINUOUS
 62
     7
 10
444.8336688259826
 20
25.25000000000001
 40
1.0
 50
4.999999999999943
 51
90.0
  0
ARC
  8
0
  6
CONTINUOUS
 62
     7
 10
525.1663311740174
 20
25.25000000000001
 40
1.0
 50
90.0
 51
175.0000000000003
  0
LINE
  8
0
  6
CONTINUOUS
 62
     7
 10
444.2501066194801
 20
26.25000000000001
 11
444.8336688259826
 21
26.25000000000001
  0
LINE
  8
0
  6
CONTINUOUS
 62
     7
 10
525.7498933805199
 20
26.25000000000001
 11
525.1663311740174
 21
26.25000000000001
  0
LINE
  8
0
  6
CONTINUOUS
 62
     7
 10
488.172945671634
 20
1.550000000000013
 11
488.0733708909962
 21
-0.3499999999999892
  0
LINE
  8
0
  6
CONTINUOUS
 62
     7
 10
499.4266291090037
 20
-0.3499999999999892
 11
499.3270543283659
 21
1.550000000000013
  0
LINE
  8
0
  6
CONTINUOUS
 62
     7
 10
481.9266291090037
 20
-0.3499999999999892
 11
481.8270543283659
 21
1.550000000000013
  0
LINE
  8
0
  6
CONTINUOUS
 62
     7
 10
470.5733708909963
 20
-0.3499999999999892
 11
470.672945671634
 21
1.550000000000013
  0
LINE
  8
0
  6
CONTINUOUS
 62
     7
 10
470.4999999999999
 20
-1.749999999999988
 11
482.0
 21
-1.749999999999988
  0
LINE
  8
0
  6
CONTINUOUS
 62
     7
 10
482.0
 20
-1.749999999999991
 11
481.9266291090037
 21
-0.3499999999999892
  0
LINE
  8
0
  6
CONTINUOUS
 62
     7
 10
470.5733708909963
 20
-0.3499999999999892
 11
470.4999999999999
 21
-1.749999999999991
  0
LINE
  8
0
  6
CONTINUOUS
 62
     7
 10
488.0
 20
-1.749999999999988
 11
499.5
 21
-1.749999999999988
  0
LINE
  8
0
  6
CONTINUOUS
 62
     7
 10
488.0733708909962
 20
-0.3499999999999892
 11
488.0
 21
-1.749999999999991
  0
LINE
  8
0
  6
CONTINUOUS
 62
     7
 10
499.5
 20
-1.749999999999991
 11
499.4266291090037
 21
-0.3499999999999892
  0
LINE
  8
0
  6
CONTINUOUS
 62
     7
 10
500.1474270146152
 20
1.050000000000013
 11
500.6467417819925
 21
1.050000000000013
  0
LINE
  8
0
  6
CONTINUOUS
 62
     7
 10
500.4999999999999
 20
-1.749999999999988
 11
500.0006852326226
 21
-1.749999999999988
  0
LINE
  8
0
  6
CONTINUOUS
 62
     7
 10
469.8525729853847
 20
1.050000000000013
 11
469.3532582180075
 21
1.050000000000013
  0
LINE
  8
0
  6
CONTINUOUS
 62
     7
 10
469.4999999999999
 20
-1.749999999999988
 11
469.9993147673773
 21
-1.749999999999988
  0
LINE
  8
0
  6
CONTINUOUS
 62
     7
 10
481.8532582180075
 20
1.050000000000013
 11
482.8808344536469
 21
1.050000000000013
  0
LINE
  8
0
  6
CONTINUOUS
 62
     7
 10
483.0013723459979
 20
-1.749999999999988
 11
482.0
 21
-1.749999999999988
  0
LINE
  8
0
  6
CONTINUOUS
 62
     7
 10
487.119165546353
 20
1.050000000000013
 11
488.1467417819925
 21
1.050000000000013
  0
LINE
  8
0
  6
CONTINUOUS
 62
     7
 10
488.0
 20
-1.749999999999988
 11
486.998627654002
 21
-1.749999999999988
  0
LINE
  8
0
  6
CONTINUOUS
 62
     7
 10
500.1474270146152
 20
1.050000000000013
 11
499.3532582180075
 21
1.050000000000013
  0
LINE
  8
0
  6
CONTINUOUS
 62
     7
 10
500.0006852326226
 20
-1.749999999999988
 11
499.5
 21
-1.749999999999949
  0
LINE
  8
0
  6
CONTINUOUS
 62
     7
 10
470.6467417819925
 20
1.050000000000013
 11
469.8525729853847
 21
1.050000000000013
  0
LINE
  8
0
  6
CONTINUOUS
 62
     7
 10
470.4999999999999
 20
-1.750000000000026
 11
469.9993147673773
 21
-1.749999999999988
  0
LINE
  8
0
  6
CONTINUOUS
 62
     7
 10
485.7499999999999
 20
-1.749999999999988
 11
485.7499999999999
 21
0.5500000000000123
  0
LINE
  8
0
  6
CONTINUOUS
 62
     7
 10
486.998627654002
 20
-1.749999999999988
 11
485.7499999999999
 21
-1.749999999999988
  0
POLYLINE
  8
0
  6
CONTINUOUS
 62
     7
 66
     1
  0
VERTEX
  8
0
  6
CONTINUOUS
 62
     7
 10
484.2499999999999
 20
0.5500000000000123
  0
VERTEX
  8
0
  6
CONTINUOUS
 62
     7
 10
484.250347721842
 20
0.5745338371637223
  0
VERTEX
  8
0
  6
CONTINUOUS
 62
     7
 10
484.251390049676
 20
0.5990085701647919
  0
VERTEX
  8
0
  6
CONTINUOUS
 62
     7
 10
484.2531244724427
 20
0.6233652372276931
  0
VERTEX
  8
0
  6
CONTINUOUS
 62
     7
 10
484.2555468117657
 20
0.6475451610080778
  0
VERTEX
  8
0
  6
CONTINUOUS
 62
     7
 10
484.2586512320177
 20
0.6714900899516436
  0
VERTEX
  8
0
  6
CONTINUOUS
 62
     7
 10
484.2624302543781
 20
0.6951423386272436
  0
VERTEX
  8
0
  6
CONTINUOUS
 62
     7
 10
484.2668747748511
 20
0.7184449266961213
  0
VERTEX
  8
0
  6
CONTINUOUS
 62
     7
 10
484.2719740861977
 20
0.7413417161825572
  0
VERTEX
  8
0
  6
CONTINUOUS
 62
     7
 10
484.2777159037301
 20
0.7637775467151525
  0
VERTEX
  8
0
  6
CONTINUOUS
 62
     7
 10
484.284086394907
 20
0.7856983684130098
  0
VERTEX
  8
0
  6
CONTINUOUS
 62
     7
 10
484.2910702126571
 20
0.8070513720966239
  0
VERTEX
  8
0
  6
CONTINUOUS
 62
     7
 10
484.2986505323518
 20
0.8277851165098132
  0
VERTEX
  8
0
  6
CONTINUOUS
 62
     7
 10
484.306809092337
 20
0.847849652246227
  0
VERTEX
  8
0
  6
CONTINUOUS
 62
     7
 10
484.3155262379271
 20
0.8671966420818328
  0
VERTEX
  8
0
  6
CONTINUOUS
 62
     7
 10
484.3247809687547
 20
0.8857794774235206
  0
VERTEX
  8
0
  6
CONTINUOUS
 62
     7
 10
484.3345509893628
 20
0.9035533905932848
  0
VERTEX
  8
0
  6
CONTINUOUS
 62
     7
 10
484.344812762916
 20
0.9204755626774919
  0
VERTEX
  8
0
  6
CONTINUOUS
 62
     7
 10
484.3555415679028
 20
0.9365052266813791
  0
VERTEX
  8
0
  6
CONTINUOUS
 62
     7
 10
484.3667115576924
 20
0.9516037657403345
  0
VERTEX
  8
0
  6
CONTINUOUS
 62
     7
 10
484.378295822801
 20
0.9657348061512839
  0
VERTEX
  8
0
  6
CONTINUOUS
 62
     7
 10
484.3902664557193
 20
0.9788643050001461
  0
VERTEX
  8
0
  6
CONTINUOUS
 62
     7
 10
484.402594618144
 20
0.9909606321741871
  0
VERTEX
  8
0
  6
CONTINUOUS
 62
     7
 10
484.4152506104521
 20
1.001994646561734
  0
VERTEX
  8
0
  6
CONTINUOUS
 62
     7
 10
484.4282039432496
 20
1.011939766255656
  0
VERTEX
  8
0
  6
CONTINUOUS
 62
     7
 10
484.4414234108231
 20
1.020772032591523
  0
VERTEX
  8
0
  6
CONTINUOUS
 62
     7
 10
484.4548771663175
 20
1.028470167866117
  0
VERTEX
  8
0
  6
CONTINUOUS
 62
     7
 10
484.4685327984574
 20
1.035015626597285
  0
VERTEX
  8
0
  6
CONTINUOUS
 62
     7
 10
484.4823574096286
 20
1.040392640201625
  0
VERTEX
  8
0
  6
CONTINUOUS
 62
     7
 10
484.4963176951322
 20
1.044588254982402
  0
VERTEX
  8
0
  6
CONTINUOUS
 62
     7
 10
484.5103800234176
 20
1.047592363336111
  0
VERTEX
  8
0
  6
CONTINUOUS
 62
     7
 10
484.524510517104
 20
1.049397728102599
  0
VERTEX
  8
0
  6
CONTINUOUS
 62
     7
 10
484.5386751345948
 20
1.050000000000013
  0
SEQEND
  8
0
  6
CONTINUOUS
 62
     7
  0
LINE
  8
0
  6
CONTINUOUS
 62
     7
 10
484.2499999999999
 20
-1.749999999999988
 11
484.2499999999999
 21
0.5500000000000123
  0
LINE
  8
0
  6
CONTINUOUS
 62
     7
 10
484.5386751345948
 20
1.050000000000013
 11
485.0
 21
1.050000000000013
  0
LINE
  8
0
  6
CONTINUOUS
 62
     7
 10
485.0
 20
-1.749999999999988
 11
484.2499999999999
 21
-1.749999999999988
  0
POLYLINE
  8
0
  6
CONTINUOUS
 62
     7
 66
     1
  0
VERTEX
  8
0
  6
CONTINUOUS
 62
     7
 10
485.4613248654052
 20
1.050000000000013
  0
VERTEX
  8
0
  6
CONTINUOUS
 62
     7
 10
485.4754894828959
 20
1.049397728102599
  0
VERTEX
  8
0
  6
CONTINUOUS
 62
     7
 10
485.4896199765824
 20
1.047592363336111
  0
VERTEX
  8
0
  6
CONTINUOUS
 62
     7
 10
485.5036823048677
 20
1.044588254982402
  0
VERTEX
  8
0
  6
CONTINUOUS
 62
     7
 10
485.5176425903713
 20
1.040392640201629
  0
VERTEX
  8
0
  6
CONTINUOUS
 62
     7
 10
485.5314672015426
 20
1.035015626597285
  0
VERTEX
  8
0
  6
CONTINUOUS
 62
     7
 10
485.5451228336824
 20
1.028470167866117
  0
VERTEX
  8
0
  6
CONTINUOUS
 62
     7
 10
485.5585765891768
 20
1.020772032591523
  0
VERTEX
  8
0
  6
CONTINUOUS
 62
     7
 10
485.5717960567504
 20
1.011939766255656
  0
VERTEX
  8
0
  6
CONTINUOUS
 62
     7
 10
485.5847493895479
 20
1.001994646561734
  0
VERTEX
  8
0
  6
CONTINUOUS
 62
     7
 10
485.5974053818559
 20
0.9909606321741905
  0
VERTEX
  8
0
  6
CONTINUOUS
 62
     7
 10
485.6097335442807
 20
0.9788643050001495
  0
VERTEX
  8
0
  6
CONTINUOUS
 62
     7
 10
485.621704177199
 20
0.9657348061512874
  0
VERTEX
  8
0
  6
CONTINUOUS
 62
     7
 10
485.6332884423076
 20
0.9516037657403345
  0
VERTEX
  8
0
  6
CONTINUOUS
 62
     7
 10
485.6444584320971
 20
0.9365052266813827
  0
VERTEX
  8
0
  6
CONTINUOUS
 62
     7
 10
485.655187237084
 20
0.9204755626774919
  0
VERTEX
  8
0
  6
CONTINUOUS
 62
     7
 10
485.6654490106371
 20
0.9035533905932882
  0
VERTEX
  8
0
  6
CONTINUOUS
 62
     7
 10
485.6752190312451
 20
0.885779477423524
  0
VERTEX
  8
0
  6
CONTINUOUS
 62
     7
 10
485.6844737620729
 20
0.8671966420818362
  0
VERTEX
  8
0
  6
CONTINUOUS
 62
     7
 10
485.6931909076629
 20
0.8478496522462304
  0
VERTEX
  8
0
  6
CONTINUOUS
 62
     7
 10
485.7013494676481
 20
0.8277851165098132
  0
VERTEX
  8
0
  6
CONTINUOUS
 62
     7
 10
485.7089297873428
 20
0.8070513720966239
  0
VERTEX
  8
0
  6
CONTINUOUS
 62
     7
 10
485.715913605093
 20
0.7856983684130132
  0
VERTEX
  8
0
  6
CONTINUOUS
 62
     7
 10
485.7222840962698
 20
0.763777546715156
  0
VERTEX
  8
0
  6
CONTINUOUS
 62
     7
 10
485.7280259138022
 20
0.7413417161825572
  0
VERTEX
  8
0
  6
CONTINUOUS
 62
     7
 10
485.7331252251488
 20
0.7184449266961247
  0
VERTEX
  8
0
  6
CONTINUOUS
 62
     7
 10
485.7375697456218
 20
0.6951423386272436
  0
VERTEX
  8
0
  6
CONTINUOUS
 62
     7
 10
485.7413487679822
 20
0.671490089951647
  0
VERTEX
  8
0
  6
CONTINUOUS
 62
     7
 10
485.7444531882342
 20
0.6475451610080778
  0
VERTEX
  8
0
  6
CONTINUOUS
 62
     7
 10
485.7468755275573
 20
0.6233652372276931
  0
VERTEX
  8
0
  6
CONTINUOUS
 62
     7
 10
485.748609950324
 20
0.5990085701647954
  0
VERTEX
  8
0
  6
CONTINUOUS
 62
     7
 10
485.7496522781578
 20
0.5745338371637223
  0
VERTEX
  8
0
  6
CONTINUOUS
 62
     7
 10
485.7499999999999
 20
0.5500000000000123
  0
SEQEND
  8
0
  6
CONTINUOUS
 62
     7
  0
LINE
  8
0
  6
CONTINUOUS
 62
     7
 10
487.119165546353
 20
1.050000000000013
 11
485.4613248654052
 21
1.050000000000013
  0
LINE
  8
0
  6
CONTINUOUS
 62
     7
 10
485.0
 20
1.050000000000013
 11
485.4613248654052
 21
1.050000000000013
  0
LINE
  8
0
  6
CONTINUOUS
 62
     7
 10
485.7499999999999
 20
-1.749999999999988
 11
485.0
 21
-1.749999999999988
  0
LINE
  8
0
  6
CONTINUOUS
 62
     7
 10
484.2499999999999
 20
-1.749999999999988
 11
483.0013723459979
 21
-1.749999999999988
  0
LINE
  8
0
  6
CONTINUOUS
 62
     7
 10
484.5386751345948
 20
1.050000000000013
 11
482.8808344536469
 21
1.050000000000013
  0
LINE
  8
0
  6
CONTINUOUS
 62
     7
 10
440.2299419664554
 20
-1.749999999999984
 11
441.6943522981412
 21
-1.749999999999984
  0
LINE
  8
0
  6
CONTINUOUS
 62
     7
 10
441.45
 20
26.25000000000001
 11
439.9855896683142
 21
26.25000000000001
  0
LINE
  8
0
  6
CONTINUOUS
 62
     7
 10
529.7700580335445
 20
-1.749999999999984
 11
528.3056477018587
 21
-1.749999999999984
  0
LINE
  8
0
  6
CONTINUOUS
 62
     7
 10
528.55
 20
26.25000000000001
 11
530.0144103316857
 21
26.25000000000001
  0
LINE
  8
0
  6
CONTINUOUS
 62
     7
 10
440.2299419664554
 20
-1.749999999999984
 11
431.0156243675729
 21
-1.749999999999984
  0
LINE
  8
0
  6
CONTINUOUS
 62
     7
 10
430.9144103316858
 20
26.25000000000001
 11
439.9855896683142
 21
26.25000000000001
  0
LINE
  8
0
  6
CONTINUOUS
 62
     7
 10
529.7700580335445
 20
-1.749999999999984
 11
538.984375632427
 21
-1.749999999999984
  0
LINE
  8
0
  6
CONTINUOUS
 62
     7
 10
539.0855896683142
 20
26.25000000000001
 11
530.0144103316857
 21
26.25000000000001
  0
LINE
  8
0
  6
CONTINUOUS
 62
     7
 10
427.4802250839378
 20
-1.749999999999984
 11
431.0156243675729
 21
-1.749999999999984
  0
LINE
  8
0
  6
CONTINUOUS
 62
     7
 10
430.9144103316858
 20
26.25000000000001
 11
427.3790110480506
 21
26.25000000000001
  0
LINE
  8
0
  6
CONTINUOUS
 62
     7
 10
542.5197749160621
 20
-1.749999999999984
 11
538.984375632427
 21
-1.749999999999984
  0
LINE
  8
0
  6
CONTINUOUS
 62
     7
 10
539.0855896683142
 20
26.25000000000001
 11
542.6209889519494
 21
26.25000000000001
  0
LINE
  8
0
  6
CONTINUOUS
 62
     7
 10
381.7499999999999
 20
26.25000000000001
 11
381.7741956457072
 21
-1.749999999999981
  0
LINE
  8
0
  6
CONTINUOUS
 62
     7
 10
381.7741956457072
 20
-1.749999999999984
 11
377.5538913323633
 21
-1.749999999999984
  0
LINE
  8
0
  6
CONTINUOUS
 62
     7
 10
377.5538913323633
 20
26.25000000000001
 11
381.7499999999999
 21
26.25000000000001
  0
LINE
  8
0
  6
CONTINUOUS
 62
     7
 10
427.4802250839378
 20
-1.749999999999984
 11
381.7741956457072
 21
-1.749999999999984
  0
LINE
  8
0
  6
CONTINUOUS
 62
     7
 10
427.3790110480506
 20
26.25000000000001
 11
407.7499999999999
 21
26.25000000000001
  0
LINE
  8
0
  6
CONTINUOUS
 62
     7
 10
407.7499999999999
 20
26.25000000000001
 11
399.7499999999999
 21
26.25000000000001
  0
LINE
  8
0
  6
CONTINUOUS
 62
     7
 10
399.7499999999999
 20
26.25000000000001
 11
381.7499999999999
 21
26.25000000000001
  0
LINE
  8
0
  6
CONTINUOUS
 62
     7
 10
588.2499999999999
 20
26.25000000000001
 11
588.2258043542927
 21
-1.749999999999981
  0
LINE
  8
0
  6
CONTINUOUS
 62
     7
 10
542.5197749160621
 20
-1.749999999999984
 11
588.2258043542927
 21
-1.749999999999984
  0
LINE
  8
0
  6
CONTINUOUS
 62
     7
 10
542.6209889519494
 20
26.25000000000001
 11
562.25
 21
26.25000000000001
  0
LINE
  8
0
  6
CONTINUOUS
 62
     7
 10
562.25
 20
26.25000000000001
 11
570.25
 21
26.25000000000001
  0
LINE
  8
0
  6
CONTINUOUS
 62
     7
 10
570.25
 20
26.25000000000001
 11
588.2499999999999
 21
26.25000000000001
  0
LINE
  8
0
  6
CONTINUOUS
 62
     7
 10
588.2258043542927
 20
-1.749999999999984
 11
592.4461086676367
 21
-1.749999999999984
  0
LINE
  8
0
  6
CONTINUOUS
 62
     7
 10
592.4461086676367
 20
26.25000000000001
 11
588.2499999999999
 21
26.25000000000001
  0
LINE
  8
0
  6
CONTINUOUS
 62
     7
 10
376.7499999999999
 20
-1.749999999999984
 11
376.7499999999999
 21
26.25000000000002
  0
LINE
  8
0
  6
CONTINUOUS
 62
     7
 10
377.5538913323633
 20
-1.749999999999984
 11
376.7499999999999
 21
-1.749999999999984
  0
LINE
  8
0
  6
CONTINUOUS
 62
     7
 10
376.7499999999999
 20
26.25000000000001
 11
377.5538913323633
 21
26.25000000000001
  0
LINE
  8
0
  6
CONTINUOUS
 62
     7
 10
593.2499999999999
 20
-1.749999999999984
 11
593.2499999999999
 21
26.25000000000002
  0
LINE
  8
0
  6
CONTINUOUS
 62
     7
 10
592.4461086676367
 20
-1.749999999999984
 11
593.2499999999999
 21
-1.749999999999984
  0
LINE
  8
0
  6
CONTINUOUS
 62
     7
 10
593.2499999999999
 20
26.25000000000001
 11
592.4461086676367
 21
26.25000000000001
  0
LINE
  8
0
  6
CONTINUOUS
 62
     7
 10
499.4148600043334
 20
1.350000000000014
 11
499.3382409107762
 21
1.350000000000014
  0
LINE
  8
0
  6
CONTINUOUS
 62
     7
 10
510.5525135173876
 20
32.26745307099677
 11
510.2800829316728
 21
1.05000000000002
  0
LINE
  8
0
  6
CONTINUOUS
 62
     7
 10
519.719917068327
 20
1.05000000000002
 11
519.4474864826122
 21
32.26745307099677
  0
LINE
  8
0
  6
CONTINUOUS
 62
     7
 10
450.2800829316729
 20
1.05000000000002
 11
450.5525135173877
 21
32.26745307099677
  0
LINE
  8
0
  6
CONTINUOUS
 62
     7
 10
459.4474864826123
 20
32.26745307099677
 11
459.7199170683271
 21
1.05000000000002
  0
ARC
  8
0
  6
CONTINUOUS
 62
     7
 10
512.552437363516
 20
32.25000000000002
 40
2.0
 50
90.0
 51
179.4999999999999
  0
ARC
  8
0
  6
CONTINUOUS
 62
     7
 10
517.4475626364839
 20
32.25000000000002
 40
2.0
 50
0.5000000000000812
 51
90.0
  0
ARC
  8
0
  6
CONTINUOUS
 62
     7
 10
457.447562636484
 20
32.25000000000002
 40
2.0
 50
0.5000000000001136
 51
90.0
  0
ARC
  8
0
  6
CONTINUOUS
 62
     7
 10
452.552437363516
 20
32.25000000000002
 40
2.0
 50
90.0
 51
179.4999999999999
  0
LINE
  8
0
  6
CONTINUOUS
 62
     7
 10
517.4475626364839
 20
34.25000000000002
 11
512.552437363516
 21
34.25000000000002
  0
LINE
  8
0
  6
CONTINUOUS
 62
     7
 10
452.552437363516
 20
34.25000000000002
 11
457.447562636484
 21
34.25000000000002
  0
LINE
  8
0
  6
CONTINUOUS
 62
     7
 10
450.2
 20
26.25000000000002
 11
450.5
 21
26.25000000000002
  0
LINE
  8
0
  6
CONTINUOUS
 62
     7
 10
519.8
 20
26.25000000000002
 11
519.5
 21
26.25000000000002
  0
LINE
  8
0
  6
CONTINUOUS
 62
     7
 10
459.4999999999999
 20
26.25000000000002
 11
459.8
 21
26.25000000000002
  0
LINE
  8
0
  6
CONTINUOUS
 62
     7
 10
510.2
 20
26.25000000000002
 11
510.4999999999999
 21
26.25000000000002
  0
LINE
  8
0
  6
CONTINUOUS
 62
     7
 10
526.7301268020864
 20
26.25000000000001
 11
527.7107448167066
 21
26.25000000000001
  0
LINE
  8
0
  6
CONTINUOUS
 62
     7
 10
525.4769444969056
 20
57.52684412767051
 11
525.7498933805199
 21
26.25000000000001
  0
LINE
  8
0
  6
CONTINUOUS
 62
     7
 10
519.415882032579
 20
58.95000000000002
 11
525.4769444969056
 21
57.52684412767051
  0
LINE
  8
0
  6
CONTINUOUS
 62
     7
 10
450.584117967421
 20
58.95000000000002
 11
444.5230555030944
 21
57.52684412767051
  0
LINE
  8
0
  6
CONTINUOUS
 62
     7
 10
444.5230555030944
 20
57.52684412767051
 11
444.2501066194801
 21
26.25000000000001
  0
LINE
  8
0
  6
CONTINUOUS
 62
     7
 10
525.7498933805199
 20
26.25000000000001
 11
525.7499999999999
 21
26.25000000000001
  0
LINE
  8
0
  6
CONTINUOUS
 62
     7
 10
525.7499999999999
 20
26.25000000000001
 11
526.7301268020864
 21
26.25000000000001
  0
LINE
  8
0
  6
CONTINUOUS
 62
     7
 10
444.2501066194801
 20
26.25000000000001
 11
444.2499999999999
 21
26.25000000000001
  0
LINE
  8
0
  6
CONTINUOUS
 62
     7
 10
444.2499999999999
 20
26.25000000000001
 11
443.2698731979135
 21
26.25000000000001
  0
LINE
  8
0
  6
CONTINUOUS
 62
     7
 10
519.415882032579
 20
58.95000000000002
 11
450.5841179674209
 21
58.95000000000002
  0
LINE
  8
0
  6
CONTINUOUS
 62
     7
 10
443.2698731979135
 20
26.25000000000001
 11
442.2892551832934
 21
26.25000000000001
  0
POLYLINE
  8
0
  6
CONTINUOUS
 62
     7
 66
     1
  0
VERTEX
  8
0
  6
CONTINUOUS
 62
     7
 10
441.7390478018799
 20
59.36501292988576
  0
VERTEX
  8
0
  6
CONTINUOUS
 62
     7
 10
441.7401421377409
 20
59.38821939330617
  0
VERTEX
  8
0
  6
CONTINUOUS
 62
     7
 10
441.7423132780562
 20
59.41134997188068
  0
VERTEX
  8
0
  6
CONTINUOUS
 62
     7
 10
441.7455565354421
 20
59.43435472784522
  0
VERTEX
  8
0
  6
CONTINUOUS
 62
     7
 10
441.7498649078679
 20
59.4571839950805
  0
VERTEX
  8
0
  6
CONTINUOUS
 62
     7
 10
441.7552290937728
 20
59.47978848633861
  0
VERTEX
  8
0
  6
CONTINUOUS
 62
     7
 10
441.7616375121472
 20
59.50211939965175
  0
VERTEX
  8
0
  6
CONTINUOUS
 62
     7
 10
441.7690763275357
 20
59.52412852369324
  0
VERTEX
  8
0
  6
CONTINUOUS
 62
     7
 10
441.7775294799077
 20
59.54576834186334
  0
VERTEX
  8
0
  6
CONTINUOUS
 62
     7
 10
441.7869787193292
 20
59.56699213487532
  0
VERTEX
  8
0
  6
CONTINUOUS
 62
     7
 10
441.7974036453641
 20
59.58775408161993
  0
VERTEX
  8
0
  6
CONTINUOUS
 62
     7
 10
441.8087817511178
 20
59.60800935809096
  0
VERTEX
  8
0
  6
CONTINUOUS
 62
     7
 10
441.8210884718281
 20
59.627714234158
  0
VERTEX
  8
0
  6
CONTINUOUS
 62
     7
 10
441.8342972378996
 20
59.64682616797767
  0
VERTEX
  8
0
  6
CONTINUOUS
 62
     7
 10
441.848379532266
 20
59.66530389783928
  0
VERTEX
  8
0
  6
CONTINUOUS
 62
     7
 10
441.8633049519569
 20
59.68310753124677
  0
VERTEX
  8
0
  6
CONTINUOUS
 62
     7
 10
441.8790412737368
 20
59.70019863104471
  0
VERTEX
  8
0
  6
CONTINUOUS
 62
     7
 10
441.8955545236724
 20
59.71654029840214
  0
VERTEX
  8
0
  6
CONTINUOUS
 62
     7
 10
441.9128090504821
 20
59.73209725247528
  0
VERTEX
  8
0
  6
CONTINUOUS
 62
     7
 10
441.930767602504
 20
59.74683590657721
  0
VERTEX
  8
0
  6
CONTINUOUS
 62
     7
 10
441.9493914081212
 20
59.76072444068974
  0
VERTEX
  8
0
  6
CONTINUOUS
 62
     7
 10
441.9686402594672
 20
59.77373287016125
  0
VERTEX
  8
0
  6
CONTINUOUS
 62
     7
 10
441.9884725992334
 20
59.78583311044218
  0
VERTEX
  8
0
  6
CONTINUOUS
 62
     7
 10
442.0088456103887
 20
59.79699903771798
  0
VERTEX
  8
0
  6
CONTINUOUS
 62
     7
 10
442.0297153086192
 20
59.8072065453093
  0
VERTEX
  8
0
  6
CONTINUOUS
 62
     7
 10
442.0510366372887
 20
59.816433595717
  0
VERTEX
  8
0
  6
CONTINUOUS
 62
     7
 10
442.0727635647134
 20
59.82466026819999
  0
VERTEX
  8
0
  6
CONTINUOUS
 62
     7
 10
442.0948491835419
 20
59.83186880178326
  0
VERTEX
  8
0
  6
CONTINUOUS
 62
     7
 10
442.1172458120262
 20
59.83804363360273
  0
SEQEND
  8
0
  6
CONTINUOUS
 62
     7
  0
POLYLINE
  8
0
  6
CONTINUOUS
 62
     7
 66
     1
  0
VERTEX
  8
0
  6
CONTINUOUS
 62
     7
 10
528.2609521981201
 20
59.36501292988576
  0
VERTEX
  8
0
  6
CONTINUOUS
 62
     7
 10
528.2598578622591
 20
59.38821939330617
  0
VERTEX
  8
0
  6
CONTINUOUS
 62
     7
 10
528.2576867219437
 20
59.41134997188068
  0
VERTEX
  8
0
  6
CONTINUOUS
 62
     7
 10
528.2544434645579
 20
59.43435472784522
  0
VERTEX
  8
0
  6
CONTINUOUS
 62
     7
 10
528.250135092132
 20
59.4571839950805
  0
VERTEX
  8
0
  6
CONTINUOUS
 62
     7
 10
528.2447709062272
 20
59.47978848633861
  0
VERTEX
  8
0
  6
CONTINUOUS
 62
     7
 10
528.2383624878528
 20
59.50211939965175
  0
VERTEX
  8
0
  6
CONTINUOUS
 62
     7
 10
528.2309236724643
 20
59.52412852369324
  0
VERTEX
  8
0
  6
CONTINUOUS
 62
     7
 10
528.2224705200922
 20
59.54576834186334
  0
VERTEX
  8
0
  6
CONTINUOUS
 62
     7
 10
528.2130212806708
 20
59.56699213487532
  0
VERTEX
  8
0
  6
CONTINUOUS
 62
     7
 10
528.2025963546358
 20
59.58775408161993
  0
VERTEX
  8
0
  6
CONTINUOUS
 62
     7
 10
528.1912182488821
 20
59.60800935809096
  0
VERTEX
  8
0
  6
CONTINUOUS
 62
     7
 10
528.1789115281719
 20
59.627714234158
  0
VERTEX
  8
0
  6
CONTINUOUS
 62
     7
 10
528.1657027621003
 20
59.64682616797767
  0
VERTEX
  8
0
  6
CONTINUOUS
 62
     7
 10
528.1516204677339
 20
59.66530389783928
  0
VERTEX
  8
0
  6
CONTINUOUS
 62
     7
 10
528.136695048043
 20
59.68310753124677
  0
VERTEX
  8
0
  6
CONTINUOUS
 62
     7
 10
528.1209587262632
 20
59.70019863104471
  0
VERTEX
  8
0
  6
CONTINUOUS
 62
     7
 10
528.1044454763276
 20
59.71654029840214
  0
VERTEX
  8
0
  6
CONTINUOUS
 62
     7
 10
528.0871909495178
 20
59.73209725247528
  0
VERTEX
  8
0
  6
CONTINUOUS
 62
     7
 10
528.069232397496
 20
59.74683590657721
  0
VERTEX
  8
0
  6
CONTINUOUS
 62
     7
 10
528.0506085918788
 20
59.76072444068974
  0
VERTEX
  8
0
  6
CONTINUOUS
 62
     7
 10
528.0313597405327
 20
59.77373287016125
  0
VERTEX
  8
0
  6
CONTINUOUS
 62
     7
 10
528.0115274007665
 20
59.78583311044218
  0
VERTEX
  8
0
  6
CONTINUOUS
 62
     7
 10
527.9911543896113
 20
59.79699903771798
  0
VERTEX
  8
0
  6
CONTINUOUS
 62
     7
 10
527.9702846913807
 20
59.8072065453093
  0
VERTEX
  8
0
  6
CONTINUOUS
 62
     7
 10
527.9489633627112
 20
59.816433595717
  0
VERTEX
  8
0
  6
CONTINUOUS
 62
     7
 10
527.9272364352865
 20
59.82466026819999
  0
VERTEX
  8
0
  6
CONTINUOUS
 62
     7
 10
527.905150816458
 20
59.83186880178326
  0
VERTEX
  8
0
  6
CONTINUOUS
 62
     7
 10
527.8827541879738
 20
59.83804363360273
  0
SEQEND
  8
0
  6
CONTINUOUS
 62
     7
  0
ARC
  8
0
  6
CONTINUOUS
 62
     7
 10
519.1610637633405
 20
56.75000000000002
 40
4.999999999999999
 50
76.91500095848237
 51
89.87114287641327
  0
ARC
  8
0
  6
CONTINUOUS
 62
     7
 10
450.8389362366595
 20
56.75000000000002
 40
5.0
 50
90.1288571235861
 51
103.0849990415176
  0
LINE
  8
0
  6
CONTINUOUS
 62
     7
 10
441.45
 20
26.25000000000001
 11
441.7389241968144
 21
59.35743370265637
  0
LINE
  8
0
  6
CONTINUOUS
 62
     7
 10
441.73904780188
 20
59.36501292988569
 11
441.7389241968144
 21
59.35743370265637
  0
LINE
  8
0
  6
CONTINUOUS
 62
     7
 10
442.2892293489146
 20
26.25000000000001
 11
441.45
 21
26.25000000000001
  0
LINE
  8
0
  6
CONTINUOUS
 62
     7
 10
528.26095219812
 20
59.36501292988569
 11
528.2610758031856
 21
59.35743370265637
  0
LINE
  8
0
  6
CONTINUOUS
 62
     7
 10
528.55
 20
26.25000000000001
 11
528.2610758031856
 21
59.35743370265637
  0
LINE
  8
0
  6
CONTINUOUS
 62
     7
 10
527.7107706510853
 20
26.25000000000001
 11
528.55
 21
26.25000000000001
  0
ARC
  8
0
  6
CONTINUOUS
 62
     7
 10
450.8389362366595
 20
56.75000000000002
 40
5.000000000000004
 50
90.0
 51
90.1288571235861
  0
LINE
  8
0
  6
CONTINUOUS
 62
     7
 10
450.8389362366595
 20
61.75000000000001
 11
519.1610637633405
 21
61.75000000000001
  0
ARC
  8
0
  6
CONTINUOUS
 62
     7
 10
519.1610637633405
 20
56.75000000000002
 40
5.000000000000004
 50
89.87114287641327
 51
90.0
  0
LINE
  8
0
  6
CONTINUOUS
 62
     7
 10
527.875387996438
 20
59.83983226041263
 11
527.8827541879737
 21
59.83804363360267
  0
ARC
  8
0
  6
CONTINUOUS
 62
     7
 10
519.1610637633405
 20
56.75000000000002
 40
5.000000000000004
 50
76.78614383489628
 51
76.91500095848238
  0
LINE
  8
0
  6
CONTINUOUS
 62
     7
 10
527.875387996438
 20
59.83983226041263
 11
520.3039953111856
 21
61.61761825505454
  0
ARC
  8
0
  6
CONTINUOUS
 62
     7
 10
450.8389362366595
 20
56.75000000000002
 40
5.000000000000003
 50
103.0849990415176
 51
103.2138561651043
  0
LINE
  8
0
  6
CONTINUOUS
 62
     7
 10
442.1246120035619
 20
59.83983226041263
 11
442.1172458120263
 21
59.83804363360267
  0
LINE
  8
0
  6
CONTINUOUS
 62
     7
 10
442.1246120035619
 20
59.83983226041263
 11
449.6960046888142
 21
61.61761825505454
  0
LINE
  8
0
  6
CONTINUOUS
 62
     7
 10
446.5270552696327
 20
57.99738935842532
 11
446.2499999999999
 21
26.25000000000001
  0
LINE
  8
0
  6
CONTINUOUS
 62
     7
 10
444.8336688259826
 20
26.25000000000001
 11
446.2499999999999
 21
26.25000000000001
  0
LINE
  8
0
  6
CONTINUOUS
 62
     7
 10
523.4729447303673
 20
57.99738935842532
 11
523.7499999999999
 21
26.25000000000001
  0
LINE
  8
0
  6
CONTINUOUS
 62
     7
 10
525.1663311740174
 20
26.25000000000001
 11
523.7499999999999
 21
26.25000000000001
  0
LINE
  8
0
  6
CONTINUOUS
 62
     7
 10
448.130340553585
 20
58.37384561181419
 11
447.7434560576311
 21
14.04127346450163
  0
LINE
  8
0
  6
CONTINUOUS
 62
     7
 10
447.6742318838017
 20
13.68431264425765
 11
447.7434560576311
 21
14.04127346450164
  0
LINE
  8
0
  6
CONTINUOUS
 62
     7
 10
522.3257681161983
 20
13.68431264425765
 11
522.2565439423687
 21
14.04127346450164
  0
LINE
  8
0
  6
CONTINUOUS
 62
     7
 10
521.869659446415
 20
58.37384561181419
 11
522.2565439423687
 21
14.04127346450163
  0
ARC
  8
0
  6
CONTINUOUS
 62
     7
 10
446.743494134567
 20
14.05000000000001
 40
1.0
 50
279.220008674942
 51
338.550110132059
  0
ARC
  8
0
  6
CONTINUOUS
 62
     7
 10
523.2565058654329
 20
14.05000000000001
 40
1.0
 50
201.4498898679433
 51
260.779991325061
  0
LINE
  8
0
  6
CONTINUOUS
 62
     7
 10
439.9855896683142
 20
26.25000000000001
 11
441.45
 21
26.25000000000001
  0
LINE
  8
0
  6
CONTINUOUS
 62
     7
 10
530.0144103316857
 20
26.25000000000001
 11
528.55
 21
26.25000000000001
  0
LINE
  8
0
  6
CONTINUOUS
 62
     7
 10
439.9855896683142
 20
26.25000000000001
 11
430.9144103316858
 21
26.25000000000001
  0
LINE
  8
0
  6
CONTINUOUS
 62
     7
 10
530.0144103316857
 20
26.25000000000001
 11
539.0855896683142
 21
26.25000000000001
  0
LINE
  8
0
  6
CONTINUOUS
 62
     7
 10
433.3390247254805
 20
61.75000000000003
 11
450.8389362366595
 21
61.75000000000003
  0
LINE
  8
0
  6
CONTINUOUS
 62
     7
 10
536.6609752745195
 20
61.75000000000003
 11
519.1610637633405
 21
61.75000000000003
  0
LINE
  8
0
  6
CONTINUOUS
 62
     7
 10
427.3790110480506
 20
26.25000000000001
 11
430.9144103316858
 21
26.25000000000001
  0
LINE
  8
0
  6
CONTINUOUS
 62
     7
 10
542.6209889519494
 20
26.25000000000001
 11
539.0855896683142
 21
26.25000000000001
  0
LINE
  8
0
  6
CONTINUOUS
 62
     7
 10
409.75
 20
27.24992384757822
 11
409.6249952402018
 21
28.24988577064239
  0
LINE
  8
0
  6
CONTINUOUS
 62
     7
 10
409.6249952402018
 20
28.24988577064239
 11
409.4999904804035
 21
29.24984769370655
  0
LINE
  8
0
  6
CONTINUOUS
 62
     7
 10
409.4999904804035
 20
29.24984769370655
 11
409.3749857206054
 21
30.24980961677073
  0
LINE
  8
0
  6
CONTINUOUS
 62
     7
 10
409.3749857206054
 20
30.24980961677073
 11
409.2499809608071
 21
31.24977153983489
  0
LINE
  8
0
  6
CONTINUOUS
 62
     7
 10
409.2499809608071
 20
31.24977153983489
 11
409.1249762010089
 21
32.24973346289907
  0
LINE
  8
0
  6
CONTINUOUS
 62
     7
 10
409.1249762010089
 20
32.24973346289907
 11
408.9999714412107
 21
33.24969538596324
  0
LINE
  8
0
  6
CONTINUOUS
 62
     7
 10
408.9999714412107
 20
33.24969538596324
 11
408.9689984925502
 21
33.49746010592683
  0
POLYLINE
  8
0
  6
CONTINUOUS
 62
     7
 66
     1
  0
VERTEX
  8
0
  6
CONTINUOUS
 62
     7
 10
408.9689984925502
 20
33.49746010592683
  0
VERTEX
  8
0
  6
CONTINUOUS
 62
     7
 10
408.8803402529331
 20
33.88621582858046
  0
VERTEX
  8
0
  6
CONTINUOUS
 62
     7
 10
408.7163188037559
 20
34.24965730902741
  0
SEQEND
  8
0
  6
CONTINUOUS
 62
     7
  0
POLYLINE
  8
0
  6
CONTINUOUS
 62
     7
 66
     1
  0
VERTEX
  8
0
  6
CONTINUOUS
 62
     7
 10
408.7163188037559
 20
34.24965730902743
  0
VERTEX
  8
0
  6
CONTINUOUS
 62
     7
 10
408.4705452406
 20
34.58781014212597
  0
VERTEX
  8
0
  6
CONTINUOUS
 62
     7
 10
408.159843653088
 20
34.86748720204853
  0
VERTEX
  8
0
  6
CONTINUOUS
 62
     7
 10
407.797788647281
 20
35.07646934970708
  0
VERTEX
  8
0
  6
CONTINUOUS
 62
     7
 10
407.400198468961
 20
35.20562611894947
  0
VERTEX
  8
0
  6
CONTINUOUS
 62
     7
 10
406.984443901739
 20
35.24931462820378
  0
SEQEND
  8
0
  6
CONTINUOUS
 62
     7
  0
LINE
  8
0
  6
CONTINUOUS
 62
     7
 10
406.984443901739
 20
35.24931462820378
 11
400.515556098261
 21
35.24931462820378
  0
POLYLINE
  8
0
  6
CONTINUOUS
 62
     7
 66
     1
  0
VERTEX
  8
0
  6
CONTINUOUS
 62
     7
 10
400.515556098261
 20
35.24931462820379
  0
VERTEX
  8
0
  6
CONTINUOUS
 62
     7
 10
400.099801531039
 20
35.20562611894947
  0
VERTEX
  8
0
  6
CONTINUOUS
 62
     7
 10
399.7022113527189
 20
35.07646934970707
  0
VERTEX
  8
0
  6
CONTINUOUS
 62
     7
 10
399.3401563469119
 20
34.86748720204852
  0
VERTEX
  8
0
  6
CONTINUOUS
 62
     7
 10
399.0294547594
 20
34.58781014212596
  0
VERTEX
  8
0
  6
CONTINUOUS
 62
     7
 10
398.783681196244
 20
34.24965730902742
  0
SEQEND
  8
0
  6
CONTINUOUS
 62
     7
  0
POLYLINE
  8
0
  6
CONTINUOUS
 62
     7
 66
     1
  0
VERTEX
  8
0
  6
CONTINUOUS
 62
     7
 10
398.783681196244
 20
34.24965730902741
  0
VERTEX
  8
0
  6
CONTINUOUS
 62
     7
 10
398.6196597470669
 20
33.88621582858047
  0
VERTEX
  8
0
  6
CONTINUOUS
 62
     7
 10
398.5310015074498
 20
33.49746010592683
  0
SEQEND
  8
0
  6
CONTINUOUS
 62
     7
  0
LINE
  8
0
  6
CONTINUOUS
 62
     7
 10
398.5310015074498
 20
33.49746010592683
 11
398.5000285587893
 21
33.24969538596324
  0
LINE
  8
0
  6
CONTINUOUS
 62
     7
 10
398.5000285587893
 20
33.24969538596324
 11
398.375023798991
 21
32.24973346289907
  0
LINE
  8
0
  6
CONTINUOUS
 62
     7
 10
398.375023798991
 20
32.24973346289907
 11
398.2500190391929
 21
31.2497715398349
  0
LINE
  8
0
  6
CONTINUOUS
 62
     7
 10
398.2500190391929
 20
31.2497715398349
 11
398.1250142793946
 21
30.24980961677073
  0
LINE
  8
0
  6
CONTINUOUS
 62
     7
 10
398.1250142793946
 20
30.24980961677073
 11
398.0000095195964
 21
29.24984769370656
  0
LINE
  8
0
  6
CONTINUOUS
 62
     7
 10
398.0000095195964
 20
29.24984769370656
 11
397.8750047597982
 21
28.24988577064239
  0
LINE
  8
0
  6
CONTINUOUS
 62
     7
 10
397.8750047597982
 20
28.24988577064239
 11
397.75
 21
27.24992384757822
  0
LINE
  8
0
  6
CONTINUOUS
 62
     7
 10
397.75
 20
27.24992384757822
 11
399.7499999999999
 21
27.2499238475782
  0
LINE
  8
0
  6
CONTINUOUS
 62
     7
 10
399.7499999999999
 20
26.25
 11
399.7499999999999
 21
27.2499238475782
  0
LINE
  8
0
  6
CONTINUOUS
 62
     7
 10
381.7499999999999
 20
59.35743370265638
 11
381.7499999999999
 21
26.25000000000001
  0
LINE
  8
0
  6
CONTINUOUS
 62
     7
 10
407.7499999999999
 20
26.25000000000004
 11
407.7499999999999
 21
27.24992384757823
  0
LINE
  8
0
  6
CONTINUOUS
 62
     7
 10
407.7499999999999
 20
27.24992384757823
 11
409.75
 21
27.24992384757822
  0
LINE
  8
0
  6
CONTINUOUS
 62
     7
 10
399.7499999999999
 20
26.25
 11
381.7499999999999
 21
26.25000000000001
  0
LINE
  8
0
  6
CONTINUOUS
 62
     7
 10
427.3790110480506
 20
26.25000000000001
 11
407.7499999999999
 21
26.25000000000004
  0
LINE
  8
0
  6
CONTINUOUS
 62
     7
 10
562.25
 20
26.25000000000004
 11
562.25
 21
27.24992384757823
  0
LINE
  8
0
  6
CONTINUOUS
 62
     7
 10
588.2499999999999
 20
59.35743370265638
 11
588.2499999999999
 21
26.25000000000001
  0
LINE
  8
0
  6
CONTINUOUS
 62
     7
 10
570.25
 20
26.25
 11
570.25
 21
27.2499238475782
  0
LINE
  8
0
  6
CONTINUOUS
 62
     7
 10
572.25
 20
27.24992384757822
 11
570.25
 21
27.2499238475782
  0
LINE
  8
0
  6
CONTINUOUS
 62
     7
 10
572.1249952402018
 20
28.24988577064239
 11
572.25
 21
27.24992384757822
  0
LINE
  8
0
  6
CONTINUOUS
 62
     7
 10
571.9999904804037
 20
29.24984769370656
 11
572.1249952402018
 21
28.24988577064239
  0
LINE
  8
0
  6
CONTINUOUS
 62
     7
 10
571.8749857206053
 20
30.24980961677073
 11
571.9999904804037
 21
29.24984769370656
  0
LINE
  8
0
  6
CONTINUOUS
 62
     7
 10
571.7499809608071
 20
31.2497715398349
 11
571.8749857206053
 21
30.24980961677073
  0
LINE
  8
0
  6
CONTINUOUS
 62
     7
 10
571.624976201009
 20
32.24973346289907
 11
571.7499809608071
 21
31.2497715398349
  0
LINE
  8
0
  6
CONTINUOUS
 62
     7
 10
571.4999714412106
 20
33.24969538596324
 11
571.624976201009
 21
32.24973346289907
  0
LINE
  8
0
  6
CONTINUOUS
 62
     7
 10
571.4689984925502
 20
33.49746010592683
 11
571.4999714412106
 21
33.24969538596324
  0
POLYLINE
  8
0
  6
CONTINUOUS
 62
     7
 66
     1
  0
VERTEX
  8
0
  6
CONTINUOUS
 62
     7
 10
571.4689984925502
 20
33.49746010592686
  0
VERTEX
  8
0
  6
CONTINUOUS
 62
     7
 10
571.3803402529331
 20
33.88621582858048
  0
VERTEX
  8
0
  6
CONTINUOUS
 62
     7
 10
571.2163188037559
 20
34.24965730902741
  0
SEQEND
  8
0
  6
CONTINUOUS
 62
     7
  0
POLYLINE
  8
0
  6
CONTINUOUS
 62
     7
 66
     1
  0
VERTEX
  8
0
  6
CONTINUOUS
 62
     7
 10
571.2163188037559
 20
34.2496573090274
  0
VERTEX
  8
0
  6
CONTINUOUS
 62
     7
 10
570.9705452406
 20
34.58781014212595
  0
VERTEX
  8
0
  6
CONTINUOUS
 62
     7
 10
570.6598436530882
 20
34.8674872020485
  0
VERTEX
  8
0
  6
CONTINUOUS
 62
     7
 10
570.2977886472811
 20
35.07646934970707
  0
VERTEX
  8
0
  6
CONTINUOUS
 62
     7
 10
569.900198468961
 20
35.20562611894947
  0
VERTEX
  8
0
  6
CONTINUOUS
 62
     7
 10
569.484443901739
 20
35.24931462820379
  0
SEQEND
  8
0
  6
CONTINUOUS
 62
     7
  0
LINE
  8
0
  6
CONTINUOUS
 62
     7
 10
563.015556098261
 20
35.24931462820378
 11
569.484443901739
 21
35.24931462820378
  0
POLYLINE
  8
0
  6
CONTINUOUS
 62
     7
 66
     1
  0
VERTEX
  8
0
  6
CONTINUOUS
 62
     7
 10
563.015556098261
 20
35.24931462820378
  0
VERTEX
  8
0
  6
CONTINUOUS
 62
     7
 10
562.599801531039
 20
35.20562611894947
  0
VERTEX
  8
0
  6
CONTINUOUS
 62
     7
 10
562.2022113527189
 20
35.07646934970707
  0
VERTEX
  8
0
  6
CONTINUOUS
 62
     7
 10
561.840156346912
 20
34.86748720204852
  0
VERTEX
  8
0
  6
CONTINUOUS
 62
     7
 10
561.5294547594
 20
34.58781014212597
  0
VERTEX
  8
0
  6
CONTINUOUS
 62
     7
 10
561.2836811962441
 20
34.24965730902743
  0
SEQEND
  8
0
  6
CONTINUOUS
 62
     7
  0
POLYLINE
  8
0
  6
CONTINUOUS
 62
     7
 66
     1
  0
VERTEX
  8
0
  6
CONTINUOUS
 62
     7
 10
561.2836811962441
 20
34.24965730902743
  0
VERTEX
  8
0
  6
CONTINUOUS
 62
     7
 10
561.1196597470669
 20
33.88621582858048
  0
VERTEX
  8
0
  6
CONTINUOUS
 62
     7
 10
561.0310015074498
 20
33.49746010592683
  0
SEQEND
  8
0
  6
CONTINUOUS
 62
     7
  0
LINE
  8
0
  6
CONTINUOUS
 62
     7
 10
561.0000285587893
 20
33.24969538596324
 11
561.0310015074498
 21
33.49746010592683
  0
LINE
  8
0
  6
CONTINUOUS
 62
     7
 10
560.875023798991
 20
32.24973346289907
 11
561.0000285587893
 21
33.24969538596324
  0
LINE
  8
0
  6
CONTINUOUS
 62
     7
 10
560.7500190391928
 20
31.24977153983489
 11
560.875023798991
 21
32.24973346289907
  0
LINE
  8
0
  6
CONTINUOUS
 62
     7
 10
560.6250142793946
 20
30.24980961677073
 11
560.7500190391928
 21
31.24977153983489
  0
LINE
  8
0
  6
CONTINUOUS
 62
     7
 10
560.5000095195965
 20
29.24984769370655
 11
560.6250142793946
 21
30.24980961677073
  0
LINE
  8
0
  6
CONTINUOUS
 62
     7
 10
560.3750047597981
 20
28.24988577064239
 11
560.5000095195965
 21
29.24984769370655
  0
LINE
  8
0
  6
CONTINUOUS
 62
     7
 10
560.25
 20
27.24992384757822
 11
560.3750047597981
 21
28.24988577064239
  0
LINE
  8
0
  6
CONTINUOUS
 62
     7
 10
562.25
 20
27.24992384757823
 11
560.25
 21
27.24992384757822
  0
LINE
  8
0
  6
CONTINUOUS
 62
     7
 10
542.6209889519494
 20
26.25000000000001
 11
562.25
 21
26.25000000000004
  0
LINE
  8
0
  6
CONTINUOUS
 62
     7
 10
570.25
 20
26.25
 11
588.2499999999999
 21
26.25000000000001
  0
LINE
  8
0
  6
CONTINUOUS
 62
     7
 10
381.7499999999999
 20
59.35743370265638
 11
381.7497127001819
 21
59.36501292988572
  0
LINE
  8
0
  6
CONTINUOUS
 62
     7
 10
381.7499999999999
 20
26.25000000000001
 11
377.5538838648617
 21
26.25000000000001
  0
LINE
  8
0
  6
CONTINUOUS
 62
     7
 10
588.250287299818
 20
59.36501292988572
 11
588.25
 21
59.35743370265638
  0
LINE
  8
0
  6
CONTINUOUS
 62
     7
 10
588.2499999999999
 20
26.25000000000001
 11
592.4461161351381
 21
26.25000000000001
  0
LINE
  8
0
  6
CONTINUOUS
 62
     7
 10
397.8750047597982
 20
28.24377719579352
 11
397.75
 21
27.24992384757822
  0
LINE
  8
0
  6
CONTINUOUS
 62
     7
 10
399.7499999999999
 20
28.24377719579351
 11
397.8750047597982
 21
28.24377719579352
  0
LINE
  8
0
  6
CONTINUOUS
 62
     7
 10
399.7499999999999
 20
27.2499238475782
 11
399.7499999999999
 21
28.24377719579351
  0
LINE
  8
0
  6
CONTINUOUS
 62
     7
 10
570.25
 20
28.24377719579351
 11
572.1249952402018
 21
28.24377719579352
  0
LINE
  8
0
  6
CONTINUOUS
 62
     7
 10
572.1249952402018
 20
28.24377719579352
 11
572.25
 21
27.24992384757822
  0
LINE
  8
0
  6
CONTINUOUS
 62
     7
 10
570.25
 20
27.2499238475782
 11
570.25
 21
28.24377719579351
  0
LINE
  8
0
  6
CONTINUOUS
 62
     7
 10
397.8750047597982
 20
28.24988577064239
 11
397.8750047597982
 21
28.24377719579352
  0
LINE
  8
0
  6
CONTINUOUS
 62
     7
 10
409.75
 20
27.24992384757822
 11
409.6249952402018
 21
28.24377719579352
  0
LINE
  8
0
  6
CONTINUOUS
 62
     7
 10
409.6249952402018
 20
28.24377719579352
 11
407.7499999999999
 21
28.24377719579352
  0
LINE
  8
0
  6
CONTINUOUS
 62
     7
 10
407.7499999999999
 20
27.24992384757823
 11
407.7499999999999
 21
28.24377719579352
  0
LINE
  8
0
  6
CONTINUOUS
 62
     7
 10
409.6249952402018
 20
28.24377719579352
 11
409.6249952402018
 21
28.24988577064239
  0
LINE
  8
0
  6
CONTINUOUS
 62
     7
 10
572.1249952402018
 20
28.24988577064239
 11
572.1249952402018
 21
28.24377719579352
  0
LINE
  8
0
  6
CONTINUOUS
 62
     7
 10
560.25
 20
27.24992384757822
 11
560.3750047597981
 21
28.24377719579352
  0
LINE
  8
0
  6
CONTINUOUS
 62
     7
 10
560.3750047597981
 20
28.24377719579352
 11
562.25
 21
28.24377719579352
  0
LINE
  8
0
  6
CONTINUOUS
 62
     7
 10
562.25
 20
27.24992384757823
 11
562.25
 21
28.24377719579352
  0
LINE
  8
0
  6
CONTINUOUS
 62
     7
 10
560.3750047597981
 20
28.24377719579352
 11
560.3750047597981
 21
28.24988577064239
  0
LINE
  8
0
  6
CONTINUOUS
 62
     7
 10
409.6249952402018
 20
28.24988577064239
 11
409.4999904804036
 21
29.24373911885769
  0
LINE
  8
0
  6
CONTINUOUS
 62
     7
 10
409.6249952402018
 20
28.24988577064239
 11
397.8750047597982
 21
28.24988577064239
  0
LINE
  8
0
  6
CONTINUOUS
 62
     7
 10
398.0000095195965
 20
29.2437391188577
 11
397.8750047597982
 21
28.24988577064239
  0
LINE
  8
0
  6
CONTINUOUS
 62
     7
 10
409.4999904804036
 20
29.24373911885769
 11
398.0000095195965
 21
29.2437391188577
  0
LINE
  8
0
  6
CONTINUOUS
 62
     7
 10
398.0000095195964
 20
29.24984769370656
 11
398.0000095195965
 21
29.2437391188577
  0
LINE
  8
0
  6
CONTINUOUS
 62
     7
 10
407.7499999999999
 20
28.24377719579352
 11
399.7499999999999
 21
28.24377719579351
  0
LINE
  8
0
  6
CONTINUOUS
 62
     7
 10
571.9999904804035
 20
29.2437391188577
 11
572.1249952402018
 21
28.24988577064239
  0
LINE
  8
0
  6
CONTINUOUS
 62
     7
 10
560.3750047597981
 20
28.24988577064239
 11
572.1249952402018
 21
28.24988577064239
  0
LINE
  8
0
  6
CONTINUOUS
 62
     7
 10
560.3750047597981
 20
28.24988577064239
 11
560.5000095195965
 21
29.24373911885769
  0
LINE
  8
0
  6
CONTINUOUS
 62
     7
 10
560.5000095195965
 20
29.24373911885769
 11
571.9999904804035
 21
29.2437391188577
  0
LINE
  8
0
  6
CONTINUOUS
 62
     7
 10
562.25
 20
28.24377719579352
 11
570.25
 21
28.24377719579351
  0
LINE
  8
0
  6
CONTINUOUS
 62
     7
 10
571.9999904804037
 20
29.24984769370656
 11
571.9999904804035
 21
29.2437391188577
  0
LINE
  8
0
  6
CONTINUOUS
 62
     7
 10
409.4999904804036
 20
29.24373911885769
 11
409.4999904804035
 21
29.24984769370655
  0
LINE
  8
0
  6
CONTINUOUS
 62
     7
 10
560.5000095195965
 20
29.24373911885769
 11
560.5000095195965
 21
29.24984769370655
  0
LINE
  8
0
  6
CONTINUOUS
 62
     7
 10
409.4999904804035
 20
29.24984769370655
 11
409.3749857206054
 21
30.24370104192187
  0
LINE
  8
0
  6
CONTINUOUS
 62
     7
 10
409.4999904804035
 20
29.24984769370655
 11
398.0000095195964
 21
29.24984769370656
  0
LINE
  8
0
  6
CONTINUOUS
 62
     7
 10
398.1250142793946
 20
30.24370104192187
 11
398.0000095195964
 21
29.24984769370656
  0
LINE
  8
0
  6
CONTINUOUS
 62
     7
 10
409.3749857206054
 20
30.24370104192187
 11
398.1250142793946
 21
30.24370104192187
  0
LINE
  8
0
  6
CONTINUOUS
 62
     7
 10
398.1250142793946
 20
30.24980961677073
 11
398.1250142793946
 21
30.24370104192187
  0
LINE
  8
0
  6
CONTINUOUS
 62
     7
 10
571.8749857206053
 20
30.24370104192187
 11
571.9999904804037
 21
29.24984769370656
  0
LINE
  8
0
  6
CONTINUOUS
 62
     7
 10
560.5000095195965
 20
29.24984769370655
 11
571.9999904804037
 21
29.24984769370656
  0
LINE
  8
0
  6
CONTINUOUS
 62
     7
 10
560.5000095195965
 20
29.24984769370655
 11
560.6250142793946
 21
30.24370104192187
  0
LINE
  8
0
  6
CONTINUOUS
 62
     7
 10
560.6250142793946
 20
30.24370104192187
 11
571.8749857206053
 21
30.24370104192187
  0
LINE
  8
0
  6
CONTINUOUS
 62
     7
 10
571.8749857206053
 20
30.24980961677073
 11
571.8749857206053
 21
30.24370104192187
  0
LINE
  8
0
  6
CONTINUOUS
 62
     7
 10
409.3749857206054
 20
30.24370104192187
 11
409.3749857206054
 21
30.24980961677073
  0
LINE
  8
0
  6
CONTINUOUS
 62
     7
 10
560.6250142793946
 20
30.24370104192187
 11
560.6250142793946
 21
30.24980961677073
  0
LINE
  8
0
  6
CONTINUOUS
 62
     7
 10
398.2500190391929
 20
31.24366296498604
 11
398.1250142793946
 21
30.24980961677073
  0
LINE
  8
0
  6
CONTINUOUS
 62
     7
 10
398.2500190391929
 20
31.2497715398349
 11
398.2500190391929
 21
31.24366296498604
  0
LINE
  8
0
  6
CONTINUOUS
 62
     7
 10
409.3749857206054
 20
30.24980961677073
 11
409.2499809608071
 21
31.24366296498604
  0
LINE
  8
0
  6
CONTINUOUS
 62
     7
 10
409.3749857206054
 20
30.24980961677073
 11
398.1250142793946
 21
30.24980961677073
  0
LINE
  8
0
  6
CONTINUOUS
 62
     7
 10
409.2499809608071
 20
31.24366296498604
 11
398.2500190391929
 21
31.24366296498604
  0
LINE
  8
0
  6
CONTINUOUS
 62
     7
 10
571.7499809608071
 20
31.24366296498604
 11
571.8749857206053
 21
30.24980961677073
  0
LINE
  8
0
  6
CONTINUOUS
 62
     7
 10
560.6250142793946
 20
30.24980961677073
 11
571.8749857206053
 21
30.24980961677073
  0
LINE
  8
0
  6
CONTINUOUS
 62
     7
 10
560.6250142793946
 20
30.24980961677073
 11
560.7500190391928
 21
31.24366296498604
  0
LINE
  8
0
  6
CONTINUOUS
 62
     7
 10
560.7500190391928
 20
31.24366296498604
 11
571.7499809608071
 21
31.24366296498604
  0
LINE
  8
0
  6
CONTINUOUS
 62
     7
 10
571.7499809608071
 20
31.2497715398349
 11
571.7499809608071
 21
31.24366296498604
  0
LINE
  8
0
  6
CONTINUOUS
 62
     7
 10
409.2499809608071
 20
31.24366296498604
 11
409.2499809608071
 21
31.24977153983489
  0
LINE
  8
0
  6
CONTINUOUS
 62
     7
 10
560.7500190391928
 20
31.24366296498604
 11
560.7500190391928
 21
31.24977153983489
  0
LINE
  8
0
  6
CONTINUOUS
 62
     7
 10
398.3750237989911
 20
32.24362488805021
 11
398.2500190391929
 21
31.2497715398349
  0
LINE
  8
0
  6
CONTINUOUS
 62
     7
 10
398.375023798991
 20
32.24973346289907
 11
398.3750237989911
 21
32.24362488805021
  0
LINE
  8
0
  6
CONTINUOUS
 62
     7
 10
409.2499809608071
 20
31.24977153983489
 11
409.1249762010089
 21
32.24362488805021
  0
LINE
  8
0
  6
CONTINUOUS
 62
     7
 10
409.2499809608071
 20
31.24977153983489
 11
398.2500190391929
 21
31.2497715398349
  0
LINE
  8
0
  6
CONTINUOUS
 62
     7
 10
409.1249762010089
 20
32.24362488805021
 11
398.3750237989911
 21
32.24362488805021
  0
LINE
  8
0
  6
CONTINUOUS
 62
     7
 10
571.6249762010088
 20
32.24362488805021
 11
571.7499809608071
 21
31.2497715398349
  0
LINE
  8
0
  6
CONTINUOUS
 62
     7
 10
560.7500190391928
 20
31.24977153983489
 11
571.7499809608071
 21
31.2497715398349
  0
LINE
  8
0
  6
CONTINUOUS
 62
     7
 10
560.7500190391928
 20
31.24977153983489
 11
560.875023798991
 21
32.24362488805021
  0
LINE
  8
0
  6
CONTINUOUS
 62
     7
 10
560.875023798991
 20
32.24362488805021
 11
571.6249762010088
 21
32.24362488805021
  0
LINE
  8
0
  6
CONTINUOUS
 62
     7
 10
571.624976201009
 20
32.24973346289907
 11
571.6249762010088
 21
32.24362488805021
  0
LINE
  8
0
  6
CONTINUOUS
 62
     7
 10
409.1249762010089
 20
32.24362488805021
 11
409.1249762010089
 21
32.24973346289907
  0
LINE
  8
0
  6
CONTINUOUS
 62
     7
 10
560.875023798991
 20
32.24362488805021
 11
560.875023798991
 21
32.24973346289907
  0
LINE
  8
0
  6
CONTINUOUS
 62
     7
 10
409.1249762010089
 20
32.24973346289907
 11
408.9999714412107
 21
33.24358681111438
  0
LINE
  8
0
  6
CONTINUOUS
 62
     7
 10
409.1249762010089
 20
32.24973346289907
 11
398.375023798991
 21
32.24973346289907
  0
LINE
  8
0
  6
CONTINUOUS
 62
     7
 10
398.5000285587893
 20
33.24358681111438
 11
398.375023798991
 21
32.24973346289907
  0
LINE
  8
0
  6
CONTINUOUS
 62
     7
 10
408.9999714412107
 20
33.24358681111438
 11
398.5000285587893
 21
33.24358681111438
  0
LINE
  8
0
  6
CONTINUOUS
 62
     7
 10
398.5000285587893
 20
33.24969538596324
 11
398.5000285587893
 21
33.24358681111438
  0
LINE
  8
0
  6
CONTINUOUS
 62
     7
 10
571.4999714412106
 20
33.24358681111438
 11
571.624976201009
 21
32.24973346289907
  0
LINE
  8
0
  6
CONTINUOUS
 62
     7
 10
560.875023798991
 20
32.24973346289907
 11
571.624976201009
 21
32.24973346289907
  0
LINE
  8
0
  6
CONTINUOUS
 62
     7
 10
560.875023798991
 20
32.24973346289907
 11
561.0000285587893
 21
33.24358681111438
  0
LINE
  8
0
  6
CONTINUOUS
 62
     7
 10
561.0000285587893
 20
33.24358681111438
 11
571.4999714412106
 21
33.24358681111438
  0
LINE
  8
0
  6
CONTINUOUS
 62
     7
 10
571.4999714412106
 20
33.24969538596324
 11
571.4999714412106
 21
33.24358681111438
  0
LINE
  8
0
  6
CONTINUOUS
 62
     7
 10
408.9999714412107
 20
33.24358681111438
 11
408.9999714412107
 21
33.24969538596324
  0
LINE
  8
0
  6
CONTINUOUS
 62
     7
 10
561.0000285587893
 20
33.24358681111438
 11
561.0000285587893
 21
33.24969538596324
  0
LINE
  8
0
  6
CONTINUOUS
 62
     7
 10
398.5310015074498
 20
33.4959465589588
 11
398.5000285587893
 21
33.24969538596324
  0
POLYLINE
  8
0
  6
CONTINUOUS
 62
     7
 66
     1
  0
VERTEX
  8
0
  6
CONTINUOUS
 62
     7
 10
398.783681196244
 20
34.24354873417852
  0
VERTEX
  8
0
  6
CONTINUOUS
 62
     7
 10
398.6196597470669
 20
33.88232744775625
  0
VERTEX
  8
0
  6
CONTINUOUS
 62
     7
 10
398.5310015074498
 20
33.49594655895876
  0
SEQEND
  8
0
  6
CONTINUOUS
 62
     7
  0
LINE
  8
0
  6
CONTINUOUS
 62
     7
 10
408.7163188037559
 20
34.24354873417855
 11
398.783681196244
 21
34.24354873417855
  0
POLYLINE
  8
0
  6
CONTINUOUS
 62
     7
 66
     1
  0
VERTEX
  8
0
  6
CONTINUOUS
 62
     7
 10
408.9689984925502
 20
33.49594655895883
  0
VERTEX
  8
0
  6
CONTINUOUS
 62
     7
 10
408.8803402529331
 20
33.88232744775632
  0
VERTEX
  8
0
  6
CONTINUOUS
 62
     7
 10
408.7163188037559
 20
34.24354873417858
  0
SEQEND
  8
0
  6
CONTINUOUS
 62
     7
  0
LINE
  8
0
  6
CONTINUOUS
 62
     7
 10
408.9999714412107
 20
33.24969538596324
 11
408.9689984925502
 21
33.49594655895879
  0
LINE
  8
0
  6
CONTINUOUS
 62
     7
 10
408.9999714412107
 20
33.24969538596324
 11
398.5000285587893
 21
33.24969538596324
  0
LINE
  8
0
  6
CONTINUOUS
 62
     7
 10
561.0000285587893
 20
33.24969538596324
 11
561.0310015074498
 21
33.49594655895879
  0
POLYLINE
  8
0
  6
CONTINUOUS
 62
     7
 66
     1
  0
VERTEX
  8
0
  6
CONTINUOUS
 62
     7
 10
561.2836811962441
 20
34.24354873417857
  0
VERTEX
  8
0
  6
CONTINUOUS
 62
     7
 10
561.1196597470669
 20
33.8823274477563
  0
VERTEX
  8
0
  6
CONTINUOUS
 62
     7
 10
561.0310015074498
 20
33.49594655895882
  0
SEQEND
  8
0
  6
CONTINUOUS
 62
     7
  0
LINE
  8
0
  6
CONTINUOUS
 62
     7
 10
561.2836811962441
 20
34.24354873417855
 11
571.2163188037559
 21
34.24354873417855
  0
POLYLINE
  8
0
  6
CONTINUOUS
 62
     7
 66
     1
  0
VERTEX
  8
0
  6
CONTINUOUS
 62
     7
 10
571.4689984925502
 20
33.49594655895877
  0
VERTEX
  8
0
  6
CONTINUOUS
 62
     7
 10
571.3803402529331
 20
33.88232744775626
  0
VERTEX
  8
0
  6
CONTINUOUS
 62
     7
 10
571.2163188037559
 20
34.24354873417853
  0
SEQEND
  8
0
  6
CONTINUOUS
 62
     7
  0
LINE
  8
0
  6
CONTINUOUS
 62
     7
 10
571.4689984925502
 20
33.4959465589588
 11
571.4999714412106
 21
33.24969538596324
  0
LINE
  8
0
  6
CONTINUOUS
 62
     7
 10
561.0000285587893
 20
33.24969538596324
 11
571.4999714412106
 21
33.24969538596324
  0
LINE
  8
0
  6
CONTINUOUS
 62
     7
 10
398.783681196244
 20
34.24354873417855
 11
398.783681196244
 21
34.24965730902741
  0
LINE
  8
0
  6
CONTINUOUS
 62
     7
 10
408.7163188037559
 20
34.24965730902741
 11
408.7163188037559
 21
34.24354873417855
  0
LINE
  8
0
  6
CONTINUOUS
 62
     7
 10
571.2163188037559
 20
34.24354873417855
 11
571.2163188037559
 21
34.24965730902741
  0
LINE
  8
0
  6
CONTINUOUS
 62
     7
 10
561.2836811962441
 20
34.24965730902741
 11
561.2836811962441
 21
34.24354873417855
  0
POLYLINE
  8
0
  6
CONTINUOUS
 62
     7
 66
     1
  0
VERTEX
  8
0
  6
CONTINUOUS
 62
     7
 10
400.5155560982609
 20
35.24320791412142
  0
VERTEX
  8
0
  6
CONTINUOUS
 62
     7
 10
400.099801531039
 20
35.19978628955806
  0
VERTEX
  8
0
  6
CONTINUOUS
 62
     7
 10
399.7022113527189
 20
35.07141851415027
  0
VERTEX
  8
0
  6
CONTINUOUS
 62
     7
 10
399.3401563469119
 20
34.86371299819298
  0
VERTEX
  8
0
  6
CONTINUOUS
 62
     7
 10
399.0294547594
 20
34.58574443157865
  0
VERTEX
  8
0
  6
CONTINUOUS
 62
     7
 10
398.783681196244
 20
34.24965730902738
  0
SEQEND
  8
0
  6
CONTINUOUS
 62
     7
  0
LINE
  8
0
  6
CONTINUOUS
 62
     7
 10
408.7163188037559
 20
34.24965730902741
 11
398.783681196244
 21
34.24965730902741
  0
LINE
  8
0
  6
CONTINUOUS
 62
     7
 10
406.984443901739
 20
35.24320791412141
 11
400.515556098261
 21
35.24320791412142
  0
POLYLINE
  8
0
  6
CONTINUOUS
 62
     7
 66
     1
  0
VERTEX
  8
0
  6
CONTINUOUS
 62
     7
 10
408.7163188037559
 20
34.24965730902745
  0
VERTEX
  8
0
  6
CONTINUOUS
 62
     7
 10
408.4705452406
 20
34.58574443157872
  0
VERTEX
  8
0
  6
CONTINUOUS
 62
     7
 10
408.159843653088
 20
34.86371299819303
  0
VERTEX
  8
0
  6
CONTINUOUS
 62
     7
 10
407.797788647281
 20
35.0714185141503
  0
VERTEX
  8
0
  6
CONTINUOUS
 62
     7
 10
407.4001984689609
 20
35.19978628955808
  0
VERTEX
  8
0
  6
CONTINUOUS
 62
     7
 10
406.984443901739
 20
35.24320791412142
  0
SEQEND
  8
0
  6
CONTINUOUS
 62
     7
  0
LINE
  8
0
  6
CONTINUOUS
 62
     7
 10
563.015556098261
 20
35.24320791412141
 11
569.484443901739
 21
35.24320791412142
  0
POLYLINE
  8
0
  6
CONTINUOUS
 62
     7
 66
     1
  0
VERTEX
  8
0
  6
CONTINUOUS
 62
     7
 10
571.2163188037559
 20
34.24965730902738
  0
VERTEX
  8
0
  6
CONTINUOUS
 62
     7
 10
570.9705452406
 20
34.58574443157867
  0
VERTEX
  8
0
  6
CONTINUOUS
 62
     7
 10
570.6598436530882
 20
34.86371299819299
  0
VERTEX
  8
0
  6
CONTINUOUS
 62
     7
 10
570.2977886472811
 20
35.07141851415027
  0
VERTEX
  8
0
  6
CONTINUOUS
 62
     7
 10
569.900198468961
 20
35.19978628955806
  0
VERTEX
  8
0
  6
CONTINUOUS
 62
     7
 10
569.484443901739
 20
35.24320791412142
  0
SEQEND
  8
0
  6
CONTINUOUS
 62
     7
  0
LINE
  8
0
  6
CONTINUOUS
 62
     7
 10
561.2836811962441
 20
34.24965730902741
 11
571.2163188037559
 21
34.24965730902741
  0
POLYLINE
  8
0
  6
CONTINUOUS
 62
     7
 66
     1
  0
VERTEX
  8
0
  6
CONTINUOUS
 62
     7
 10
563.015556098261
 20
35.24320791412142
  0
VERTEX
  8
0
  6
CONTINUOUS
 62
     7
 10
562.599801531039
 20
35.19978628955808
  0
VERTEX
  8
0
  6
CONTINUOUS
 62
     7
 10
562.202211352719
 20
35.0714185141503
  0
VERTEX
  8
0
  6
CONTINUOUS
 62
     7
 10
561.840156346912
 20
34.86371299819302
  0
VERTEX
  8
0
  6
CONTINUOUS
 62
     7
 10
561.5294547594001
 20
34.58574443157871
  0
VERTEX
  8
0
  6
CONTINUOUS
 62
     7
 10
561.2836811962441
 20
34.24965730902743
  0
SEQEND
  8
0
  6
CONTINUOUS
 62
     7
  0
LINE
  8
0
  6
CONTINUOUS
 62
     7
 10
381.75
 20
61.61761825505456
 11
381.75
 21
59.83983226041264
  0
LINE
  8
0
  6
CONTINUOUS
 62
     7
 10
588.2499999999999
 20
61.61761825505456
 11
588.2499999999999
 21
59.83983226041264
  0
LINE
  8
0
  6
CONTINUOUS
 62
     7
 10
381.7497127001822
 20
59.36501292988572
 11
381.7497127001822
 21
59.83804363360269
  0
LINE
  8
0
  6
CONTINUOUS
 62
     7
 10
381.749712700182
 20
59.83804363360267
 11
381.75
 21
59.83983226041264
  0
LINE
  8
0
  6
CONTINUOUS
 62
     7
 10
588.250287299818
 20
59.83804363360267
 11
588.2499999999999
 21
59.83983226041264
  0
LINE
  8
0
  6
CONTINUOUS
 62
     7
 10
588.2502872998178
 20
59.36501292988572
 11
588.2502872998178
 21
59.83804363360269
  0
LINE
  8
0
  6
CONTINUOUS
 62
     7
 10
381.75
 20
61.61761825505456
 11
381.7499367760784
 21
61.62017637430795
  0
LINE
  8
0
  6
CONTINUOUS
 62
     7
 10
588.2500632239216
 20
61.62017637430795
 11
588.25
 21
61.61761825505457
  0
LINE
  8
0
  6
CONTINUOUS
 62
     7
 10
376.7499999999999
 20
26.25000000000001
 11
376.7499999999999
 21
58.30513104032533
  0
LINE
  8
0
  6
CONTINUOUS
 62
     7
 10
377.5538838648617
 20
26.25000000000001
 11
376.7499999999999
 21
26.25000000000001
  0
LINE
  8
0
  6
CONTINUOUS
 62
     7
 10
593.2499999999999
 20
26.25000000000001
 11
593.2499999999999
 21
58.30513104032533
  0
LINE
  8
0
  6
CONTINUOUS
 62
     7
 10
592.4461161351381
 20
26.25000000000001
 11
593.2499999999999
 21
26.25000000000001
  0
LINE
  8
0
  6
CONTINUOUS
 62
     7
 10
376.7499999999999
 20
58.30513104032534
 11
376.7499999999999
 21
59.82634731255525
  0
LINE
  8
0
  6
CONTINUOUS
 62
     7
 10
593.2499999999999
 20
58.30513104032534
 11
593.2499999999999
 21
59.82634731255525
  0
LINE
  8
0
  6
CONTINUOUS
 62
     7
 10
381.7499367760784
 20
61.7499873552157
 11
381.7499367760784
 21
61.62017637430794
  0
POLYLINE
  8
0
  6
CONTINUOUS
 62
     7
 10
0.0
 20
0.0
 30
0.0
 66
     1
 70
     8
  0
VERTEX
  8
0
  6
CONTINUOUS
 62
     7
 10
381.7499367760784
 20
61.74998735521569
 30
0.0
 70
    32
  0
VERTEX
  8
0
  6
CONTINUOUS
 62
     7
 10
381.7499999999999
 20
61.75000000000003
 30
0.0
 70
    32
  0
SEQEND
  8
0
  6
CONTINUOUS
 62
     7
  0
LINE
  8
0
  6
CONTINUOUS
 62
     7
 10
381.7499999999999
 20
61.75000000000003
 11
433.3390247254805
 21
61.75000000000003
  0
POLYLINE
  8
0
  6
CONTINUOUS
 62
     7
 10
0.0
 20
0.0
 30
0.0
 66
     1
 70
     8
  0
VERTEX
  8
0
  6
CONTINUOUS
 62
     7
 10
588.2500632239215
 20
61.74998735521569
 30
0.0
 70
    32
  0
VERTEX
  8
0
  6
CONTINUOUS
 62
     7
 10
588.2499999999999
 20
61.75000000000003
 30
0.0
 70
    32
  0
SEQEND
  8
0
  6
CONTINUOUS
 62
     7
  0
LINE
  8
0
  6
CONTINUOUS
 62
     7
 10
588.2500632239214
 20
61.62017637430795
 11
588.2500632239214
 21
61.7499873552157
  0
LINE
  8
0
  6
CONTINUOUS
 62
     7
 10
588.2499999999999
 20
61.75000000000003
 11
536.6609752745195
 21
61.75000000000003
  0
LINE
  8
0
  6
CONTINUOUS
 62
     7
 10
377.5538838648617
 20
60.91077677297238
 11
381.7499367760784
 21
61.74998735521569
  0
LINE
  8
0
  6
CONTINUOUS
 62
     7
 10
592.4461161351381
 20
60.91077677297238
 11
588.2500632239215
 21
61.74998735521569
  0
ARC
  8
0
  6
CONTINUOUS
 62
     7
 10
377.7499999999999
 20
59.93019609728145
 40
1.000000000000012
 50
101.3099324740204
 51
180.0
  0
LINE
  8
0
  6
CONTINUOUS
 62
     7
 10
376.7499999999999
 20
59.82634731255525
 11
376.7499999999999
 21
59.93019609728145
  0
ARC
  8
0
  6
CONTINUOUS
 62
     7
 10
592.2499999999999
 20
59.93019609728145
 40
1.000000000000023
 50
0.0
 51
78.69006752597956
  0
LINE
  8
0
  6
CONTINUOUS
 62
     7
 10
593.2499999999999
 20
59.82634731255525
 11
593.2499999999999
 21
59.93019609728145
  0
LINE
  8
0
  6
CONTINUOUS
 62
     7
 10
519.6284205747696
 20
32.80235389661576
 11
519.8
 21
26.25000000000002
  0
ARC
  8
0
  6
CONTINUOUS
 62
     7
 10
517.6291059248184
 20
32.75000000000002
 40
2.0
 50
1.499999999999913
 51
90.00000000000001
  0
LINE
  8
0
  6
CONTINUOUS
 62
     7
 10
517.6291059248184
 20
34.75000000000002
 11
512.3708940751815
 21
34.75000000000002
  0
ARC
  8
0
  6
CONTINUOUS
 62
     7
 10
512.3708940751815
 20
32.75000000000002
 40
2.0
 50
90.0
 51
178.4999999999999
  0
LINE
  8
0
  6
CONTINUOUS
 62
     7
 10
510.3715794252304
 20
32.80235389661576
 11
510.2
 21
26.25000000000002
  0
LINE
  8
0
  6
CONTINUOUS
 62
     7
 10
459.6284205747696
 20
32.80235389661576
 11
459.8
 21
26.25000000000002
  0
ARC
  8
0
  6
CONTINUOUS
 62
     7
 10
457.6291059248185
 20
32.75000000000002
 40
2.0
 50
1.500000000000114
 51
90.0
  0
LINE
  8
0
  6
CONTINUOUS
 62
     7
 10
452.3708940751814
 20
34.75000000000002
 11
457.6291059248185
 21
34.75000000000002
  0
ARC
  8
0
  6
CONTINUOUS
 62
     7
 10
452.3708940751814
 20
32.75000000000002
 40
2.0
 50
90.0
 51
178.5
  0
LINE
  8
0
  6
CONTINUOUS
 62
     7
 10
450.3715794252303
 20
32.80235389661576
 11
450.2
 21
26.25000000000002
  0
LINE
  8
0
  6
CONTINUOUS
 62
     7
 10
447.85
 20
26.25000000000002
 11
450.2
 21
26.25000000000002
  0
LINE
  8
0
  6
CONTINUOUS
 62
     7
 10
459.8
 20
26.25000000000002
 11
510.2
 21
26.25000000000002
  0
LINE
  8
0
  6
CONTINUOUS
 62
     7
 10
522.15
 20
26.25000000000002
 11
519.8
 21
26.25000000000002
  0
POLYLINE
  8
0
  6
CONTINUOUS
 62
     7
 66
     1
  0
VERTEX
  8
0
  6
CONTINUOUS
 62
     7
 10
499.2573487311172
 20
2.101269379342449
  0
VERTEX
  8
0
  6
CONTINUOUS
 62
     7
 10
499.2575208546222
 20
2.144652198048852
  0
VERTEX
  8
0
  6
CONTINUOUS
 62
     7
 10
499.2556011005992
 20
2.188558540203063
  0
VERTEX
  8
0
  6
CONTINUOUS
 62
     7
 10
499.2515033444001
 20
2.232865861781955
  0
VERTEX
  8
0
  6
CONTINUOUS
 62
     7
 10
499.2451507556552
 20
2.277441105537889
  0
VERTEX
  8
0
  6
CONTINUOUS
 62
     7
 10
499.236477403613
 20
2.322141419175777
  0
VERTEX
  8
0
  6
CONTINUOUS
 62
     7
 10
499.2254298173856
 20
2.366815110107931
  0
VERTEX
  8
0
  6
CONTINUOUS
 62
     7
 10
499.2119684578048
 20
2.41130283747773
  0
VERTEX
  8
0
  6
CONTINUOUS
 62
     7
 10
499.1960690556073
 20
2.45543903430592
  0
VERTEX
  8
0
  6
CONTINUOUS
 62
     7
 10
499.1777237703958
 20
2.499053544112482
  0
VERTEX
  8
0
  6
CONTINUOUS
 62
     7
 10
499.1569421264997
 20
2.541973447579726
  0
VERTEX
  8
0
  6
CONTINUOUS
 62
     7
 10
499.1337516856474
 20
2.584025046194812
  0
VERTEX
  8
0
  6
CONTINUOUS
 62
     7
 10
499.1081984222668
 20
2.625035961836525
  0
VERTEX
  8
0
  6
CONTINUOUS
 62
     7
 10
499.0803467751405
 20
2.664837304458076
  0
VERTEX
  8
0
  6
CONTINUOUS
 62
     7
 10
499.0502793587924
 20
2.703265854843019
  0
VERTEX
  8
0
  6
CONTINUOUS
 62
     7
 10
499.0180963289563
 20
2.74016620628461
  0
VERTEX
  8
0
  6
CONTINUOUS
 62
     7
 10
498.9839144082495
 20
2.775392808259856
  0
VERTEX
  8
0
  6
CONTINUOUS
 62
     7
 10
498.9478655901298
 20
2.808811856896517
  0
VERTEX
  8
0
  6
CONTINUOUS
 62
     7
 10
498.9100955506903
 20
2.840302981260947
  0
VERTEX
  8
0
  6
CONTINUOUS
 62
     7
 10
498.8764704025476
 20
2.86568050428607
  0
VERTEX
  8
0
  6
CONTINUOUS
 62
     7
 10
498.8418012672097
 20
2.889506716336823
  0
VERTEX
  8
0
  6
CONTINUOUS
 62
     7
 10
498.8061974401955
 20
2.911733569534357
  0
VERTEX
  8
0
  6
CONTINUOUS
 62
     7
 10
498.7697714461993
 20
2.93232234600933
  0
VERTEX
  8
0
  6
CONTINUOUS
 62
     7
 10
498.7326379695423
 20
2.951243799625993
  0
VERTEX
  8
0
  6
CONTINUOUS
 62
     7
 10
498.6949127864987
 20
2.968478168408988
  0
VERTEX
  8
0
  6
CONTINUOUS
 62
     7
 10
498.6567117190434
 20
2.984015062099374
  0
SEQEND
  8
0
  6
CONTINUOUS
 62
     7
  0
POLYLINE
  8
0
  6
CONTINUOUS
 62
     7
 66
     1
  0
VERTEX
  8
0
  6
CONTINUOUS
 62
     7
 10
471.3432882809481
 20
2.984015062096151
  0
VERTEX
  8
0
  6
CONTINUOUS
 62
     7
 10
471.3050872134933
 20
2.968478168405547
  0
VERTEX
  8
0
  6
CONTINUOUS
 62
     7
 10
471.2673620304502
 20
2.951243799622367
  0
VERTEX
  8
0
  6
CONTINUOUS
 62
     7
 10
471.2302285537937
 20
2.932322346005551
  0
VERTEX
  8
0
  6
CONTINUOUS
 62
     7
 10
471.1938025597979
 20
2.911733569530454
  0
VERTEX
  8
0
  6
CONTINUOUS
 62
     7
 10
471.1581987327842
 20
2.88950671633283
  0
VERTEX
  8
0
  6
CONTINUOUS
 62
     7
 10
471.1235295974469
 20
2.865680504282007
  0
VERTEX
  8
0
  6
CONTINUOUS
 62
     7
 10
471.0899044493046
 20
2.840302981256867
  0
VERTEX
  8
0
  6
CONTINUOUS
 62
     7
 10
471.0521344098657
 20
2.808811856892454
  0
VERTEX
  8
0
  6
CONTINUOUS
 62
     7
 10
471.0160855917465
 20
2.775392808255842
  0
VERTEX
  8
0
  6
CONTINUOUS
 62
     7
 10
470.9819036710402
 20
2.740166206280686
  0
VERTEX
  8
0
  6
CONTINUOUS
 62
     7
 10
470.9497206412046
 20
2.703265854839227
  0
VERTEX
  8
0
  6
CONTINUOUS
 62
     7
 10
470.9196532248571
 20
2.664837304454447
  0
VERTEX
  8
0
  6
CONTINUOUS
 62
     7
 10
470.8918015777312
 20
2.625035961833111
  0
VERTEX
  8
0
  6
CONTINUOUS
 62
     7
 10
470.866248314351
 20
2.584025046191627
  0
VERTEX
  8
0
  6
CONTINUOUS
 62
     7
 10
470.8430578734991
 20
2.541973447576801
  0
VERTEX
  8
0
  6
CONTINUOUS
 62
     7
 10
470.8222762296032
 20
2.499053544109849
  0
VERTEX
  8
0
  6
CONTINUOUS
 62
     7
 10
470.8039309443921
 20
2.455439034303609
  0
VERTEX
  8
0
  6
CONTINUOUS
 62
     7
 10
470.7880315421949
 20
2.411302837475752
  0
VERTEX
  8
0
  6
CONTINUOUS
 62
     7
 10
470.7745701826141
 20
2.3668151101063
  0
VERTEX
  8
0
  6
CONTINUOUS
 62
     7
 10
470.763522596387
 20
2.322141419174514
  0
VERTEX
  8
0
  6
CONTINUOUS
 62
     7
 10
470.7548492443448
 20
2.27744110553699
  0
VERTEX
  8
0
  6
CONTINUOUS
 62
     7
 10
470.7484966556
 20
2.232865861781439
  0
VERTEX
  8
0
  6
CONTINUOUS
 62
     7
 10
470.7443988994009
 20
2.188558540202921
  0
VERTEX
  8
0
  6
CONTINUOUS
 62
     7
 10
470.742479145378
 20
2.144652198049084
  0
VERTEX
  8
0
  6
CONTINUOUS
 62
     7
 10
470.7426512688828
 20
2.10126937934306
  0
SEQEND
  8
0
  6
CONTINUOUS
 62
     7
  0
LINE
  8
0
  6
CONTINUOUS
 62
     7
 10
481.8935868610238
 20
0.2804836220831677
 11
481.8822434067447
 21
0.4954559785875396
  0
LINE
  8
0
  6
CONTINUOUS
 62
     7
 10
499.414860008108
 20
1.049999999999905
 11
499.414860008108
 21
1.350000000000039
  0
ENDBLK
  8
0
  0
BLOCK
  8
0
  2
D_FRAME_VIEW_2368
 70
     0
 10
0.0
 20
0.0
  0
LINE
  8
0
  6
CONTINUOUS
 62
     7
 10
820.0607706510855
 20
26.25000000000002
 11
819.080227312902
 21
26.25000000000002
  0
LINE
  8
0
  6
CONTINUOUS
 62
     7
 10
818.8799063452476
 20
-1.749999999999977
 11
819.860449683431
 21
-1.749999999999977
  0
LINE
  8
0
  6
CONTINUOUS
 62
     7
 10
817.8556477018587
 20
-1.749999999999981
 11
818.1
 21
26.25000000000002
  0
LINE
  8
0
  6
CONTINUOUS
 62
     7
 10
818.1
 20
26.25000000000002
 11
819.0801268020865
 21
26.25000000000002
  0
LINE
  8
0
  6
CONTINUOUS
 62
     7
 10
819.0801268020865
 20
26.25000000000002
 11
819.080227312902
 21
26.25000000000002
  0
LINE
  8
0
  6
CONTINUOUS
 62
     7
 10
817.8556477018587
 20
-1.749999999999981
 11
818.8799063452476
 21
-1.749999999999977
  0
LINE
  8
0
  6
CONTINUOUS
 62
     7
 10
736.8443522981413
 20
-1.749999999999984
 11
736.6
 21
26.25000000000001
  0
LINE
  8
0
  6
CONTINUOUS
 62
     7
 10
735.8690341624877
 20
-1.749999999999984
 11
736.8443522981413
 21
-1.749999999999984
  0
LINE
  8
0
  6
CONTINUOUS
 62
     7
 10
735.6198731979135
 20
26.25000000000001
 11
736.6
 21
26.25000000000001
  0
LINE
  8
0
  6
CONTINUOUS
 62
     7
 10
734.8884131608099
 20
-1.749999999999984
 11
735.8690341624877
 21
-1.749999999999984
  0
LINE
  8
0
  6
CONTINUOUS
 62
     7
 10
735.619842735205
 20
26.25000000000001
 11
734.6392217335274
 21
26.25000000000001
  0
LINE
  8
0
  6
CONTINUOUS
 62
     7
 10
820.6556477018587
 20
-1.749999999999977
 11
820.9
 21
26.25000000000001
  0
LINE
  8
0
  6
CONTINUOUS
 62
     7
 10
820.9
 20
26.25000000000002
 11
820.0607706510855
 21
26.25000000000002
  0
LINE
  8
0
  6
CONTINUOUS
 62
     7
 10
819.860449683431
 20
-1.749999999999977
 11
820.6556477018587
 21
-1.749999999999977
  0
LINE
  8
0
  6
CONTINUOUS
 62
     7
 10
733.8
 20
26.25000000000001
 11
734.0443522981412
 21
-1.749999999999977
  0
LINE
  8
0
  6
CONTINUOUS
 62
     7
 10
734.0443522981412
 20
-1.749999999999984
 11
734.8884131608099
 21
-1.749999999999984
  0
LINE
  8
0
  6
CONTINUOUS
 62
     7
 10
734.6392217335274
 20
26.25000000000001
 11
733.8
 21
26.25000000000001
  0
POLYLINE
  8
0
  6
CONTINUOUS
 62
     7
 66
     1
  0
VERTEX
  8
0
  6
CONTINUOUS
 62
     7
 10
777.1773502691897
 20
3.050000000000022
  0
VERTEX
  8
0
  6
CONTINUOUS
 62
     7
 10
777.051968912122
 20
3.026134491706817
  0
VERTEX
  8
0
  6
CONTINUOUS
 62
     7
 10
776.958039171427
 20
2.975044824424452
  0
VERTEX
  8
0
  6
CONTINUOUS
 62
     7
 10
776.8784836361303
 20
2.905591144724731
  0
VERTEX
  8
0
  6
CONTINUOUS
 62
     7
 10
776.808559020602
 20
2.819401744796373
  0
VERTEX
  8
0
  6
CONTINUOUS
 62
     7
 10
776.7542502820224
 20
2.730411054126525
  0
VERTEX
  8
0
  6
CONTINUOUS
 62
     7
 10
776.6962063419426
 20
2.60272082982085
  0
SEQEND
  8
0
  6
CONTINUOUS
 62
     7
  0
ARC
  8
0
  6
CONTINUOUS
 62
     7
 10
778.1637008201736
 20
2.06255616180517
 40
1.563751230922309
 50
159.7920281819942
 51
180.460062185597
  0
LINE
  8
0
  6
CONTINUOUS
 62
     7
 10
777.1773502691897
 20
3.050000000000022
 11
765.0518942532715
 21
3.050000000000022
  0
LINE
  8
0
  6
CONTINUOUS
 62
     7
 10
777.35
 20
1.55000000000002
 11
776.5999999999999
 21
1.55000000000002
  0
LINE
  8
0
  6
CONTINUOUS
 62
     7
 10
776.5999999999999
 20
1.55000000000002
 11
776.5999999999999
 21
2.050000000000021
  0
LINE
  8
0
  6
CONTINUOUS
 62
     7
 10
777.1773502691897
 20
3.050000000000022
 11
777.35
 21
3.050000000000022
  0
LINE
  8
0
  6
CONTINUOUS
 62
     7
 10
763.022945671634
 20
1.55000000000002
 11
765.0256903636299
 21
1.55000000000002
  0
LINE
  8
0
  6
CONTINUOUS
 62
     7
 10
763.0518923725189
 20
2.102335956242964
 11
763.022945671634
 21
1.55000000000002
  0
LINE
  8
0
  6
CONTINUOUS
 62
     7
 10
776.5999999999999
 20
1.55000000000002
 11
765.0256903636299
 21
1.55000000000002
  0
LINE
  8
0
  6
CONTINUOUS
 62
     7
 10
791.677054328366
 20
1.55000000000002
 11
791.6481076274993
 21
2.102335955896418
  0
LINE
  8
0
  6
CONTINUOUS
 62
     7
 10
789.67430963637
 20
1.55000000000002
 11
791.677054328366
 21
1.55000000000002
  0
ARC
  8
0
  6
CONTINUOUS
 62
     7
 10
776.5959017498279
 20
2.069310867035377
 40
1.504222209567558
 50
359.2644294395994
 51
24.62347362162973
  0
POLYLINE
  8
0
  6
CONTINUOUS
 62
     7
 66
     1
  0
VERTEX
  8
0
  6
CONTINUOUS
 62
     7
 10
777.9633382435818
 20
2.696049960523701
  0
VERTEX
  8
0
  6
CONTINUOUS
 62
     7
 10
777.9043405025938
 20
2.800290919714541
  0
VERTEX
  8
0
  6
CONTINUOUS
 62
     7
 10
777.8270003382507
 20
2.899771806576353
  0
VERTEX
  8
0
  6
CONTINUOUS
 62
     7
 10
777.7443975402823
 20
2.973300453256257
  0
VERTEX
  8
0
  6
CONTINUOUS
 62
     7
 10
777.6498423152597
 20
3.025431258153719
  0
VERTEX
  8
0
  6
CONTINUOUS
 62
     7
 10
777.5484446205821
 20
3.049001436928406
  0
VERTEX
  8
0
  6
CONTINUOUS
 62
     7
 10
777.5226497308104
 20
3.050000000000022
  0
SEQEND
  8
0
  6
CONTINUOUS
 62
     7
  0
LINE
  8
0
  6
CONTINUOUS
 62
     7
 10
789.6481057467286
 20
3.050000000000022
 11
777.5226497308104
 21
3.050000000000022
  0
LINE
  8
0
  6
CONTINUOUS
 62
     7
 10
789.67430963637
 20
1.55000000000002
 11
778.1
 21
1.55000000000002
  0
LINE
  8
0
  6
CONTINUOUS
 62
     7
 10
778.1
 20
1.55000000000002
 11
778.1
 21
2.050000000000021
  0
LINE
  8
0
  6
CONTINUOUS
 62
     7
 10
778.1
 20
1.55000000000002
 11
777.35
 21
1.55000000000002
  0
LINE
  8
0
  6
CONTINUOUS
 62
     7
 10
777.35
 20
3.050000000000022
 11
777.5226497308104
 21
3.050000000000022
  0
LINE
  8
0
  6
CONTINUOUS
 62
     7
 10
763.6932870450519
 20
2.984014589400785
 11
764.0505219072735
 21
3.050000000000022
  0
LINE
  8
0
  6
CONTINUOUS
 62
     7
 10
765.0518942532715
 20
3.050000000000022
 11
764.0505219072735
 21
3.050000000000022
  0
LINE
  8
0
  6
CONTINUOUS
 62
     7
 10
791.6084720713083
 20
2.101678326724691
 11
791.6481076274811
 21
2.102335956242964
  0
LINE
  8
0
  6
CONTINUOUS
 62
     7
 10
790.6494780927266
 20
3.050000000000022
 11
789.6481057467286
 21
3.050000000000022
  0
LINE
  8
0
  6
CONTINUOUS
 62
     7
 10
790.6494780927266
 20
3.050000000000022
 11
791.0067129184587
 21
2.984014603357024
  0
LINE
  8
0
  6
CONTINUOUS
 62
     7
 10
780.4967417819926
 20
1.05000000000002
 11
780.522945671634
 21
1.55000000000002
  0
LINE
  8
0
  6
CONTINUOUS
 62
     7
 10
791.677054328366
 20
1.55000000000002
 11
791.7032582180075
 21
1.05000000000002
  0
LINE
  8
0
  6
CONTINUOUS
 62
     7
 10
774.1770543283659
 20
1.55000000000002
 11
774.2032582180075
 21
1.05000000000002
  0
LINE
  8
0
  6
CONTINUOUS
 62
     7
 10
762.9967417819925
 20
1.05000000000002
 11
763.022945671634
 21
1.55000000000002
  0
LINE
  8
0
  6
CONTINUOUS
 62
     7
 10
793.8513722415621
 20
-1.749999999999981
 11
793.9981140235545
 21
1.05000000000002
  0
LINE
  8
0
  6
CONTINUOUS
 62
     7
 10
793.9981140235545
 20
1.05000000000002
 11
814.8968138614543
 21
1.05000000000002
  0
LINE
  8
0
  6
CONTINUOUS
 62
     7
 10
793.8513722415621
 20
-1.749999999999981
 11
817.8556477018587
 21
-1.749999999999981
  0
LINE
  8
0
  6
CONTINUOUS
 62
     7
 10
760.7018859764454
 20
1.050000000000016
 11
760.8486277584379
 21
-1.749999999999984
  0
LINE
  8
0
  6
CONTINUOUS
 62
     7
 10
739.8031861385456
 20
1.050000000000016
 11
760.7018859764454
 21
1.050000000000016
  0
LINE
  8
0
  6
CONTINUOUS
 62
     7
 10
736.8443522981413
 20
-1.749999999999984
 11
760.8486277584379
 21
-1.749999999999984
  0
LINE
  8
0
  6
CONTINUOUS
 62
     7
 10
792.9967417819926
 20
1.05000000000002
 11
792.85
 21
-1.749999999999981
  0
LINE
  8
0
  6
CONTINUOUS
 62
     7
 10
793.9981140235545
 20
1.05000000000002
 11
792.9967417819926
 21
1.05000000000002
  0
LINE
  8
0
  6
CONTINUOUS
 62
     7
 10
792.85
 20
-1.749999999999981
 11
793.8513722415621
 21
-1.749999999999981
  0
LINE
  8
0
  6
CONTINUOUS
 62
     7
 10
761.85
 20
-1.749999999999984
 11
761.7032582180075
 21
1.050000000000016
  0
LINE
  8
0
  6
CONTINUOUS
 62
     7
 10
761.7032582180075
 20
1.050000000000016
 11
760.7018859764454
 21
1.050000000000016
  0
LINE
  8
0
  6
CONTINUOUS
 62
     7
 10
760.8486277584379
 20
-1.749999999999984
 11
761.85
 21
-1.749999999999984
  0
LINE
  8
0
  6
CONTINUOUS
 62
     7
 10
740.3047143208533
 20
1.050000000000016
 11
738.1798635240743
 21
25.33715574274768
  0
LINE
  8
0
  6
CONTINUOUS
 62
     7
 10
816.5201364759257
 20
25.33715574274768
 11
814.3952856791467
 21
1.050000000000016
  0
ARC
  8
0
  6
CONTINUOUS
 62
     7
 10
817.5163311740174
 20
25.25000000000002
 40
1.0
 50
90.0
 51
175.0000000000001
  0
ARC
  8
0
  6
CONTINUOUS
 62
     7
 10
737.1836688259826
 20
25.25000000000001
 40
1.0
 50
5.000000000000063
 51
90.0
  0
LINE
  8
0
  6
CONTINUOUS
 62
     7
 10
818.0998933805199
 20
26.25000000000002
 11
817.5163311740174
 21
26.25000000000002
  0
LINE
  8
0
  6
CONTINUOUS
 62
     7
 10
737.1836688259826
 20
26.25000000000001
 11
736.60010661948
 21
26.25000000000001
  0
LINE
  8
0
  6
CONTINUOUS
 62
     7
 10
780.4967417819926
 20
1.05000000000002
 11
780.4233708909962
 21
-0.3499999999999823
  0
LINE
  8
0
  6
CONTINUOUS
 62
     7
 10
791.7766291090037
 20
-0.3499999999999823
 11
791.7032582180075
 21
1.05000000000002
  0
LINE
  8
0
  6
CONTINUOUS
 62
     7
 10
774.2766291090037
 20
-0.3499999999999823
 11
774.2032582180075
 21
1.05000000000002
  0
LINE
  8
0
  6
CONTINUOUS
 62
     7
 10
762.9233708909962
 20
-0.3499999999999823
 11
762.9967417819925
 21
1.05000000000002
  0
LINE
  8
0
  6
CONTINUOUS
 62
     7
 10
762.85
 20
-1.749999999999981
 11
774.35
 21
-1.749999999999981
  0
LINE
  8
0
  6
CONTINUOUS
 62
     7
 10
774.35
 20
-1.749999999999984
 11
774.2766291090037
 21
-0.349999999999982
  0
LINE
  8
0
  6
CONTINUOUS
 62
     7
 10
762.9233708909962
 20
-0.3499999999999823
 11
762.85
 21
-1.749999999999984
  0
LINE
  8
0
  6
CONTINUOUS
 62
     7
 10
780.35
 20
-1.749999999999981
 11
791.85
 21
-1.749999999999981
  0
LINE
  8
0
  6
CONTINUOUS
 62
     7
 10
780.4233708909962
 20
-0.3499999999999823
 11
780.35
 21
-1.749999999999984
  0
LINE
  8
0
  6
CONTINUOUS
 62
     7
 10
791.85
 20
-1.749999999999984
 11
791.7766291090037
 21
-0.3499999999999823
  0
LINE
  8
0
  6
CONTINUOUS
 62
     7
 10
792.4974270146153
 20
1.05000000000002
 11
792.9967417819926
 21
1.05000000000002
  0
LINE
  8
0
  6
CONTINUOUS
 62
     7
 10
792.85
 20
-1.749999999999981
 11
792.3506852326227
 21
-1.749999999999981
  0
LINE
  8
0
  6
CONTINUOUS
 62
     7
 10
761.7032582180076
 20
1.050000000000016
 11
762.2025729853847
 21
1.05000000000002
  0
LINE
  8
0
  6
CONTINUOUS
 62
     7
 10
762.3493147673773
 20
-1.749999999999981
 11
761.85
 21
-1.749999999999984
  0
LINE
  8
0
  6
CONTINUOUS
 62
     7
 10
762.9967417819925
 20
1.05000000000002
 11
762.2025729853847
 21
1.05000000000002
  0
LINE
  8
0
  6
CONTINUOUS
 62
     7
 10
762.85
 20
-1.750000000000019
 11
762.3493147673773
 21
-1.749999999999981
  0
LINE
  8
0
  6
CONTINUOUS
 62
     7
 10
792.4974270146153
 20
1.05000000000002
 11
791.7032582180075
 21
1.05000000000002
  0
LINE
  8
0
  6
CONTINUOUS
 62
     7
 10
792.3506852326227
 20
-1.749999999999981
 11
791.85
 21
-1.749999999999942
  0
LINE
  8
0
  6
CONTINUOUS
 62
     7
 10
780.35
 20
-1.749999999999981
 11
779.348627654002
 21
-1.749999999999981
  0
LINE
  8
0
  6
CONTINUOUS
 62
     7
 10
779.469165546353
 20
1.05000000000002
 11
780.4967417819925
 21
1.05000000000002
  0
LINE
  8
0
  6
CONTINUOUS
 62
     7
 10
774.1679906435705
 20
1.05000000000002
 11
775.2308344536469
 21
1.05000000000002
  0
LINE
  8
0
  6
CONTINUOUS
 62
     7
 10
775.3513723459979
 20
-1.749999999999981
 11
774.35
 21
-1.749999999999981
  0
POLYLINE
  8
0
  6
CONTINUOUS
 62
     7
 66
     1
  0
VERTEX
  8
0
  6
CONTINUOUS
 62
     7
 10
777.8113248654051
 20
1.05000000000002
  0
VERTEX
  8
0
  6
CONTINUOUS
 62
     7
 10
777.8254894828958
 20
1.049397728102607
  0
VERTEX
  8
0
  6
CONTINUOUS
 62
     7
 10
777.8396199765824
 20
1.047592363336118
  0
VERTEX
  8
0
  6
CONTINUOUS
 62
     7
 10
777.8536823048677
 20
1.044588254982409
  0
VERTEX
  8
0
  6
CONTINUOUS
 62
     7
 10
777.8676425903714
 20
1.040392640201636
  0
VERTEX
  8
0
  6
CONTINUOUS
 62
     7
 10
777.8814672015426
 20
1.035015626597292
  0
VERTEX
  8
0
  6
CONTINUOUS
 62
     7
 10
777.8951228336824
 20
1.028470167866124
  0
VERTEX
  8
0
  6
CONTINUOUS
 62
     7
 10
777.9085765891767
 20
1.02077203259153
  0
VERTEX
  8
0
  6
CONTINUOUS
 62
     7
 10
777.9217960567504
 20
1.011939766255663
  0
VERTEX
  8
0
  6
CONTINUOUS
 62
     7
 10
777.9347493895478
 20
1.001994646561741
  0
VERTEX
  8
0
  6
CONTINUOUS
 62
     7
 10
777.947405381856
 20
0.9909606321741975
  0
VERTEX
  8
0
  6
CONTINUOUS
 62
     7
 10
777.9597335442807
 20
0.9788643050001565
  0
VERTEX
  8
0
  6
CONTINUOUS
 62
     7
 10
777.971704177199
 20
0.9657348061512944
  0
VERTEX
  8
0
  6
CONTINUOUS
 62
     7
 10
777.9832884423075
 20
0.9516037657403414
  0
VERTEX
  8
0
  6
CONTINUOUS
 62
     7
 10
777.9944584320971
 20
0.9365052266813896
  0
VERTEX
  8
0
  6
CONTINUOUS
 62
     7
 10
778.005187237084
 20
0.9204755626774987
  0
VERTEX
  8
0
  6
CONTINUOUS
 62
     7
 10
778.0154490106371
 20
0.9035533905932952
  0
VERTEX
  8
0
  6
CONTINUOUS
 62
     7
 10
778.0252190312452
 20
0.885779477423531
  0
VERTEX
  8
0
  6
CONTINUOUS
 62
     7
 10
778.0344737620729
 20
0.8671966420818432
  0
VERTEX
  8
0
  6
CONTINUOUS
 62
     7
 10
778.043190907663
 20
0.8478496522462374
  0
VERTEX
  8
0
  6
CONTINUOUS
 62
     7
 10
778.051349467648
 20
0.8277851165098201
  0
VERTEX
  8
0
  6
CONTINUOUS
 62
     7
 10
778.0589297873428
 20
0.8070513720966309
  0
VERTEX
  8
0
  6
CONTINUOUS
 62
     7
 10
778.065913605093
 20
0.7856983684130202
  0
VERTEX
  8
0
  6
CONTINUOUS
 62
     7
 10
778.0722840962699
 20
0.763777546715163
  0
VERTEX
  8
0
  6
CONTINUOUS
 62
     7
 10
778.0780259138022
 20
0.7413417161825642
  0
VERTEX
  8
0
  6
CONTINUOUS
 62
     7
 10
778.0831252251488
 20
0.7184449266961317
  0
VERTEX
  8
0
  6
CONTINUOUS
 62
     7
 10
778.0875697456219
 20
0.6951423386272505
  0
VERTEX
  8
0
  6
CONTINUOUS
 62
     7
 10
778.0913487679824
 20
0.671490089951654
  0
VERTEX
  8
0
  6
CONTINUOUS
 62
     7
 10
778.0944531882342
 20
0.6475451610080847
  0
VERTEX
  8
0
  6
CONTINUOUS
 62
     7
 10
778.0968755275574
 20
0.6233652372277
  0
VERTEX
  8
0
  6
CONTINUOUS
 62
     7
 10
778.098609950324
 20
0.5990085701648024
  0
VERTEX
  8
0
  6
CONTINUOUS
 62
     7
 10
778.0996522781579
 20
0.5745338371637293
  0
VERTEX
  8
0
  6
CONTINUOUS
 62
     7
 10
778.1
 20
0.5500000000000193
  0
SEQEND
  8
0
  6
CONTINUOUS
 62
     7
  0
LINE
  8
0
  6
CONTINUOUS
 62
     7
 10
778.1
 20
-1.749999999999981
 11
778.1
 21
0.5500000000000193
  0
LINE
  8
0
  6
CONTINUOUS
 62
     7
 10
777.35
 20
1.05000000000002
 11
777.8113248654051
 21
1.05000000000002
  0
LINE
  8
0
  6
CONTINUOUS
 62
     7
 10
778.1
 20
-1.749999999999981
 11
777.35
 21
-1.749999999999981
  0
LINE
  8
0
  6
CONTINUOUS
 62
     7
 10
776.5999999999999
 20
-1.749999999999981
 11
776.5999999999999
 21
0.5500000000000193
  0
LINE
  8
0
  6
CONTINUOUS
 62
     7
 10
776.5999999999999
 20
-1.749999999999981
 11
775.3513723459979
 21
-1.749999999999981
  0
LINE
  8
0
  6
CONTINUOUS
 62
     7
 10
779.469165546353
 20
1.05000000000002
 11
777.8113248654051
 21
1.05000000000002
  0
POLYLINE
  8
0
  6
CONTINUOUS
 62
     7
 66
     1
  0
VERTEX
  8
0
  6
CONTINUOUS
 62
     7
 10
776.5999999999999
 20
0.5500000000000193
  0
VERTEX
  8
0
  6
CONTINUOUS
 62
     7
 10
776.600347721842
 20
0.5745338371637293
  0
VERTEX
  8
0
  6
CONTINUOUS
 62
     7
 10
776.601390049676
 20
0.5990085701647989
  0
VERTEX
  8
0
  6
CONTINUOUS
 62
     7
 10
776.6031244724427
 20
0.6233652372277
  0
VERTEX
  8
0
  6
CONTINUOUS
 62
     7
 10
776.6055468117659
 20
0.6475451610080847
  0
VERTEX
  8
0
  6
CONTINUOUS
 62
     7
 10
776.6086512320177
 20
0.6714900899516506
  0
VERTEX
  8
0
  6
CONTINUOUS
 62
     7
 10
776.6124302543781
 20
0.6951423386272505
  0
VERTEX
  8
0
  6
CONTINUOUS
 62
     7
 10
776.6168747748512
 20
0.7184449266961281
  0
VERTEX
  8
0
  6
CONTINUOUS
 62
     7
 10
776.6219740861977
 20
0.7413417161825642
  0
VERTEX
  8
0
  6
CONTINUOUS
 62
     7
 10
776.6277159037302
 20
0.7637775467151594
  0
VERTEX
  8
0
  6
CONTINUOUS
 62
     7
 10
776.6340863949071
 20
0.7856983684130167
  0
VERTEX
  8
0
  6
CONTINUOUS
 62
     7
 10
776.6410702126572
 20
0.8070513720966309
  0
VERTEX
  8
0
  6
CONTINUOUS
 62
     7
 10
776.6486505323519
 20
0.8277851165098201
  0
VERTEX
  8
0
  6
CONTINUOUS
 62
     7
 10
776.656809092337
 20
0.8478496522462339
  0
VERTEX
  8
0
  6
CONTINUOUS
 62
     7
 10
776.6655262379271
 20
0.8671966420818397
  0
VERTEX
  8
0
  6
CONTINUOUS
 62
     7
 10
776.6747809687547
 20
0.8857794774235275
  0
VERTEX
  8
0
  6
CONTINUOUS
 62
     7
 10
776.6845509893628
 20
0.9035533905932918
  0
VERTEX
  8
0
  6
CONTINUOUS
 62
     7
 10
776.694812762916
 20
0.9204755626774987
  0
VERTEX
  8
0
  6
CONTINUOUS
 62
     7
 10
776.7055415679029
 20
0.9365052266813861
  0
VERTEX
  8
0
  6
CONTINUOUS
 62
     7
 10
776.7167115576924
 20
0.9516037657403414
  0
VERTEX
  8
0
  6
CONTINUOUS
 62
     7
 10
776.728295822801
 20
0.9657348061512909
  0
VERTEX
  8
0
  6
CONTINUOUS
 62
     7
 10
776.7402664557193
 20
0.978864305000153
  0
VERTEX
  8
0
  6
CONTINUOUS
 62
     7
 10
776.752594618144
 20
0.990960632174194
  0
VERTEX
  8
0
  6
CONTINUOUS
 62
     7
 10
776.7652506104521
 20
1.001994646561741
  0
VERTEX
  8
0
  6
CONTINUOUS
 62
     7
 10
776.7782039432495
 20
1.011939766255663
  0
VERTEX
  8
0
  6
CONTINUOUS
 62
     7
 10
776.7914234108232
 20
1.02077203259153
  0
VERTEX
  8
0
  6
CONTINUOUS
 62
     7
 10
776.8048771663175
 20
1.028470167866124
  0
VERTEX
  8
0
  6
CONTINUOUS
 62
     7
 10
776.8185327984573
 20
1.035015626597292
  0
VERTEX
  8
0
  6
CONTINUOUS
 62
     7
 10
776.8323574096286
 20
1.040392640201632
  0
VERTEX
  8
0
  6
CONTINUOUS
 62
     7
 10
776.8463176951323
 20
1.044588254982409
  0
VERTEX
  8
0
  6
CONTINUOUS
 62
     7
 10
776.8603800234176
 20
1.047592363336118
  0
VERTEX
  8
0
  6
CONTINUOUS
 62
     7
 10
776.8745105171041
 20
1.049397728102607
  0
VERTEX
  8
0
  6
CONTINUOUS
 62
     7
 10
776.8886751345948
 20
1.05000000000002
  0
SEQEND
  8
0
  6
CONTINUOUS
 62
     7
  0
LINE
  8
0
  6
CONTINUOUS
 62
     7
 10
776.8886751345948
 20
1.05000000000002
 11
777.35
 21
1.05000000000002
  0
LINE
  8
0
  6
CONTINUOUS
 62
     7
 10
777.35
 20
-1.749999999999981
 11
776.5999999999999
 21
-1.749999999999981
  0
LINE
  8
0
  6
CONTINUOUS
 62
     7
 10
776.8886751345948
 20
1.05000000000002
 11
775.2308344536469
 21
1.05000000000002
  0
LINE
  8
0
  6
CONTINUOUS
 62
     7
 10
779.348627654002
 20
-1.749999999999981
 11
778.1
 21
-1.749999999999981
  0
LINE
  8
0
  6
CONTINUOUS
 62
     7
 10
734.0443522981412
 20
-1.749999999999984
 11
732.5799419664555
 21
-1.749999999999984
  0
LINE
  8
0
  6
CONTINUOUS
 62
     7
 10
732.3355896683142
 20
26.25000000000001
 11
733.8
 21
26.25000000000001
  0
LINE
  8
0
  6
CONTINUOUS
 62
     7
 10
723.3656243675729
 20
-1.749999999999984
 11
732.5799419664555
 21
-1.749999999999984
  0
LINE
  8
0
  6
CONTINUOUS
 62
     7
 10
732.3355896683142
 20
26.25000000000001
 11
723.2644103316858
 21
26.25000000000001
  0
LINE
  8
0
  6
CONTINUOUS
 62
     7
 10
723.3656243675729
 20
-1.749999999999984
 11
719.8302250839378
 21
-1.749999999999984
  0
LINE
  8
0
  6
CONTINUOUS
 62
     7
 10
719.7290110480507
 20
26.25000000000001
 11
723.2644103316858
 21
26.25000000000001
  0
LINE
  8
0
  6
CONTINUOUS
 62
     7
 10
674.1241956457072
 20
-1.749999999999988
 11
674.1
 21
26.25000000000001
  0
LINE
  8
0
  6
CONTINUOUS
 62
     7
 10
674.1241956457072
 20
-1.749999999999988
 11
719.8302250839378
 21
-1.749999999999984
  0
LINE
  8
0
  6
CONTINUOUS
 62
     7
 10
674.1
 20
26.25000000000001
 11
692.0999999999999
 21
26.25000000000001
  0
LINE
  8
0
  6
CONTINUOUS
 62
     7
 10
692.0999999999999
 20
26.25000000000001
 11
700.0999999999999
 21
26.25000000000001
  0
LINE
  8
0
  6
CONTINUOUS
 62
     7
 10
700.0999999999999
 20
26.25000000000001
 11
719.7290110480507
 21
26.25000000000001
  0
LINE
  8
0
  6
CONTINUOUS
 62
     7
 10
670.1482055535688
 20
-1.749999999999988
 11
674.1241956457072
 21
-1.749999999999988
  0
LINE
  8
0
  6
CONTINUOUS
 62
     7
 10
674.1
 20
26.25000000000001
 11
669.9038838648618
 21
26.25000000000001
  0
LINE
  8
0
  6
CONTINUOUS
 62
     7
 10
669.1
 20
26.25000000000001
 11
669.3443522981413
 21
-1.749999999999988
  0
LINE
  8
0
  6
CONTINUOUS
 62
     7
 10
669.3443522981413
 20
-1.749999999999988
 11
670.1482055535688
 21
-1.749999999999988
  0
LINE
  8
0
  6
CONTINUOUS
 62
     7
 10
669.9038532554275
 20
26.25000000000001
 11
669.1
 21
26.25000000000001
  0
LINE
  8
0
  6
CONTINUOUS
 62
     7
 10
763.0518923725189
 20
2.102335956242964
 11
763.1364746999101
 21
2.455607818848734
  0
LINE
  8
0
  6
CONTINUOUS
 62
     7
 10
818.0998933805199
 20
26.25000000000002
 11
818.1
 21
26.25000000000002
  0
LINE
  8
0
  6
CONTINUOUS
 62
     7
 10
818.1
 20
26.25000000000002
 11
819.0801268020865
 21
26.25000000000002
  0
LINE
  8
0
  6
CONTINUOUS
 62
     7
 10
817.8269444969056
 20
57.52684412767052
 11
818.0998933805199
 21
26.25000000000002
  0
LINE
  8
0
  6
CONTINUOUS
 62
     7
 10
811.765882032579
 20
58.95000000000003
 11
817.8269444969056
 21
57.52684412767052
  0
LINE
  8
0
  6
CONTINUOUS
 62
     7
 10
736.8730555030944
 20
57.52684412767051
 11
742.9341179674209
 21
58.95000000000002
  0
LINE
  8
0
  6
CONTINUOUS
 62
     7
 10
736.8730555030944
 20
57.52684412767051
 11
736.60010661948
 21
26.25000000000001
  0
LINE
  8
0
  6
CONTINUOUS
 62
     7
 10
735.6198731979135
 20
26.25000000000001
 11
736.6
 21
26.25000000000001
  0
LINE
  8
0
  6
CONTINUOUS
 62
     7
 10
736.6
 20
26.25000000000001
 11
736.60010661948
 21
26.25000000000001
  0
LINE
  8
0
  6
CONTINUOUS
 62
     7
 10
742.9341179674209
 20
58.95000000000002
 11
811.765882032579
 21
58.95000000000003
  0
LINE
  8
0
  6
CONTINUOUS
 62
     7
 10
819.0801268020865
 20
26.25000000000002
 11
820.0607448167067
 21
26.25000000000002
  0
LINE
  8
0
  6
CONTINUOUS
 62
     7
 10
734.6392551832934
 20
26.25000000000001
 11
735.6198731979135
 21
26.25000000000001
  0
POLYLINE
  8
0
  6
CONTINUOUS
 62
     7
 66
     1
  0
VERTEX
  8
0
  6
CONTINUOUS
 62
     7
 10
734.08904780188
 20
59.36501292988572
  0
VERTEX
  8
0
  6
CONTINUOUS
 62
     7
 10
734.090142137741
 20
59.38821939330614
  0
VERTEX
  8
0
  6
CONTINUOUS
 62
     7
 10
734.0923132780563
 20
59.41134997188063
  0
VERTEX
  8
0
  6
CONTINUOUS
 62
     7
 10
734.0955565354421
 20
59.43435472784518
  0
VERTEX
  8
0
  6
CONTINUOUS
 62
     7
 10
734.099864907868
 20
59.45718399508046
  0
VERTEX
  8
0
  6
CONTINUOUS
 62
     7
 10
734.1052290937728
 20
59.47978848633856
  0
VERTEX
  8
0
  6
CONTINUOUS
 62
     7
 10
734.1116375121472
 20
59.5021193996517
  0
VERTEX
  8
0
  6
CONTINUOUS
 62
     7
 10
734.1190763275358
 20
59.52412852369319
  0
VERTEX
  8
0
  6
CONTINUOUS
 62
     7
 10
734.1275294799078
 20
59.5457683418633
  0
VERTEX
  8
0
  6
CONTINUOUS
 62
     7
 10
734.1369787193292
 20
59.56699213487529
  0
VERTEX
  8
0
  6
CONTINUOUS
 62
     7
 10
734.1474036453642
 20
59.58775408161989
  0
VERTEX
  8
0
  6
CONTINUOUS
 62
     7
 10
734.1587817511179
 20
59.60800935809091
  0
VERTEX
  8
0
  6
CONTINUOUS
 62
     7
 10
734.1710884718282
 20
59.62771423415797
  0
VERTEX
  8
0
  6
CONTINUOUS
 62
     7
 10
734.1842972378996
 20
59.64682616797764
  0
VERTEX
  8
0
  6
CONTINUOUS
 62
     7
 10
734.198379532266
 20
59.66530389783924
  0
VERTEX
  8
0
  6
CONTINUOUS
 62
     7
 10
734.213304951957
 20
59.68310753124673
  0
VERTEX
  8
0
  6
CONTINUOUS
 62
     7
 10
734.2290412737368
 20
59.70019863104467
  0
VERTEX
  8
0
  6
CONTINUOUS
 62
     7
 10
734.2455545236726
 20
59.71654029840209
  0
VERTEX
  8
0
  6
CONTINUOUS
 62
     7
 10
734.2628090504821
 20
59.73209725247525
  0
VERTEX
  8
0
  6
CONTINUOUS
 62
     7
 10
734.280767602504
 20
59.74683590657717
  0
VERTEX
  8
0
  6
CONTINUOUS
 62
     7
 10
734.2993914081212
 20
59.76072444068969
  0
VERTEX
  8
0
  6
CONTINUOUS
 62
     7
 10
734.3186402594673
 20
59.77373287016122
  0
VERTEX
  8
0
  6
CONTINUOUS
 62
     7
 10
734.3384725992336
 20
59.78583311044213
  0
VERTEX
  8
0
  6
CONTINUOUS
 62
     7
 10
734.3588456103888
 20
59.79699903771795
  0
VERTEX
  8
0
  6
CONTINUOUS
 62
     7
 10
734.3797153086193
 20
59.80720654530927
  0
VERTEX
  8
0
  6
CONTINUOUS
 62
     7
 10
734.4010366372888
 20
59.81643359571696
  0
VERTEX
  8
0
  6
CONTINUOUS
 62
     7
 10
734.4227635647135
 20
59.82466026819996
  0
VERTEX
  8
0
  6
CONTINUOUS
 62
     7
 10
734.444849183542
 20
59.8318688017832
  0
VERTEX
  8
0
  6
CONTINUOUS
 62
     7
 10
734.4672458120262
 20
59.83804363360269
  0
SEQEND
  8
0
  6
CONTINUOUS
 62
     7
  0
POLYLINE
  8
0
  6
CONTINUOUS
 62
     7
 66
     1
  0
VERTEX
  8
0
  6
CONTINUOUS
 62
     7
 10
820.2327541879738
 20
59.83804363360267
  0
VERTEX
  8
0
  6
CONTINUOUS
 62
     7
 10
820.2551508164579
 20
59.8318688017832
  0
VERTEX
  8
0
  6
CONTINUOUS
 62
     7
 10
820.2772364352865
 20
59.82466026819995
  0
VERTEX
  8
0
  6
CONTINUOUS
 62
     7
 10
820.2989633627111
 20
59.81643359571694
  0
VERTEX
  8
0
  6
CONTINUOUS
 62
     7
 10
820.3202846913807
 20
59.80720654530926
  0
VERTEX
  8
0
  6
CONTINUOUS
 62
     7
 10
820.3411543896111
 20
59.79699903771794
  0
VERTEX
  8
0
  6
CONTINUOUS
 62
     7
 10
820.3615274007664
 20
59.78583311044213
  0
VERTEX
  8
0
  6
CONTINUOUS
 62
     7
 10
820.3813597405327
 20
59.7737328701612
  0
VERTEX
  8
0
  6
CONTINUOUS
 62
     7
 10
820.4006085918788
 20
59.76072444068968
  0
VERTEX
  8
0
  6
CONTINUOUS
 62
     7
 10
820.4192323974959
 20
59.74683590657717
  0
VERTEX
  8
0
  6
CONTINUOUS
 62
     7
 10
820.4371909495178
 20
59.73209725247523
  0
VERTEX
  8
0
  6
CONTINUOUS
 62
     7
 10
820.4544454763275
 20
59.71654029840208
  0
VERTEX
  8
0
  6
CONTINUOUS
 62
     7
 10
820.4709587262631
 20
59.70019863104466
  0
VERTEX
  8
0
  6
CONTINUOUS
 62
     7
 10
820.486695048043
 20
59.68310753124671
  0
VERTEX
  8
0
  6
CONTINUOUS
 62
     7
 10
820.5016204677339
 20
59.66530389783923
  0
VERTEX
  8
0
  6
CONTINUOUS
 62
     7
 10
820.5157027621003
 20
59.64682616797762
  0
VERTEX
  8
0
  6
CONTINUOUS
 62
     7
 10
820.5289115281718
 20
59.62771423415796
  0
VERTEX
  8
0
  6
CONTINUOUS
 62
     7
 10
820.5412182488822
 20
59.6080093580909
  0
VERTEX
  8
0
  6
CONTINUOUS
 62
     7
 10
820.5525963546359
 20
59.58775408161988
  0
VERTEX
  8
0
  6
CONTINUOUS
 62
     7
 10
820.5630212806707
 20
59.56699213487528
  0
VERTEX
  8
0
  6
CONTINUOUS
 62
     7
 10
820.5724705200922
 20
59.5457683418633
  0
VERTEX
  8
0
  6
CONTINUOUS
 62
     7
 10
820.5809236724641
 20
59.52412852369318
  0
VERTEX
  8
0
  6
CONTINUOUS
 62
     7
 10
820.5883624878528
 20
59.50211939965169
  0
VERTEX
  8
0
  6
CONTINUOUS
 62
     7
 10
820.5947709062272
 20
59.47978848633856
  0
VERTEX
  8
0
  6
CONTINUOUS
 62
     7
 10
820.6001350921321
 20
59.45718399508045
  0
VERTEX
  8
0
  6
CONTINUOUS
 62
     7
 10
820.6044434645578
 20
59.43435472784517
  0
VERTEX
  8
0
  6
CONTINUOUS
 62
     7
 10
820.6076867219438
 20
59.41134997188063
  0
VERTEX
  8
0
  6
CONTINUOUS
 62
     7
 10
820.6098578622589
 20
59.38821939330613
  0
VERTEX
  8
0
  6
CONTINUOUS
 62
     7
 10
820.6109521981201
 20
59.36501292988571
  0
SEQEND
  8
0
  6
CONTINUOUS
 62
     7
  0
ARC
  8
0
  6
CONTINUOUS
 62
     7
 10
743.1889362366595
 20
56.75000000000002
 40
5.0
 50
90.12885712358549
 51
103.0849990415176
  0
ARC
  8
0
  6
CONTINUOUS
 62
     7
 10
811.5110637633404
 20
56.75000000000002
 40
5.0
 50
76.91500095848119
 51
89.87114287641327
  0
ARC
  8
0
  6
CONTINUOUS
 62
     7
 10
743.1889362366595
 20
56.75000000000002
 40
5.000000000000002
 50
90.0
 51
90.12885712358549
  0
LINE
  8
0
  6
CONTINUOUS
 62
     7
 10
811.5110637633404
 20
61.75000000000003
 11
743.1889362366595
 21
61.75000000000002
  0
ARC
  8
0
  6
CONTINUOUS
 62
     7
 10
811.5110637633404
 20
56.75000000000002
 40
5.000000000000002
 50
89.87114287641327
 51
90.0
  0
LINE
  8
0
  6
CONTINUOUS
 62
     7
 10
734.0889241968143
 20
59.35743370265638
 11
733.8
 21
26.25000000000001
  0
LINE
  8
0
  6
CONTINUOUS
 62
     7
 10
734.0889241968143
 20
59.35743370265638
 11
734.08904780188
 21
59.36501292988571
  0
LINE
  8
0
  6
CONTINUOUS
 62
     7
 10
733.8
 20
26.25000000000001
 11
734.6392217335274
 21
26.25000000000001
  0
LINE
  8
0
  6
CONTINUOUS
 62
     7
 10
734.4672458120262
 20
59.83804363360267
 11
734.474612003562
 21
59.83983226041263
  0
LINE
  8
0
  6
CONTINUOUS
 62
     7
 10
742.0460046888143
 20
61.61761825505456
 11
734.474612003562
 21
59.83983226041263
  0
ARC
  8
0
  6
CONTINUOUS
 62
     7
 10
743.1889362366595
 20
56.75000000000002
 40
5.000000000000001
 50
103.0849990415176
 51
103.2138561651037
  0
ARC
  8
0
  6
CONTINUOUS
 62
     7
 10
811.5110637633404
 20
56.75000000000002
 40
5.0
 50
76.78614383489503
 51
76.91500095848119
  0
LINE
  8
0
  6
CONTINUOUS
 62
     7
 10
820.225387996438
 20
59.83983226041264
 11
812.6539953111858
 21
61.61761825505456
  0
LINE
  8
0
  6
CONTINUOUS
 62
     7
 10
820.225387996438
 20
59.83983226041264
 11
820.2327541879738
 21
59.83804363360268
  0
LINE
  8
0
  6
CONTINUOUS
 62
     7
 10
820.6109521981201
 20
59.36501292988571
 11
820.6110758031856
 21
59.35743370265639
  0
LINE
  8
0
  6
CONTINUOUS
 62
     7
 10
820.9
 20
26.25000000000002
 11
820.6110758031856
 21
59.35743370265639
  0
LINE
  8
0
  6
CONTINUOUS
 62
     7
 10
820.0607706510855
 20
26.25000000000002
 11
820.9
 21
26.25000000000002
  0
LINE
  8
0
  6
CONTINUOUS
 62
     7
 10
815.8229447303673
 20
57.99738935842534
 11
816.1
 21
26.25000000000002
  0
LINE
  8
0
  6
CONTINUOUS
 62
     7
 10
817.5163311740174
 20
26.25000000000002
 11
816.1
 21
26.25000000000002
  0
LINE
  8
0
  6
CONTINUOUS
 62
     7
 10
738.8770552696327
 20
57.99738935842533
 11
738.6
 21
26.25000000000001
  0
LINE
  8
0
  6
CONTINUOUS
 62
     7
 10
738.6
 20
26.25000000000001
 11
737.1836688259826
 21
26.25000000000001
  0
LINE
  8
0
  6
CONTINUOUS
 62
     7
 10
814.6757681161984
 20
13.68431264425772
 11
814.6065439423688
 21
14.04127346450165
  0
LINE
  8
0
  6
CONTINUOUS
 62
     7
 10
814.2196594464149
 20
58.37384561181421
 11
814.6065439423688
 21
14.04127346450164
  0
LINE
  8
0
  6
CONTINUOUS
 62
     7
 10
740.0934560576312
 20
14.04127346450164
 11
740.0242318838016
 21
13.68431264425771
  0
LINE
  8
0
  6
CONTINUOUS
 62
     7
 10
740.0934560576312
 20
14.04127346450164
 11
740.480340553585
 21
58.37384561181421
  0
ARC
  8
0
  6
CONTINUOUS
 62
     7
 10
815.606505865433
 20
14.05000000000002
 40
1.0
 50
201.449889867941
 51
260.779991325061
  0
ARC
  8
0
  6
CONTINUOUS
 62
     7
 10
739.093494134567
 20
14.05000000000002
 40
1.0
 50
279.220008674939
 51
338.5501101320613
  0
LINE
  8
0
  6
CONTINUOUS
 62
     7
 10
733.8
 20
26.25000000000001
 11
732.3355896683142
 21
26.25000000000001
  0
LINE
  8
0
  6
CONTINUOUS
 62
     7
 10
723.2644103316858
 20
26.25000000000001
 11
732.3355896683142
 21
26.25000000000001
  0
LINE
  8
0
  6
CONTINUOUS
 62
     7
 10
743.1889362366595
 20
61.75000000000002
 11
725.6890247254805
 21
61.75000000000002
  0
LINE
  8
0
  6
CONTINUOUS
 62
     7
 10
723.2644103316858
 20
26.25000000000001
 11
719.7290110480507
 21
26.25000000000001
  0
LINE
  8
0
  6
CONTINUOUS
 62
     7
 10
700.0999999999999
 20
26.25000000000001
 11
700.0999999999999
 21
27.24992384757821
  0
LINE
  8
0
  6
CONTINUOUS
 62
     7
 10
700.0999999999999
 20
27.24992384757821
 11
702.0999999999999
 21
27.2499238475782
  0
LINE
  8
0
  6
CONTINUOUS
 62
     7
 10
702.0999999999999
 20
27.2499238475782
 11
701.9749952402018
 21
28.24988577064221
  0
LINE
  8
0
  6
CONTINUOUS
 62
     7
 10
701.9749952402018
 20
28.24988577064221
 11
701.8499904804037
 21
29.24984769370638
  0
LINE
  8
0
  6
CONTINUOUS
 62
     7
 10
701.8499904804037
 20
29.24984769370638
 11
701.7249857206053
 21
30.24980961677054
  0
LINE
  8
0
  6
CONTINUOUS
 62
     7
 10
701.7249857206053
 20
30.24980961677054
 11
701.5999809608072
 21
31.24977153983472
  0
LINE
  8
0
  6
CONTINUOUS
 62
     7
 10
701.5999809608072
 20
31.24977153983472
 11
701.474976201009
 21
32.2497334628989
  0
LINE
  8
0
  6
CONTINUOUS
 62
     7
 10
701.474976201009
 20
32.2497334628989
 11
701.3499714412106
 21
33.24969538596307
  0
LINE
  8
0
  6
CONTINUOUS
 62
     7
 10
701.3499714412106
 20
33.24969538596307
 11
701.3189984925502
 21
33.49746010592681
  0
POLYLINE
  8
0
  6
CONTINUOUS
 62
     7
 66
     1
  0
VERTEX
  8
0
  6
CONTINUOUS
 62
     7
 10
701.3189984925501
 20
33.49746010592681
  0
VERTEX
  8
0
  6
CONTINUOUS
 62
     7
 10
701.2303402529332
 20
33.88621582858043
  0
VERTEX
  8
0
  6
CONTINUOUS
 62
     7
 10
701.066318803756
 20
34.24965730902737
  0
SEQEND
  8
0
  6
CONTINUOUS
 62
     7
  0
POLYLINE
  8
0
  6
CONTINUOUS
 62
     7
 66
     1
  0
VERTEX
  8
0
  6
CONTINUOUS
 62
     7
 10
701.0663188037558
 20
34.24965730902766
  0
VERTEX
  8
0
  6
CONTINUOUS
 62
     7
 10
700.8205452405998
 20
34.58781014212617
  0
VERTEX
  8
0
  6
CONTINUOUS
 62
     7
 10
700.5098436530878
 20
34.86748720204869
  0
VERTEX
  8
0
  6
CONTINUOUS
 62
     7
 10
700.1477886472808
 20
35.07646934970718
  0
VERTEX
  8
0
  6
CONTINUOUS
 62
     7
 10
699.7501984689607
 20
35.20562611894952
  0
VERTEX
  8
0
  6
CONTINUOUS
 62
     7
 10
699.3344439017387
 20
35.24931462820377
  0
SEQEND
  8
0
  6
CONTINUOUS
 62
     7
  0
LINE
  8
0
  6
CONTINUOUS
 62
     7
 10
699.3344439017391
 20
35.24931462820376
 11
692.865556098261
 21
35.24931462820376
  0
POLYLINE
  8
0
  6
CONTINUOUS
 62
     7
 66
     1
  0
VERTEX
  8
0
  6
CONTINUOUS
 62
     7
 10
692.865556098261
 20
35.24931462820376
  0
VERTEX
  8
0
  6
CONTINUOUS
 62
     7
 10
692.449801531039
 20
35.20562611894945
  0
VERTEX
  8
0
  6
CONTINUOUS
 62
     7
 10
692.052211352719
 20
35.07646934970709
  0
VERTEX
  8
0
  6
CONTINUOUS
 62
     7
 10
691.6901563469121
 20
34.8674872020486
  0
VERTEX
  8
0
  6
CONTINUOUS
 62
     7
 10
691.3794547594002
 20
34.58781014212612
  0
VERTEX
  8
0
  6
CONTINUOUS
 62
     7
 10
691.1336811962442
 20
34.24965730902768
  0
SEQEND
  8
0
  6
CONTINUOUS
 62
     7
  0
POLYLINE
  8
0
  6
CONTINUOUS
 62
     7
 66
     1
  0
VERTEX
  8
0
  6
CONTINUOUS
 62
     7
 10
691.1336811962442
 20
34.24965730902769
  0
VERTEX
  8
0
  6
CONTINUOUS
 62
     7
 10
690.9696597470669
 20
33.8862158285806
  0
VERTEX
  8
0
  6
CONTINUOUS
 62
     7
 10
690.8810015074498
 20
33.4974601059268
  0
SEQEND
  8
0
  6
CONTINUOUS
 62
     7
  0
LINE
  8
0
  6
CONTINUOUS
 62
     7
 10
690.8810015074498
 20
33.49746010592681
 11
690.8500285587893
 21
33.24969538596337
  0
LINE
  8
0
  6
CONTINUOUS
 62
     7
 10
690.8500285587893
 20
33.24969538596337
 11
690.7250237989912
 21
32.24973346289919
  0
LINE
  8
0
  6
CONTINUOUS
 62
     7
 10
690.7250237989912
 20
32.24973346289919
 11
690.6000190391928
 21
31.24977153983503
  0
LINE
  8
0
  6
CONTINUOUS
 62
     7
 10
690.6000190391928
 20
31.24977153983503
 11
690.4750142793947
 21
30.24980961677086
  0
LINE
  8
0
  6
CONTINUOUS
 62
     7
 10
690.4750142793947
 20
30.24980961677086
 11
690.3500095195965
 21
29.2498476937067
  0
LINE
  8
0
  6
CONTINUOUS
 62
     7
 10
690.3500095195965
 20
29.2498476937067
 11
690.2250047597981
 21
28.24988577064253
  0
LINE
  8
0
  6
CONTINUOUS
 62
     7
 10
690.2250047597981
 20
28.24988577064253
 11
690.1
 21
27.24992384757819
  0
LINE
  8
0
  6
CONTINUOUS
 62
     7
 10
690.1
 20
27.24992384757819
 11
692.0999999999999
 21
27.24992384757817
  0
LINE
  8
0
  6
CONTINUOUS
 62
     7
 10
692.0999999999999
 20
26.24999999999998
 11
692.0999999999999
 21
27.24992384757817
  0
LINE
  8
0
  6
CONTINUOUS
 62
     7
 10
674.1
 20
26.25000000000001
 11
674.1
 21
59.35743370265637
  0
LINE
  8
0
  6
CONTINUOUS
 62
     7
 10
700.0999999999999
 20
26.25000000000001
 11
719.7290110480507
 21
26.25000000000001
  0
LINE
  8
0
  6
CONTINUOUS
 62
     7
 10
674.1
 20
26.25000000000001
 11
692.0999999999999
 21
26.24999999999998
  0
LINE
  8
0
  6
CONTINUOUS
 62
     7
 10
674.0999999999999
 20
59.35743370265637
 11
674.099712700182
 21
59.3650129298857
  0
LINE
  8
0
  6
CONTINUOUS
 62
     7
 10
669.9038838648618
 20
26.25000000000001
 11
674.1
 21
26.25000000000001
  0
LINE
  8
0
  6
CONTINUOUS
 62
     7
 10
690.2250047597981
 20
28.24988577064253
 11
690.2250047597981
 21
28.2437771957935
  0
LINE
  8
0
  6
CONTINUOUS
 62
     7
 10
690.2250047597981
 20
28.2437771957935
 11
690.1
 21
27.24992384757819
  0
LINE
  8
0
  6
CONTINUOUS
 62
     7
 10
692.0999999999999
 20
28.2437771957935
 11
690.2250047597981
 21
28.2437771957935
  0
LINE
  8
0
  6
CONTINUOUS
 62
     7
 10
692.0999999999999
 20
27.24992384757817
 11
692.0999999999999
 21
28.2437771957935
  0
LINE
  8
0
  6
CONTINUOUS
 62
     7
 10
701.9749952402018
 20
28.24377719579351
 11
700.0999999999999
 21
28.24377719579352
  0
LINE
  8
0
  6
CONTINUOUS
 62
     7
 10
702.0999999999999
 20
27.2499238475782
 11
701.9749952402018
 21
28.24377719579351
  0
LINE
  8
0
  6
CONTINUOUS
 62
     7
 10
700.0999999999999
 20
27.24992384757821
 11
700.0999999999999
 21
28.24377719579352
  0
LINE
  8
0
  6
CONTINUOUS
 62
     7
 10
701.9749952402018
 20
28.24377719579351
 11
701.9749952402018
 21
28.24988577064221
  0
LINE
  8
0
  6
CONTINUOUS
 62
     7
 10
690.3500095195965
 20
29.2498476937067
 11
690.3500095195965
 21
29.24373911885768
  0
LINE
  8
0
  6
CONTINUOUS
 62
     7
 10
690.3500095195965
 20
29.24373911885768
 11
690.2250047597981
 21
28.24988577064253
  0
LINE
  8
0
  6
CONTINUOUS
 62
     7
 10
701.9749952402018
 20
28.24988577064221
 11
690.2250047597981
 21
28.24988577064253
  0
LINE
  8
0
  6
CONTINUOUS
 62
     7
 10
700.0999999999999
 20
28.24377719579352
 11
692.0999999999999
 21
28.2437771957935
  0
LINE
  8
0
  6
CONTINUOUS
 62
     7
 10
701.8499904804037
 20
29.24373911885753
 11
690.3500095195965
 21
29.24373911885768
  0
LINE
  8
0
  6
CONTINUOUS
 62
     7
 10
701.9749952402018
 20
28.24988577064221
 11
701.8499904804037
 21
29.24373911885753
  0
LINE
  8
0
  6
CONTINUOUS
 62
     7
 10
701.8499904804037
 20
29.24373911885753
 11
701.8499904804037
 21
29.24984769370638
  0
LINE
  8
0
  6
CONTINUOUS
 62
     7
 10
701.7249857206053
 20
30.2437010419217
 11
690.4750142793946
 21
30.24370104192185
  0
LINE
  8
0
  6
CONTINUOUS
 62
     7
 10
701.8499904804037
 20
29.24984769370638
 11
701.7249857206053
 21
30.2437010419217
  0
LINE
  8
0
  6
CONTINUOUS
 62
     7
 10
701.8499904804037
 20
29.24984769370638
 11
690.3500095195965
 21
29.2498476937067
  0
LINE
  8
0
  6
CONTINUOUS
 62
     7
 10
690.4750142793946
 20
30.24370104192185
 11
690.3500095195965
 21
29.2498476937067
  0
LINE
  8
0
  6
CONTINUOUS
 62
     7
 10
690.4750142793947
 20
30.24980961677086
 11
690.4750142793946
 21
30.24370104192185
  0
LINE
  8
0
  6
CONTINUOUS
 62
     7
 10
701.7249857206053
 20
30.2437010419217
 11
701.7249857206053
 21
30.24980961677054
  0
LINE
  8
0
  6
CONTINUOUS
 62
     7
 10
690.6000190391928
 20
31.24977153983503
 11
690.6000190391928
 21
31.24366296498602
  0
LINE
  8
0
  6
CONTINUOUS
 62
     7
 10
690.6000190391928
 20
31.24366296498602
 11
690.4750142793947
 21
30.24980961677086
  0
LINE
  8
0
  6
CONTINUOUS
 62
     7
 10
701.5999809608071
 20
31.24366296498587
 11
690.6000190391928
 21
31.24366296498602
  0
LINE
  8
0
  6
CONTINUOUS
 62
     7
 10
701.7249857206053
 20
30.24980961677054
 11
701.5999809608071
 21
31.24366296498587
  0
LINE
  8
0
  6
CONTINUOUS
 62
     7
 10
701.7249857206053
 20
30.24980961677054
 11
690.4750142793947
 21
30.24980961677086
  0
LINE
  8
0
  6
CONTINUOUS
 62
     7
 10
701.5999809608071
 20
31.24366296498587
 11
701.5999809608072
 21
31.24977153983472
  0
LINE
  8
0
  6
CONTINUOUS
 62
     7
 10
701.5999809608072
 20
31.24977153983472
 11
690.6000190391928
 21
31.24977153983503
  0
LINE
  8
0
  6
CONTINUOUS
 62
     7
 10
701.474976201009
 20
32.24362488805005
 11
690.7250237989911
 21
32.24362488805019
  0
LINE
  8
0
  6
CONTINUOUS
 62
     7
 10
701.5999809608072
 20
31.24977153983472
 11
701.474976201009
 21
32.24362488805005
  0
LINE
  8
0
  6
CONTINUOUS
 62
     7
 10
690.7250237989911
 20
32.24362488805019
 11
690.6000190391928
 21
31.24977153983503
  0
LINE
  8
0
  6
CONTINUOUS
 62
     7
 10
690.7250237989912
 20
32.24973346289919
 11
690.7250237989911
 21
32.24362488805019
  0
LINE
  8
0
  6
CONTINUOUS
 62
     7
 10
701.474976201009
 20
32.24362488805005
 11
701.474976201009
 21
32.2497334628989
  0
LINE
  8
0
  6
CONTINUOUS
 62
     7
 10
690.8500285587893
 20
33.24969538596337
 11
690.8500285587893
 21
33.24358681111436
  0
LINE
  8
0
  6
CONTINUOUS
 62
     7
 10
690.8500285587893
 20
33.24358681111436
 11
690.7250237989912
 21
32.24973346289919
  0
LINE
  8
0
  6
CONTINUOUS
 62
     7
 10
701.474976201009
 20
32.2497334628989
 11
690.7250237989912
 21
32.24973346289919
  0
LINE
  8
0
  6
CONTINUOUS
 62
     7
 10
701.3499714412106
 20
33.24358681111422
 11
690.8500285587893
 21
33.24358681111436
  0
LINE
  8
0
  6
CONTINUOUS
 62
     7
 10
701.474976201009
 20
32.2497334628989
 11
701.3499714412106
 21
33.24358681111422
  0
LINE
  8
0
  6
CONTINUOUS
 62
     7
 10
701.3499714412106
 20
33.24358681111422
 11
701.3499714412106
 21
33.24969538596307
  0
LINE
  8
0
  6
CONTINUOUS
 62
     7
 10
690.8810015074498
 20
33.49594655895877
 11
690.8500285587893
 21
33.24969538596337
  0
LINE
  8
0
  6
CONTINUOUS
 62
     7
 10
701.3499714412106
 20
33.24969538596307
 11
690.8500285587893
 21
33.24969538596337
  0
POLYLINE
  8
0
  6
CONTINUOUS
 62
     7
 66
     1
  0
VERTEX
  8
0
  6
CONTINUOUS
 62
     7
 10
691.1336811962441
 20
34.24354873417849
  0
VERTEX
  8
0
  6
CONTINUOUS
 62
     7
 10
690.9696597470669
 20
33.88232744775622
  0
VERTEX
  8
0
  6
CONTINUOUS
 62
     7
 10
690.8810015074498
 20
33.49594655895874
  0
SEQEND
  8
0
  6
CONTINUOUS
 62
     7
  0
LINE
  8
0
  6
CONTINUOUS
 62
     7
 10
701.066318803756
 20
34.2435487341784
 11
691.1336811962441
 21
34.24354873417853
  0
POLYLINE
  8
0
  6
CONTINUOUS
 62
     7
 66
     1
  0
VERTEX
  8
0
  6
CONTINUOUS
 62
     7
 10
701.3189984925502
 20
33.49594655895883
  0
VERTEX
  8
0
  6
CONTINUOUS
 62
     7
 10
701.2303402529332
 20
33.88232744775623
  0
VERTEX
  8
0
  6
CONTINUOUS
 62
     7
 10
701.0663188037561
 20
34.24354873417844
  0
SEQEND
  8
0
  6
CONTINUOUS
 62
     7
  0
LINE
  8
0
  6
CONTINUOUS
 62
     7
 10
701.3499714412106
 20
33.24969538596307
 11
701.3189984925502
 21
33.49594655895878
  0
LINE
  8
0
  6
CONTINUOUS
 62
     7
 10
691.1336811962442
 20
34.24965730902771
 11
691.1336811962441
 21
34.24354873417853
  0
LINE
  8
0
  6
CONTINUOUS
 62
     7
 10
701.066318803756
 20
34.2435487341784
 11
701.066318803756
 21
34.24965730902739
  0
LINE
  8
0
  6
CONTINUOUS
 62
     7
 10
699.3344439017391
 20
35.2432079141214
 11
692.865556098261
 21
35.2432079141214
  0
POLYLINE
  8
0
  6
CONTINUOUS
 62
     7
 66
     1
  0
VERTEX
  8
0
  6
CONTINUOUS
 62
     7
 10
701.066318803756
 20
34.24965730902742
  0
VERTEX
  8
0
  6
CONTINUOUS
 62
     7
 10
700.8205452405999
 20
34.58574443157869
  0
VERTEX
  8
0
  6
CONTINUOUS
 62
     7
 10
700.5098436530881
 20
34.86371299819301
  0
VERTEX
  8
0
  6
CONTINUOUS
 62
     7
 10
700.147788647281
 20
35.07141851415028
  0
VERTEX
  8
0
  6
CONTINUOUS
 62
     7
 10
699.750198468961
 20
35.19978628955806
  0
VERTEX
  8
0
  6
CONTINUOUS
 62
     7
 10
699.3344439017391
 20
35.2432079141214
  0
SEQEND
  8
0
  6
CONTINUOUS
 62
     7
  0
LINE
  8
0
  6
CONTINUOUS
 62
     7
 10
701.066318803756
 20
34.24965730902739
 11
691.1336811962442
 21
34.24965730902771
  0
POLYLINE
  8
0
  6
CONTINUOUS
 62
     7
 66
     1
  0
VERTEX
  8
0
  6
CONTINUOUS
 62
     7
 10
692.865556098261
 20
35.2432079141214
  0
VERTEX
  8
0
  6
CONTINUOUS
 62
     7
 10
692.449801531039
 20
35.19978628955806
  0
VERTEX
  8
0
  6
CONTINUOUS
 62
     7
 10
692.052211352719
 20
35.0714185141503
  0
VERTEX
  8
0
  6
CONTINUOUS
 62
     7
 10
691.6901563469121
 20
34.86371299819309
  0
VERTEX
  8
0
  6
CONTINUOUS
 62
     7
 10
691.3794547594002
 20
34.58574443157885
  0
VERTEX
  8
0
  6
CONTINUOUS
 62
     7
 10
691.1336811962442
 20
34.24965730902766
  0
SEQEND
  8
0
  6
CONTINUOUS
 62
     7
  0
LINE
  8
0
  6
CONTINUOUS
 62
     7
 10
674.1
 20
59.83983226041263
 11
674.1
 21
61.61761825505454
  0
LINE
  8
0
  6
CONTINUOUS
 62
     7
 10
674.0997127001827
 20
59.36501292988576
 11
674.0997127001827
 21
59.83804363360273
  0
LINE
  8
0
  6
CONTINUOUS
 62
     7
 10
674.1
 20
59.83983226041263
 11
674.099712700182
 21
59.83804363360267
  0
LINE
  8
0
  6
CONTINUOUS
 62
     7
 10
674.1000000000001
 20
61.61761825505454
 11
674.0999367760784
 21
61.62017637430792
  0
LINE
  8
0
  6
CONTINUOUS
 62
     7
 10
669.1
 20
58.30513104032531
 11
669.1
 21
26.25000000000001
  0
LINE
  8
0
  6
CONTINUOUS
 62
     7
 10
669.1
 20
26.25000000000001
 11
669.9038838648618
 21
26.25000000000001
  0
LINE
  8
0
  6
CONTINUOUS
 62
     7
 10
669.1
 20
59.82634731255525
 11
669.1
 21
58.30513104032531
  0
LINE
  8
0
  6
CONTINUOUS
 62
     7
 10
674.0999367760785
 20
61.7499873552157
 11
674.0999367760785
 21
61.62017637430793
  0
POLYLINE
  8
0
  6
CONTINUOUS
 62
     7
 10
0.0
 20
0.0
 30
0.0
 66
     1
 70
     8
  0
VERTEX
  8
0
  6
CONTINUOUS
 62
     7
 10
674.1
 20
61.75000000000001
 30
0.0
 70
    32
  0
VERTEX
  8
0
  6
CONTINUOUS
 62
     7
 10
674.0999367760785
 20
61.74998735521569
 30
0.0
 70
    32
  0
SEQEND
  8
0
  6
CONTINUOUS
 62
     7
  0
LINE
  8
0
  6
CONTINUOUS
 62
     7
 10
725.6890247254805
 20
61.75000000000002
 11
674.1
 21
61.75000000000001
  0
LINE
  8
0
  6
CONTINUOUS
 62
     7
 10
674.0999367760784
 20
61.74998735521569
 11
669.9038838648619
 21
60.91077677297237
  0
ARC
  8
0
  6
CONTINUOUS
 62
     7
 10
670.1
 20
59.93019609728145
 40
1.000000000000001
 50
101.3099324740204
 51
179.9999999999995
  0
LINE
  8
0
  6
CONTINUOUS
 62
     7
 10
669.1
 20
59.93019609728147
 11
669.1
 21
59.82634731255525
  0
POLYLINE
  8
0
  6
CONTINUOUS
 62
     7
 66
     1
  0
VERTEX
  8
0
  6
CONTINUOUS
 62
     7
 10
763.6932882809482
 20
2.984015062096154
  0
VERTEX
  8
0
  6
CONTINUOUS
 62
     7
 10
763.6550872134934
 20
2.96847816840555
  0
VERTEX
  8
0
  6
CONTINUOUS
 62
     7
 10
763.6173620304502
 20
2.951243799622371
  0
VERTEX
  8
0
  6
CONTINUOUS
 62
     7
 10
763.5802285537937
 20
2.932322346005555
  0
VERTEX
  8
0
  6
CONTINUOUS
 62
     7
 10
763.5438025597979
 20
2.91173356953046
  0
VERTEX
  8
0
  6
CONTINUOUS
 62
     7
 10
763.5081987327842
 20
2.889506716332837
  0
VERTEX
  8
0
  6
CONTINUOUS
 62
     7
 10
763.4735295974468
 20
2.865680504282018
  0
VERTEX
  8
0
  6
CONTINUOUS
 62
     7
 10
763.4399044493047
 20
2.840302981256867
  0
VERTEX
  8
0
  6
CONTINUOUS
 62
     7
 10
763.4021344098657
 20
2.808811856892451
  0
VERTEX
  8
0
  6
CONTINUOUS
 62
     7
 10
763.3660855917466
 20
2.775392808255839
  0
VERTEX
  8
0
  6
CONTINUOUS
 62
     7
 10
763.3319036710403
 20
2.740166206280692
  0
VERTEX
  8
0
  6
CONTINUOUS
 62
     7
 10
763.2997206412047
 20
2.703265854839223
  0
VERTEX
  8
0
  6
CONTINUOUS
 62
     7
 10
763.269653224857
 20
2.664837304454451
  0
VERTEX
  8
0
  6
CONTINUOUS
 62
     7
 10
763.2418015777313
 20
2.625035961833111
  0
VERTEX
  8
0
  6
CONTINUOUS
 62
     7
 10
763.216248314351
 20
2.584025046191634
  0
VERTEX
  8
0
  6
CONTINUOUS
 62
     7
 10
763.1930578734991
 20
2.541973447576805
  0
VERTEX
  8
0
  6
CONTINUOUS
 62
     7
 10
763.1722762296032
 20
2.499053544109859
  0
VERTEX
  8
0
  6
CONTINUOUS
 62
     7
 10
763.1539309443921
 20
2.455439034303616
  0
VERTEX
  8
0
  6
CONTINUOUS
 62
     7
 10
763.1380315421948
 20
2.411302837475763
  0
VERTEX
  8
0
  6
CONTINUOUS
 62
     7
 10
763.1245701826141
 20
2.366815110106314
  0
VERTEX
  8
0
  6
CONTINUOUS
 62
     7
 10
763.1135225963869
 20
2.322141419174521
  0
VERTEX
  8
0
  6
CONTINUOUS
 62
     7
 10
763.1048492443449
 20
2.27744110553699
  0
VERTEX
  8
0
  6
CONTINUOUS
 62
     7
 10
763.0984966556
 20
2.232865861781445
  0
VERTEX
  8
0
  6
CONTINUOUS
 62
     7
 10
763.094398899401
 20
2.188558540202924
  0
VERTEX
  8
0
  6
CONTINUOUS
 62
     7
 10
763.092479145378
 20
2.144652198049095
  0
VERTEX
  8
0
  6
CONTINUOUS
 62
     7
 10
763.0926512688828
 20
2.101269379343063
  0
SEQEND
  8
0
  6
CONTINUOUS
 62
     7
  0
POLYLINE
  8
0
  6
CONTINUOUS
 62
     7
 66
     1
  0
VERTEX
  8
0
  6
CONTINUOUS
 62
     7
 10
791.6073487311172
 20
2.101269379342456
  0
VERTEX
  8
0
  6
CONTINUOUS
 62
     7
 10
791.6075208546222
 20
2.144652198048866
  0
VERTEX
  8
0
  6
CONTINUOUS
 62
     7
 10
791.6056011005992
 20
2.188558540203084
  0
VERTEX
  8
0
  6
CONTINUOUS
 62
     7
 10
791.6015033444002
 20
2.232865861781969
  0
VERTEX
  8
0
  6
CONTINUOUS
 62
     7
 10
791.5951507556553
 20
2.277441105537899
  0
VERTEX
  8
0
  6
CONTINUOUS
 62
     7
 10
791.586477403613
 20
2.322141419175809
  0
VERTEX
  8
0
  6
CONTINUOUS
 62
     7
 10
791.5754298173857
 20
2.366815110107955
  0
VERTEX
  8
0
  6
CONTINUOUS
 62
     7
 10
791.5619684578048
 20
2.411302837477761
  0
VERTEX
  8
0
  6
CONTINUOUS
 62
     7
 10
791.5460690556073
 20
2.455439034305951
  0
VERTEX
  8
0
  6
CONTINUOUS
 62
     7
 10
791.5277237703958
 20
2.499053544112506
  0
VERTEX
  8
0
  6
CONTINUOUS
 62
     7
 10
791.5069421264998
 20
2.541973447579761
  0
VERTEX
  8
0
  6
CONTINUOUS
 62
     7
 10
791.4837516856475
 20
2.584025046194847
  0
VERTEX
  8
0
  6
CONTINUOUS
 62
     7
 10
791.4581984222668
 20
2.62503596183656
  0
VERTEX
  8
0
  6
CONTINUOUS
 62
     7
 10
791.4303467751405
 20
2.664837304458108
  0
VERTEX
  8
0
  6
CONTINUOUS
 62
     7
 10
791.4002793587924
 20
2.703265854843047
  0
VERTEX
  8
0
  6
CONTINUOUS
 62
     7
 10
791.3680963289563
 20
2.740166206284651
  0
VERTEX
  8
0
  6
CONTINUOUS
 62
     7
 10
791.3339144082495
 20
2.775392808259891
  0
VERTEX
  8
0
  6
CONTINUOUS
 62
     7
 10
791.2978655901298
 20
2.808811856896559
  0
VERTEX
  8
0
  6
CONTINUOUS
 62
     7
 10
791.2600955506903
 20
2.840302981260982
  0
VERTEX
  8
0
  6
CONTINUOUS
 62
     7
 10
791.2264704025475
 20
2.865680504286101
  0
VERTEX
  8
0
  6
CONTINUOUS
 62
     7
 10
791.1918012672097
 20
2.889506716336865
  0
VERTEX
  8
0
  6
CONTINUOUS
 62
     7
 10
791.1561974401955
 20
2.911733569534402
  0
VERTEX
  8
0
  6
CONTINUOUS
 62
     7
 10
791.1197714461993
 20
2.932322346009358
  0
VERTEX
  8
0
  6
CONTINUOUS
 62
     7
 10
791.0826379695424
 20
2.951243799626031
  0
VERTEX
  8
0
  6
CONTINUOUS
 62
     7
 10
791.0449127864987
 20
2.968478168409019
  0
VERTEX
  8
0
  6
CONTINUOUS
 62
     7
 10
791.0067117190433
 20
2.984015062099409
  0
SEQEND
  8
0
  6
CONTINUOUS
 62
     7
  0
LINE
  8
0
  6
CONTINUOUS
 62
     7
 10
740.600571337291
 20
1.049999999999905
 11
740.600571337291
 21
1.350000000000039
  0
ENDBLK
  8
0
  0
ENDSEC
  0
SECTION
  2
ENTITIES
  0
INSERT
  8
0
 62
     7
  2
D_FRAME_DRAWING_17
 10
0.0
 20
0.0
 30
0.0
  0
INSERT
  8
0
  6
CENTER
 62
     7
  2
D_FRAME_VIEW_1288
 10
0.0
 20
0.0
 30
0.0
  0
TEXT
  8
0
  6
CONTINUOUS
 62
     7
 10
703.8463923971489
 20
170.5424534200325
 40
8.0
  1
MIDT-80
  0
INSERT
  8
0
  6
CENTER
 62
     7
  2
D_FRAME_VIEW_2066
 10
0.0
 20
0.0
 30
0.0
  0
INSERT
  8
0
  6
CENTER
 62
     7
  2
D_FRAME_VIEW_2368
 10
0.0
 20
0.0
 30
0.0
  0
LINE
  8
0
  6
CENTER
 62
     1
 10
485.0
 20
131.1
 11
485.0
 21
288.9
  0
LINE
  8
0
  6
CENTER
 62
     1
 10
485.0
 20
-4.750000000000032
 11
485.0
 21
64.75000000000003
  0
ENDSEC
  0
EOF
