  0
SECTION
  2
HEADER
  9
$ACADVER
  1
AC1014
  9
$ACADMAINTVER
 70
     9
  9
$DWGCODEPAGE
  3
ANSI_932
  9
$INSBASE
 10
0.0
 20
0.0
 30
0.0
  9
$EXTMIN
 10
581.8000000000001
 20
27.89774915593347
 30
0.0
  9
$EXTMAX
 10
730.3249874999999
 20
210.0
 30
0.0
  9
$LIMMIN
 10
0.0
 20
0.0
  9
$LIMMAX
 10
12.0
 20
9.0
  9
$ORTHOMODE
 70
     0
  9
$REGENMODE
 70
     1
  9
$FILLMODE
 70
     1
  9
$QTEXTMODE
 70
     0
  9
$MIRRTEXT
 70
     1
  9
$DRAGMODE
 70
     2
  9
$LTSCALE
 40
1.0
  9
$OSMODE
 70
    37
  9
$ATTMODE
 70
     1
  9
$TEXTSIZE
 40
0.2
  9
$TRACEWID
 40
0.05
  9
$TEXTSTYLE
  7
STANDARD
  9
$CLAYER
  8
0
  9
$CELTYPE
  6
BYLAYER
  9
$CECOLOR
 62
   256
  9
$CELTSCALE
 40
1.0
  9
$DELOBJ
 70
     1
  9
$DISPSILH
 70
     0
  9
$DIMSCALE
 40
1.0
  9
$DIMASZ
 40
3.0
  9
$DIMEXO
 40
0.0625
  9
$DIMDLI
 40
0.38
  9
$DIMRND
 40
0.0
  9
$DIMDLE
 40
0.0
  9
$DIMEXE
 40
1.5
  9
$DIMTP
 40
0.0
  9
$DIMTM
 40
0.0
  9
$DIMTXT
 40
3.0
  9
$DIMCEN
 40
0.09
  9
$DIMTSZ
 40
0.0
  9
$DIMTOL
 70
     0
  9
$DIMLIM
 70
     0
  9
$DIMTIH
 70
     1
  9
$DIMTOH
 70
     1
  9
$DIMSE1
 70
     0
  9
$DIMSE2
 70
     0
  9
$DIMTAD
 70
     1
  9
$DIMZIN
 70
     0
  9
$DIMBLK
  1

  9
$DIMASO
 70
     1
  9
$DIMSHO
 70
     1
  9
$DIMPOST
  1

  9
$DIMAPOST
  1

  9
$DIMALT
 70
     0
  9
$DIMALTD
 70
     2
  9
$DIMALTF
 40
25.4
  9
$DIMLFAC
 40
1.0
  9
$DIMTOFL
 70
     0
  9
$DIMTVP
 40
0.0
  9
$DIMTIX
 70
     0
  9
$DIMSOXD
 70
     0
  9
$DIMSAH
 70
     0
  9
$DIMBLK1
  1

  9
$DIMBLK2
  1

  9
$DIMSTYLE
  2
STANDARD
  9
$DIMCLRD
 70
     0
  9
$DIMCLRE
 70
     0
  9
$DIMCLRT
 70
     0
  9
$DIMTFAC
 40
1.0
  9
$DIMGAP
 40
1.5
  9
$DIMJUST
 70
     0
  9
$DIMSD1
 70
     0
  9
$DIMSD2
 70
     0
  9
$DIMTOLJ
 70
     1
  9
$DIMTZIN
 70
     0
  9
$DIMALTZ
 70
     0
  9
$DIMALTTZ
 70
     0
  9
$DIMFIT
 70
     3
  9
$DIMUPT
 70
     0
  9
$DIMUNIT
 70
     2
  9
$DIMDEC
 70
     2
  9
$DIMTDEC
 70
     4
  9
$DIMALTU
 70
     2
  9
$DIMALTTD
 70
     2
  9
$DIMTXSTY
  7
ＭＳ_ゴシック
  9
$DIMAUNIT
 70
     0
  9
$LUNITS
 70
     2
  9
$LUPREC
 70
     4
  9
$SKETCHINC
 40
0.1
  9
$FILLETRAD
 40
0.5
  9
$AUNITS
 70
     0
  9
$AUPREC
 70
     0
  9
$MENU
  1
.
  9
$ELEVATION
 40
0.0
  9
$PELEVATION
 40
0.0
  9
$THICKNESS
 40
0.0
  9
$LIMCHECK
 70
     0
  9
$CHAMFERA
 40
0.0
  9
$CHAMFERB
 40
0.0
  9
$CHAMFERC
 40
0.0
  9
$CHAMFERD
 40
0.0
  9
$SKPOLY
 70
     0
  9
$TDCREATE
 40
2459167.78587007
  9
$TDUPDATE
 40
2459167.785870428
  9
$TDINDWG
 40
0.0000000116
  9
$TDUSRTIMER
 40
0.0000000116
  9
$USRTIMER
 70
     1
  9
$ANGBASE
 50
0.0
  9
$ANGDIR
 70
     0
  9
$PDMODE
 70
     0
  9
$PDSIZE
 40
0.0
  9
$PLINEWID
 40
0.0
  9
$COORDS
 70
     1
  9
$SPLFRAME
 70
     0
  9
$SPLINETYPE
 70
     6
  9
$SPLINESEGS
 70
     8
  9
$ATTDIA
 70
     0
  9
$ATTREQ
 70
     1
  9
$HANDLING
 70
     1
  9
$HANDSEED
  5
218
  9
$SURFTAB1
 70
     6
  9
$SURFTAB2
 70
     6
  9
$SURFTYPE
 70
     6
  9
$SURFU
 70
     6
  9
$SURFV
 70
     6
  9
$UCSNAME
  2

  9
$UCSORG
 10
0.0
 20
0.0
 30
0.0
  9
$UCSXDIR
 10
1.0
 20
0.0
 30
0.0
  9
$UCSYDIR
 10
0.0
 20
1.0
 30
0.0
  9
$PUCSNAME
  2

  9
$PUCSORG
 10
0.0
 20
0.0
 30
0.0
  9
$PUCSXDIR
 10
1.0
 20
0.0
 30
0.0
  9
$PUCSYDIR
 10
0.0
 20
1.0
 30
0.0
  9
$USERI1
 70
     0
  9
$USERI2
 70
     0
  9
$USERI3
 70
     0
  9
$USERI4
 70
     0
  9
$USERI5
 70
     0
  9
$USERR1
 40
0.0
  9
$USERR2
 40
0.0
  9
$USERR3
 40
0.0
  9
$USERR4
 40
0.0
  9
$USERR5
 40
0.0
  9
$WORLDVIEW
 70
     1
  9
$SHADEDGE
 70
     3
  9
$SHADEDIF
 70
    70
  9
$TILEMODE
 70
     1
  9
$MAXACTVP
 70
    64
  9
$PINSBASE
 10
0.0
 20
0.0
 30
0.0
  9
$PLIMCHECK
 70
     0
  9
$PEXTMIN
 10
1.000000000000000E+20
 20
1.000000000000000E+20
 30
1.000000000000000E+20
  9
$PEXTMAX
 10
-1.000000000000000E+20
 20
-1.000000000000000E+20
 30
-1.000000000000000E+20
  9
$PLIMMIN
 10
0.0
 20
0.0
  9
$PLIMMAX
 10
12.0
 20
9.0
  9
$UNITMODE
 70
     0
  9
$VISRETAIN
 70
     1
  9
$PLINEGEN
 70
     0
  9
$PSLTSCALE
 70
     1
  9
$TREEDEPTH
 70
  3020
  9
$PICKSTYLE
 70
     1
  9
$CMLSTYLE
  2
STANDARD
  9
$CMLJUST
 70
     0
  9
$CMLSCALE
 40
1.0
  9
$PROXYGRAPHICS
 70
     1
  9
$MEASUREMENT
 70
     1
  0
ENDSEC
  0
SECTION
  2
CLASSES
  0
CLASS
  1
ACDBDICTIONARYWDFLT
  2
AcDbDictionaryWithDefault
  3
ObjectDBX Classes
 90
        0
280
     0
281
     0
  0
CLASS
  1
VISUALSTYLE
  2
AcDbVisualStyle
  3
ObjectDBX Classes
 90
     4095
280
     0
281
     0
  0
CLASS
  1
MATERIAL
  2
AcDbMaterial
  3
ObjectDBX Classes
 90
     1153
280
     0
281
     0
  0
CLASS
  1
SCALE
  2
AcDbScale
  3
ObjectDBX Classes
 90
     1153
280
     0
281
     0
  0
CLASS
  1
TABLESTYLE
  2
AcDbTableStyle
  3
ObjectDBX Classes
 90
     4095
280
     0
281
     0
  0
CLASS
  1
MLEADERSTYLE
  2
AcDbMLeaderStyle
  3
ACDB_MLEADERSTYLE_CLASS
 90
     4095
280
     0
281
     0
  0
CLASS
  1
SUN
  2
AcDbSun
  3
SCENEOE
 90
     1153
280
     0
281
     0
  0
CLASS
  1
DICTIONARYVAR
  2
AcDbDictionaryVar
  3
ObjectDBX Classes
 90
        0
280
     0
281
     0
  0
CLASS
  1
XRECORD
  2
AcDbXrecord
  3
ObjectDBX Classes
 90
        0
280
     0
281
     0
  0
CLASS
  1
LWPOLYLINE
  2
AcDbPolyline
  3
ObjectDBX Classes
 90
        0
280
     0
281
     1
  0
CLASS
  1
HATCH
  2
AcDbHatch
  3
ObjectDBX Classes
 90
        0
280
     0
281
     1
  0
CLASS
  1
ACDBPLACEHOLDER
  2
AcDbPlaceHolder
  3
ObjectDBX Classes
 90
        0
280
     0
281
     0
  0
CLASS
  1
LAYOUT
  2
AcDbLayout
  3
ObjectDBX Classes
 90
        0
280
     0
281
     0
  0
ENDSEC
  0
SECTION
  2
TABLES
  0
TABLE
  2
VPORT
  5
8
102
{ACAD_XDICTIONARY
360
20D
102
}
330
0
100
AcDbSymbolTable
 70
     1
  0
VPORT
  5
29
330
8
100
AcDbSymbolTableRecord
100
AcDbViewportTableRecord
  2
*ACTIVE
 70
     0
 10
0.0
 20
0.0
 11
1.0
 21
1.0
 12
656.0624937499999
 22
118.9488745779667
 13
0.0
 23
0.0
 14
0.5
 24
0.5
 15
0.5
 25
0.5
 16
0.0
 26
0.0
 36
1.0
 17
0.0
 27
0.0
 37
0.0
 40
182.1022508440665
 41
1.6
 42
50.0
 43
0.0
 44
0.0
 50
0.0
 51
0.0
 71
     0
 72
   100
 73
     1
 74
     3
 75
     0
 76
     0
 77
     0
 78
     0
  0
ENDTAB
  0
TABLE
  2
LTYPE
  5
5
330
0
100
AcDbSymbolTable
 70
     2
  0
LTYPE
  5
14
330
5
100
AcDbSymbolTableRecord
100
AcDbLinetypeTableRecord
  2
BYBLOCK
 70
     0
  3

 72
    65
 73
     0
 40
0.0
  0
LTYPE
  5
15
330
5
100
AcDbSymbolTableRecord
100
AcDbLinetypeTableRecord
  2
BYLAYER
 70
     0
  3

 72
    65
 73
     0
 40
0.0
  0
LTYPE
  5
16
330
5
100
AcDbSymbolTableRecord
100
AcDbLinetypeTableRecord
  2
CONTINUOUS
 70
     0
  3
Solid line
 72
    65
 73
     0
 40
0.0
  0
LTYPE
  5
71
330
5
100
AcDbSymbolTableRecord
100
AcDbLinetypeTableRecord
  2
CENTER
 70
     0
  3

 72
    65
 73
     0
 40
0.0
  0
ENDTAB
  0
TABLE
  2
LAYER
  5
2
330
0
100
AcDbSymbolTable
 70
     2
  0
LAYER
  5
10
330
2
100
AcDbSymbolTableRecord
100
AcDbLayerTableRecord
  2
0
 70
     0
 62
     7
  6
CONTINUOUS
  0
LAYER
  5
6E
330
2
100
AcDbSymbolTableRecord
100
AcDbLayerTableRecord
  2
2
 70
     0
 62
     7
  6
CONTINUOUS
  0
ENDTAB
  0
TABLE
  2
STYLE
  5
3
330
0
100
AcDbSymbolTable
 70
     2
  0
STYLE
  5
11
330
3
100
AcDbSymbolTableRecord
100
AcDbTextStyleTableRecord
  2
STANDARD
 70
     0
 40
0.0
 41
1.0
 50
0.0
 71
     0
 42
0.2
  3
txt
  4

  0
STYLE
  5
6F
330
3
100
AcDbSymbolTableRecord
100
AcDbTextStyleTableRecord
  2
ＭＳ_ゴシック
 70
     0
 40
0.0
 41
1.0
 50
0.0
 71
     0
 42
0.2
  3
ＭＳ ゴシック.shx
  4

  0
ENDTAB
  0
TABLE
  2
VIEW
  5
6
330
0
100
AcDbSymbolTable
 70
     0
  0
ENDTAB
  0
TABLE
  2
UCS
  5
7
330
0
100
AcDbSymbolTable
 70
     0
  0
ENDTAB
  0
TABLE
  2
APPID
  5
9
330
0
100
AcDbSymbolTable
 70
     2
  0
APPID
  5
12
330
9
100
AcDbSymbolTableRecord
100
AcDbRegAppTableRecord
  2
ACAD
 70
     0
  0
APPID
  5
217
330
9
100
AcDbSymbolTableRecord
100
AcDbRegAppTableRecord
  2
ACAD_MLEADERVER
 70
     0
  0
ENDTAB
  0
TABLE
  2
DIMSTYLE
  5
A
330
0
100
AcDbSymbolTable
 70
     1
  0
DIMSTYLE
105
27
330
A
100
AcDbSymbolTableRecord
100
AcDbDimStyleTableRecord
  2
STANDARD
 70
     0
  3

  4

  5

  6

  7

 40
1.0
 41
0.18
 42
0.0625
 43
0.38
 44
0.18
 45
0.0
 46
0.0
 47
0.0
 48
0.0
140
0.18
141
0.09
142
0.0
143
25.4
144
1.0
145
0.0
146
1.0
147
0.09
 71
     0
 72
     0
 73
     1
 74
     1
 75
     0
 76
     0
 77
     0
 78
     0
170
     0
171
     2
172
     0
173
     0
174
     0
175
     0
176
     0
177
     0
178
     0
270
     2
271
     4
272
     4
273
     2
274
     2
340
11
275
     0
280
     0
281
     0
282
     0
283
     1
284
     0
285
     0
286
     0
287
     3
288
     0
  0
ENDTAB
  0
TABLE
  2
BLOCK_RECORD
  5
1
330
0
100
AcDbSymbolTable
 70
     0
  0
BLOCK_RECORD
  5
1F
330
1
100
AcDbSymbolTableRecord
100
AcDbBlockTableRecord
  2
*MODEL_SPACE
  0
BLOCK_RECORD
  5
1B
330
1
100
AcDbSymbolTableRecord
100
AcDbBlockTableRecord
  2
*PAPER_SPACE
  0
ENDTAB
  0
ENDSEC
  0
SECTION
  2
BLOCKS
  0
BLOCK
  5
20
330
1F
100
AcDbEntity
  8
0
100
AcDbBlockBegin
  2
*MODEL_SPACE
 70
     0
 10
0.0
 20
0.0
 30
0.0
  3
*MODEL_SPACE
  1

  0
ENDBLK
  5
21
330
1F
100
AcDbEntity
  8
0
100
AcDbBlockEnd
  0
BLOCK
  5
1C
330
1B
100
AcDbEntity
 67
     1
  8
0
100
AcDbBlockBegin
  2
*PAPER_SPACE
 70
     0
 10
0.0
 20
0.0
 30
0.0
  3
*PAPER_SPACE
  1

  0
ENDBLK
  5
1D
330
1B
100
AcDbEntity
 67
     1
  8
0
100
AcDbBlockEnd
  0
ENDSEC
  0
SECTION
  2
ENTITIES
  0
LINE
  5
70
330
1F
100
AcDbEntity
  8
0
  6
CENTER
 62
     1
100
AcDbLine
 10
614.5000000000002
 20
122.5
 30
0.0
 11
614.5000000000002
 21
210.0
 31
0.0
  0
LINE
  5
72
330
1F
100
AcDbEntity
  8
0
  6
CENTER
 62
     1
100
AcDbLine
 10
614.5000000000002
 20
92.5
 30
0.0
 11
614.5000000000002
 21
55.00000000000001
 31
0.0
  0
LINE
  5
73
330
1F
100
AcDbEntity
  8
2
  6
CONTINUOUS
 62
     7
100
AcDbLine
 10
730.3249874999909
 20
150.4999875000001
 30
0.0
 11
727.6473039309557
 21
150.4979468250528
 31
0.0
  0
LINE
  5
74
330
1F
100
AcDbEntity
  8
2
  6
CONTINUOUS
 62
     7
100
AcDbLine
 10
730.3249874999999
 20
131.9999875
 30
0.0
 11
730.3249874999999
 21
131.1999875
 31
0.0
  0
LINE
  5
75
330
1F
100
AcDbEntity
  8
2
  6
CONTINUOUS
 62
   253
100
AcDbLine
 10
701.1840135165395
 20
150.8953863529459
 30
0.0
 11
727.4765394079786
 21
150.7352932082454
 31
0.0
  0
LINE
  5
76
330
1F
100
AcDbEntity
  8
2
  6
CONTINUOUS
 62
   253
100
AcDbLine
 10
701.2310798710355
 20
186.2773508819554
 30
0.0
 11
701.1840135165395
 21
150.8953863529459
 31
0.0
  0
LINE
  5
77
330
1F
100
AcDbEntity
  8
2
  6
CONTINUOUS
 62
     7
100
AcDbLine
 10
730.3249874999999
 20
131.9999875
 30
0.0
 11
730.3249874999909
 21
150.4999875000001
 31
0.0
  0
LINE
  5
78
330
1F
100
AcDbEntity
  8
2
  6
CONTINUOUS
 62
   253
100
AcDbLine
 10
701.3479475737826
 20
186.6020313442601
 30
0.0
 11
701.2310798710355
 21
186.2773508819554
 31
0.0
  0
LWPOLYLINE
  5
79
330
1F
100
AcDbEntity
  8
2
  6
CONTINUOUS
 62
     7
100
AcDbPolyline
 90
       50
 70
     0
 43
0.0
 10
647.0743196956494
 20
59.65714479992425
 10
647.0682083250432
 20
59.66588471453646
 10
647.0557686422558
 20
59.68253256911576
 10
647.0424737470452
 20
59.69885107121818
 10
647.0280982483189
 20
59.71502925423429
 10
647.012927387076
 20
59.73067272246164
 10
646.9970227480992
 20
59.74569475310085
 10
646.9804554113526
 20
59.76001734716145
 10
646.963305038584
 20
59.77357220934537
 10
646.945977753216
 20
59.78608180076268
 10
646.9282607778177
 20
59.79775090293266
 10
646.910247546661
 20
59.80854621288231
 10
646.8920351454982
 20
59.81844559093652
 10
646.8733898850865
 20
59.82759324806204
 10
646.8547477961835
 20
59.83580126037918
 10
646.8362154494127
 20
59.84308173769329
 10
646.8178983502877
 20
59.84945799334987
 10
646.7998998265714
 20
59.85496385758839
 10
646.7826297056176
 20
59.85956622397241
 10
646.7658545223647
 20
59.8634202416879
 10
646.7496607916001
 20
59.86658219637504
 10
646.734129907519
 20
59.86911417253648
 10
646.7228519689523
 20
59.87065356299763
 10
646.7120287350685
 20
59.87189980522319
 10
646.7016888151035
 20
59.87288383973603
 10
646.6918586942188
 20
59.87363694147818
 10
646.6825626789291
 20
59.87419034739624
 10
646.6738228488603
 20
59.87457487550671
 10
646.668272148612
 20
59.87475346548343
 10
646.6629870281054
 20
59.87487818833081
 10
646.6579724291698
 20
59.87495756191302
 10
646.6532328030761
 20
59.87499974774994
 10
646.6487720997577
 20
59.8750124944405
 10
646.6446629739161
 20
59.87500338325447
 10
646.640810879135
 20
59.87497902604452
 10
646.6371999533685
 20
59.87494464635982
 10
646.6338143043708
 20
59.87490460045712
 10
646.6268733464838
 20
59.87481023176197
 10
646.6208284232133
 20
59.87473292318439
 10
646.6154964881906
 20
59.87468718678365
 10
646.6106985876096
 20
59.87467675550853
 10
646.6062614133526
 20
59.87469797987843
 10
646.6020188899483
 20
59.87474275040834
 10
646.5978138072919
 20
59.87480094792212
 10
646.5934994776354
 20
59.87486242353407
 10
646.5889413689532
 20
59.874918509087
 10
646.584018647822
 20
59.87496305780181
 10
646.5786255535953
 20
59.8749930141289
 10
646.5726725218011
 20
59.87500851138675
 10
646.5666735061359
 20
59.87501249150867
  0
LWPOLYLINE
  5
7A
330
1F
100
AcDbEntity
  8
2
  6
CONTINUOUS
 62
   253
100
AcDbPolyline
 90
       29
 70
     0
 43
0.0
 10
-699.2709531759716
 20
139.3264673916097
 10
-699.2463917949868
 20
139.3329925725946
 10
-699.2219346895282
 20
139.3409067633469
 10
-699.1976414826755
 20
139.3501906701514
 10
-699.1735713979464
 20
139.3608216601124
 10
-699.1497831149165
 20
139.3727738163298
 10
-699.1263346261687
 20
139.3860180010804
 10
-699.1032830959127
 20
139.4005219268524
 10
-699.0806847206283
 20
139.4162502350574
 10
-699.0585945920651
 20
139.4331645822301
 10
-699.0370665629368
 20
139.4512237335042
 10
-699.0161531156358
 20
139.4703836631376
 10
-698.9959052342874
 20
139.4905976618411
 10
-698.9763722804587
 20
139.5118164506491
 10
-698.957601872821
 20
139.533988301055
 10
-698.9396397710618
 20
139.5570591611185
 10
-698.9225297643303
 20
139.5809727872365
 10
-698.9063135644836
 20
139.6056708812575
 10
-698.8910307044004
 20
139.6310932326046
 10
-698.8767184416042
 20
139.6571778650604
 10
-698.8634116674353
 20
139.6838611878567
 10
-698.8511428219903
 20
139.7110781507002
 10
-698.8399418150369
 20
139.7387624023561
 10
-698.829835953099
 20
139.7668464524032
 10
-698.8208498728866
 20
139.7952618357666
 10
-698.8130054812348
 20
139.823939279626
 10
-698.8063219016982
 20
139.8528088722937
 10
-698.8008154279299
 20
139.881800233649
 10
-698.7964994839604
 20
139.9108426867161
210
0.0
220
0.0
230
-1.0
  0
LWPOLYLINE
  5
7B
330
1F
100
AcDbEntity
  8
2
  6
CONTINUOUS
 62
     7
100
AcDbPolyline
 90
       33
 70
     0
 43
0.0
 10
592.7544481088108
 20
88.8771923415214
 10
592.7333381679326
 20
88.87285727053609
 10
592.7124125743296
 20
88.86760958755693
 10
592.6917294424597
 20
88.86146466469502
 10
592.6713468867813
 20
88.8544378740615
 10
592.6506568573407
 20
88.84626829941183
 10
592.6303278854388
 20
88.83717426557355
 10
592.6104202992702
 20
88.82718385295027
 10
592.5909944270297
 20
88.81632514194551
 10
592.5734313044554
 20
88.80548757924899
 10
592.5563144558879
 20
88.79392175459225
 10
592.5396875854688
 20
88.78165826305343
 10
592.523594397339
 20
88.76872769971075
 10
592.5076076753767
 20
88.75473477710455
 10
592.4922156784575
 20
88.74005992903189
 10
592.4774597404858
 20
88.72474427831226
 10
592.4633811953663
 20
88.70882894776521
 10
592.450325217838
 20
88.69275155460774
 10
592.4379362291121
 20
88.676132576914
 10
592.4262453965694
 20
88.6590161224304
 10
592.4152838875905
 20
88.64144629890319
 10
592.4047758121311
 20
88.62290433287679
 10
592.3950595029705
 20
88.60391589347901
 10
592.3861601004727
 20
88.58453408712596
 10
592.3781027450013
 20
88.56481202023359
 10
592.3710901714645
 20
88.54534191891463
 10
592.3648842560194
 20
88.52558528637125
 10
592.3594992877979
 20
88.50559384659981
 10
592.3549495559322
 20
88.48541932359663
 10
592.3511459388831
 20
88.46448712834298
 10
592.3482325553985
 20
88.44339933133074
 10
592.3462150569842
 20
88.42221385079324
 10
592.3450990951457
 20
88.40098860496376
  0
LWPOLYLINE
  5
7C
330
1F
100
AcDbEntity
  8
2
  6
CONTINUOUS
 62
     7
100
AcDbPolyline
 90
       34
 70
     0
 43
0.0
 10
636.6549009048549
 20
88.40098860496379
 10
636.6537698088493
 20
88.4224408453303
 10
636.6517200969859
 20
88.44383245261153
 10
636.6487172306443
 20
88.46534824917288
 10
636.6447835142791
 20
88.48672007053187
 10
636.6398409311174
 20
88.50823757092313
 10
636.6339534745797
 20
88.52952169183048
 10
636.6270514346489
 20
88.55075723159527
 10
636.6192078028375
 20
88.57166807257794
 10
636.6111310655124
 20
88.59067383652274
 10
636.602275760611
 20
88.60933272921021
 10
636.5925165737766
 20
88.62786073813788
 10
636.5819796403566
 20
88.64598162783138
 10
636.570693703434
 20
88.66364752991487
 10
636.558687506091
 20
88.68081057601262
 10
636.5457746630711
 20
88.69769996138315
 10
636.5321550897278
 20
88.71402499076319
 10
636.5218029115993
 20
88.72554401622965
 10
636.5110988311451
 20
88.73673634346005
 10
636.498691791648
 20
88.748882460553
 10
636.4858668116852
 20
88.76059307281322
 10
636.472647398868
 20
88.77184676226577
 10
636.4560120491356
 20
88.78493499631753
 10
636.438838743526
 20
88.79730527626093
 10
636.4209779703325
 20
88.80904782207804
 10
636.4026333506305
 20
88.82001381294057
 10
636.3844281401113
 20
88.82987920341262
 10
636.3658321626725
 20
88.83898001177836
 10
636.343404932407
 20
88.84872268679575
 10
636.3205180550485
 20
88.85736000634931
 10
636.2972541349878
 20
88.86486156856793
 10
636.2801693674922
 20
88.86958264871342
 10
636.2629244458773
 20
88.87369539168502
 10
636.2455518911897
 20
88.8771923415214
  0
LWPOLYLINE
  5
7D
330
1F
100
AcDbEntity
  8
2
  6
CONTINUOUS
 62
     7
100
AcDbPolyline
 90
       15
 70
     0
 43
0.0
 10
-697.7249875
 20
190.0809503379315
 10
-697.726230578781
 20
190.1307962235922
 10
-697.7299567246346
 20
190.1805181845273
 10
-697.7361566737749
 20
190.2299926041077
 10
-697.7448150121514
 20
190.2790964811309
 10
-697.7559102137709
 20
190.3277077356218
 10
-697.7694146942138
 20
190.3757055123424
 10
-697.785294879214
 20
190.4229704812572
 10
-697.8035112881296
 20
190.4693851342062
 10
-697.8240186320975
 20
190.5148340770491
 10
-697.8467659266297
 20
190.5592043165528
 10
-697.8716966183678
 20
190.602385541311
 10
-697.898748725684
 20
190.6442703959952
 10
-697.927854992777
 20
190.684754748257
 10
-697.958943056881
 20
190.7237379476181
210
0.0
220
0.0
230
-1.0
  0
LWPOLYLINE
  5
7E
330
1F
100
AcDbEntity
  8
2
  6
CONTINUOUS
 62
     7
100
AcDbPolyline
 90
       21
 70
     0
 43
0.0
 10
-712.3226711761846
 20
207.8417625368447
 10
-712.3508489996268
 20
207.8739214817584
 10
-712.3803757815791
 20
207.9048464978368
 10
-712.4111975415485
 20
207.9344810483529
 10
-712.4432579315796
 20
207.9627709557928
 10
-712.4764983392691
 20
207.989664500902
 10
-712.5108579949201
 20
208.0151125172383
 10
-712.5462740826405
 20
208.0390684810571
 10
-712.5826818551825
 20
208.0614885963654
 10
-712.6200147523124
 20
208.0823318749893
 10
-712.6582045224953
 20
208.101560211508
 10
-712.697181347672
 20
208.1191384529175
 10
-712.7368739708988
 20
208.1350344628971
 10
-712.7772098266195
 20
208.1492191805605
 10
-712.8181151733278
 20
208.1616666735846
 10
-712.8595152283812
 20
208.1723541856186
 10
-712.9013343047179
 20
208.1812621778868
 10
-712.9434959492264
 20
208.1883743649095
 10
-712.9859230825164
 20
208.1936777442753
 10
-713.0285381398344
 20
208.1971626204126
 10
-713.0712632128664
 20
208.1988226223145
210
0.0
220
0.0
230
-1.0
  0
LWPOLYLINE
  5
7F
330
1F
100
AcDbEntity
  8
2
  6
CONTINUOUS
 62
     7
100
AcDbPolyline
 90
       29
 70
     0
 43
0.0
 10
-634.3286930123718
 20
87.02876233405362
 10
-634.3530626109506
 20
87.0239356927687
 10
-634.3771623483575
 20
87.0179047327183
 10
-634.4009327290024
 20
87.01068434267583
 10
-634.4243150703859
 20
87.00229234778847
 10
-634.4472516479703
 20
86.99274946557195
 10
-634.4696858376856
 20
86.98207925476467
 10
-634.4915622557183
 20
86.97030805716774
 10
-634.5128268952393
 20
86.95746493261433
 10
-634.5334272597315
 20
86.94358158722898
 10
-634.553312492589
 20
86.92869229515391
 10
-634.5724335026686
 20
86.91283381393563
 10
-634.5907430854814
 20
86.89604529378083
 10
-634.6081960397287
 20
86.87836818090518
 10
-634.6247492788906
 20
86.85984611521424
 10
-634.6403619375951
 20
86.84052482256845
 10
-634.6549954725034
 20
86.82045200189872
 10
-634.6686137574626
 20
86.79967720745088
 10
-634.6811831726917
 20
86.77825172645004
 10
-634.6926726877787
 20
86.75622845248651
 10
-634.7030539382864
 20
86.73366175493618
 10
-634.7123012957771
 20
86.7106073447376
 10
-634.7203919310813
 20
86.68712213685703
 10
-634.7273058706567
 20
86.66326410978114
 10
-634.7330260458974
 20
86.6390921623841
 10
-634.7375383352721
 20
86.6146659685226
 10
-634.7408315991855
 20
86.59004582971762
 10
-634.7428977074794
 20
86.56529252628653
 10
-634.7437315595032
 20
86.54046716729339
210
0.0
220
0.0
230
-1.0
  0
LWPOLYLINE
  5
80
330
1F
100
AcDbEntity
  8
2
  6
CONTINUOUS
 62
     7
100
AcDbPolyline
 90
       33
 70
     0
 43
0.0
 10
-591.85570389133
 20
60.36628629696333
 10
-591.8546915952335
 20
60.34203881663083
 10
-591.8525039332778
 20
60.31786901768609
 10
-591.8491460592886
 20
60.29383384079606
 10
-591.8446258839476
 20
60.269989909477
 10
-591.8389540561557
 20
60.24639339669732
 10
-591.8321439379464
 20
60.22309989254195
 10
-591.8242115730059
 20
60.20016427324984
 10
-591.815175648877
 20
60.17764057193328
 10
-591.8050574529334
 20
60.15558185128339
 10
-591.7938808222302
 20
60.13404007856182
 10
-591.7816720873468
 20
60.11306600317324
 10
-591.7684600103552
 20
60.09270903710673
 10
-591.754275717062
 20
60.07301713852809
 10
-591.7391526236786
 20
60.05403669879713
 10
-591.7231263580987
 20
60.03581243317608
 10
-591.7062346759634
 20
60.0183872754867
 10
-591.6885173717139
 20
60.00180227696413
 10
-591.670016184842
 20
59.98609650954609
 10
-591.650774701557
 20
59.97130697382465
 10
-591.6308382521033
 20
59.95746851187816
 10
-591.6102538039685
 20
59.94461372518814
 10
-591.5890698512343
 20
59.9327728978347
 10
-591.5673363003312
 20
59.92197392515154
 10
-591.545104352467
 20
59.91224224800844
 10
-591.5224263830019
 20
59.90360079287608
 10
-591.4993558180614
 20
59.89606991781456
 10
-591.4759470086711
 20
59.88966736451255
 10
-591.4522551027126
 20
59.88440821649048
 10
-591.4283359150041
 20
59.88030486356574
 10
-591.4042457958072
 20
59.87736697266414
 10
-591.3800414980751
 20
59.87560146504586
 10
-591.3557800437485
 20
59.87501249999999
210
0.0
220
0.0
230
-1.0
  0
LWPOLYLINE
  5
81
330
1F
100
AcDbEntity
  8
2
  6
CONTINUOUS
 62
     7
100
AcDbPolyline
 90
       33
 70
     0
 43
0.0
 10
-637.644219956252
 20
59.87501249999999
 10
-637.6199585019255
 20
59.87560146504586
 10
-637.5957542041932
 20
59.87736697266414
 10
-637.5716640849964
 20
59.88030486356575
 10
-637.5477448972879
 20
59.88440821649048
 10
-637.5240529913295
 20
59.88966736451255
 10
-637.500644181939
 20
59.89606991781456
 10
-637.4775736169986
 20
59.90360079287608
 10
-637.4548956475336
 20
59.91224224800845
 10
-637.4326636996692
 20
59.92197392515155
 10
-637.4109301487663
 20
59.9327728978347
 10
-637.3897461960321
 20
59.94461372518816
 10
-637.3691617478971
 20
59.95746851187818
 10
-637.3492252984435
 20
59.97130697382465
 10
-637.3299838151586
 20
59.98609650954609
 10
-637.3114826282866
 20
60.00180227696413
 10
-637.2937653240372
 20
60.0183872754867
 10
-637.2768736419017
 20
60.0358124331761
 10
-637.260847376322
 20
60.05403669879715
 10
-637.2457242829386
 20
60.07301713852809
 10
-637.2315399896453
 20
60.09270903710674
 10
-637.2183279126538
 20
60.11306600317324
 10
-637.2061191777702
 20
60.13404007856184
 10
-637.1949425470671
 20
60.15558185128339
 10
-637.1848243511236
 20
60.17764057193328
 10
-637.1757884269946
 20
60.20016427324984
 10
-637.1678560620542
 20
60.22309989254195
 10
-637.1610459438448
 20
60.24639339669732
 10
-637.1553741160529
 20
60.26998990947702
 10
-637.150853940712
 20
60.29383384079606
 10
-637.1474960667227
 20
60.31786901768609
 10
-637.145308404767
 20
60.34203881663083
 10
-637.1442961086705
 20
60.36628629696333
210
0.0
220
0.0
230
-1.0
  0
LWPOLYLINE
  5
82
330
1F
100
AcDbEntity
  8
2
  6
CONTINUOUS
 62
     7
100
AcDbPolyline
 90
       29
 70
     0
 43
0.0
 10
-594.2562684404973
 20
86.54046716729339
 10
-594.2571022925212
 20
86.56529252628653
 10
-594.259168400815
 20
86.59004582971762
 10
-594.2624616647283
 20
86.61466596852263
 10
-594.2669739541032
 20
86.6390921623841
 10
-594.2726941293439
 20
86.66326410978114
 10
-594.2796080689192
 20
86.68712213685706
 10
-594.2876987042233
 20
86.7106073447376
 10
-594.2969460617142
 20
86.73366175493618
 10
-594.307327312222
 20
86.75622845248651
 10
-594.3188168273088
 20
86.77825172645004
 10
-594.3313862425379
 20
86.79967720745088
 10
-594.3450045274972
 20
86.82045200189872
 10
-594.3596380624055
 20
86.84052482256845
 10
-594.37525072111
 20
86.85984611521427
 10
-594.3918039602718
 20
86.87836818090518
 10
-594.4092569145191
 20
86.89604529378083
 10
-594.427566497332
 20
86.91283381393563
 10
-594.4466875074114
 20
86.92869229515391
 10
-594.466572740269
 20
86.94358158722898
 10
-594.4871731047612
 20
86.95746493261433
 10
-594.5084377442822
 20
86.97030805716774
 10
-594.5303141623149
 20
86.98207925476467
 10
-594.5527483520302
 20
86.99274946557195
 10
-594.5756849296147
 20
87.00229234778847
 10
-594.5990672709981
 20
87.01068434267583
 10
-594.6228376516431
 20
87.0179047327183
 10
-594.64693738905
 20
87.0239356927687
 10
-594.6713069876287
 20
87.02876233405362
210
0.0
220
0.0
230
-1.0
  0
MTEXT
  5
83
330
1F
100
AcDbEntity
  8
2
 62
     1
100
AcDbMText
 10
664.8075215705891
 20
30.55684006502438
 30
0.0
 40
3.0
 41
0.0
 71
     1
 72
     1
  1
{\fＭＳ ゴシック;MIDW-40}
  0
ELLIPSE
  5
84
330
1F
100
AcDbEntity
  8
2
  6
CONTINUOUS
 62
   253
100
AcDbEllipse
 10
620.2539600499576
 20
207.6988987747363
 30
0.0
 11
-0.3535533905932761
 21
-0.3535533905932723
 31
0.0
210
0.0
220
0.0
230
-1.0
 40
0.9996954598818875
 41
0.7855504566450177
 42
2.356042196944763
  0
LINE
  5
85
330
1F
100
AcDbEntity
  8
2
  6
CONTINUOUS
 62
     7
100
AcDbLine
 10
586.56101269473
 20
201.6067598537362
 30
0.0
 11
605.3343320732541
 21
208.4396893058919
 31
0.0
  0
LINE
  5
86
330
1F
100
AcDbEntity
  8
2
  6
CONTINUOUS
 62
     7
100
AcDbLine
 10
623.6656679267462
 20
208.4396893058919
 30
0.0
 11
642.4389873052704
 21
201.6067598537362
 31
0.0
  0
LINE
  5
87
330
1F
100
AcDbEntity
  8
2
  6
CONTINUOUS
 62
     7
100
AcDbLine
 10
605.2219217560082
 20
208.0773284960393
 30
0.0
 11
605.387435566832
 21
208.1385244282064
 31
0.0
  0
ELLIPSE
  5
88
330
1F
100
AcDbEntity
  8
2
  6
CONTINUOUS
 62
     7
100
AcDbEllipse
 10
623.3236461597478
 20
207.4998351719561
 30
0.0
 11
0.1736754514981752
 21
0.9849624305955026
 31
0.0
210
0.0
220
0.0
230
-1.0
 40
0.9998429609308006
 41
6.10867923736979
 42
6.457691376989365
  0
LINE
  5
89
330
1F
100
AcDbEntity
  8
2
  6
CONTINUOUS
 62
   253
100
AcDbLine
 10
609.2394304363185
 20
207.5203687320014
 30
0.0
 11
609.1805457676446
 21
203.4999875
 31
0.0
  0
LINE
  5
8A
330
1F
100
AcDbEntity
  8
2
  6
CONTINUOUS
 62
     7
100
AcDbLine
 10
623.7780782439921
 20
208.0773284960396
 30
0.0
 11
623.6949292370934
 21
207.7730018110541
 31
0.0
  0
LINE
  5
8B
330
1F
100
AcDbEntity
  8
2
  6
CONTINUOUS
 62
     7
100
AcDbLine
 10
589.5345519453094
 20
125.6999570483114
 30
0.0
 11
582.2000609312178
 21
131.1999875
 31
0.0
  0
LINE
  5
8C
330
1F
100
AcDbEntity
  8
2
  6
CONTINUOUS
 62
   253
100
AcDbLine
 10
605.387435566832
 20
208.1385244282064
 30
0.0
 11
605.3343320732542
 21
208.4396893058918
 31
0.0
  0
LINE
  5
8D
330
1F
100
AcDbEntity
  8
2
  6
CONTINUOUS
 62
   253
100
AcDbLine
 10
623.2705963811674
 20
208.1988226223145
 30
0.0
 11
623.323699874745
 21
208.4999875
 31
0.0
  0
LINE
  5
8E
330
1F
100
AcDbEntity
  8
2
  6
CONTINUOUS
 62
     7
100
AcDbLine
 10
590.1345012048705
 20
57.17501249999999
 30
0.0
 11
589.5345519453094
 21
57.17501249999999
 31
0.0
  0
LINE
  5
8F
330
1F
100
AcDbEntity
  8
2
  6
CONTINUOUS
 62
   253
100
AcDbLine
 10
619.8194542323558
 20
203.4999875
 30
0.0
 11
619.760569563682
 21
207.5203687320014
 31
0.0
  0
ELLIPSE
  5
90
330
1F
100
AcDbEntity
  8
2
  6
CONTINUOUS
 62
   253
100
AcDbEllipse
 10
608.7460399500427
 20
207.6988987747363
 30
0.0
 11
-0.3535533905932716
 21
0.3535533905932735
 31
0.0
210
0.0
220
0.0
230
-1.0
 40
0.9996954598818875
 41
0.7855504566450265
 42
2.356042196944771
  0
LINE
  5
91
330
1F
100
AcDbEntity
  8
2
  6
CONTINUOUS
 62
     7
100
AcDbLine
 10
623.3236998747451
 20
208.4999875
 30
0.0
 11
605.6763001252555
 21
208.4999875
 31
0.0
  0
LINE
  5
92
330
1F
100
AcDbEntity
  8
2
  6
CONTINUOUS
 62
     7
100
AcDbLine
 10
605.7294036188332
 20
208.1988226223145
 30
0.0
 11
605.7294036188332
 21
207.8417625368447
 31
0.0
  0
LINE
  5
93
330
1F
100
AcDbEntity
  8
2
  6
CONTINUOUS
 62
     7
100
AcDbLine
 10
605.3050707629069
 20
207.7730018110538
 30
0.0
 11
605.2219217560083
 21
208.0773284960394
 31
0.0
  0
ELLIPSE
  5
94
330
1F
100
AcDbEntity
  8
2
  6
CONTINUOUS
 62
     7
100
AcDbEllipse
 10
605.6763538402528
 20
207.4998351719561
 30
0.0
 11
-0.1736754514981756
 21
0.9849624305955026
 31
0.0
210
0.0
220
0.0
230
-1.0
 40
0.9998429609308006
 41
6.108679237369787
 42
6.457691376989373
  0
ELLIPSE
  5
95
330
1F
100
AcDbEntity
  8
2
  6
CONTINUOUS
 62
     7
100
AcDbEllipse
 10
642.2678599997048
 20
201.1368751609351
 30
0.0
 11
0.396761616494762
 21
0.3044458961305891
 31
0.0
210
0.0
220
0.0
230
-1.0
 40
0.9997859007887516
 41
5.716050326169301
 42
6.850320288189891
  0
ELLIPSE
  5
96
330
1F
100
AcDbEntity
  8
2
  6
CONTINUOUS
 62
     7
100
AcDbEllipse
 10
590.1343995987025
 20
126.5001398280439
 30
0.0
 11
0.3164547214923638
 21
-0.948786057580121
 31
0.0
210
0.0
220
0.0
230
-1.0
 40
0.9998307560683425
 41
0.3218825381255286
 42
0.9652821266821008
  0
LINE
  5
97
330
1F
100
AcDbEntity
  8
2
  6
CONTINUOUS
 62
   253
100
AcDbLine
 10
586.8335049405927
 20
201.3976691994708
 30
0.0
 11
605.2219217560082
 21
208.0773284960393
 31
0.0
  0
LINE
  5
98
330
1F
100
AcDbEntity
  8
2
  6
CONTINUOUS
 62
     7
100
AcDbLine
 10
631.2871889569559
 20
87.55300941660721
 30
0.0
 11
634.3286930123718
 21
87.02876233405362
 31
0.0
  0
CIRCLE
  5
99
330
1F
100
AcDbEntity
  8
2
  6
CONTINUOUS
 62
     7
100
AcDbCircle
 10
614.5000000000002
 20
203.4999875
 30
0.0
 40
2.500000000000002
  0
ELLIPSE
  5
9A
330
1F
100
AcDbEntity
  8
2
  6
CONTINUOUS
 62
     7
100
AcDbEllipse
 10
631.0325088527312
 20
86.07501249999999
 30
0.0
 11
1.483794560351783
 21
-0.2634524823474587
 31
0.0
210
0.0
220
0.0
230
-1.0
 40
0.9952072043576566
 41
4.535838234529418
 42
4.707330071702007
  0
LINE
  5
9B
330
1F
100
AcDbEntity
  8
2
  6
CONTINUOUS
 62
   253
100
AcDbLine
 10
620.2539600499576
 20
208.1988226223145
 30
0.0
 11
623.2705963811674
 21
208.1988226223145
 31
0.0
  0
LINE
  5
9C
330
1F
100
AcDbEntity
  8
2
  6
CONTINUOUS
 62
   253
100
AcDbLine
 10
605.6763001252554
 20
208.4999875
 30
0.0
 11
605.7294036188331
 21
208.1988226223145
 31
0.0
  0
CIRCLE
  5
9D
330
1F
100
AcDbEntity
  8
2
  6
CONTINUOUS
 62
     7
100
AcDbCircle
 10
-642.2000000000002
 20
135.4999875
 30
0.0
 40
2.500000000000002
210
0.0
220
0.0
230
-1.0
  0
LINE
  5
9E
330
1F
100
AcDbEntity
  8
2
  6
CONTINUOUS
 62
   253
100
AcDbLine
 10
623.6656679267462
 20
208.4396893058919
 30
0.0
 11
623.6125644331686
 21
208.1385244282064
 31
0.0
  0
LINE
  5
9F
330
1F
100
AcDbEntity
  8
2
  6
CONTINUOUS
 62
     7
100
AcDbLine
 10
605.7294036188332
 20
208.1988226223145
 30
0.0
 11
605.387435566832
 21
208.1385244282064
 31
0.0
  0
ARC
  5
A0
330
1F
100
AcDbEntity
  8
2
  6
CONTINUOUS
 62
   253
100
AcDbCircle
 10
614.5000000000002
 20
203.4146969983139
 30
0.0
 40
5.32013794932089
100
AcDbArc
 50
179.08141571176
 51
0.9185842882399128
  0
ELLIPSE
  5
A1
330
1F
100
AcDbEntity
  8
2
  6
CONTINUOUS
 62
   253
100
AcDbEllipse
 10
641.9955110334072
 20
200.9278944489467
 30
0.0
 11
0.3043807145043568
 21
-0.3966766701456191
 31
0.0
210
0.0
220
0.0
230
1.0
 40
0.9997859007887517
 41
1.003661345784957
 42
2.137931307805297
  0
ELLIPSE
  5
A2
330
1F
100
AcDbEntity
  8
2
  6
CONTINUOUS
 62
     7
100
AcDbEllipse
 10
586.7321400002955
 20
201.1368751609351
 30
0.0
 11
-0.3967616164947623
 21
0.3044458961305891
 31
0.0
210
0.0
220
0.0
230
-1.0
 40
0.9997859007887514
 41
5.716050326169267
 42
6.850320288189833
  0
LINE
  5
A3
330
1F
100
AcDbEntity
  8
2
  6
CONTINUOUS
 62
     7
100
AcDbLine
 10
623.6125644331686
 20
208.1385244282064
 30
0.0
 11
623.2705963811674
 21
208.1988226223145
 31
0.0
  0
LINE
  5
A4
330
1F
100
AcDbEntity
  8
2
  6
CONTINUOUS
 62
     7
100
AcDbLine
 10
623.6125644331686
 20
208.1385244282064
 30
0.0
 11
623.7780782439921
 21
208.0773284960395
 31
0.0
  0
ELLIPSE
  5
A5
330
1F
100
AcDbEntity
  8
2
  6
CONTINUOUS
 62
   253
100
AcDbEllipse
 10
587.0044889665933
 20
200.9278944489467
 30
0.0
 11
0.304380714504362
 21
0.3966766701456181
 31
0.0
210
0.0
220
0.0
230
1.0
 40
0.9997859007887522
 41
1.003661345784646
 42
2.137931307805176
  0
CIRCLE
  5
A6
330
1F
100
AcDbEntity
  8
2
  6
CONTINUOUS
 62
     7
100
AcDbCircle
 10
-586.8000000000002
 20
135.4999875
 30
0.0
 40
2.500000000000002
210
0.0
220
0.0
230
-1.0
  0
LINE
  5
A7
330
1F
100
AcDbEntity
  8
2
  6
CONTINUOUS
 62
     7
100
AcDbLine
 10
647.2000000000002
 20
131.9999875
 30
0.0
 11
647.2
 21
150.4999875000001
 31
0.0
  0
ELLIPSE
  5
A8
330
1F
100
AcDbEntity
  8
2
  6
CONTINUOUS
 62
     7
100
AcDbEllipse
 10
646.1998476719564
 20
131.9999875
 30
0.0
 11
1.000152328043909
 21
0.0
 31
0.0
210
0.0
220
0.0
230
-1.0
 40
0.9998476951563912
 41
0.0
 42
0.9272952180016099
  0
LINE
  5
A9
330
1F
100
AcDbEntity
  8
2
  6
CONTINUOUS
 62
   253
100
AcDbLine
 10
619.7605695636821
 20
207.5203687320014
 30
0.0
 11
619.7540362023796
 21
207.6988987747363
 31
0.0
  0
ELLIPSE
  5
AA
330
1F
100
AcDbEntity
  8
2
  6
CONTINUOUS
 62
     7
100
AcDbEllipse
 10
638.865600401298
 20
126.5001398280439
 30
0.0
 11
0.3164547214923631
 21
0.9487860575801212
 31
0.0
210
0.0
220
0.0
230
-1.0
 40
0.9998307560683414
 41
2.176310526907698
 42
2.819710115464265
  0
LINE
  5
AB
330
1F
100
AcDbEntity
  8
2
  6
CONTINUOUS
 62
     7
100
AcDbLine
 10
581.8000000000001
 20
150.4999874999999
 30
0.0
 11
581.8000000000003
 21
131.9999875
 31
0.0
  0
ELLIPSE
  5
AC
330
1F
100
AcDbEntity
  8
2
  6
CONTINUOUS
 62
     7
100
AcDbEllipse
 10
582.8001523280442
 20
131.9999875
 30
0.0
 11
1.000152328043905
 21
0.0
 31
0.0
210
0.0
220
0.0
230
-1.0
 40
0.999847695156391
 41
2.214297435588183
 42
3.14159265358979
  0
LINE
  5
AD
330
1F
100
AcDbEntity
  8
2
  6
CONTINUOUS
 62
     7
100
AcDbLine
 10
646.7999390687827
 20
131.1999875
 30
0.0
 11
639.465448054691
 21
125.6999570483114
 31
0.0
  0
LINE
  5
AE
330
1F
100
AcDbEntity
  8
2
  6
CONTINUOUS
 62
     7
100
AcDbLine
 10
635.0000000000002
 20
57.17501249999999
 30
0.0
 11
634.7437315595032
 21
86.54046716729339
 31
0.0
  0
LINE
  5
AF
330
1F
100
AcDbEntity
  8
2
  6
CONTINUOUS
 62
     7
100
AcDbLine
 10
623.2705963811674
 20
207.8417625368447
 30
0.0
 11
623.2705963811674
 21
208.1988226223145
 31
0.0
  0
LINE
  5
B0
330
1F
100
AcDbEntity
  8
2
  6
CONTINUOUS
 62
     7
100
AcDbLine
 10
631.0300167741842
 20
87.57501249999999
 30
0.0
 11
597.9699832258162
 21
87.57501249999999
 31
0.0
  0
LINE
  5
B1
330
1F
100
AcDbEntity
  8
2
  6
CONTINUOUS
 62
     7
100
AcDbLine
 10
605.7294036188332
 20
208.1988226223145
 30
0.0
 11
608.7460399500427
 21
208.1988226223145
 31
0.0
  0
ELLIPSE
  5
B2
330
1F
100
AcDbEntity
  8
2
  6
CONTINUOUS
 62
     7
100
AcDbEllipse
 10
597.9674911472694
 20
86.07501249999999
 30
0.0
 11
1.483794560351783
 21
0.2634524823474591
 31
0.0
210
0.0
220
0.0
230
-1.0
 40
0.9952072043576566
 41
4.717447889067374
 42
4.888939726239959
  0
LINE
  5
B3
330
1F
100
AcDbEntity
  8
2
  6
CONTINUOUS
 62
   253
100
AcDbLine
 10
623.7780782439921
 20
208.0773284960394
 30
0.0
 11
642.1664950594077
 21
201.3976691994708
 31
0.0
  0
LINE
  5
B4
330
1F
100
AcDbEntity
  8
2
  6
CONTINUOUS
 62
     7
100
AcDbLine
 10
597.7128110430447
 20
87.55300941660721
 30
0.0
 11
594.6713069876287
 21
87.02876233405362
 31
0.0
  0
LINE
  5
B5
330
1F
100
AcDbEntity
  8
2
  6
CONTINUOUS
 62
     7
100
AcDbLine
 10
594.0000000000003
 20
57.17501249999999
 30
0.0
 11
594.2562684404973
 21
86.54046716729339
 31
0.0
  0
LINE
  5
B6
330
1F
100
AcDbEntity
  8
2
  6
CONTINUOUS
 62
     7
100
AcDbLine
 10
638.86549879513
 20
57.17501249999999
 30
0.0
 11
635.0000000000002
 21
57.17501249999999
 31
0.0
  0
LINE
  5
B7
330
1F
100
AcDbEntity
  8
2
  6
CONTINUOUS
 62
   253
100
AcDbLine
 10
609.2459637976209
 20
207.6988987747363
 30
0.0
 11
609.2394304363185
 21
207.5203687320014
 31
0.0
  0
LINE
  5
B8
330
1F
100
AcDbEntity
  8
2
  6
CONTINUOUS
 62
     7
100
AcDbLine
 10
646.7999390687827
 20
57.17501249999999
 30
0.0
 11
639.465448054691
 21
57.17501249999999
 31
0.0
  0
LINE
  5
B9
330
1F
100
AcDbEntity
  8
2
  6
CONTINUOUS
 62
     7
100
AcDbLine
 10
639.1783324083699
 20
59.87501249999999
 30
0.0
 11
646.4614922275274
 21
59.87501249999999
 31
0.0
  0
LINE
  5
BA
330
1F
100
AcDbEntity
  8
2
  6
CONTINUOUS
 62
     7
100
AcDbLine
 10
631.1227796263793
 20
89.76045748502986
 30
0.0
 11
631.1234391286713
 21
89.76034377773814
 31
0.0
  0
LINE
  5
BB
330
1F
100
AcDbEntity
  8
2
  6
CONTINUOUS
 62
   253
100
AcDbLine
 10
625.2980259876631
 20
87.55300941660727
 30
0.0
 11
634.7488256255033
 21
85.95674502068145
 31
0.0
  0
LINE
  5
BC
330
1F
100
AcDbEntity
  8
2
  6
CONTINUOUS
 62
     7
100
AcDbLine
 10
582.3384773068643
 20
59.87501249999999
 30
0.0
 11
582.538507772473
 21
59.87501249999999
 31
0.0
  0
LINE
  5
BD
330
1F
100
AcDbEntity
  8
2
  6
CONTINUOUS
 62
     7
100
AcDbLine
 10
636.6550691019501
 20
88.39408274071498
 30
0.0
 11
636.6549009048549
 21
88.40098860496379
 31
0.0
  0
LINE
  5
BE
330
1F
100
AcDbEntity
  8
2
  6
CONTINUOUS
 62
     7
100
AcDbLine
 10
581.8651094091979
 20
59.96169085653591
 30
0.0
 11
581.8704963500614
 21
60.02346059202142
 31
0.0
  0
LINE
  5
BF
330
1F
100
AcDbEntity
  8
2
  6
CONTINUOUS
 62
   253
100
AcDbLine
 10
623.5492353551779
 20
74.21120257685881
 30
0.0
 11
634.8551025930848
 21
73.77861076569111
 31
0.0
  0
LINE
  5
C0
330
1F
100
AcDbEntity
  8
2
  6
CONTINUOUS
 62
     7
100
AcDbLine
 10
647.1316413288368
 20
60.01040490065805
 30
0.0
 11
647.1295036499417
 21
60.02346059200705
 31
0.0
  0
ELLIPSE
  5
C1
330
1F
100
AcDbEntity
  8
2
  6
CONTINUOUS
 62
   253
100
AcDbEllipse
 10
603.9568010669245
 20
86.07501249999999
 30
0.0
 11
0.0
 21
1.500000000000001
 31
0.0
210
0.0
220
0.0
230
-1.0
 40
0.9955008615405095
 41
6.111693470006961
 42
6.283185307179586
  0
ARC
  5
C2
330
1F
100
AcDbEntity
  8
2
  6
CONTINUOUS
 62
     7
100
AcDbCircle
 10
646.6615226931362
 20
59.37501249999999
 30
0.0
 40
0.5000000000000476
100
AcDbArc
 50
1.000000000000049
 51
34.35645117432823
  0
ELLIPSE
  5
C3
330
1F
100
AcDbEntity
  8
2
  6
CONTINUOUS
 62
   253
100
AcDbEllipse
 10
625.0431989330757
 20
86.07501249999999
 30
0.0
 11
-1.106201784564626E-12
 21
-1.500000000000001
 31
0.0
210
0.0
220
0.0
230
-1.0
 40
0.9955008615405109
 41
3.141592653589276
 42
3.313084490761675
  0
LINE
  5
C4
330
1F
100
AcDbEntity
  8
2
  6
CONTINUOUS
 62
     7
100
AcDbLine
 10
582.2000609312178
 20
57.17501249999998
 30
0.0
 11
581.8000000000003
 21
57.17501249999998
 31
0.0
  0
LINE
  5
C5
330
1F
100
AcDbEntity
  8
2
  6
CONTINUOUS
 62
     7
100
AcDbLine
 10
636.6550691019501
 20
88.39408274071498
 30
0.0
 11
637.1442935883223
 21
60.36643068762034
 31
0.0
  0
LINE
  5
C6
330
1F
100
AcDbEntity
  8
2
  6
CONTINUOUS
 62
     7
100
AcDbLine
 10
647.1614465407145
 20
59.38373870321864
 30
0.0
 11
647.2000000000003
 21
57.17501249999999
 31
0.0
  0
LINE
  5
C7
330
1F
100
AcDbEntity
  8
2
  6
CONTINUOUS
 62
     7
100
AcDbLine
 10
597.8772203736212
 20
89.76045748502986
 30
0.0
 11
598.0460387141669
 21
89.77501053342534
 31
0.0
  0
LINE
  5
C8
330
1F
100
AcDbEntity
  8
2
  6
CONTINUOUS
 62
     7
100
AcDbLine
 10
581.8467391405552
 20
59.852696069044
 30
0.0
 11
581.8385534592861
 21
59.38373870321864
 31
0.0
  0
LINE
  5
C9
330
1F
100
AcDbEntity
  8
2
  6
CONTINUOUS
 62
     7
100
AcDbLine
 10
637.1442961086674
 20
60.36628629714533
 30
0.0
 11
637.1442935883223
 21
60.36643068762034
 31
0.0
  0
LINE
  5
CA
330
1F
100
AcDbEntity
  8
2
  6
CONTINUOUS
 62
     7
100
AcDbLine
 10
631.1234391286713
 20
89.76034377773814
 30
0.0
 11
636.2400851402937
 21
88.87816343090668
 31
0.0
  0
LINE
  5
CB
330
1F
100
AcDbEntity
  8
2
  6
CONTINUOUS
 62
     7
100
AcDbLine
 10
598.0480319093117
 20
89.7750125
 30
0.0
 11
630.9519680906888
 21
89.7750125
 31
0.0
  0
LINE
  5
CC
330
1F
100
AcDbEntity
  8
2
  6
CONTINUOUS
 62
     7
100
AcDbLine
 10
589.5345519453094
 20
57.17501249999999
 30
0.0
 11
582.2000609312178
 21
57.17501249999998
 31
0.0
  0
ARC
  5
CD
330
1F
100
AcDbEntity
  8
2
  6
CONTINUOUS
 62
     7
100
AcDbCircle
 10
582.3384773068643
 20
59.37501249999999
 30
0.0
 40
0.5000000000000004
100
AcDbArc
 50
90.00000000000001
 51
179.0
  0
LINE
  5
CE
330
1F
100
AcDbEntity
  8
2
  6
CONTINUOUS
 62
   253
100
AcDbLine
 10
647.1293310636212
 20
60.02396254018959
 30
0.0
 11
647.1316413288368
 21
60.01040490065805
 31
0.0
  0
LINE
  5
CF
330
1F
100
AcDbEntity
  8
2
  6
CONTINUOUS
 62
     7
100
AcDbLine
 10
592.7599148597068
 20
88.87816343090668
 30
0.0
 11
597.8765608713293
 21
89.76034377773814
 31
0.0
  0
LINE
  5
D0
330
1F
100
AcDbEntity
  8
2
  6
CONTINUOUS
 62
     7
100
AcDbLine
 10
647.2000000000003
 20
57.17501249999999
 30
0.0
 11
646.7999390687827
 21
57.17501249999999
 31
0.0
  0
LINE
  5
D1
330
1F
100
AcDbEntity
  8
2
  6
CONTINUOUS
 62
     7
100
AcDbLine
 10
647.1526777599283
 20
59.87546181790937
 30
0.0
 11
647.1532608594454
 21
59.85269606904426
 31
0.0
  0
LINE
  5
D2
330
1F
100
AcDbEntity
  8
2
  6
CONTINUOUS
 62
     7
100
AcDbLine
 10
581.8467391405552
 20
59.852696069044
 30
0.0
 11
581.8473222400721
 21
59.87546181790938
 31
0.0
  0
LINE
  5
D3
330
1F
100
AcDbEntity
  8
2
  6
CONTINUOUS
 62
     7
100
AcDbLine
 10
639.465448054691
 20
57.17501249999999
 30
0.0
 11
638.86549879513
 21
57.17501249999999
 31
0.0
  0
LINE
  5
D4
330
1F
100
AcDbEntity
  8
2
  6
CONTINUOUS
 62
     7
100
AcDbLine
 10
591.8557064116783
 20
60.36643068762034
 30
0.0
 11
591.8557038913331
 21
60.36628629714532
 31
0.0
  0
LINE
  5
D5
330
1F
100
AcDbEntity
  8
2
  6
CONTINUOUS
 62
   253
100
AcDbLine
 10
594.2511743744973
 20
85.95674502068145
 30
0.0
 11
603.701974012337
 21
87.55300941660721
 31
0.0
  0
LINE
  5
D6
330
1F
100
AcDbEntity
  8
2
  6
CONTINUOUS
 62
   253
100
AcDbLine
 10
603.701974012337
 20
87.55300941660721
 30
0.0
 11
597.7128110430447
 21
87.55300941660721
 31
0.0
  0
LINE
  5
D7
330
1F
100
AcDbEntity
  8
2
  6
CONTINUOUS
 62
     7
100
AcDbLine
 10
597.8765608713293
 20
89.76034377773814
 30
0.0
 11
597.8772203736212
 21
89.76045748502986
 31
0.0
  0
LINE
  5
D8
330
1F
100
AcDbEntity
  8
2
  6
CONTINUOUS
 62
     7
100
AcDbLine
 10
646.5667487121959
 20
59.87501249999999
 30
0.0
 11
646.6615226931362
 21
59.87501249999999
 31
0.0
  0
LINE
  5
D9
330
1F
100
AcDbEntity
  8
2
  6
CONTINUOUS
 62
     7
100
AcDbLine
 10
646.4614922275274
 20
59.87501249999999
 30
0.0
 11
646.5667487121959
 21
59.87501249999999
 31
0.0
  0
LINE
  5
DA
330
1F
100
AcDbEntity
  8
2
  6
CONTINUOUS
 62
     7
100
AcDbLine
 10
647.1614465407143
 20
59.38373870321864
 30
0.0
 11
647.1532608594454
 21
59.85269606904425
 31
0.0
  0
ELLIPSE
  5
DB
330
1F
100
AcDbEntity
  8
2
  6
CONTINUOUS
 62
     7
100
AcDbEllipse
 10
597.5313365564718
 20
88.7750125
 30
0.0
 11
-1.025799261966677
 21
-0.787758534634365
 31
0.0
210
0.0
220
0.0
230
1.0
 40
0.6004919163990075
 41
3.805227333528507
 42
3.807210550764171
  0
LINE
  5
DC
330
1F
100
AcDbEntity
  8
2
  6
CONTINUOUS
 62
     7
100
AcDbLine
 10
592.3450990951457
 20
88.40098860496376
 30
0.0
 11
592.3449308980505
 21
88.39408274071498
 31
0.0
  0
LINE
  5
DD
330
1F
100
AcDbEntity
  8
2
  6
CONTINUOUS
 62
     7
100
AcDbLine
 10
636.2455518911897
 20
88.8771923415214
 30
0.0
 11
636.2400851402937
 21
88.87816343090668
 31
0.0
  0
LINE
  5
DE
330
1F
100
AcDbEntity
  8
2
  6
CONTINUOUS
 62
     7
100
AcDbLine
 10
594.0000000000003
 20
57.17501249999999
 30
0.0
 11
590.1345012048705
 21
57.17501249999999
 31
0.0
  0
LINE
  5
DF
330
1F
100
AcDbEntity
  8
2
  6
CONTINUOUS
 62
     7
100
AcDbLine
 10
591.8557064116783
 20
60.36643068762034
 30
0.0
 11
592.3449308980505
 21
88.39408274071498
 31
0.0
  0
LINE
  5
E0
330
1F
100
AcDbEntity
  8
2
  6
CONTINUOUS
 62
     7
100
AcDbLine
 10
592.7599148597068
 20
88.87816343090668
 30
0.0
 11
592.7544481088108
 21
88.8771923415214
 31
0.0
  0
LINE
  5
E1
330
1F
100
AcDbEntity
  8
2
  6
CONTINUOUS
 62
     7
100
AcDbLine
 10
582.538507772473
 20
59.87501249999999
 30
0.0
 11
589.8216675916307
 21
59.87501249999999
 31
0.0
  0
ELLIPSE
  5
E2
330
1F
100
AcDbEntity
  8
2
  6
CONTINUOUS
 62
     7
100
AcDbEllipse
 10
631.4686634435287
 20
88.7750125
 30
0.0
 11
-1.025799261966679
 21
0.7877585346343656
 31
0.0
210
0.0
220
0.0
230
1.0
 40
0.6004919163990063
 41
5.617567410005216
 42
5.619550627240869
  0
LINE
  5
E3
330
1F
100
AcDbEntity
  8
2
  6
CONTINUOUS
 62
     7
100
AcDbLine
 10
647.1295036499391
 20
60.02346059202137
 30
0.0
 11
647.1319802994931
 21
59.99160351997317
 31
0.0
  0
LINE
  5
E4
330
1F
100
AcDbEntity
  8
2
  6
CONTINUOUS
 62
     7
100
AcDbLine
 10
647.1319802994931
 20
59.99160351997317
 30
0.0
 11
647.1526777599283
 21
59.87546181790574
 31
0.0
  0
LINE
  5
E5
330
1F
100
AcDbEntity
  8
2
  6
CONTINUOUS
 62
     7
100
AcDbLine
 10
581.8473222400721
 20
59.87546181790573
 30
0.0
 11
581.8651094091979
 21
59.96169085653591
 31
0.0
  0
LINE
  5
E6
330
1F
100
AcDbEntity
  8
2
  6
CONTINUOUS
 62
     7
100
AcDbLine
 10
638.8783577785894
 20
59.87501249999999
 30
0.0
 11
639.1783324083699
 21
59.87501249999999
 31
0.0
  0
LINE
  5
E7
330
1F
100
AcDbEntity
  8
2
  6
CONTINUOUS
 62
   253
100
AcDbLine
 10
634.7520065360212
 20
85.59224877825308
 30
0.0
 11
625.4314275007296
 21
87.16651857907267
 31
0.0
  0
LINE
  5
E8
330
1F
100
AcDbEntity
  8
2
  6
CONTINUOUS
 62
     7
100
AcDbLine
 10
581.8704963500614
 20
60.02346059202144
 30
0.0
 11
581.8683585889715
 21
60.01040470343287
 31
0.0
  0
LINE
  5
E9
330
1F
100
AcDbEntity
  8
2
  6
CONTINUOUS
 62
   253
100
AcDbLine
 10
603.5685724992708
 20
87.16651857907264
 30
0.0
 11
594.2479934639794
 21
85.59224877825308
 31
0.0
  0
LINE
  5
EA
330
1F
100
AcDbEntity
  8
2
  6
CONTINUOUS
 62
   253
100
AcDbLine
 10
625.0187823512225
 20
87.16651857907264
 30
0.0
 11
623.5492353551779
 21
74.21120257685881
 31
0.0
  0
LINE
  5
EB
330
1F
100
AcDbEntity
  8
2
  6
CONTINUOUS
 62
   253
100
AcDbLine
 10
625.4314275007296
 20
87.16651857907267
 30
0.0
 11
625.0187823512225
 21
87.16651857907264
 31
0.0
  0
LINE
  5
EC
330
1F
100
AcDbEntity
  8
2
  6
CONTINUOUS
 62
     7
100
AcDbLine
 10
589.8216675916307
 20
59.87501249999999
 30
0.0
 11
590.1216422214112
 21
59.87501249999999
 31
0.0
  0
LINE
  5
ED
330
1F
100
AcDbEntity
  8
2
  6
CONTINUOUS
 62
     7
100
AcDbLine
 10
630.9539612858335
 20
89.77501053342534
 30
0.0
 11
631.1227796263793
 21
89.76045748502986
 31
0.0
  0
LINE
  5
EE
330
1F
100
AcDbEntity
  8
2
  6
CONTINUOUS
 62
     7
100
AcDbLine
 10
581.8000000000003
 20
57.17501249999998
 30
0.0
 11
581.8385534592861
 21
59.38373870321864
 31
0.0
  0
ARC
  5
EF
330
1F
100
AcDbEntity
  8
2
  6
CONTINUOUS
 62
     7
100
AcDbCircle
 10
646.6615226931362
 20
59.37501249999999
 30
0.0
 40
0.4999999999999785
100
AcDbArc
 50
53.48604014776443
 51
90.00000000000001
  0
LINE
  5
F0
330
1F
100
AcDbEntity
  8
2
  6
CONTINUOUS
 62
   253
100
AcDbLine
 10
605.4507646448233
 20
74.2112025768588
 30
0.0
 11
603.9812176487777
 21
87.16651857907264
 31
0.0
  0
LINE
  5
F1
330
1F
100
AcDbEntity
  8
2
  6
CONTINUOUS
 62
   253
100
AcDbLine
 10
606.6616650540028
 20
73.02880881989662
 30
0.0
 11
606.1767952979845
 21
73.02880881989662
 31
0.0
  0
LINE
  5
F2
330
1F
100
AcDbEntity
  8
2
  6
CONTINUOUS
 62
   253
100
AcDbLine
 10
623.1610067875241
 20
74.2687631624646
 30
0.0
 11
624.6305537835686
 21
87.22407916467847
 31
0.0
  0
LINE
  5
F3
330
1F
100
AcDbEntity
  8
2
  6
CONTINUOUS
 62
   253
100
AcDbLine
 10
603.9812176487777
 20
87.16651857907264
 30
0.0
 11
603.5685724992708
 21
87.16651857907264
 31
0.0
  0
LINE
  5
F4
330
1F
100
AcDbEntity
  8
2
  6
CONTINUOUS
 62
   253
100
AcDbLine
 10
604.3694462164316
 20
87.22407916467847
 30
0.0
 11
604.3694462164316
 21
87.57501249999999
 31
0.0
  0
LINE
  5
F5
330
1F
100
AcDbEntity
  8
2
  6
CONTINUOUS
 62
   253
100
AcDbLine
 10
606.1767952979845
 20
73.02880881989662
 30
0.0
 11
606.1767952979845
 21
74.16478568132753
 31
0.0
  0
ELLIPSE
  5
F6
330
1F
100
AcDbEntity
  8
2
  6
CONTINUOUS
 62
   253
100
AcDbEllipse
 10
606.1767952979845
 20
73.01571901664906
 30
0.0
 11
1.499998224115062
 21
-0.002308170640181198
 31
0.0
210
0.0
220
0.0
230
-1.0
 40
0.0087265251676156
 41
4.363323129738294
 42
4.712375552162679
  0
ELLIPSE
  5
F7
330
1F
100
AcDbEntity
  8
2
  6
CONTINUOUS
 62
   253
100
AcDbEllipse
 10
624.6305537835686
 20
86.07501249999999
 30
0.0
 11
0.0
 21
-1.500000000000001
 31
0.0
210
0.0
220
0.0
230
-1.0
 40
0.3773276012629731
 41
3.141592653589793
 42
3.897468991198813
  0
LINE
  5
F8
330
1F
100
AcDbEntity
  8
2
  6
CONTINUOUS
 62
     7
100
AcDbLine
 10
621.7000000000003
 20
57.17501249999998
 30
0.0
 11
622.1999809615323
 21
57.17501249999998
 31
0.0
  0
LINE
  5
F9
330
1F
100
AcDbEntity
  8
2
  6
CONTINUOUS
 62
     7
100
AcDbLine
 10
606.8000190384681
 20
57.17501249999998
 30
0.0
 11
607.3000000000003
 21
57.17501249999998
 31
0.0
  0
LINE
  5
FA
330
1F
100
AcDbEntity
  8
2
  6
CONTINUOUS
 62
   253
100
AcDbLine
 10
605.838993212477
 20
74.26876316246461
 30
0.0
 11
606.1767952979845
 21
74.16478568132753
 31
0.0
  0
LINE
  5
FB
330
1F
100
AcDbEntity
  8
2
  6
CONTINUOUS
 62
     7
100
AcDbLine
 10
605.6393890772649
 20
57.17501249999998
 30
0.0
 11
606.1523997576348
 21
57.17501249999998
 31
0.0
  0
LINE
  5
FC
330
1F
100
AcDbEntity
  8
2
  6
CONTINUOUS
 62
     7
100
AcDbLine
 10
622.8476002423657
 20
57.17501249999998
 30
0.0
 11
623.3606109227356
 21
57.17501249999998
 31
0.0
  0
LINE
  5
FD
330
1F
100
AcDbEntity
  8
2
  6
CONTINUOUS
 62
     7
100
AcDbLine
 10
606.8000190384681
 20
57.17501249999998
 30
0.0
 11
606.1523997576348
 21
57.17501249999998
 31
0.0
  0
LINE
  5
FE
330
1F
100
AcDbEntity
  8
2
  6
CONTINUOUS
 62
   253
100
AcDbLine
 10
624.6305537835686
 20
87.22407916467847
 30
0.0
 11
604.3694462164316
 21
87.22407916467847
 31
0.0
  0
ELLIPSE
  5
FF
330
1F
100
AcDbEntity
  8
2
  6
CONTINUOUS
 62
   253
100
AcDbEllipse
 10
622.8232047020159
 20
73.01571901664906
 30
0.0
 11
1.499998224115062
 21
0.00230817064017954
 31
0.0
210
0.0
220
0.0
230
-1.0
 40
0.008726525167612
 41
4.712402408606708
 42
5.061454831031287
  0
LINE
  5
100
330
1F
100
AcDbEntity
  8
2
  6
CONTINUOUS
 62
   253
100
AcDbLine
 10
622.8476002423657
 20
57.17501249999998
 30
0.0
 11
622.8232047020159
 21
73.02880881989662
 31
0.0
  0
ELLIPSE
  5
101
330
1F
100
AcDbEntity
  8
2
  6
CONTINUOUS
 62
   253
100
AcDbEllipse
 10
624.6305537835696
 20
86.07501249999996
 30
0.0
 11
1.490442028595052
 21
-0.1690637731667442
 31
0.0
210
0.0
220
0.0
230
-1.0
 40
0.7640162818204604
 41
4.625941103744293
 42
4.888451858616055
  0
LINE
  5
102
330
1F
100
AcDbEntity
  8
2
  6
CONTINUOUS
 62
     7
100
AcDbLine
 10
594.2544089700688
 20
86.3284604767884
 30
0.0
 11
594.2549134466848
 21
86.34724812145951
 31
0.0
  0
LINE
  5
103
330
1F
100
AcDbEntity
  8
2
  6
CONTINUOUS
 62
     7
100
AcDbLine
 10
592.4134835029344
 20
88.63826944018557
 30
0.0
 11
582.7497025162002
 21
86.79843786320367
 31
0.0
  0
LINE
  5
104
330
1F
100
AcDbEntity
  8
2
  6
CONTINUOUS
 62
     7
100
AcDbLine
 10
646.2502974838003
 20
86.79843786320367
 30
0.0
 11
636.5864576027052
 21
88.63828065274362
 31
0.0
  0
LINE
  5
105
330
1F
100
AcDbEntity
  8
2
  6
CONTINUOUS
 62
     7
100
AcDbLine
 10
582.3432964568277
 20
86.31628603538275
 30
0.0
 11
581.8676774763253
 21
59.97270176614752
 31
0.0
  0
LINE
  5
106
330
1F
100
AcDbEntity
  8
2
  6
CONTINUOUS
 62
   253
100
AcDbLine
 10
606.1767952979845
 20
74.16478568132753
 30
0.0
 11
606.6550560407475
 21
74.16478568132753
 31
0.0
  0
LINE
  5
107
330
1F
100
AcDbEntity
  8
2
  6
CONTINUOUS
 62
   253
100
AcDbLine
 10
605.3259825321071
 20
73.13278630103372
 30
0.0
 11
594.135524747324
 21
72.70461035494758
 31
0.0
  0
LINE
  5
108
330
1F
100
AcDbEntity
  8
2
  6
CONTINUOUS
 62
   253
100
AcDbLine
 10
623.3362153823858
 20
73.02880881989662
 30
0.0
 11
623.3606109227356
 21
57.17501249999998
 31
0.0
  0
LINE
  5
109
330
1F
100
AcDbEntity
  8
2
  6
CONTINUOUS
 62
   253
100
AcDbLine
 10
622.8232047020159
 20
74.16478568132753
 30
0.0
 11
623.1610067875241
 21
74.2687631624646
 31
0.0
  0
LINE
  5
10A
330
1F
100
AcDbEntity
  8
2
  6
CONTINUOUS
 62
   253
100
AcDbLine
 10
623.6740174678933
 20
73.13278630103373
 30
0.0
 11
623.3362153823858
 21
73.02880881989662
 31
0.0
  0
LINE
  5
10B
330
1F
100
AcDbEntity
  8
2
  6
CONTINUOUS
 62
   253
100
AcDbLine
 10
604.3694462164316
 20
87.22407916467847
 30
0.0
 11
605.838993212477
 21
74.26876316246461
 31
0.0
  0
LINE
  5
10C
330
1F
100
AcDbEntity
  8
2
  6
CONTINUOUS
 62
   253
100
AcDbLine
 10
634.8644752526765
 20
72.70461035494759
 30
0.0
 11
623.6740174678933
 21
73.13278630103373
 31
0.0
  0
ELLIPSE
  5
10D
330
1F
100
AcDbEntity
  8
2
  6
CONTINUOUS
 62
   253
100
AcDbEllipse
 10
606.6616650540028
 20
73.02444555214744
 30
0.0
 11
0.4999809615320314
 21
0.00436326774918654
 31
0.0
210
0.0
220
0.0
230
-1.0
 40
0.0087262032439442
 41
4.712465132806567
 42
6.283185307179586
  0
LINE
  5
10E
330
1F
100
AcDbEntity
  8
2
  6
CONTINUOUS
 62
   253
100
AcDbLine
 10
622.8232047020159
 20
73.02880881989662
 30
0.0
 11
622.3383349459976
 21
73.02880881989662
 31
0.0
  0
LINE
  5
10F
330
1F
100
AcDbEntity
  8
2
  6
CONTINUOUS
 62
     7
100
AcDbLine
 10
622.8476002423657
 20
57.17501249999998
 30
0.0
 11
622.1999809615323
 21
57.17501249999998
 31
0.0
  0
LINE
  5
110
330
1F
100
AcDbEntity
  8
2
  6
CONTINUOUS
 62
     7
100
AcDbLine
 10
647.131981106834
 20
59.99161216227927
 30
0.0
 11
646.656703543173
 21
86.31628603538275
 31
0.0
  0
ELLIPSE
  5
111
330
1F
100
AcDbEntity
  8
2
  6
CONTINUOUS
 62
   253
100
AcDbEllipse
 10
604.3694462164316
 20
86.07501249999999
 30
0.0
 11
1.490442028595054
 21
0.1690637731667529
 31
0.0
210
0.0
220
0.0
230
-1.0
 40
0.764016281820465
 41
4.536326102152713
 42
4.798836857024494
  0
LINE
  5
112
330
1F
100
AcDbEntity
  8
2
  6
CONTINUOUS
 62
   253
100
AcDbLine
 10
606.1767952979845
 20
73.02880881989662
 30
0.0
 11
606.1523997576348
 21
57.17501249999998
 31
0.0
  0
LINE
  5
113
330
1F
100
AcDbEntity
  8
2
  6
CONTINUOUS
 62
   253
100
AcDbLine
 10
622.3449439592531
 20
74.16478568132753
 30
0.0
 11
622.8232047020159
 21
74.16478568132753
 31
0.0
  0
LINE
  5
114
330
1F
100
AcDbEntity
  8
2
  6
CONTINUOUS
 62
   253
100
AcDbLine
 10
605.6393890772649
 20
57.17501249999998
 30
0.0
 11
605.6637846176146
 21
73.02880881989664
 31
0.0
  0
ARC
  5
115
330
1F
100
AcDbEntity
  8
2
  6
CONTINUOUS
 62
     7
100
AcDbCircle
 10
582.8432149859343
 20
86.30726028024183
 30
0.0
 40
0.5000000000000075
100
AcDbArc
 50
100.7792137339987
 51
178.9656684677952
  0
ELLIPSE
  5
116
330
1F
100
AcDbEntity
  8
2
  6
CONTINUOUS
 62
   253
100
AcDbEllipse
 10
604.3694462164316
 20
86.07501249999999
 30
0.0
 11
0.0
 21
1.500000000000001
 31
0.0
210
0.0
220
0.0
230
-1.0
 40
0.3773276012629722
 41
5.527308969570563
 42
6.283185307179586
  0
LINE
  5
117
330
1F
100
AcDbEntity
  8
2
  6
CONTINUOUS
 62
     7
100
AcDbLine
 10
607.3000000000003
 20
57.17501249999998
 30
0.0
 11
607.1418232371011
 21
75.3002742424384
 31
0.0
  0
LINE
  5
118
330
1F
100
AcDbEntity
  8
2
  6
CONTINUOUS
 62
   253
100
AcDbLine
 10
624.6305537835686
 20
87.57501249999999
 30
0.0
 11
624.6305537835686
 21
87.22407916467847
 31
0.0
  0
LWPOLYLINE
  5
119
330
1F
100
AcDbEntity
  8
2
  6
CONTINUOUS
 62
   253
100
AcDbPolyline
 90
        3
 70
     0
 43
0.0
 10
621.8581767628995
 20
75.30027424243842
 42
0.4387939626803899
 10
613.5718597716457
 20
81.89007835272301
 42
0.3766013577077204
 10
607.1418232371011
 20
75.30027424243839
  0
ELLIPSE
  5
11A
330
1F
100
AcDbEntity
  8
2
  6
CONTINUOUS
 62
   253
100
AcDbEllipse
 10
605.838993212477
 20
73.11969649778615
 30
0.0
 11
1.490442028595052
 21
0.1690637731667178
 31
0.0
210
0.0
220
0.0
230
-1.0
 40
0.764016281820466
 41
4.536326102152694
 42
4.798836857024547
  0
LINE
  5
11B
330
1F
100
AcDbEntity
  8
2
  6
CONTINUOUS
 62
     7
100
AcDbLine
 10
621.7000000000003
 20
57.17501249999998
 30
0.0
 11
621.8581767628995
 21
75.30027424243843
 31
0.0
  0
LINE
  5
11C
330
1F
100
AcDbEntity
  8
2
  6
CONTINUOUS
 62
   253
100
AcDbLine
 10
594.1448974069158
 20
73.77861076569107
 30
0.0
 11
605.4507646448233
 21
74.2112025768588
 31
0.0
  0
LINE
  5
11D
330
1F
100
AcDbEntity
  8
2
  6
CONTINUOUS
 62
     7
100
AcDbLine
 10
621.7000000000003
 20
57.17501249999998
 30
0.0
 11
607.3000000000003
 21
57.17501249999998
 31
0.0
  0
ELLIPSE
  5
11E
330
1F
100
AcDbEntity
  8
2
  6
CONTINUOUS
 62
   253
100
AcDbEllipse
 10
605.838993212477
 20
73.11969649778615
 30
0.0
 11
-0.05735192442482049
 21
1.498903184586897
 31
0.0
210
0.0
220
0.0
230
-1.0
 40
0.3415045185088577
 41
4.734187372241595
 42
5.54106098081199
  0
LINE
  5
11F
330
1F
100
AcDbEntity
  8
2
  6
CONTINUOUS
 62
   253
100
AcDbLine
 10
605.6637846176146
 20
73.02880881989664
 30
0.0
 11
605.3259825321071
 21
73.13278630103372
 31
0.0
  0
LINE
  5
120
330
1F
100
AcDbEntity
  8
2
  6
CONTINUOUS
 62
     7
100
AcDbLine
 10
594.0000000000003
 20
57.17501249999998
 30
0.0
 11
605.6393890772649
 21
57.17501249999998
 31
0.0
  0
ELLIPSE
  5
121
330
1F
100
AcDbEntity
  8
2
  6
CONTINUOUS
 62
   253
100
AcDbEllipse
 10
622.3449439592531
 20
73.78176345976804
 30
0.0
 11
-0.4999809615321427
 21
0.004363267749186491
 31
0.0
210
0.0
220
0.0
230
1.0
 40
0.7660323909417758
 41
4.719073944201087
 42
6.283185307179586
  0
ELLIPSE
  5
122
330
1F
100
AcDbEntity
  8
2
  6
CONTINUOUS
 62
   253
100
AcDbEllipse
 10
606.6550560407475
 20
73.78176345976804
 30
0.0
 11
0.4999809615321427
 21
0.004363267749188485
 31
0.0
210
0.0
220
0.0
230
-1.0
 40
0.7660323909417776
 41
4.719073944201307
 42
6.283185307179586
  0
ELLIPSE
  5
123
330
1F
100
AcDbEntity
  8
2
  6
CONTINUOUS
 62
   253
100
AcDbEllipse
 10
623.1610067875235
 20
73.11969649778615
 30
0.0
 11
-0.05735192442533572
 21
-1.498903184586884
 31
0.0
210
0.0
220
0.0
230
-1.0
 40
0.3415045185091363
 41
3.883716979957126
 42
4.690590588527636
  0
LINE
  5
124
330
1F
100
AcDbEntity
  8
2
  6
CONTINUOUS
 62
     7
100
AcDbLine
 10
623.3606109227356
 20
57.17501249999998
 30
0.0
 11
635.0000000000002
 21
57.17501249999998
 31
0.0
  0
ELLIPSE
  5
125
330
1F
100
AcDbEntity
  8
2
  6
CONTINUOUS
 62
   253
100
AcDbEllipse
 10
623.1610067875235
 20
73.11969649778615
 30
0.0
 11
1.490442028595051
 21
-0.1690637731667263
 31
0.0
210
0.0
220
0.0
230
-1.0
 40
0.7640162818204647
 41
4.625941103745348
 42
4.888451858617072
  0
ELLIPSE
  5
126
330
1F
100
AcDbEntity
  8
2
  6
CONTINUOUS
 62
   253
100
AcDbEllipse
 10
622.3383349459976
 20
73.02444555214744
 30
0.0
 11
-0.4999809615320314
 21
0.004363267749186427
 31
0.0
210
0.0
220
0.0
230
1.0
 40
0.0087262032439443
 41
4.712465132806567
 42
6.283185307179586
  0
LINE
  5
127
330
1F
100
AcDbEntity
  8
2
  6
CONTINUOUS
 62
   253
100
AcDbLine
 10
622.8232047020159
 20
74.16478568132753
 30
0.0
 11
622.8232047020159
 21
73.02880881989662
 31
0.0
  0
LINE
  5
128
330
1F
100
AcDbEntity
  8
2
  6
CONTINUOUS
 62
     7
100
AcDbLine
 10
637.644219956252
 20
59.87501249999999
 30
0.0
 11
638.8783577785894
 21
59.87501249999999
 31
0.0
  0
LINE
  5
129
330
1F
100
AcDbEntity
  8
2
  6
CONTINUOUS
 62
     7
100
AcDbLine
 10
590.1216422214112
 20
59.87501249999999
 30
0.0
 11
591.3557800437485
 21
59.87501249999999
 31
0.0
  0
LINE
  5
12A
330
1F
100
AcDbEntity
  8
0
  6
CENTER
 62
     1
100
AcDbLine
 10
610.0000000000003
 20
203.4999875
 30
0.0
 11
619.0000000000002
 21
203.4999875
 31
0.0
  0
LINE
  5
12B
330
1F
100
AcDbEntity
  8
0
  6
CENTER
 62
     1
100
AcDbLine
 10
586.8000000000002
 20
130.9999875
 30
0.0
 11
586.8000000000002
 21
139.9999875
 31
0.0
  0
LINE
  5
12C
330
1F
100
AcDbEntity
  8
0
  6
CENTER
 62
     1
100
AcDbLine
 10
637.7000000000002
 20
135.4999875
 30
0.0
 11
646.7000000000003
 21
135.4999875
 31
0.0
  0
LINE
  5
12D
330
1F
100
AcDbEntity
  8
0
  6
CENTER
 62
     1
100
AcDbLine
 10
642.2000000000002
 20
130.9999875
 30
0.0
 11
642.2000000000002
 21
139.9999875
 31
0.0
  0
LINE
  5
12E
330
1F
100
AcDbEntity
  8
0
  6
CENTER
 62
     1
100
AcDbLine
 10
582.3000000000003
 20
135.4999875
 30
0.0
 11
591.3000000000002
 21
135.4999875
 31
0.0
  0
ARC
  5
12F
330
1F
100
AcDbEntity
  8
2
  6
CONTINUOUS
 62
     7
100
AcDbCircle
 10
646.1567850140663
 20
86.30726028024183
 30
0.0
 40
0.5000000000000613
100
AcDbArc
 50
1.034331532204803
 51
79.22078626600211
  0
ELLIPSE
  5
130
330
1F
100
AcDbEntity
  8
2
  6
CONTINUOUS
 62
   253
100
AcDbEllipse
 10
727.1249875
 20
139.4712601860397
 30
0.0
 11
-0.500000000000056
 21
0.0
 31
0.0
210
0.0
220
0.0
230
1.0
 40
0.6726727939963137
 41
3.141592653589793
 42
4.694935687864673
  0
LINE
  5
131
330
1F
100
AcDbEntity
  8
2
  6
CONTINUOUS
 62
   253
100
AcDbLine
 10
700.7000740808891
 20
150.8598999931156
 30
0.0
 11
700.7471404353851
 21
186.2418645221251
 31
0.0
  0
ELLIPSE
  5
132
330
1F
100
AcDbEntity
  8
2
  6
CONTINUOUS
 62
   253
100
AcDbEllipse
 10
713.7552159299153
 20
200.378437674497
 30
0.0
 11
-0.1466761762336206
 21
1.009246204860154
 31
0.0
210
0.0
220
0.0
230
-1.0
 40
0.9805082093347518
 41
5.606275154062703
 42
6.404427801038041
  0
LINE
  5
133
330
1F
100
AcDbEntity
  8
2
  6
CONTINUOUS
 62
   253
100
AcDbLine
 10
700.7471404353851
 20
186.2418645221251
 30
0.0
 11
697.7396562222618
 21
190.0516793711553
 31
0.0
  0
LINE
  5
134
330
1F
100
AcDbEntity
  8
2
  6
CONTINUOUS
 62
     7
100
AcDbLine
 10
713.0712632128664
 20
208.1385244282064
 30
0.0
 11
713.0199137287555
 21
208.0773284960394
 31
0.0
  0
ELLIPSE
  5
135
330
1F
100
AcDbEntity
  8
2
  6
CONTINUOUS
 62
   253
100
AcDbEllipse
 10
701.3566737770012
 20
186.5584601100071
 30
0.0
 11
0.3815122826951354
 21
-0.3231847430691733
 31
0.0
210
0.0
220
0.0
230
1.0
 40
0.055345520695383
 41
1.64049559354612
 42
2.879381916754085
  0
LINE
  5
136
330
1F
100
AcDbEntity
  8
2
  6
CONTINUOUS
 62
   253
100
AcDbLine
 10
697.9973167806182
 20
190.6707324383727
 30
0.0
 11
700.9928384173103
 21
186.8760715180385
 31
0.0
  0
LINE
  5
137
330
1F
100
AcDbEntity
  8
2
  6
CONTINUOUS
 62
     7
100
AcDbLine
 10
730.3249874999999
 20
131.1999875
 30
0.0
 11
730.3249874999999
 21
125.6999570483114
 31
0.0
  0
ELLIPSE
  5
138
330
1F
100
AcDbEntity
  8
2
  6
CONTINUOUS
 62
   253
100
AcDbEllipse
 10
701.1927397197582
 20
150.8518151186929
 30
0.0
 11
-0.4999995576188134
 21
0.0006651172918147601
 31
0.0
210
0.0
220
0.0
230
-1.0
 40
0.0871326231967656
 41
0.1713708604132503
 42
1.553227112017835
  0
LINE
  5
139
330
1F
100
AcDbEntity
  8
2
  6
CONTINUOUS
 62
   253
100
AcDbLine
 10
698.6218365690933
 20
129.2994906920463
 30
0.0
 11
698.7964994839604
 21
139.9108426867161
 31
0.0
  0
ELLIPSE
  5
13A
330
1F
100
AcDbEntity
  8
2
  6
CONTINUOUS
 62
   253
100
AcDbEllipse
 10
701.7487490656605
 20
186.2050749811197
 30
0.0
 11
0.4424267265482239
 21
-0.9110033783091968
 31
0.0
210
0.0
220
0.0
230
-1.0
 40
0.9867964381612503
 41
2.054120338446503
 42
2.744133700128734
  0
LINE
  5
13B
330
1F
100
AcDbEntity
  8
2
  6
CONTINUOUS
 62
     7
100
AcDbLine
 10
727.6249874999999
 20
126.1384495810197
 30
0.0
 11
727.6249874999999
 21
131.5999875
 31
0.0
  0
LINE
  5
13C
330
1F
100
AcDbEntity
  8
2
  6
CONTINUOUS
 62
     7
100
AcDbLine
 10
697.7396562222618
 20
129.2994906920463
 30
0.0
 11
698.6218365690933
 21
129.2994906920463
 31
0.0
  0
LINE
  5
13D
330
1F
100
AcDbEntity
  8
2
  6
CONTINUOUS
 62
     7
100
AcDbLine
 10
727.6249874999999
 20
131.5999875
 30
0.0
 11
727.6249874999999
 21
131.9999875
 31
0.0
  0
LINE
  5
13E
330
1F
100
AcDbEntity
  8
2
  6
CONTINUOUS
 62
   253
100
AcDbLine
 10
699.354942161619
 20
139.9950033996553
 30
0.0
 11
727.1337137032186
 21
139.8075453573755
 31
0.0
  0
ELLIPSE
  5
13F
330
1F
100
AcDbEntity
  8
2
  6
CONTINUOUS
 62
   253
100
AcDbEllipse
 10
713.384858619453
 20
200.7574603856503
 30
0.0
 11
0.3815122826951241
 21
-0.323184743069214
 31
0.0
210
0.0
220
0.0
230
1.0
 40
0.0553455206953755
 41
1.640495593545628
 42
2.879381916751236
  0
LINE
  5
140
330
1F
100
AcDbEntity
  8
2
  6
CONTINUOUS
 62
     7
100
AcDbLine
 10
697.9973167806181
 20
190.7161731539941
 30
0.0
 11
697.9973167806181
 21
190.6707324383726
 31
0.0
  0
LINE
  5
141
330
1F
100
AcDbEntity
  8
2
  6
CONTINUOUS
 62
   253
100
AcDbLine
 10
713.0210232597622
 20
201.0750717936817
 30
0.0
 11
712.3096954158112
 21
207.7730018110541
 31
0.0
  0
ELLIPSE
  5
142
330
1F
100
AcDbEntity
  8
2
  6
CONTINUOUS
 62
   253
100
AcDbEllipse
 10
713.7380274044368
 20
200.9278944489467
 30
0.0
 11
0.006299048356322139
 21
-0.4999603204153273
 31
0.0
210
0.0
220
0.0
230
-1.0
 40
0.0164159469263843
 41
1.658263231198061
 42
2.792533193226022
  0
LINE
  5
143
330
1F
100
AcDbEntity
  8
2
  6
CONTINUOUS
 62
   253
100
AcDbLine
 10
698.7964994839604
 20
139.9108426867161
 30
0.0
 11
700.7000740808891
 21
150.8598999931156
 31
0.0
  0
LINE
  5
144
330
1F
100
AcDbEntity
  8
2
  6
CONTINUOUS
 62
   253
100
AcDbLine
 10
698.7964994839604
 20
139.9108426867161
 30
0.0
 11
699.3262055334103
 21
139.9920900923604
 31
0.0
  0
LINE
  5
145
330
1F
100
AcDbEntity
  8
2
  6
CONTINUOUS
 62
   253
100
AcDbLine
 10
700.9928384173103
 20
186.8760715180385
 30
0.0
 11
713.0210232597622
 21
201.0750717936817
 31
0.0
  0
LINE
  5
146
330
1F
100
AcDbEntity
  8
2
  6
CONTINUOUS
 62
   253
100
AcDbLine
 10
713.7293012012183
 20
201.3976691994708
 30
0.0
 11
730.3249874999999
 21
201.6067598537362
 31
0.0
  0
LINE
  5
147
330
1F
100
AcDbEntity
  8
2
  6
CONTINUOUS
 62
   253
100
AcDbLine
 10
701.1840135165395
 20
150.5155299473571
 30
0.0
 11
699.354942161619
 21
139.9950033996553
 31
0.0
  0
ELLIPSE
  5
148
330
1F
100
AcDbEntity
  8
2
  6
CONTINUOUS
 62
   253
100
AcDbEllipse
 10
701.1927397197582
 20
150.8518151186929
 30
0.0
 11
-0.4926105040901033
 21
0.08564397970755727
 31
0.0
210
0.0
220
0.0
230
1.0
 40
0.6688399107519831
 41
0.2305591983255144
 42
1.66896264026488
  0
ELLIPSE
  5
149
330
1F
100
AcDbEntity
  8
2
  6
CONTINUOUS
 62
   253
100
AcDbEllipse
 10
701.2398060742541
 20
186.2337796477024
 30
0.0
 11
0.4999995576188134
 21
-0.0006651172918193469
 31
0.0
210
0.0
220
0.0
230
1.0
 40
0.0871326231967606
 41
1.588365541572014
 42
2.97022179317604
  0
LINE
  5
14A
330
1F
100
AcDbEntity
  8
2
  6
CONTINUOUS
 62
     7
100
AcDbLine
 10
730.3249874999999
 20
201.6067598537362
 30
0.0
 11
730.3249874999999
 21
201.180556337465
 31
0.0
  0
LINE
  5
14B
330
1F
100
AcDbEntity
  8
2
  6
CONTINUOUS
 62
   253
100
AcDbLine
 10
699.3262055334103
 20
139.9920900923604
 30
0.0
 11
699.354942161619
 21
139.9950033996553
 31
0.0
  0
ELLIPSE
  5
14C
330
1F
100
AcDbEntity
  8
2
  6
CONTINUOUS
 62
     7
100
AcDbEllipse
 10
699.0699663040344
 20
126.5857017857143
 30
0.0
 11
-0.03721334871770107
 21
-2.714277061236046
 31
0.0
210
0.0
220
0.0
230
1.0
 40
0.1841739817820638
 41
3.144117714918402
 42
3.157923262360995
  0
LINE
  5
14D
330
1F
100
AcDbEntity
  8
2
  6
CONTINUOUS
 62
   253
100
AcDbLine
 10
727.1337137032186
 20
139.1349750147039
 30
0.0
 11
699.354942161619
 21
139.3224330569837
 31
0.0
  0
LINE
  5
14E
330
1F
100
AcDbEntity
  8
2
  6
CONTINUOUS
 62
   253
100
AcDbLine
 10
713.0199137287556
 20
208.0773284960394
 30
0.0
 11
713.7293012012183
 21
201.3976691994708
 31
0.0
  0
ELLIPSE
  5
14F
330
1F
100
AcDbEntity
  8
2
  6
CONTINUOUS
 62
     7
100
AcDbEllipse
 10
727.1249875
 20
126.5400333448055
 30
0.0
 11
0.008872930253206871
 21
2.759953687241829
 31
0.0
210
0.0
220
0.0
230
-1.0
 40
0.1811339325077971
 41
6.282602982709652
 42
6.282891806925107
  0
ARC
  5
150
330
1F
100
AcDbEntity
  8
2
  6
CONTINUOUS
 62
     7
100
AcDbCircle
 10
-728.1249875
 20
126.038464806864
 30
0.0
 40
0.4999999999999925
210
0.0
220
0.0
230
-1.0
100
AcDbArc
 50
270.9999999999998
 51
0.0000000000007958
  0
LINE
  5
151
330
1F
100
AcDbEntity
  8
2
  6
CONTINUOUS
 62
     7
100
AcDbLine
 10
730.3249874999999
 20
125.4999875
 30
0.0
 11
728.1162612967813
 21
125.5385409592859
 31
0.0
  0
LINE
  5
152
330
1F
100
AcDbEntity
  8
2
  6
CONTINUOUS
 62
   253
100
AcDbLine
 10
727.1337137032186
 20
139.1349750147039
 30
0.0
 11
727.6249874999999
 21
139.1349750147039
 31
0.0
  0
LINE
  5
153
330
1F
100
AcDbEntity
  8
2
  6
CONTINUOUS
 62
     7
100
AcDbLine
 10
730.3249874999999
 20
125.6999570483114
 30
0.0
 11
730.3249874999999
 21
125.4999875
 31
0.0
  0
ELLIPSE
  5
154
330
1F
100
AcDbEntity
  8
2
  6
CONTINUOUS
 62
   253
100
AcDbEllipse
 10
699.593189715056
 20
141.5510752933576
 30
0.0
 11
-0.4194246738439259
 21
-2.211068228738594
 31
0.0
210
0.0
220
0.0
230
-1.0
 40
0.6664212540081393
 41
6.162019209325521
 42
6.217789930341116
  0
LINE
  5
155
330
1F
100
AcDbEntity
  8
2
  6
CONTINUOUS
 62
     7
100
AcDbLine
 10
699.105917259285
 20
129.2999875
 30
0.0
 11
727.1335693123796
 21
129.2999875
 31
0.0
  0
LINE
  5
156
330
1F
100
AcDbEntity
  8
2
  6
CONTINUOUS
 62
   253
100
AcDbLine
 10
699.0187031290585
 20
126.4551660038572
 30
0.0
 11
698.6228076584786
 21
129.299323307721
 31
0.0
  0
LINE
  5
157
330
1F
100
AcDbEntity
  8
2
  6
CONTINUOUS
 62
     7
100
AcDbLine
 10
727.1334249215406
 20
125.5556964320295
 30
0.0
 11
699.4958924055202
 21
126.0381113565523
 31
0.0
  0
ELLIPSE
  5
158
330
1F
100
AcDbEntity
  8
2
  6
CONTINUOUS
 62
   253
100
AcDbEllipse
 10
699.504618608739
 20
126.5380352041305
 30
0.0
 11
-0.008726203218643289
 21
-0.4999238475781881
 31
0.0
210
0.0
220
0.0
230
-1.0
 40
0.9853707018227648
 41
0.0
 42
1.387090849281248
  0
ELLIPSE
  5
159
330
1F
100
AcDbEntity
  8
2
  6
CONTINUOUS
 62
   253
100
AcDbEllipse
 10
699.3374897551817
 20
139.3224330569837
 30
0.0
 11
-0.006748094451649286
 21
-0.9999772313514227
 31
0.0
210
0.0
220
0.0
230
-1.0
 40
0.0174520091906007
 41
3.974573912638757
 42
4.712271209897463
  0
LINE
  5
15A
330
1F
100
AcDbEntity
  8
2
  6
CONTINUOUS
 62
     7
100
AcDbLine
 10
730.3249874999999
 20
208.4396893058919
 30
0.0
 11
730.3249874999999
 21
201.6067598537362
 31
0.0
  0
LINE
  5
15B
330
1F
100
AcDbEntity
  8
2
  6
CONTINUOUS
 62
   253
100
AcDbLine
 10
699.0990113950362
 20
129.2997288419894
 30
0.0
 11
699.4960367963592
 21
126.4474539893921
 31
0.0
  0
ELLIPSE
  5
15C
330
1F
100
AcDbEntity
  8
2
  6
CONTINUOUS
 62
   253
100
AcDbEllipse
 10
699.504618608739
 20
126.5380352041305
 30
0.0
 11
-0.008726203218643817
 21
-0.499923847578188
 31
0.0
210
0.0
220
0.0
230
-1.0
 40
0.0142355570951617
 41
0.0
 42
1.388351478939106
  0
LINE
  5
15D
330
1F
100
AcDbEntity
  8
2
  6
CONTINUOUS
 62
     7
100
AcDbLine
 10
699.4958924055202
 20
126.0381113565523
 30
0.0
 11
698.7382502114712
 21
126.0513360502418
 31
0.0
  0
LINE
  5
15E
330
1F
100
AcDbEntity
  8
2
  6
CONTINUOUS
 62
     7
100
AcDbLine
 10
698.2479947435148
 20
126.4608053209195
 30
0.0
 11
697.7249894665747
 21
129.299976824309
 31
0.0
  0
LINE
  5
15F
330
1F
100
AcDbEntity
  8
2
  6
CONTINUOUS
 62
     7
100
AcDbLine
 10
727.1334249215406
 20
125.5556964320295
 30
0.0
 11
728.1162612967813
 21
125.5385409592859
 31
0.0
  0
LINE
  5
160
330
1F
100
AcDbEntity
  8
2
  6
CONTINUOUS
 62
     7
100
AcDbLine
 10
698.6228076584786
 20
129.299323307721
 30
0.0
 11
698.6218365690933
 21
129.2994906920463
 31
0.0
  0
LINE
  5
161
330
1F
100
AcDbEntity
  8
2
  6
CONTINUOUS
 62
     7
100
AcDbLine
 10
697.7395425149701
 20
129.2994906920463
 30
0.0
 11
697.7396562222618
 21
129.2994906920463
 31
0.0
  0
LINE
  5
162
330
1F
100
AcDbEntity
  8
2
  6
CONTINUOUS
 62
   253
100
AcDbLine
 10
699.2709531759716
 20
139.3264673916097
 30
0.0
 11
699.105917259285
 21
129.2999875
 31
0.0
  0
ELLIPSE
  5
163
330
1F
100
AcDbEntity
  8
2
  6
CONTINUOUS
 62
   253
100
AcDbEllipse
 10
699.2535007695343
 20
139.3264673916097
 30
0.0
 11
-0.08939155658553051
 21
-0.9959965610438738
 31
0.0
210
0.0
220
0.0
230
-1.0
 40
0.0173825579472312
 41
3.978911249687949
 42
4.710828881974264
  0
LINE
  5
164
330
1F
100
AcDbEntity
  8
2
  6
CONTINUOUS
 62
     7
100
AcDbLine
 10
699.0990113950362
 20
129.2997288419894
 30
0.0
 11
698.6228076584786
 21
129.299323307721
 31
0.0
  0
LINE
  5
165
330
1F
100
AcDbEntity
  8
2
  6
CONTINUOUS
 62
     7
100
AcDbLine
 10
697.7249894665747
 20
129.299976824309
 30
0.0
 11
697.7395425149701
 21
129.2994906920463
 31
0.0
  0
LINE
  5
166
330
1F
100
AcDbEntity
  8
2
  6
CONTINUOUS
 62
     7
100
AcDbLine
 10
727.6249874999999
 20
126.038464806864
 30
0.0
 11
727.6249874999999
 21
126.1384495810197
 31
0.0
  0
LINE
  5
167
330
1F
100
AcDbEntity
  8
2
  6
CONTINUOUS
 62
     7
100
AcDbLine
 10
727.6249874999999
 20
129.2543190590912
 30
0.0
 11
727.1337137030366
 21
129.2999873848828
 31
0.0
  0
ELLIPSE
  5
168
330
1F
100
AcDbEntity
  8
2
  6
CONTINUOUS
 62
     7
100
AcDbEllipse
 10
597.5313365564718
 20
123.8714160714286
 30
0.0
 11
-0.5347513713393843
 21
-5.427686186476596
 31
0.0
210
0.0
220
0.0
230
1.0
 40
0.1833239439330465
 41
3.159652296134316
 42
3.161635513369979
  0
LINE
  5
169
330
1F
100
AcDbEntity
  8
2
  6
CONTINUOUS
 62
     7
100
AcDbLine
 10
597.8772203736211
 20
129.2994906920462
 30
0.0
 11
598.0460387141668
 21
129.299976824309
 31
0.0
  0
LINE
  5
16A
330
1F
100
AcDbEntity
  8
2
  6
CONTINUOUS
 62
     7
100
AcDbLine
 10
597.8765608713293
 20
129.2994906920462
 30
0.0
 11
597.8772203736212
 21
129.2994906920462
 31
0.0
  0
LINE
  5
16B
330
1F
100
AcDbEntity
  8
2
  6
CONTINUOUS
 62
   253
100
AcDbLine
 10
597.8765608713293
 20
129.2994906920462
 30
0.0
 11
603.6589981070517
 21
190.0516793711554
 31
0.0
  0
LINE
  5
16C
330
1F
100
AcDbEntity
  8
2
  6
CONTINUOUS
 62
     7
100
AcDbLine
 10
697.958943056881
 20
190.7237379476181
 30
0.0
 11
697.9973167806182
 21
190.7161731539942
 31
0.0
  0
LINE
  5
16D
330
1F
100
AcDbEntity
  8
2
  6
CONTINUOUS
 62
     7
100
AcDbLine
 10
697.7249875
 20
129.2999875
 30
0.0
 11
697.7249875
 21
190.03550962231
 31
0.0
  0
LINE
  5
16E
330
1F
100
AcDbEntity
  8
2
  6
CONTINUOUS
 62
     7
100
AcDbLine
 10
630.9539612858335
 20
129.299976824309
 30
0.0
 11
631.1227796263793
 21
129.2994906920463
 31
0.0
  0
LINE
  5
16F
330
1F
100
AcDbEntity
  8
2
  6
CONTINUOUS
 62
     7
100
AcDbLine
 10
697.7249875
 20
190.03550962231
 30
0.0
 11
697.7396562222618
 21
190.0516793711553
 31
0.0
  0
LINE
  5
170
330
1F
100
AcDbEntity
  8
2
  6
CONTINUOUS
 62
     7
100
AcDbLine
 10
631.1227796263793
 20
129.2994906920463
 30
0.0
 11
631.1234391286713
 21
129.2994906920463
 31
0.0
  0
LINE
  5
171
330
1F
100
AcDbEntity
  8
2
  6
CONTINUOUS
 62
     7
100
AcDbLine
 10
603.9404085261929
 20
190.7237379476181
 30
0.0
 11
603.9404085261929
 21
190.0809503379315
 31
0.0
  0
LINE
  5
172
330
1F
100
AcDbEntity
  8
2
  6
CONTINUOUS
 62
     7
100
AcDbLine
 10
697.958943056881
 20
190.723737947618
 30
0.0
 11
712.2713216920739
 21
207.7805666046779
 31
0.0
  0
LINE
  5
173
330
1F
100
AcDbEntity
  8
2
  6
CONTINUOUS
 62
     7
100
AcDbLine
 10
712.2713216920739
 20
207.7805666046779
 30
0.0
 11
712.3096954158111
 21
207.7730018110541
 31
0.0
  0
LINE
  5
174
330
1F
100
AcDbEntity
  8
2
  6
CONTINUOUS
 62
     7
100
AcDbLine
 10
730.3249874999999
 20
208.4999875
 30
0.0
 11
730.3249874999999
 21
208.4396893058919
 31
0.0
  0
LINE
  5
175
330
1F
100
AcDbEntity
  8
2
  6
CONTINUOUS
 62
     7
100
AcDbLine
 10
603.9404085261929
 20
190.0809503379315
 30
0.0
 11
603.8288828101099
 21
190.03550962231
 31
0.0
  0
LINE
  5
176
330
1F
100
AcDbEntity
  8
2
  6
CONTINUOUS
 62
     7
100
AcDbLine
 10
698.7382502114712
 20
126.0513360502418
 30
0.0
 11
698.7309951345907
 21
126.0514626880798
 31
0.0
  0
LINE
  5
177
330
1F
100
AcDbEntity
  8
2
  6
CONTINUOUS
 62
     7
100
AcDbLine
 10
713.0712632128664
 20
208.1988226223145
 30
0.0
 11
730.3249874999999
 21
208.4999875
 31
0.0
  0
LINE
  5
178
330
1F
100
AcDbEntity
  8
2
  6
CONTINUOUS
 62
     7
100
AcDbLine
 10
598.0480319093117
 20
129.2999875
 30
0.0
 11
630.9519680906888
 21
129.2999875
 31
0.0
  0
LINE
  5
179
330
1F
100
AcDbEntity
  8
2
  6
CONTINUOUS
 62
     7
100
AcDbLine
 10
603.6589981070516
 20
190.0516793711553
 30
0.0
 11
603.8288828101099
 21
190.03550962231
 31
0.0
  0
LINE
  5
17A
330
1F
100
AcDbEntity
  8
2
  6
CONTINUOUS
 62
     7
100
AcDbLine
 10
625.1711171898905
 20
190.03550962231
 30
0.0
 11
625.0595914738076
 21
190.0809503379315
 31
0.0
  0
LINE
  5
17B
330
1F
100
AcDbEntity
  8
2
  6
CONTINUOUS
 62
   253
100
AcDbLine
 10
603.8288828101099
 20
190.0355096223101
 30
0.0
 11
598.0480319093117
 21
129.2999875
 31
0.0
  0
ELLIPSE
  5
17C
330
1F
100
AcDbEntity
  8
2
  6
CONTINUOUS
 62
     7
100
AcDbEllipse
 10
631.4686634435287
 20
123.8714160714286
 30
0.0
 11
-0.5347513713393864
 21
5.427686186476596
 31
0.0
210
0.0
220
0.0
230
1.0
 40
0.1833239439330465
 41
6.263142447399406
 42
6.265125664635062
  0
LINE
  5
17D
330
1F
100
AcDbEntity
  8
2
  6
CONTINUOUS
 62
     7
100
AcDbLine
 10
625.1711171898905
 20
190.03550962231
 30
0.0
 11
625.341001892949
 21
190.0516793711553
 31
0.0
  0
LINE
  5
17E
330
1F
100
AcDbEntity
  8
2
  6
CONTINUOUS
 62
   253
100
AcDbLine
 10
625.3410018929488
 20
190.0516793711553
 30
0.0
 11
631.1234391286713
 21
129.2994906920463
 31
0.0
  0
LINE
  5
17F
330
1F
100
AcDbEntity
  8
2
  6
CONTINUOUS
 62
     7
100
AcDbLine
 10
713.0712632128664
 20
208.1385244282064
 30
0.0
 11
713.0712632128664
 21
208.1988226223145
 31
0.0
  0
ARC
  5
180
330
1F
100
AcDbEntity
  8
2
  6
CONTINUOUS
 62
     7
100
AcDbCircle
 10
-698.7397213378093
 20
126.551386535658
 30
0.0
 40
0.5000000000000203
210
0.0
220
0.0
230
-1.0
100
AcDbArc
 50
270.9999999999997
 51
349.5625246488817
  0
LINE
  5
181
330
1F
100
AcDbEntity
  8
2
  6
CONTINUOUS
 62
   253
100
AcDbLine
 10
625.0595914738076
 20
190.0809503379315
 30
0.0
 11
603.9404085261929
 21
190.0809503379315
 31
0.0
  0
LINE
  5
182
330
1F
100
AcDbEntity
  8
2
  6
CONTINUOUS
 62
     7
100
AcDbLine
 10
712.2713216920738
 20
207.7805666046777
 30
0.0
 11
712.3226711761846
 21
207.8417625368447
 31
0.0
  0
LINE
  5
183
330
1F
100
AcDbEntity
  8
2
  6
CONTINUOUS
 62
   253
100
AcDbLine
 10
630.9519680906888
 20
129.2999875
 30
0.0
 11
625.1711171898905
 21
190.03550962231
 31
0.0
  0
LINE
  5
184
330
1F
100
AcDbEntity
  8
2
  6
CONTINUOUS
 62
   253
100
AcDbLine
 10
631.1790367064058
 20
126.4608053209195
 30
0.0
 11
630.9539612858335
 21
129.299976824309
 31
0.0
  0
LINE
  5
185
330
1F
100
AcDbEntity
  8
2
  6
CONTINUOUS
 62
     7
100
AcDbLine
 10
603.5700637650074
 20
190.6707324383728
 30
0.0
 11
603.6815894810904
 21
190.7161731539942
 31
0.0
  0
ELLIPSE
  5
186
330
1F
100
AcDbEntity
  8
2
  6
CONTINUOUS
 62
     7
100
AcDbEllipse
 10
592.8456347310688
 20
126.5852049777605
 30
0.0
 11
-0.08863629958538428
 21
2.714238119730807
 31
0.0
210
0.0
220
0.0
230
1.0
 40
0.1813459632156204
 41
6.277263333309658
 42
6.288369056442139
  0
LINE
  5
187
330
1F
100
AcDbEntity
  8
2
  6
CONTINUOUS
 62
     7
100
AcDbLine
 10
605.7294036188332
 20
207.8417625368447
 30
0.0
 11
605.5638898080094
 21
207.7805666046776
 31
0.0
  0
LINE
  5
188
330
1F
100
AcDbEntity
  8
2
  6
CONTINUOUS
 62
   253
100
AcDbLine
 10
625.0595914738076
 20
190.7237379476181
 30
0.0
 11
623.436110191991
 21
207.7805666046779
 31
0.0
  0
LINE
  5
189
330
1F
100
AcDbEntity
  8
2
  6
CONTINUOUS
 62
     7
100
AcDbLine
 10
603.6815894810904
 20
190.7161731539942
 30
0.0
 11
603.9404085261929
 21
190.723737947618
 31
0.0
  0
LINE
  5
18A
330
1F
100
AcDbEntity
  8
2
  6
CONTINUOUS
 62
   253
100
AcDbLine
 10
597.6527848221994
 20
126.4683906975467
 30
0.0
 11
597.8772203736211
 21
129.2994906920462
 31
0.0
  0
LINE
  5
18B
330
1F
100
AcDbEntity
  8
2
  6
CONTINUOUS
 62
   253
100
AcDbLine
 10
643.1470312604777
 20
186.2418645221251
 30
0.0
 11
625.3410018929488
 21
190.0516793711553
 31
0.0
  0
LINE
  5
18C
330
1F
100
AcDbEntity
  8
2
  6
CONTINUOUS
 62
   253
100
AcDbLine
 10
603.6815894810904
 20
190.7161731539942
 30
0.0
 11
605.3050707629069
 21
207.7730018110538
 31
0.0
  0
LINE
  5
18D
330
1F
100
AcDbEntity
  8
2
  6
CONTINUOUS
 62
   253
100
AcDbLine
 10
598.0460387141668
 20
129.299976824309
 30
0.0
 11
597.8209632935946
 21
126.4608053209195
 31
0.0
  0
LINE
  5
18E
330
1F
100
AcDbEntity
  8
2
  6
CONTINUOUS
 62
   253
100
AcDbLine
 10
585.8348597026674
 20
186.8760715180385
 30
0.0
 11
603.5700637650074
 21
190.6707324383728
 31
0.0
  0
LINE
  5
18F
330
1F
100
AcDbEntity
  8
2
  6
CONTINUOUS
 62
   253
100
AcDbLine
 10
623.6949292370934
 20
207.7730018110543
 30
0.0
 11
625.31841051891
 21
190.7161731539945
 31
0.0
  0
LINE
  5
190
330
1F
100
AcDbEntity
  8
2
  6
CONTINUOUS
 62
   253
100
AcDbLine
 10
603.9404085261929
 20
190.7237379476181
 30
0.0
 11
625.0595914738075
 21
190.7237379476181
 31
0.0
  0
LINE
  5
191
330
1F
100
AcDbEntity
  8
2
  6
CONTINUOUS
 62
     7
100
AcDbLine
 10
625.4299362349931
 20
190.6707324383727
 30
0.0
 11
625.3410018929488
 21
190.0516793711553
 31
0.0
  0
LINE
  5
192
330
1F
100
AcDbEntity
  8
2
  6
CONTINUOUS
 62
   253
100
AcDbLine
 10
631.2634366468217
 20
126.0513360502418
 30
0.0
 11
631.1790367064059
 21
126.0514626880798
 31
0.0
  0
LINE
  5
193
330
1F
100
AcDbEntity
  8
2
  6
CONTINUOUS
 62
     7
100
AcDbLine
 10
603.6589981070516
 20
190.0516793711553
 30
0.0
 11
603.5700637650073
 21
190.6707324383727
 31
0.0
  0
LINE
  5
194
330
1F
100
AcDbEntity
  8
2
  6
CONTINUOUS
 62
   253
100
AcDbLine
 10
631.1790367064058
 20
126.0514626880798
 30
0.0
 11
631.1790367064058
 21
126.4608053209196
 31
0.0
  0
LINE
  5
195
330
1F
100
AcDbEntity
  8
2
  6
CONTINUOUS
 62
     7
100
AcDbLine
 10
625.3184105189101
 20
190.7161731539941
 30
0.0
 11
625.4299362349931
 21
190.6707324383726
 31
0.0
  0
LINE
  5
196
330
1F
100
AcDbEntity
  8
2
  6
CONTINUOUS
 62
     7
100
AcDbLine
 10
625.0595914738076
 20
190.7237379476181
 30
0.0
 11
625.3184105189101
 21
190.7161731539942
 31
0.0
  0
LINE
  5
197
330
1F
100
AcDbEntity
  8
2
  6
CONTINUOUS
 62
     7
100
AcDbLine
 10
623.4361101919908
 20
207.7805666046777
 30
0.0
 11
623.2705963811674
 21
207.8417625368447
 31
0.0
  0
LINE
  5
198
330
1F
100
AcDbEntity
  8
2
  6
CONTINUOUS
 62
   253
100
AcDbLine
 10
603.6589981070516
 20
190.0516793711553
 30
0.0
 11
585.8529687395228
 21
186.2418645221251
 31
0.0
  0
LINE
  5
199
330
1F
100
AcDbEntity
  8
2
  6
CONTINUOUS
 62
     7
100
AcDbLine
 10
592.7599148597067
 20
129.2994906920462
 30
0.0
 11
597.8765608713292
 21
129.2994906920462
 31
0.0
  0
LINE
  5
19A
330
1F
100
AcDbEntity
  8
2
  6
CONTINUOUS
 62
   253
100
AcDbLine
 10
605.5638898080094
 20
207.7805666046776
 30
0.0
 11
603.9404085261929
 21
190.723737947618
 31
0.0
  0
ELLIPSE
  5
19B
330
1F
100
AcDbEntity
  8
2
  6
CONTINUOUS
 62
     7
100
AcDbEllipse
 10
636.1543652689318
 20
126.5852049777606
 30
0.0
 11
-0.0886362995853832
 21
-2.714238119730819
 31
0.0
210
0.0
220
0.0
230
1.0
 40
0.1813459632156196
 41
3.136408904327233
 42
3.147514627459717
  0
LINE
  5
19C
330
1F
100
AcDbEntity
  8
2
  6
CONTINUOUS
 62
     7
100
AcDbLine
 10
625.0595914738076
 20
190.0809503379315
 30
0.0
 11
625.0595914738076
 21
190.723737947618
 31
0.0
  0
LINE
  5
19D
330
1F
100
AcDbEntity
  8
2
  6
CONTINUOUS
 62
   253
100
AcDbLine
 10
625.429936234993
 20
190.6707324383727
 30
0.0
 11
643.1651402973331
 21
186.8760715180385
 31
0.0
  0
LINE
  5
19E
330
1F
100
AcDbEntity
  8
2
  6
CONTINUOUS
 62
     7
100
AcDbLine
 10
631.1234391286713
 20
129.2994906920463
 30
0.0
 11
636.2400851402937
 21
129.2994906920463
 31
0.0
  0
LINE
  5
19F
330
1F
100
AcDbEntity
  8
2
  6
CONTINUOUS
 62
   253
100
AcDbLine
 10
631.1227796263793
 20
129.2994906920463
 30
0.0
 11
631.347215177801
 21
126.4683906975467
 31
0.0
  0
LINE
  5
1A0
330
1F
100
AcDbEntity
  8
2
  6
CONTINUOUS
 62
   253
100
AcDbLine
 10
636.6579498145912
 20
139.3264673916097
 30
0.0
 11
636.6550691019501
 21
129.2999875
 31
0.0
  0
ELLIPSE
  5
1A1
330
1F
100
AcDbEntity
  8
2
  6
CONTINUOUS
 62
   253
100
AcDbEllipse
 10
637.6577975097476
 20
139.3264673916097
 30
0.0
 11
-0.9816082022839453
 21
-0.1909066190808638
 31
0.0
210
0.0
220
0.0
230
1.0
 40
0.9958460778415549
 41
5.358400450942947
 42
6.090318083231239
  0
LINE
  5
1A2
330
1F
100
AcDbEntity
  8
2
  6
CONTINUOUS
 62
     7
100
AcDbLine
 10
647.2
 20
150.4999875000001
 30
0.0
 11
642.7660247656769
 21
201.180556337465
 31
0.0
  0
LINE
  5
1A3
330
1F
100
AcDbEntity
  8
2
  6
CONTINUOUS
 62
   253
100
AcDbLine
 10
631.1790367064058
 20
126.0514626880798
 30
0.0
 11
597.8209632935946
 21
126.0514626880798
 31
0.0
  0
LINE
  5
1A4
330
1F
100
AcDbEntity
  8
2
  6
CONTINUOUS
 62
   253
100
AcDbLine
 10
646.5266987025357
 20
150.5155299473572
 30
0.0
 11
636.9194361660066
 21
139.9950033996554
 31
0.0
  0
ELLIPSE
  5
1A5
330
1F
100
AcDbEntity
  8
2
  6
CONTINUOUS
 62
   253
100
AcDbEllipse
 10
631.2634366468217
 20
126.55125989782
 30
0.0
 11
-0.001509232849629992
 21
-0.4999977222110152
 31
0.0
210
0.0
220
0.0
230
1.0
 40
0.1703987482425418
 41
0.0177123588907889
 42
1.404803208172156
  0
LINE
  5
1A6
330
1F
100
AcDbEntity
  8
2
  6
CONTINUOUS
 62
     7
100
AcDbLine
 10
636.6550691019501
 20
129.2999875
 30
0.0
 11
636.6549009048549
 21
129.2997288419894
 31
0.0
  0
ELLIPSE
  5
1A7
330
1F
100
AcDbEntity
  8
2
  6
CONTINUOUS
 62
   253
100
AcDbEllipse
 10
635.6446802192099
 20
126.5380352041305
 30
0.0
 11
-0.3874378354160155
 21
-0.3160568361674076
 31
0.0
210
0.0
220
0.0
230
1.0
 40
0.9997463799126863
 41
0.8866426214095036
 42
2.274994100349521
  0
LINE
  5
1A8
330
1F
100
AcDbEntity
  8
2
  6
CONTINUOUS
 62
   253
100
AcDbLine
 10
592.3420501854093
 20
139.3264673916097
 30
0.0
 11
592.3405841522116
 21
139.3224330569837
 31
0.0
  0
LINE
  5
1A9
330
1F
100
AcDbEntity
  8
2
  6
CONTINUOUS
 62
     7
100
AcDbLine
 10
647.1526777599283
 20
150.500052286115
 30
0.0
 11
647.1532608594454
 21
150.4979468250528
 31
0.0
  0
ELLIPSE
  5
1AA
330
1F
100
AcDbEntity
  8
2
  6
CONTINUOUS
 62
   253
100
AcDbEllipse
 10
646.1567850140663
 20
150.851815118693
 30
0.0
 11
0.1597843566304097
 21
0.473781552380637
 31
0.0
210
0.0
220
0.0
230
-1.0
 40
0.9998185303015955
 41
1.158322221480527
 42
1.983270432109424
  0
LINE
  5
1AB
330
1F
100
AcDbEntity
  8
2
  6
CONTINUOUS
 62
     7
100
AcDbLine
 10
581.8000000000001
 20
150.4999874999999
 30
0.0
 11
586.2339752343236
 21
201.180556337465
 31
0.0
  0
LINE
  5
1AC
330
1F
100
AcDbEntity
  8
2
  6
CONTINUOUS
 62
   253
100
AcDbLine
 10
586.4977445635514
 20
200.8010316199029
 30
0.0
 11
586.5064674801863
 21
200.9714656831996
 31
0.0
  0
LINE
  5
1AD
330
1F
100
AcDbEntity
  8
2
  6
CONTINUOUS
 62
     7
100
AcDbLine
 10
592.3450990951457
 20
129.2997288419894
 30
0.0
 11
592.3449308980505
 21
129.2999875
 31
0.0
  0
LINE
  5
1AE
330
1F
100
AcDbEntity
  8
2
  6
CONTINUOUS
 62
   253
100
AcDbLine
 10
597.8209632935947
 20
126.0514626880798
 30
0.0
 11
597.8209632935947
 21
126.4608053209196
 31
0.0
  0
ELLIPSE
  5
1AF
330
1F
100
AcDbEntity
  8
2
  6
CONTINUOUS
 62
   253
100
AcDbEllipse
 10
593.3553197807905
 20
126.5380352041305
 30
0.0
 11
0.3874378354160128
 21
-0.3160568361674137
 31
0.0
210
0.0
220
0.0
230
-1.0
 40
0.9997463799126866
 41
0.8866426214094817
 42
2.274994100349479
  0
LINE
  5
1B0
330
1F
100
AcDbEntity
  8
2
  6
CONTINUOUS
 62
     7
100
AcDbLine
 10
581.8467391405552
 20
150.4979468250525
 30
0.0
 11
581.8473222400721
 21
150.5000522861148
 31
0.0
  0
LINE
  5
1B1
330
1F
100
AcDbEntity
  8
2
  6
CONTINUOUS
 62
     7
100
AcDbLine
 10
631.0300167741842
 20
126.0306214738178
 30
0.0
 11
597.9699832258162
 21
126.0306214738178
 31
0.0
  0
ELLIPSE
  5
1B2
330
1F
100
AcDbEntity
  8
2
  6
CONTINUOUS
 62
   253
100
AcDbEllipse
 10
597.7365633531788
 20
126.55125989782
 30
0.0
 11
0.001509232849630165
 21
-0.4999977222110152
 31
0.0
210
0.0
220
0.0
230
-1.0
 40
0.1703987482425408
 41
0.0177123588907889
 42
1.404803208172158
  0
LINE
  5
1B3
330
1F
100
AcDbEntity
  8
2
  6
CONTINUOUS
 62
     7
100
AcDbLine
 10
635.0000000000002
 20
125.4999875
 30
0.0
 11
634.7437315595032
 21
126.0125634178643
 31
0.0
  0
LINE
  5
1B4
330
1F
100
AcDbEntity
  8
2
  6
CONTINUOUS
 62
   253
100
AcDbLine
 10
635.6446802192099
 20
126.0381113565523
 30
0.0
 11
631.2634366468217
 21
126.0513360502418
 31
0.0
  0
LINE
  5
1B5
330
1F
100
AcDbEntity
  8
2
  6
CONTINUOUS
 62
     7
100
AcDbLine
 10
594.2562684404973
 20
126.0125634178642
 30
0.0
 11
594.6713069876287
 21
126.0210866417042
 31
0.0
  0
LINE
  5
1B6
330
1F
100
AcDbEntity
  8
2
  6
CONTINUOUS
 62
   253
100
AcDbLine
 10
597.8209632935947
 20
126.0514626880798
 30
0.0
 11
597.7365633531788
 21
126.0513360502418
 31
0.0
  0
LINE
  5
1B7
330
1F
100
AcDbEntity
  8
2
  6
CONTINUOUS
 62
     7
100
AcDbLine
 10
594.0000000000002
 20
125.4999875
 30
0.0
 11
594.2562684404971
 21
126.0125634178642
 31
0.0
  0
ELLIPSE
  5
1B8
330
1F
100
AcDbEntity
  8
2
  6
CONTINUOUS
 62
   253
100
AcDbEllipse
 10
591.3422024902528
 20
139.3264673916097
 30
0.0
 11
-0.9816082022839376
 21
0.1909066190808933
 31
0.0
210
0.0
220
0.0
230
1.0
 40
0.9958460778415553
 41
3.33445987753817
 42
4.066377509826459
  0
LINE
  5
1B9
330
1F
100
AcDbEntity
  8
2
  6
CONTINUOUS
 62
   253
100
AcDbLine
 10
582.3451934995272
 20
150.8953863529459
 30
0.0
 11
585.439889604645
 21
186.2773508819554
 31
0.0
  0
ELLIPSE
  5
1BA
330
1F
100
AcDbEntity
  8
2
  6
CONTINUOUS
 62
   253
100
AcDbEllipse
 10
637.6592635429453
 20
139.3224330569838
 30
0.0
 11
-0.3605966767761889
 21
-0.9327218431547381
 31
0.0
210
0.0
220
0.0
230
1.0
 40
0.9998249369093266
 41
4.343540331753907
 42
5.081237629015489
  0
LINE
  5
1BB
330
1F
100
AcDbEntity
  8
2
  6
CONTINUOUS
 62
     7
100
AcDbLine
 10
638.86549879513
 20
125.4999875
 30
0.0
 11
635.0000000000002
 21
125.4999875
 31
0.0
  0
LINE
  5
1BC
330
1F
100
AcDbEntity
  8
2
  6
CONTINUOUS
 62
   253
100
AcDbLine
 10
636.6549009048549
 20
129.2997288419894
 30
0.0
 11
636.1363319211624
 21
126.4474539893921
 31
0.0
  0
LINE
  5
1BD
330
1F
100
AcDbEntity
  8
2
  6
CONTINUOUS
 62
     7
100
AcDbLine
 10
631.2871889569559
 20
126.0302374085686
 30
0.0
 11
634.3286930123718
 21
126.0210866417042
 31
0.0
  0
LINE
  5
1BE
330
1F
100
AcDbEntity
  8
2
  6
CONTINUOUS
 62
     7
100
AcDbLine
 10
636.6549009048549
 20
129.2997288419894
 30
0.0
 11
636.2455518911897
 21
129.299323307721
 31
0.0
  0
ELLIPSE
  5
1BF
330
1F
100
AcDbEntity
  8
2
  6
CONTINUOUS
 62
   253
100
AcDbEllipse
 10
591.3407364570551
 20
139.3224330569838
 30
0.0
 11
-0.3605966767761876
 21
0.9327218431547386
 31
0.0
210
0.0
220
0.0
230
1.0
 40
0.9998249369093264
 41
4.343540331753897
 42
5.081237629015467
  0
LINE
  5
1C0
330
1F
100
AcDbEntity
  8
2
  6
CONTINUOUS
 62
     7
100
AcDbLine
 10
597.7128110430447
 20
126.0302374085686
 30
0.0
 11
594.6713069876287
 21
126.0210866417042
 31
0.0
  0
ELLIPSE
  5
1C1
330
1F
100
AcDbEntity
  8
2
  6
CONTINUOUS
 62
   253
100
AcDbEllipse
 10
585.937911091052
 20
186.2337796477024
 30
0.0
 11
0.4980983569141805
 21
-0.04356634985160508
 31
0.0
210
0.0
220
0.0
230
1.0
 40
0.0013251753297284
 41
1.742283094139188
 42
3.124139345743279
  0
LINE
  5
1C2
330
1F
100
AcDbEntity
  8
2
  6
CONTINUOUS
 62
     7
100
AcDbLine
 10
594.0000000000002
 20
125.4999875
 30
0.0
 11
590.1345012048704
 21
125.4999875
 31
0.0
  0
ELLIPSE
  5
1C3
330
1F
100
AcDbEntity
  8
2
  6
CONTINUOUS
 62
   253
100
AcDbEllipse
 10
643.0620889089486
 20
186.2337796477024
 30
0.0
 11
0.4980983569141811
 21
0.04356634985160513
 31
0.0
210
0.0
220
0.0
230
1.0
 40
0.0013251753297432
 41
0.017453307846151
 42
1.39930955945058
  0
LINE
  5
1C4
330
1F
100
AcDbEntity
  8
2
  6
CONTINUOUS
 62
     7
100
AcDbLine
 10
634.3286930123718
 20
126.0210866417042
 30
0.0
 11
634.7437315595032
 21
126.0125634178643
 31
0.0
  0
LINE
  5
1C5
330
1F
100
AcDbEntity
  8
2
  6
CONTINUOUS
 62
   253
100
AcDbLine
 10
592.0805638339939
 20
139.9950033996553
 30
0.0
 11
582.4733012974648
 21
150.5155299473571
 31
0.0
  0
LINE
  5
1C6
330
1F
100
AcDbEntity
  8
2
  6
CONTINUOUS
 62
     7
100
AcDbLine
 10
592.7544481088108
 20
129.299323307721
 30
0.0
 11
592.3450990951457
 21
129.2997288419894
 31
0.0
  0
LINE
  5
1C7
330
1F
100
AcDbEntity
  8
2
  6
CONTINUOUS
 62
     7
100
AcDbLine
 10
631.0300167741842
 20
126.0306214738178
 30
0.0
 11
631.2871889569559
 21
126.0302374085686
 31
0.0
  0
LINE
  5
1C8
330
1F
100
AcDbEntity
  8
2
  6
CONTINUOUS
 62
   253
100
AcDbLine
 10
636.915059037905
 20
139.9920900923604
 30
0.0
 11
636.9194361660066
 21
139.9950033996553
 31
0.0
  0
LINE
  5
1C9
330
1F
100
AcDbEntity
  8
2
  6
CONTINUOUS
 62
   253
100
AcDbLine
 10
643.5601103953555
 20
186.2773508819554
 30
0.0
 11
646.6548065004732
 21
150.8953863529459
 31
0.0
  0
ELLIPSE
  5
1CA
330
1F
100
AcDbEntity
  8
2
  6
CONTINUOUS
 62
   253
100
AcDbEllipse
 10
582.8432149859343
 20
150.8518151186929
 30
0.0
 11
0.1597843566302843
 21
-0.4737815523806785
 31
0.0
210
0.0
220
0.0
230
-1.0
 40
0.999818530301596
 41
1.158322221480096
 42
1.983270432108997
  0
LINE
  5
1CB
330
1F
100
AcDbEntity
  8
2
  6
CONTINUOUS
 62
   253
100
AcDbLine
 10
585.439889604645
 20
186.2773508819554
 30
0.0
 11
585.4662477388116
 21
186.6020313442601
 31
0.0
  0
ELLIPSE
  5
1CC
330
1F
100
AcDbEntity
  8
2
  6
CONTINUOUS
 62
   253
100
AcDbEllipse
 10
585.9642692252186
 20
186.5584601100072
 30
0.0
 11
0.4986858484610672
 21
-0.03622740046795398
 31
0.0
210
0.0
220
0.0
230
1.0
 40
0.6453787710821881
 41
1.879856772568476
 42
3.118743095774394
  0
LINE
  5
1CD
330
1F
100
AcDbEntity
  8
2
  6
CONTINUOUS
 62
     7
100
AcDbLine
 10
597.7128110430447
 20
126.0302374085686
 30
0.0
 11
597.9699832258162
 21
126.0306214738178
 31
0.0
  0
LINE
  5
1CE
330
1F
100
AcDbEntity
  8
2
  6
CONTINUOUS
 62
   253
100
AcDbLine
 10
643.5337522611889
 20
186.6020313442601
 30
0.0
 11
643.5601103953555
 21
186.2773508819554
 31
0.0
  0
LINE
  5
1CF
330
1F
100
AcDbEntity
  8
2
  6
CONTINUOUS
 62
   253
100
AcDbLine
 10
592.3449308980505
 20
129.2999875
 30
0.0
 11
592.3420501854093
 21
139.3264673916097
 31
0.0
  0
LINE
  5
1D0
330
1F
100
AcDbEntity
  8
2
  6
CONTINUOUS
 62
   253
100
AcDbLine
 10
592.0805638339939
 20
139.9950033996553
 30
0.0
 11
592.0849409620954
 21
139.9920900923604
 31
0.0
  0
LINE
  5
1D1
330
1F
100
AcDbEntity
  8
2
  6
CONTINUOUS
 62
   253
100
AcDbLine
 10
636.659415847789
 20
139.3224330569838
 30
0.0
 11
636.6579498145912
 21
139.3264673916097
 31
0.0
  0
ELLIPSE
  5
1D2
330
1F
100
AcDbEntity
  8
2
  6
CONTINUOUS
 62
   253
100
AcDbEllipse
 10
643.0357307747819
 20
186.5584601100071
 30
0.0
 11
0.4986858484610675
 21
0.03622740046795366
 31
0.0
210
0.0
220
0.0
230
1.0
 40
0.6453787710821919
 41
0.0228495578155026
 42
1.261735881021401
  0
LINE
  5
1D3
330
1F
100
AcDbEntity
  8
2
  6
CONTINUOUS
 62
   253
100
AcDbLine
 10
597.7365633531788
 20
126.0513360502418
 30
0.0
 11
593.3553197807905
 21
126.0381113565523
 31
0.0
  0
LINE
  5
1D4
330
1F
100
AcDbEntity
  8
2
  6
CONTINUOUS
 62
   253
100
AcDbLine
 10
642.5022554364491
 20
200.8010316199032
 30
0.0
 11
643.5337522611889
 21
186.6020313442601
 31
0.0
  0
LINE
  5
1D5
330
1F
100
AcDbEntity
  8
2
  6
CONTINUOUS
 62
   253
100
AcDbLine
 10
642.4935325198142
 20
200.9714656831998
 30
0.0
 11
642.502255436449
 21
200.8010316199032
 31
0.0
  0
LINE
  5
1D6
330
1F
100
AcDbEntity
  8
2
  6
CONTINUOUS
 62
   253
100
AcDbLine
 10
585.4662477388116
 20
186.6020313442602
 30
0.0
 11
586.4977445635514
 21
200.801031619903
 31
0.0
  0
LINE
  5
1D7
330
1F
100
AcDbEntity
  8
2
  6
CONTINUOUS
 62
   253
100
AcDbLine
 10
592.863668078838
 20
126.4474539893921
 30
0.0
 11
592.3450990951457
 21
129.2997288419894
 31
0.0
  0
LINE
  5
1D8
330
1F
100
AcDbEntity
  8
2
  6
CONTINUOUS
 62
     7
100
AcDbLine
 10
727.5141681211126
 20
150.17671503126
 30
0.0
 11
727.6245381820906
 21
150.500052286115
 31
0.0
  0
LINE
  5
1D9
330
1F
100
AcDbEntity
  8
2
  6
CONTINUOUS
 62
     7
100
AcDbLine
 10
730.3249874999909
 20
150.4999875000001
 30
0.0
 11
730.3249874999999
 21
201.180556337465
 31
0.0
  0
ELLIPSE
  5
1DA
330
1F
100
AcDbEntity
  8
2
  6
CONTINUOUS
 62
   253
100
AcDbEllipse
 10
701.1927397197582
 20
150.8518151186929
 30
0.0
 11
0.003044404666928314
 21
0.499990731514327
 31
0.0
210
0.0
220
0.0
230
1.0
 40
0.0180511757705217
 41
1.483651480311698
 42
2.308599690937704
  0
LINE
  5
1DB
330
1F
100
AcDbEntity
  8
2
  6
CONTINUOUS
 62
     7
100
AcDbLine
 10
727.4765394079786
 20
150.7352932082454
 30
0.0
 11
727.6245381820906
 21
150.500052286115
 31
0.0
  0
LINE
  5
1DC
330
1F
100
AcDbEntity
  8
2
  6
CONTINUOUS
 62
     7
100
AcDbLine
 10
727.6249874999999
 20
131.9999875
 30
0.0
 11
727.6249874999999
 21
149.2472820215928
 31
0.0
  0
LINE
  5
1DD
330
1F
100
AcDbEntity
  8
2
  6
CONTINUOUS
 62
   253
100
AcDbLine
 10
730.3249874999999
 20
201.180556337465
 30
0.0
 11
713.7293012012183
 21
200.9714656831998
 31
0.0
  0
ELLIPSE
  5
1DE
330
1F
100
AcDbEntity
  8
2
  6
CONTINUOUS
 62
   253
100
AcDbEllipse
 10
727.1726775906734
 20
150.0209486891146
 30
0.0
 11
-0.4588101410912902
 21
0.19872909810035
 31
0.0
210
0.0
220
0.0
230
1.0
 40
0.6447933489439204
 41
4.185442887740219
 42
4.966416145797334
  0
LINE
  5
1DF
330
1F
100
AcDbEntity
  8
2
  6
CONTINUOUS
 62
   253
100
AcDbLine
 10
727.1814037938921
 20
150.3572338604504
 30
0.0
 11
701.1840135165395
 21
150.5155299473571
 31
0.0
  0
LINE
  5
1E0
330
1F
100
AcDbEntity
  8
2
  6
CONTINUOUS
 62
     7
100
AcDbLine
 10
727.496114521975
 20
150.0131507908317
 30
0.0
 11
727.5141681211126
 21
150.17671503126
 31
0.0
  0
LINE
  5
1E1
330
1F
100
AcDbEntity
  8
2
  6
CONTINUOUS
 62
   253
100
AcDbLine
 10
727.6249874999999
 20
149.2472820215928
 30
0.0
 11
727.496114521975
 21
150.0131507908317
 31
0.0
  0
LINE
  5
1E2
330
1F
100
AcDbEntity
  8
2
  6
CONTINUOUS
 62
   253
100
AcDbLine
 10
713.3761324162344
 20
200.8010316199032
 30
0.0
 11
701.3479475737826
 21
186.6020313442601
 31
0.0
  0
LINE
  5
1E3
330
1F
100
AcDbEntity
  8
2
  6
CONTINUOUS
 62
   253
100
AcDbLine
 10
713.7293012012183
 20
200.9714656831998
 30
0.0
 11
713.3761324162343
 21
200.8010316199032
 31
0.0
  0
LINE
  5
1E4
330
1F
100
AcDbEntity
  8
2
  6
CONTINUOUS
 62
     7
100
AcDbLine
 10
727.6245381820906
 20
150.500052286115
 30
0.0
 11
727.6473039309557
 21
150.4979468250528
 31
0.0
  0
ENDSEC
  0
SECTION
  2
OBJECTS
  0
DICTIONARY
  5
C
330
0
100
AcDbDictionary
  3
ACAD_GROUP
350
D
  3
ACAD_LAYOUT
350
1A
  3
ACAD_MATERIAL
350
43
  3
ACAD_MLEADERSTYLE
350
6B
  3
ACAD_MLINESTYLE
350
17
  3
ACAD_PLOTSETTINGS
350
19
  3
ACAD_SCALELIST
350
47
  3
ACAD_VISUALSTYLE
350
2A
  3
ACDBHEADERROUNDTRIPXREC
350
1E5
  3
ACDBVARIABLEDICTIONARY
350
206
  0
DICTIONARY
  5
20D
330
8
100
AcDbDictionary
280
     1
  3
ACAD_XREC_ROUNDTRIP
360
20E
  0
DICTIONARY
  5
D
102
{ACAD_REACTORS
330
C
102
}
330
C
100
AcDbDictionary
  0
DICTIONARY
  5
1A
102
{ACAD_REACTORS
330
C
102
}
330
C
100
AcDbDictionary
  0
DICTIONARY
  5
43
102
{ACAD_REACTORS
330
C
102
}
330
C
100
AcDbDictionary
  3
BYBLOCK
350
45
  3
BYLAYER
350
44
  3
GLOBAL
350
46
  0
DICTIONARY
  5
6B
102
{ACAD_REACTORS
330
C
102
}
330
C
100
AcDbDictionary
  3
STANDARD
350
6C
  0
DICTIONARY
  5
17
102
{ACAD_REACTORS
330
C
102
}
330
C
100
AcDbDictionary
  3
STANDARD
350
18
  0
DICTIONARY
  5
19
102
{ACAD_REACTORS
330
C
102
}
330
C
100
AcDbDictionary
  0
DICTIONARY
  5
47
102
{ACAD_REACTORS
330
C
102
}
330
C
100
AcDbDictionary
  3
A0
350
48
  3
A1
350
49
  3
A2
350
4A
  3
A3
350
4B
  3
A4
350
4C
  3
A5
350
4D
  3
A6
350
4E
  3
A7
350
4F
  3
A8
350
50
  3
A9
350
51
  3
B0
350
52
  3
B1
350
53
  3
B2
350
54
  3
B3
350
55
  3
B4
350
56
  3
B5
350
57
  3
B6
350
58
  3
B7
350
59
  3
B8
350
5A
  3
B9
350
5B
  3
C0
350
5C
  3
C1
350
5D
  3
C2
350
5E
  3
C3
350
5F
  3
C4
350
60
  3
C5
350
61
  3
C6
350
62
  3
C7
350
63
  3
C8
350
64
  3
C9
350
65
  3
D0
350
66
  3
D1
350
67
  3
D2
350
68
  0
DICTIONARY
  5
2A
102
{ACAD_REACTORS
330
C
102
}
330
C
100
AcDbDictionary
  3
2DWIREFRAME
350
2F
  3
BASIC
350
32
  3
BRIGHTEN
350
36
  3
COLORCHANGE
350
3A
  3
CONCEPTUAL
350
34
  3
DIM
350
35
  3
EDGECOLOROFF
350
3D
  3
FACEPATTERN
350
39
  3
FLAT
350
2B
  3
FLATWITHEDGES
350
2C
  3
GOURAUD
350
2D
  3
GOURAUDWITHEDGES
350
2E
  3
HIDDEN
350
31
  3
JITTEROFF
350
3B
  3
LINEPATTERN
350
38
  3
OVERHANGOFF
350
3C
  3
REALISTIC
350
33
  3
SHADED
350
42
  3
SHADED_WITH_EDGES
350
41
  3
SHADES_OF_GRAY
350
3E
  3
SKETCHY
350
3F
  3
THICKEN
350
37
  3
WIREFRAME
350
30
  3
X-RAY
350
40
  0
DICTIONARY
  5
1E5
102
{ACAD_REACTORS
330
C
102
}
330
C
100
AcDbDictionary
  3
CEPSNID
350
1EF
  3
CEPSNTYPE
350
1EE
  3
DIMSTYLEDATA
350
205
  3
FINGERPRINTGUID
350
1F0
  3
HYPERLINKBASE
350
1E8
  3
INSUNITS
350
1ED
  3
LAYOUTDICT
350
1EA
  3
LWETCUNION
350
1EC
  3
PLOTSETDICT
350
1EB
  3
PSVPSCALE
350
1F2
  3
PUCSBASE
350
1F5
  3
PUCSORGBACK
350
1FB
  3
PUCSORGBOTTOM
350
1F7
  3
PUCSORGFRONT
350
1FA
  3
PUCSORGLEFT
350
1F8
  3
PUCSORGRIGHT
350
1F9
  3
PUCSORGTOP
350
1F6
  3
PUCSORTHOREF
350
1F3
  3
PUCSORTHOVIEW
350
1F4
  3
STYLESHEET
350
1E9
  3
TSTACKALIGN
350
1E6
  3
TSTACKSIZE
350
1E7
  3
UCSBASE
350
1FE
  3
UCSORGBACK
350
204
  3
UCSORGBOTTOM
350
200
  3
UCSORGFRONT
350
203
  3
UCSORGLEFT
350
201
  3
UCSORGRIGHT
350
202
  3
UCSORGTOP
350
1FF
  3
UCSORTHOREF
350
1FC
  3
UCSORTHOVIEW
350
1FD
  3
VERSIONGUID
350
1F1
  0
DICTIONARY
  5
206
102
{ACAD_REACTORS
330
C
102
}
330
C
100
AcDbDictionary
  3
CANNOSCALE
350
20F
  3
CMLEADERSTYLE
350
208
  3
CTABLESTYLE
350
207
  3
DIMASSOC
350
20B
  3
HIDETEXT
350
20C
  3
MSLTSCALE
350
210
  0
XRECORD
  5
20E
102
{ACAD_REACTORS
330
20D
102
}
330
20D
100
AcDbXrecord
102
VTR_0.000_0.000_1.000_1.000_VISUALSTYLE
340
2F
102
VTR_0.000_0.000_1.000_1.000_GRIDDISPLAY
 70
     3
102
VTR_0.000_0.000_1.000_1.000_GRIDMAJOR
 70
     5
102
VTR_0.000_0.000_1.000_1.000_DEFAULTLIGHTING
280
     1
102
VTR_0.000_0.000_1.000_1.000_DEFAULTLIGHTINGTYPE
 70
     1
102
VTR_0.000_0.000_1.000_1.000_BRIGHTNESS
141
0.0
102
VTR_0.000_0.000_1.000_1.000_CONTRAST
142
0.0
  0
MATERIAL
  5
45
102
{ACAD_REACTORS
330
43
102
}
102
{ACAD_XDICTIONARY
360
213
102
}
330
43
100
AcDbMaterial
  1
BYBLOCK
  0
MATERIAL
  5
44
102
{ACAD_REACTORS
330
43
102
}
102
{ACAD_XDICTIONARY
360
211
102
}
330
43
100
AcDbMaterial
  1
BYLAYER
  0
MATERIAL
  5
46
102
{ACAD_REACTORS
330
43
102
}
102
{ACAD_XDICTIONARY
360
215
102
}
330
43
100
AcDbMaterial
  1
GLOBAL
  0
ACAD_PROXY_OBJECT
  5
6C
102
{ACAD_REACTORS
330
6B
102
}
330
6B
100
AcDbProxyObject
 90
      499
 91
      505
 93
      610
310
40901902A4063FBFFFFFE056BD1B81E855B9FC0AD7A3703D0AD73F4214DD185B99185C9900AD7A3703D0AC73F90141901A02B5E8DC0F42B1CFC02B5E8DC0F42B1CFE5764000000000000300FC0
340
14
340
0
340
11
340
0
 94
        0
1001
ACAD_MLEADERVER
1070
     2
  0
MLINESTYLE
  5
18
102
{ACAD_REACTORS
330
17
102
}
330
17
100
AcDbMlineStyle
  2
Standard
 70
     0
  3

 62
   256
 51
90.0
 52
90.0
 71
     2
 49
0.5
 62
   256
  6
BYLAYER
 49
-0.5
 62
   256
  6
BYLAYER
  0
ACAD_PROXY_OBJECT
  5
48
102
{ACAD_REACTORS
330
47
102
}
330
47
100
AcDbProxyObject
 90
      499
 91
      503
 93
       41
310
903313A31580
  0
ACAD_PROXY_OBJECT
  5
49
102
{ACAD_REACTORS
330
47
102
}
330
47
100
AcDbProxyObject
 90
      499
 91
      503
 93
      105
310
903313A324000000000000004000
  0
ACAD_PROXY_OBJECT
  5
4A
102
{ACAD_REACTORS
330
47
102
}
330
47
100
AcDbProxyObject
 90
      499
 91
      503
 93
      105
310
903313A344000000000000104000
  0
ACAD_PROXY_OBJECT
  5
4B
102
{ACAD_REACTORS
330
47
102
}
330
47
100
AcDbProxyObject
 90
      499
 91
      503
 93
      105
310
903313A354000000000000144000
  0
ACAD_PROXY_OBJECT
  5
4C
102
{ACAD_REACTORS
330
47
102
}
330
47
100
AcDbProxyObject
 90
      499
 91
      503
 93
      105
310
903313A384000000000000204000
  0
ACAD_PROXY_OBJECT
  5
4D
102
{ACAD_REACTORS
330
47
102
}
330
47
100
AcDbProxyObject
 90
      499
 91
      503
 93
      113
310
904313A31304000000000000244000
  0
ACAD_PROXY_OBJECT
  5
4E
102
{ACAD_REACTORS
330
47
102
}
330
47
100
AcDbProxyObject
 90
      499
 91
      503
 93
      113
310
904313A31364000000000000304000
  0
ACAD_PROXY_OBJECT
  5
4F
102
{ACAD_REACTORS
330
47
102
}
330
47
100
AcDbProxyObject
 90
      499
 91
      503
 93
      113
310
904313A32304000000000000344000
  0
ACAD_PROXY_OBJECT
  5
50
102
{ACAD_REACTORS
330
47
102
}
330
47
100
AcDbProxyObject
 90
      499
 91
      503
 93
      113
310
904313A333040000000000003E4000
  0
ACAD_PROXY_OBJECT
  5
51
102
{ACAD_REACTORS
330
47
102
}
330
47
100
AcDbProxyObject
 90
      499
 91
      503
 93
      113
310
904313A34304000000000000444000
  0
ACAD_PROXY_OBJECT
  5
52
102
{ACAD_REACTORS
330
47
102
}
330
47
100
AcDbProxyObject
 90
      499
 91
      503
 93
      113
310
904313A35304000000000000494000
  0
ACAD_PROXY_OBJECT
  5
53
102
{ACAD_REACTORS
330
47
102
}
330
47
100
AcDbProxyObject
 90
      499
 91
      503
 93
      121
310
905313A3130304000000000000594000
  0
ACAD_PROXY_OBJECT
  5
54
102
{ACAD_REACTORS
330
47
102
}
330
47
100
AcDbProxyObject
 90
      499
 91
      503
 93
      105
310
903323A310000000000000010100
  0
ACAD_PROXY_OBJECT
  5
55
102
{ACAD_REACTORS
330
47
102
}
330
47
100
AcDbProxyObject
 90
      499
 91
      503
 93
      105
310
903343A310000000000000410100
  0
ACAD_PROXY_OBJECT
  5
56
102
{ACAD_REACTORS
330
47
102
}
330
47
100
AcDbProxyObject
 90
      499
 91
      503
 93
      105
310
903383A310000000000000810100
  0
ACAD_PROXY_OBJECT
  5
57
102
{ACAD_REACTORS
330
47
102
}
330
47
100
AcDbProxyObject
 90
      499
 91
      503
 93
      113
310
90431303A310000000000000910100
  0
ACAD_PROXY_OBJECT
  5
58
102
{ACAD_REACTORS
330
47
102
}
330
47
100
AcDbProxyObject
 90
      499
 91
      503
 93
      121
310
9053130303A310000000000001650100
  0
ACAD_PROXY_OBJECT
  5
59
102
{ACAD_REACTORS
330
47
102
}
330
47
100
AcDbProxyObject
 90
      499
 91
      503
 93
      257
310
90E312F31323822203D2031272D3022000000000000200FC000000000000284000
  0
ACAD_PROXY_OBJECT
  5
5A
102
{ACAD_REACTORS
330
47
102
}
330
47
100
AcDbProxyObject
 90
      499
 91
      503
 93
      249
310
90D312F363422203D2031272D3022000000000000240FC000000000000284000
  0
ACAD_PROXY_OBJECT
  5
5B
102
{ACAD_REACTORS
330
47
102
}
330
47
100
AcDbProxyObject
 90
      499
 91
      503
 93
      249
310
90D312F333222203D2031272D3022000000000000280FC000000000000284000
  0
ACAD_PROXY_OBJECT
  5
5C
102
{ACAD_REACTORS
330
47
102
}
330
47
100
AcDbProxyObject
 90
      499
 91
      503
 93
      249
310
90D312F313622203D2031272D30220000000000002C0FC000000000000284000
  0
ACAD_PROXY_OBJECT
  5
5D
102
{ACAD_REACTORS
330
47
102
}
330
47
100
AcDbProxyObject
 90
      499
 91
      503
 93
      249
310
90D332F333222203D2031272D30220000000000002E0FC000000000000284000
  0
ACAD_PROXY_OBJECT
  5
5E
102
{ACAD_REACTORS
330
47
102
}
330
47
100
AcDbProxyObject
 90
      499
 91
      503
 93
      241
310
90C312F3822203D2031272D3022000000000000300FC000000000000284000
  0
ACAD_PROXY_OBJECT
  5
5F
102
{ACAD_REACTORS
330
47
102
}
330
47
100
AcDbProxyObject
 90
      499
 91
      503
 93
      249
310
90D332F313622203D2031272D3022000000000000320FC000000000000284000
  0
ACAD_PROXY_OBJECT
  5
60
102
{ACAD_REACTORS
330
47
102
}
330
47
100
AcDbProxyObject
 90
      499
 91
      503
 93
      241
310
90C312F3422203D2031272D3022000000000000340FC000000000000284000
  0
ACAD_PROXY_OBJECT
  5
61
102
{ACAD_REACTORS
330
47
102
}
330
47
100
AcDbProxyObject
 90
      499
 91
      503
 93
      241
310
90C332F3822203D2031272D3022000000000000360FC000000000000284000
  0
ACAD_PROXY_OBJECT
  5
62
102
{ACAD_REACTORS
330
47
102
}
330
47
100
AcDbProxyObject
 90
      499
 91
      503
 93
      241
310
90C312F3222203D2031272D3022000000000000380FC000000000000284000
  0
ACAD_PROXY_OBJECT
  5
63
102
{ACAD_REACTORS
330
47
102
}
330
47
100
AcDbProxyObject
 90
      499
 91
      503
 93
      241
310
90C332F3422203D2031272D30220000000000003A0FC000000000000284000
  0
ACAD_PROXY_OBJECT
  5
64
102
{ACAD_REACTORS
330
47
102
}
330
47
100
AcDbProxyObject
 90
      499
 91
      503
 93
      161
310
90A3122203D2031272D30224000000000000284000
  0
ACAD_PROXY_OBJECT
  5
65
102
{ACAD_REACTORS
330
47
102
}
330
47
100
AcDbProxyObject
 90
      499
 91
      503
 93
      257
310
90E312D312F3222203D2031272D30220000000000003E0FC000000000000284000
  0
ACAD_PROXY_OBJECT
  5
66
102
{ACAD_REACTORS
330
47
102
}
330
47
100
AcDbProxyObject
 90
      499
 91
      503
 93
      225
310
90A3322203D2031272D302200000000000002100000000000000284000
  0
ACAD_PROXY_OBJECT
  5
67
102
{ACAD_REACTORS
330
47
102
}
330
47
100
AcDbProxyObject
 90
      499
 91
      503
 93
      225
310
90A3622203D2031272D302200000000000006100000000000000284000
  0
ACAD_PROXY_OBJECT
  5
68
102
{ACAD_REACTORS
330
47
102
}
330
47
100
AcDbProxyObject
 90
      499
 91
      503
 93
      249
310
90D31272D3022203D2031272D30220000000000000A100000000000000284000
  0
ACAD_PROXY_OBJECT
  5
2F
102
{ACAD_REACTORS
330
2A
102
}
330
2A
100
AcDbProxyObject
 90
      499
 91
      501
 93
      436
310
42CC9915DA5C99599C985B595049028333333333333E33F0000000000000F90107901411070040501600405405064090741402480A0340
1001
ACAD
1000
AcDbSavedByObjectVersion
1070
     0
  0
ACAD_PROXY_OBJECT
  5
32
102
{ACAD_REACTORS
330
2A
102
}
330
2A
100
AcDbProxyObject
 90
      499
 91
      501
 93
      388
310
4150985CDA58D07406404333333333333E33F0000000000000F90107A41107004050150841D405064090741402480A0350
1001
ACAD
1000
AcDbSavedByObjectVersion
1070
     0
  0
ACAD_PROXY_OBJECT
  5
36
102
{ACAD_REACTORS
330
2A
102
}
330
2A
100
AcDbProxyObject
 90
      499
 91
      501
 93
      428
310
42109C9A59DA1D195B90C409028333333333333E33F0000000000000F9010790141107004050150841D405064090741402480A029950
1001
ACAD
1000
AcDbSavedByObjectVersion
1070
     0
  0
ACAD_PROXY_OBJECT
  5
3A
102
{ACAD_REACTORS
330
2A
102
}
330
2A
100
AcDbProxyObject
 90
      499
 91
      501
 93
      452
310
42D0DBDB1BDC90DA185B99D95104090240C333333333333E33F0000000000000F90108901411070040501508421405064090741402480A0350
1001
ACAD
1000
AcDbSavedByObjectVersion
1070
     0
  0
ACAD_PROXY_OBJECT
  5
34
102
{ACAD_REACTORS
330
2A
102
}
330
2A
100
AcDbProxyObject
 90
      499
 91
      501
 93
      500
310
4290DBDB98D95C1D1D585B10940D028333333333333E33F0000000000000F90107902409070040501000000000018199010841D405064090740C02480A0340
1001
ACAD
1000
AcDbSavedByObjectVersion
1070
     0
  0
ACAD_PROXY_OBJECT
  5
35
102
{ACAD_REACTORS
330
2A
102
}
330
2A
100
AcDbProxyObject
 90
      499
 91
      501
 93
      412
310
40D11A5B50B409028333333333333E33F0000000000000F9010790141107004050150841D405064090741402480A02677FFFFFD0
1001
ACAD
1000
AcDbSavedByObjectVersion
1070
     0
  0
ACAD_PROXY_OBJECT
  5
3D
102
{ACAD_REACTORS
330
2A
102
}
330
2A
100
AcDbProxyObject
 90
      499
 91
      501
 93
      452
310
43115919D950DBDB1BDC93D999916409028333333333333E33F0000000000000F9010790141107004050150841D405064090741402480A0350
1001
ACAD
1000
AcDbSavedByObjectVersion
1070
     0
  0
ACAD_PROXY_OBJECT
  5
39
102
{ACAD_REACTORS
330
2A
102
}
330
2A
100
AcDbProxyObject
 90
      499
 91
      501
 93
      444
310
42D19858D95C185D1D195C9B90F409028333333333333E33F0000000000000F9010790141107004050150841D405064090741402480A0350
1001
ACAD
1000
AcDbSavedByObjectVersion
1070
     0
  0
ACAD_PROXY_OBJECT
  5
2B
102
{ACAD_REACTORS
330
2A
102
}
330
2A
100
AcDbProxyObject
 90
      499
 91
      501
 93
      380
310
41119B185D240901404333333333333E33F0000000000000F9010740A907004050150841D405064090741402480A1B50
1001
ACAD
1000
AcDbSavedByObjectVersion
1070
     0
  0
ACAD_PROXY_OBJECT
  5
2C
102
{ACAD_REACTORS
330
2A
102
}
330
2A
100
AcDbProxyObject
 90
      499
 91
      501
 93
      468
310
43519B185D15DA5D1A115919D95CD0140901404333333333333E33F0000000000000F90107409019070040501600405405064090741402480A1B50
1001
ACAD
1000
AcDbSavedByObjectVersion
1070
     0
  0
ACAD_PROXY_OBJECT
  5
2D
102
{ACAD_REACTORS
330
2A
102
}
330
2A
100
AcDbProxyObject
 90
      499
 91
      501
 93
      404
310
41D1DBDD5C985D5910240902404333333333333E33F0000000000000F9010740A9070040501641D405064090741402480A1B50
1001
ACAD
1000
AcDbSavedByObjectVersion
1070
     0
  0
ACAD_PROXY_OBJECT
  5
2E
102
{ACAD_REACTORS
330
2A
102
}
330
2A
100
AcDbProxyObject
 90
      499
 91
      501
 93
      492
310
4411DBDD5C985D5915DA5D1A115919D95CD0340902404333333333333E33F0000000000000F90107409019070040501600405405064090741402480A1B50
1001
ACAD
1000
AcDbSavedByObjectVersion
1070
     0
  0
ACAD_PROXY_OBJECT
  5
31
102
{ACAD_REACTORS
330
2A
102
}
330
2A
100
AcDbProxyObject
 90
      499
 91
      501
 93
      476
310
41921A5919195B90640502408333333333333E33F0000000000000F901079024090700405020000000000001110200405405064090740C02480A0340
1001
ACAD
1000
AcDbSavedByObjectVersion
1070
     0
  0
ACAD_PROXY_OBJECT
  5
3B
102
{ACAD_REACTORS
330
2A
102
}
330
2A
100
AcDbProxyObject
 90
      499
 91
      501
 93
      428
310
42529A5D1D195C93D999914409028333333333333E33F0000000000000F9010790141107004050150A41D405064090741402480A0350
1001
ACAD
1000
AcDbSavedByObjectVersion
1070
     0
  0
ACAD_PROXY_OBJECT
  5
38
102
{ACAD_REACTORS
330
2A
102
}
330
2A
100
AcDbProxyObject
 90
      499
 91
      501
 93
      444
310
42D31A5B995C185D1D195C9B90E409028333333333333E33F0000000000000F9010790141107004050750841D405064090741402483A0350
1001
ACAD
1000
AcDbSavedByObjectVersion
1070
     0
  0
ACAD_PROXY_OBJECT
  5
3C
102
{ACAD_REACTORS
330
2A
102
}
330
2A
100
AcDbProxyObject
 90
      499
 91
      501
 93
      444
310
42D3DD995C9A185B99D3D999915409028333333333333E33F0000000000000F9010790141107004050150941D405064090741402480A0350
1001
ACAD
1000
AcDbSavedByObjectVersion
1070
     0
  0
ACAD_PROXY_OBJECT
  5
33
102
{ACAD_REACTORS
330
2A
102
}
330
2A
100
AcDbProxyObject
 90
      499
 91
      501
 93
      428
310
425499585B1A5CDD1A58D08409038333333333333E33F0000000000000F9010740A907004050150800405405064090740C02480A1B40
1001
ACAD
1000
AcDbSavedByObjectVersion
1070
     0
  0
ACAD_PROXY_OBJECT
  5
42
102
{ACAD_REACTORS
330
2A
102
}
330
2A
100
AcDbProxyObject
 90
      499
 91
      501
 93
      420
310
4194DA1859195911B40902404333333333333E33F0000000000000F9010740A41107004050150800405405064090840C02480A0B40
1001
ACAD
1000
AcDbSavedByObjectVersion
1070
     0
  0
ACAD_PROXY_OBJECT
  5
41
102
{ACAD_REACTORS
330
2A
102
}
330
2A
100
AcDbProxyObject
 90
      499
 91
      501
 93
      516
310
4454DA18591959081DDA5D1A08195919D95CD1A40902404333333333333E33F0000000000000F901074090142907004050250800405405064090740C02480A0B40
1001
ACAD
1000
AcDbSavedByObjectVersion
1070
     0
  0
ACAD_PROXY_OBJECT
  5
3E
102
{ACAD_REACTORS
330
2A
102
}
330
2A
100
AcDbProxyObject
 90
      499
 91
      501
 93
      532
310
4394DA1859195CC81BD98811DC985E5174090240C333333333333E33F0000000000000F901079024090741D01000000000000111010841D405064090740C02480A0340
1001
ACAD
1000
AcDbSavedByObjectVersion
1070
     0
  0
ACAD_PROXY_OBJECT
  5
3F
102
{ACAD_REACTORS
330
2A
102
}
330
2A
100
AcDbProxyObject
 90
      499
 91
      501
 93
      476
310
41D4DAD95D18DA1E51840502408333333333333E33F0000000000000F901079024090741D01000000000000111010B41D405064090741802480A0340
1001
ACAD
1000
AcDbSavedByObjectVersion
1070
     0
  0
ACAD_PROXY_OBJECT
  5
37
102
{ACAD_REACTORS
330
2A
102
}
330
2A
100
AcDbProxyObject
 90
      499
 91
      501
 93
      412
310
41D51A1A58DAD95B90D409028333333333333E33F0000000000000F9010790141107004050150C41D405064090741402480A0350
1001
ACAD
1000
AcDbSavedByObjectVersion
1070
     0
  0
ACAD_PROXY_OBJECT
  5
30
102
{ACAD_REACTORS
330
2A
102
}
330
2A
100
AcDbProxyObject
 90
      499
 91
      501
 93
      420
310
4255DA5C99599C985B595059028333333333333E33F0000000000000F90107901411070040501600405405064090740C02480A0340
1001
ACAD
1000
AcDbSavedByObjectVersion
1070
     0
  0
ACAD_PROXY_OBJECT
  5
40
102
{ACAD_REACTORS
330
2A
102
}
330
2A
100
AcDbProxyObject
 90
      499
 91
      501
 93
      404
310
41560B54985E51940902404000000000000E03F0000000000000F9010740501907004050150841D405064090740C02480A1B40
1001
ACAD
1000
AcDbSavedByObjectVersion
1070
     0
  0
XRECORD
  5
1EF
102
{ACAD_REACTORS
330
1E5
102
}
330
1E5
100
AcDbXrecord
340
0
  0
XRECORD
  5
1EE
102
{ACAD_REACTORS
330
1E5
102
}
330
1E5
100
AcDbXrecord
 90
        0
  0
XRECORD
  5
205
102
{ACAD_REACTORS
330
1E5
102
}
330
1E5
100
AcDbXrecord
1000
DSTYLE
1002
{
1070
   179
 70
     2
1070
   171
 70
     2
1070
   143
 40
25.4
1070
   274
 70
     2
1070
    41
 40
3.0
1070
   141
 40
0.09
1070
    43
 40
0.38
1070
   278
 70
    46
1070
    44
 40
1.5
1070
    42
 40
0.0625
1070
   147
 40
1.5
1070
   272
 70
     4
1070
    73
 70
     1
1070
   172
 70
     0
1070
    74
 70
     1
1070
   283
 70
     1
1070
   340
340
6F
1070
   140
 40
3.0
1070
   284
 70
     0
1070
    78
 70
     0
1002
}
  0
XRECORD
  5
1F0
102
{ACAD_REACTORS
330
1E5
102
}
330
1E5
100
AcDbXrecord
  1
{50FE1F9C-96C2-4FC0-A4BA-022AF14B12BB}
  0
XRECORD
  5
1E8
102
{ACAD_REACTORS
330
1E5
102
}
330
1E5
100
AcDbXrecord
  1

  0
XRECORD
  5
1ED
102
{ACAD_REACTORS
330
1E5
102
}
330
1E5
100
AcDbXrecord
 90
        4
  0
XRECORD
  5
1EA
102
{ACAD_REACTORS
330
1E5
102
}
330
1E5
100
AcDbXrecord
340
1A
  0
XRECORD
  5
1EC
102
{ACAD_REACTORS
330
1E5
102
}
330
1E5
100
AcDbXrecord
 90
    10269
  0
XRECORD
  5
1EB
102
{ACAD_REACTORS
330
1E5
102
}
330
1E5
100
AcDbXrecord
340
19
  0
XRECORD
  5
1F2
102
{ACAD_REACTORS
330
1E5
102
}
330
1E5
100
AcDbXrecord
 40
0.0
  0
XRECORD
  5
1F5
102
{ACAD_REACTORS
330
1E5
102
}
330
1E5
100
AcDbXrecord
340
0
  0
XRECORD
  5
1FB
102
{ACAD_REACTORS
330
1E5
102
}
330
1E5
100
AcDbXrecord
 10
0.0
 20
0.0
 30
0.0
  0
XRECORD
  5
1F7
102
{ACAD_REACTORS
330
1E5
102
}
330
1E5
100
AcDbXrecord
 10
0.0
 20
0.0
 30
0.0
  0
XRECORD
  5
1FA
102
{ACAD_REACTORS
330
1E5
102
}
330
1E5
100
AcDbXrecord
 10
0.0
 20
0.0
 30
0.0
  0
XRECORD
  5
1F8
102
{ACAD_REACTORS
330
1E5
102
}
330
1E5
100
AcDbXrecord
 10
0.0
 20
0.0
 30
0.0
  0
XRECORD
  5
1F9
102
{ACAD_REACTORS
330
1E5
102
}
330
1E5
100
AcDbXrecord
 10
0.0
 20
0.0
 30
0.0
  0
XRECORD
  5
1F6
102
{ACAD_REACTORS
330
1E5
102
}
330
1E5
100
AcDbXrecord
 10
0.0
 20
0.0
 30
0.0
  0
XRECORD
  5
1F3
102
{ACAD_REACTORS
330
1E5
102
}
330
1E5
100
AcDbXrecord
340
0
  0
XRECORD
  5
1F4
102
{ACAD_REACTORS
330
1E5
102
}
330
1E5
100
AcDbXrecord
 70
     0
  0
XRECORD
  5
1E9
102
{ACAD_REACTORS
330
1E5
102
}
330
1E5
100
AcDbXrecord
  1

  0
XRECORD
  5
1E6
102
{ACAD_REACTORS
330
1E5
102
}
330
1E5
100
AcDbXrecord
 90
        1
  0
XRECORD
  5
1E7
102
{ACAD_REACTORS
330
1E5
102
}
330
1E5
100
AcDbXrecord
 90
       70
  0
XRECORD
  5
1FE
102
{ACAD_REACTORS
330
1E5
102
}
330
1E5
100
AcDbXrecord
340
0
  0
XRECORD
  5
204
102
{ACAD_REACTORS
330
1E5
102
}
330
1E5
100
AcDbXrecord
 10
0.0
 20
0.0
 30
0.0
  0
XRECORD
  5
200
102
{ACAD_REACTORS
330
1E5
102
}
330
1E5
100
AcDbXrecord
 10
0.0
 20
0.0
 30
0.0
  0
XRECORD
  5
203
102
{ACAD_REACTORS
330
1E5
102
}
330
1E5
100
AcDbXrecord
 10
0.0
 20
0.0
 30
0.0
  0
XRECORD
  5
201
102
{ACAD_REACTORS
330
1E5
102
}
330
1E5
100
AcDbXrecord
 10
0.0
 20
0.0
 30
0.0
  0
XRECORD
  5
202
102
{ACAD_REACTORS
330
1E5
102
}
330
1E5
100
AcDbXrecord
 10
0.0
 20
0.0
 30
0.0
  0
XRECORD
  5
1FF
102
{ACAD_REACTORS
330
1E5
102
}
330
1E5
100
AcDbXrecord
 10
0.0
 20
0.0
 30
0.0
  0
XRECORD
  5
1FC
102
{ACAD_REACTORS
330
1E5
102
}
330
1E5
100
AcDbXrecord
340
0
  0
XRECORD
  5
1FD
102
{ACAD_REACTORS
330
1E5
102
}
330
1E5
100
AcDbXrecord
 70
     0
  0
XRECORD
  5
1F1
102
{ACAD_REACTORS
330
1E5
102
}
330
1E5
100
AcDbXrecord
  1
{FAEB1C32-E019-11D5-929B-00C0DF256EC4}
  0
DICTIONARYVAR
  5
20F
102
{ACAD_REACTORS
330
206
102
}
330
206
100
DictionaryVariables
280
     0
  1
1:1
  0
DICTIONARYVAR
  5
208
102
{ACAD_REACTORS
330
206
102
}
330
206
100
DictionaryVariables
280
     0
  1
Standard
  0
DICTIONARYVAR
  5
207
102
{ACAD_REACTORS
330
206
102
}
330
206
100
DictionaryVariables
280
     0
  1
Standard
  0
DICTIONARYVAR
  5
20B
102
{ACAD_REACTORS
330
206
102
}
330
206
100
DictionaryVariables
280
     0
  1
2
  0
DICTIONARYVAR
  5
20C
102
{ACAD_REACTORS
330
206
102
}
330
206
100
DictionaryVariables
280
     0
  1
1
  0
DICTIONARYVAR
  5
210
102
{ACAD_REACTORS
330
206
102
}
330
206
100
DictionaryVariables
280
     0
  1
1
  0
DICTIONARY
  5
213
330
45
100
AcDbDictionary
280
     1
  3
ACAD_XREC_ROUNDTRIP
360
214
  0
DICTIONARY
  5
211
330
44
100
AcDbDictionary
280
     1
  3
ACAD_XREC_ROUNDTRIP
360
212
  0
DICTIONARY
  5
215
330
46
100
AcDbDictionary
280
     1
  3
ACAD_XREC_ROUNDTRIP
360
216
  0
XRECORD
  5
214
102
{ACAD_REACTORS
330
213
102
}
330
213
100
AcDbXrecord
102
MATERIAL
148
0.0
149
0.0
149
0.0
 93
        0
 94
      127
282
     0
 72
     1
 77
     1
171
     1
175
     1
179
     1
273
     0
  0
XRECORD
  5
212
102
{ACAD_REACTORS
330
211
102
}
330
211
100
AcDbXrecord
102
MATERIAL
148
0.0
149
0.0
149
0.0
 93
        0
 94
      127
282
     0
 72
     1
 77
     1
171
     1
175
     1
179
     1
273
     0
  0
XRECORD
  5
216
102
{ACAD_REACTORS
330
215
102
}
330
215
100
AcDbXrecord
102
MATERIAL
148
0.0
149
0.0
149
0.0
 93
        0
 94
      127
282
     0
 72
     1
 77
     1
171
     1
175
     1
179
     1
273
     0
  0
ENDSEC
  0
EOF
