  0
SECTION
  2
HEADER
  9
$ACADVER
  1
AC1014
  9
$ACADMAINTVER
 70
     9
  9
$DWGCODEPAGE
  3
ANSI_932
  9
$INSBASE
 10
0.0
 20
0.0
 30
0.0
  9
$EXTMIN
 10
560.7500000000001
 20
-18.41701262973613
 30
0.0
  9
$EXTMAX
 10
758.535679815033
 20
215.0
 30
0.0
  9
$LIMMIN
 10
0.0
 20
0.0
  9
$LIMMAX
 10
12.0
 20
9.0
  9
$ORTHOMODE
 70
     0
  9
$REGENMODE
 70
     1
  9
$FILLMODE
 70
     1
  9
$QTEXTMODE
 70
     0
  9
$MIRRTEXT
 70
     1
  9
$DRAGMODE
 70
     2
  9
$LTSCALE
 40
1.0
  9
$OSMODE
 70
    37
  9
$ATTMODE
 70
     1
  9
$TEXTSIZE
 40
0.2
  9
$TRACEWID
 40
0.05
  9
$TEXTSTYLE
  7
STANDARD
  9
$CLAYER
  8
0
  9
$CELTYPE
  6
BYLAYER
  9
$CECOLOR
 62
   256
  9
$CELTSCALE
 40
1.0
  9
$DELOBJ
 70
     1
  9
$DISPSILH
 70
     0
  9
$DIMSCALE
 40
1.0
  9
$DIMASZ
 40
3.0
  9
$DIMEXO
 40
0.0625
  9
$DIMDLI
 40
0.38
  9
$DIMRND
 40
0.0
  9
$DIMDLE
 40
0.0
  9
$DIMEXE
 40
1.5
  9
$DIMTP
 40
0.0
  9
$DIMTM
 40
0.0
  9
$DIMTXT
 40
3.0
  9
$DIMCEN
 40
0.09
  9
$DIMTSZ
 40
0.0
  9
$DIMTOL
 70
     0
  9
$DIMLIM
 70
     0
  9
$DIMTIH
 70
     1
  9
$DIMTOH
 70
     1
  9
$DIMSE1
 70
     0
  9
$DIMSE2
 70
     0
  9
$DIMTAD
 70
     1
  9
$DIMZIN
 70
     0
  9
$DIMBLK
  1

  9
$DIMASO
 70
     1
  9
$DIMSHO
 70
     1
  9
$DIMPOST
  1

  9
$DIMAPOST
  1

  9
$DIMALT
 70
     0
  9
$DIMALTD
 70
     2
  9
$DIMALTF
 40
25.4
  9
$DIMLFAC
 40
1.0
  9
$DIMTOFL
 70
     0
  9
$DIMTVP
 40
0.0
  9
$DIMTIX
 70
     0
  9
$DIMSOXD
 70
     0
  9
$DIMSAH
 70
     0
  9
$DIMBLK1
  1

  9
$DIMBLK2
  1

  9
$DIMSTYLE
  2
STANDARD
  9
$DIMCLRD
 70
     0
  9
$DIMCLRE
 70
     0
  9
$DIMCLRT
 70
     0
  9
$DIMTFAC
 40
1.0
  9
$DIMGAP
 40
1.5
  9
$DIMJUST
 70
     0
  9
$DIMSD1
 70
     0
  9
$DIMSD2
 70
     0
  9
$DIMTOLJ
 70
     1
  9
$DIMTZIN
 70
     0
  9
$DIMALTZ
 70
     0
  9
$DIMALTTZ
 70
     0
  9
$DIMFIT
 70
     3
  9
$DIMUPT
 70
     0
  9
$DIMUNIT
 70
     2
  9
$DIMDEC
 70
     2
  9
$DIMTDEC
 70
     4
  9
$DIMALTU
 70
     2
  9
$DIMALTTD
 70
     2
  9
$DIMTXSTY
  7
ＭＳ_ゴシック
  9
$DIMAUNIT
 70
     0
  9
$LUNITS
 70
     2
  9
$LUPREC
 70
     4
  9
$SKETCHINC
 40
0.1
  9
$FILLETRAD
 40
0.5
  9
$AUNITS
 70
     0
  9
$AUPREC
 70
     0
  9
$MENU
  1
.
  9
$ELEVATION
 40
0.0
  9
$PELEVATION
 40
0.0
  9
$THICKNESS
 40
0.0
  9
$LIMCHECK
 70
     0
  9
$CHAMFERA
 40
0.0
  9
$CHAMFERB
 40
0.0
  9
$CHAMFERC
 40
0.0
  9
$CHAMFERD
 40
0.0
  9
$SKPOLY
 70
     0
  9
$TDCREATE
 40
2459167.785550718
  9
$TDUPDATE
 40
2459167.785550903
  9
$TDINDWG
 40
0.0000000116
  9
$TDUSRTIMER
 40
0.0000000116
  9
$USRTIMER
 70
     1
  9
$ANGBASE
 50
0.0
  9
$ANGDIR
 70
     0
  9
$PDMODE
 70
     0
  9
$PDSIZE
 40
0.0
  9
$PLINEWID
 40
0.0
  9
$COORDS
 70
     1
  9
$SPLFRAME
 70
     0
  9
$SPLINETYPE
 70
     6
  9
$SPLINESEGS
 70
     8
  9
$ATTDIA
 70
     0
  9
$ATTREQ
 70
     1
  9
$HANDLING
 70
     1
  9
$HANDSEED
  5
21A
  9
$SURFTAB1
 70
     6
  9
$SURFTAB2
 70
     6
  9
$SURFTYPE
 70
     6
  9
$SURFU
 70
     6
  9
$SURFV
 70
     6
  9
$UCSNAME
  2

  9
$UCSORG
 10
0.0
 20
0.0
 30
0.0
  9
$UCSXDIR
 10
1.0
 20
0.0
 30
0.0
  9
$UCSYDIR
 10
0.0
 20
1.0
 30
0.0
  9
$PUCSNAME
  2

  9
$PUCSORG
 10
0.0
 20
0.0
 30
0.0
  9
$PUCSXDIR
 10
1.0
 20
0.0
 30
0.0
  9
$PUCSYDIR
 10
0.0
 20
1.0
 30
0.0
  9
$USERI1
 70
     0
  9
$USERI2
 70
     0
  9
$USERI3
 70
     0
  9
$USERI4
 70
     0
  9
$USERI5
 70
     0
  9
$USERR1
 40
0.0
  9
$USERR2
 40
0.0
  9
$USERR3
 40
0.0
  9
$USERR4
 40
0.0
  9
$USERR5
 40
0.0
  9
$WORLDVIEW
 70
     1
  9
$SHADEDGE
 70
     3
  9
$SHADEDIF
 70
    70
  9
$TILEMODE
 70
     1
  9
$MAXACTVP
 70
    64
  9
$PINSBASE
 10
0.0
 20
0.0
 30
0.0
  9
$PLIMCHECK
 70
     0
  9
$PEXTMIN
 10
1.000000000000000E+20
 20
1.000000000000000E+20
 30
1.000000000000000E+20
  9
$PEXTMAX
 10
-1.000000000000000E+20
 20
-1.000000000000000E+20
 30
-1.000000000000000E+20
  9
$PLIMMIN
 10
0.0
 20
0.0
  9
$PLIMMAX
 10
12.0
 20
9.0
  9
$UNITMODE
 70
     0
  9
$VISRETAIN
 70
     1
  9
$PLINEGEN
 70
     0
  9
$PSLTSCALE
 70
     1
  9
$TREEDEPTH
 70
  3020
  9
$PICKSTYLE
 70
     1
  9
$CMLSTYLE
  2
STANDARD
  9
$CMLJUST
 70
     0
  9
$CMLSCALE
 40
1.0
  9
$PROXYGRAPHICS
 70
     1
  9
$MEASUREMENT
 70
     1
  0
ENDSEC
  0
SECTION
  2
CLASSES
  0
CLASS
  1
ACDBDICTIONARYWDFLT
  2
AcDbDictionaryWithDefault
  3
ObjectDBX Classes
 90
        0
280
     0
281
     0
  0
CLASS
  1
VISUALSTYLE
  2
AcDbVisualStyle
  3
ObjectDBX Classes
 90
     4095
280
     0
281
     0
  0
CLASS
  1
MATERIAL
  2
AcDbMaterial
  3
ObjectDBX Classes
 90
     1153
280
     0
281
     0
  0
CLASS
  1
SCALE
  2
AcDbScale
  3
ObjectDBX Classes
 90
     1153
280
     0
281
     0
  0
CLASS
  1
TABLESTYLE
  2
AcDbTableStyle
  3
ObjectDBX Classes
 90
     4095
280
     0
281
     0
  0
CLASS
  1
MLEADERSTYLE
  2
AcDbMLeaderStyle
  3
ACDB_MLEADERSTYLE_CLASS
 90
     4095
280
     0
281
     0
  0
CLASS
  1
SUN
  2
AcDbSun
  3
SCENEOE
 90
     1153
280
     0
281
     0
  0
CLASS
  1
DICTIONARYVAR
  2
AcDbDictionaryVar
  3
ObjectDBX Classes
 90
        0
280
     0
281
     0
  0
CLASS
  1
XRECORD
  2
AcDbXrecord
  3
ObjectDBX Classes
 90
        0
280
     0
281
     0
  0
CLASS
  1
LWPOLYLINE
  2
AcDbPolyline
  3
ObjectDBX Classes
 90
        0
280
     0
281
     1
  0
CLASS
  1
HATCH
  2
AcDbHatch
  3
ObjectDBX Classes
 90
        0
280
     0
281
     1
  0
CLASS
  1
ACDBPLACEHOLDER
  2
AcDbPlaceHolder
  3
ObjectDBX Classes
 90
        0
280
     0
281
     0
  0
CLASS
  1
LAYOUT
  2
AcDbLayout
  3
ObjectDBX Classes
 90
        0
280
     0
281
     0
  0
ENDSEC
  0
SECTION
  2
TABLES
  0
TABLE
  2
VPORT
  5
8
102
{ACAD_XDICTIONARY
360
20F
102
}
330
0
100
AcDbSymbolTable
 70
     1
  0
VPORT
  5
29
330
8
100
AcDbSymbolTableRecord
100
AcDbViewportTableRecord
  2
*ACTIVE
 70
     0
 10
0.0
 20
0.0
 11
1.0
 21
1.0
 12
659.6428399075165
 22
98.29149368513194
 13
0.0
 23
0.0
 14
0.5
 24
0.5
 15
0.5
 25
0.5
 16
0.0
 26
0.0
 36
1.0
 17
0.0
 27
0.0
 37
0.0
 40
233.4170126297361
 41
1.6
 42
50.0
 43
0.0
 44
0.0
 50
0.0
 51
0.0
 71
     0
 72
   100
 73
     1
 74
     3
 75
     0
 76
     0
 77
     0
 78
     0
  0
ENDTAB
  0
TABLE
  2
LTYPE
  5
5
330
0
100
AcDbSymbolTable
 70
     2
  0
LTYPE
  5
14
330
5
100
AcDbSymbolTableRecord
100
AcDbLinetypeTableRecord
  2
BYBLOCK
 70
     0
  3

 72
    65
 73
     0
 40
0.0
  0
LTYPE
  5
15
330
5
100
AcDbSymbolTableRecord
100
AcDbLinetypeTableRecord
  2
BYLAYER
 70
     0
  3

 72
    65
 73
     0
 40
0.0
  0
LTYPE
  5
16
330
5
100
AcDbSymbolTableRecord
100
AcDbLinetypeTableRecord
  2
CONTINUOUS
 70
     0
  3
Solid line
 72
    65
 73
     0
 40
0.0
  0
LTYPE
  5
17C
330
5
100
AcDbSymbolTableRecord
100
AcDbLinetypeTableRecord
  2
CENTER
 70
     0
  3

 72
    65
 73
     0
 40
0.0
  0
ENDTAB
  0
TABLE
  2
LAYER
  5
2
330
0
100
AcDbSymbolTable
 70
     2
  0
LAYER
  5
10
330
2
100
AcDbSymbolTableRecord
100
AcDbLayerTableRecord
  2
0
 70
     0
 62
     7
  6
CONTINUOUS
  0
LAYER
  5
6E
330
2
100
AcDbSymbolTableRecord
100
AcDbLayerTableRecord
  2
2
 70
     0
 62
     7
  6
CONTINUOUS
  0
ENDTAB
  0
TABLE
  2
STYLE
  5
3
330
0
100
AcDbSymbolTable
 70
     2
  0
STYLE
  5
11
330
3
100
AcDbSymbolTableRecord
100
AcDbTextStyleTableRecord
  2
STANDARD
 70
     0
 40
0.0
 41
1.0
 50
0.0
 71
     0
 42
0.2
  3
txt
  4

  0
STYLE
  5
6F
330
3
100
AcDbSymbolTableRecord
100
AcDbTextStyleTableRecord
  2
ＭＳ_ゴシック
 70
     0
 40
0.0
 41
1.0
 50
0.0
 71
     0
 42
0.2
  3
ＭＳ ゴシック.shx
  4

  0
ENDTAB
  0
TABLE
  2
VIEW
  5
6
330
0
100
AcDbSymbolTable
 70
     0
  0
ENDTAB
  0
TABLE
  2
UCS
  5
7
330
0
100
AcDbSymbolTable
 70
     0
  0
ENDTAB
  0
TABLE
  2
APPID
  5
9
330
0
100
AcDbSymbolTable
 70
     2
  0
APPID
  5
12
330
9
100
AcDbSymbolTableRecord
100
AcDbRegAppTableRecord
  2
ACAD
 70
     0
  0
APPID
  5
219
330
9
100
AcDbSymbolTableRecord
100
AcDbRegAppTableRecord
  2
ACAD_MLEADERVER
 70
     0
  0
ENDTAB
  0
TABLE
  2
DIMSTYLE
  5
A
330
0
100
AcDbSymbolTable
 70
     1
  0
DIMSTYLE
105
27
330
A
100
AcDbSymbolTableRecord
100
AcDbDimStyleTableRecord
  2
STANDARD
 70
     0
  3

  4

  5

  6

  7

 40
1.0
 41
0.18
 42
0.0625
 43
0.38
 44
0.18
 45
0.0
 46
0.0
 47
0.0
 48
0.0
140
0.18
141
0.09
142
0.0
143
25.4
144
1.0
145
0.0
146
1.0
147
0.09
 71
     0
 72
     0
 73
     1
 74
     1
 75
     0
 76
     0
 77
     0
 78
     0
170
     0
171
     2
172
     0
173
     0
174
     0
175
     0
176
     0
177
     0
178
     0
270
     2
271
     4
272
     4
273
     2
274
     2
340
11
275
     0
280
     0
281
     0
282
     0
283
     1
284
     0
285
     0
286
     0
287
     3
288
     0
  0
ENDTAB
  0
TABLE
  2
BLOCK_RECORD
  5
1
330
0
100
AcDbSymbolTable
 70
     0
  0
BLOCK_RECORD
  5
1F
330
1
100
AcDbSymbolTableRecord
100
AcDbBlockTableRecord
  2
*MODEL_SPACE
  0
BLOCK_RECORD
  5
1B
330
1
100
AcDbSymbolTableRecord
100
AcDbBlockTableRecord
  2
*PAPER_SPACE
  0
ENDTAB
  0
ENDSEC
  0
SECTION
  2
BLOCKS
  0
BLOCK
  5
20
330
1F
100
AcDbEntity
  8
0
100
AcDbBlockBegin
  2
*MODEL_SPACE
 70
     0
 10
0.0
 20
0.0
 30
0.0
  3
*MODEL_SPACE
  1

  0
ENDBLK
  5
21
330
1F
100
AcDbEntity
  8
0
100
AcDbBlockEnd
  0
BLOCK
  5
1C
330
1B
100
AcDbEntity
 67
     1
  8
0
100
AcDbBlockBegin
  2
*PAPER_SPACE
 70
     0
 10
0.0
 20
0.0
 30
0.0
  3
*PAPER_SPACE
  1

  0
ENDBLK
  5
1D
330
1B
100
AcDbEntity
 67
     1
  8
0
100
AcDbBlockEnd
  0
ENDSEC
  0
SECTION
  2
ENTITIES
  0
ARC
  5
70
330
1F
100
AcDbEntity
  8
2
  6
CONTINUOUS
 62
     7
100
AcDbCircle
 10
-592.2712473324565
 20
204.1260265250104
 30
0.0
 40
4.000618521778195
210
0.0
220
0.0
230
-1.0
100
AcDbArc
 50
70.0031004091053
 51
89.99689959089457
  0
ARC
  5
71
330
1F
100
AcDbEntity
  8
2
  6
CONTINUOUS
 62
   253
100
AcDbCircle
 10
604.0000000000001
 20
203.3962916921149
 30
0.0
 40
5.425177446358154
100
AcDbArc
 50
178.9047926950406
 51
1.095207304959501
  0
ELLIPSE
  5
72
330
1F
100
AcDbEntity
  8
2
  6
CONTINUOUS
 62
   253
100
AcDbEllipse
 10
642.3905193396632
 20
182.2442579157686
 30
0.0
 11
0.2747776413014437
 21
-3.106181308931367
 31
0.0
210
0.0
220
0.0
230
1.0
 40
0.0171316612500256
 41
3.882173008905406
 42
4.649189770220675
  0
LWPOLYLINE
  5
73
330
1F
100
AcDbEntity
  8
2
  6
CONTINUOUS
 62
     7
100
AcDbPolyline
 90
        4
 70
     0
 43
0.0
 10
-590.6897712674005
 20
207.0692640278006
 42
0.0315520419703003
 10
-590.7498857475792
 20
207.6693010384237
 10
-590.7886219298865
 20
207.7919288587885
 10
-590.8466912050911
 20
207.8611403787996
210
0.0
220
0.0
230
-1.0
  0
LINE
  5
74
330
1F
100
AcDbEntity
  8
2
  6
CONTINUOUS
 62
     7
100
AcDbLine
 10
590.8466912050911
 20
207.8611403787996
 30
0.0
 11
590.9031586415938
 21
207.8854522644989
 31
0.0
  0
ELLIPSE
  5
75
330
1F
100
AcDbEntity
  8
2
  6
CONTINUOUS
 62
   253
100
AcDbEllipse
 10
640.159721919207
 20
184.3593981374589
 30
0.0
 11
1.995172578412086
 21
0.1388754202603012
 31
0.0
210
0.0
220
0.0
230
1.0
 40
0.7134376266016644
 41
0.0249090117263559
 42
1.259060607013188
  0
ELLIPSE
  5
76
330
1F
100
AcDbEntity
  8
2
  6
CONTINUOUS
 62
   253
100
AcDbEllipse
 10
567.8402780807932
 20
184.3593981374588
 30
0.0
 11
1.995172578412085
 21
-0.1388754202603053
 31
0.0
210
0.0
220
0.0
230
1.0
 40
0.7134376266016652
 41
1.882532046576614
 42
3.116683641863418
  0
LINE
  5
77
330
1F
100
AcDbEntity
  8
2
  6
CONTINUOUS
 62
   253
100
AcDbLine
 10
617.153308794909
 20
207.8611403787996
 30
0.0
 11
639.9348658429875
 21
199.5722496777093
 31
0.0
  0
LINE
  5
78
330
1F
100
AcDbEntity
  8
2
  6
CONTINUOUS
 62
     7
100
AcDbLine
 10
592.214563413096
 20
208.0050856124349
 30
0.0
 11
591.8807027663453
 21
206.6629404710822
 31
0.0
  0
LINE
  5
79
330
1F
100
AcDbEntity
  8
2
  6
CONTINUOUS
 62
     7
100
AcDbLine
 10
590.7504379906858
 20
206.4706568393262
 30
0.0
 11
590.6897712674006
 21
207.0692640278006
 31
0.0
  0
LINE
  5
7A
330
1F
100
AcDbEntity
  8
2
  6
CONTINUOUS
 62
   253
100
AcDbLine
 10
592.2710308495987
 20
208.1266450409314
 30
0.0
 11
598.1790988881379
 21
208.1266450409314
 31
0.0
  0
LINE
  5
7B
330
1F
100
AcDbEntity
  8
2
  6
CONTINUOUS
 62
     7
100
AcDbLine
 10
560.7500000000003
 20
133.4999875
 30
0.0
 11
566.4050483222696
 21
198.1374855981846
 31
0.0
  0
LINE
  5
7C
330
1F
100
AcDbEntity
  8
2
  6
CONTINUOUS
 62
   253
100
AcDbLine
 10
568.0651341570125
 20
199.5722496777093
 30
0.0
 11
590.8466912050911
 21
207.8611403787996
 31
0.0
  0
ELLIPSE
  5
7D
330
1F
100
AcDbEntity
  8
2
  6
CONTINUOUS
 62
   253
100
AcDbEllipse
 10
598.1790988881379
 20
207.6267211933532
 30
0.0
 11
0.3535533905932734
 21
-0.3535533905932733
 31
0.0
210
0.0
220
0.0
230
1.0
 40
0.9996954598818875
 41
0.7855504566450201
 42
2.356042196944772
  0
LINE
  5
7E
330
1F
100
AcDbEntity
  8
2
  6
CONTINUOUS
 62
   253
100
AcDbLine
 10
565.848192135165
 20
184.5336830744706
 30
0.0
 11
566.7187197200274
 21
197.040235802184
 31
0.0
  0
LINE
  5
7F
330
1F
100
AcDbEntity
  8
2
  6
CONTINUOUS
 62
   253
100
AcDbLine
 10
641.2430156846132
 20
197.8674356126245
 30
0.0
 11
641.2812802799726
 21
197.040235802184
 31
0.0
  0
ELLIPSE
  5
80
330
1F
100
AcDbEntity
  8
2
  6
CONTINUOUS
 62
   253
100
AcDbEllipse
 10
565.6094806603367
 20
182.2442579157685
 30
0.0
 11
-0.2747776413014437
 21
-3.106181308931367
 31
0.0
210
0.0
220
0.0
230
1.0
 40
0.0171316612500258
 41
1.63399553695891
 42
2.401012298274164
  0
LWPOLYLINE
  5
81
330
1F
100
AcDbEntity
  8
2
  6
CONTINUOUS
 62
     7
100
AcDbPolyline
 90
        3
 70
     0
 43
0.0
 10
-617.153308794909
 20
207.8611403787996
 10
-617.2261404944751
 20
207.7561653674947
 42
0.0566887418397318
 10
-617.3102287325997
 20
207.0692640278009
210
0.0
220
0.0
230
-1.0
  0
LINE
  5
82
330
1F
100
AcDbEntity
  8
2
  6
CONTINUOUS
 62
   253
100
AcDbLine
 10
598.6790227357161
 20
207.6267211933532
 30
0.0
 11
598.6248519072144
 21
206.3093870804889
 31
0.0
  0
LINE
  5
83
330
1F
100
AcDbEntity
  8
2
  6
CONTINUOUS
 62
     7
100
AcDbLine
 10
615.7854365869041
 20
208.0050856124348
 30
0.0
 11
615.7289691504014
 21
208.1266450409314
 31
0.0
  0
LINE
  5
84
330
1F
100
AcDbEntity
  8
2
  6
CONTINUOUS
 62
     7
100
AcDbLine
 10
592.2710308495987
 20
208.1266450409314
 30
0.0
 11
592.214563413096
 21
208.0050856124349
 31
0.0
  0
ARC
  5
85
330
1F
100
AcDbEntity
  8
2
  6
CONTINUOUS
 62
     7
100
AcDbCircle
 10
-615.7287526675436
 20
204.1260265250109
 30
0.0
 40
4.000618521777787
210
0.0
220
0.0
230
-1.0
100
AcDbArc
 50
90.00310040910435
 51
109.9968995908958
  0
LINE
  5
86
330
1F
100
AcDbEntity
  8
2
  6
CONTINUOUS
 62
   253
100
AcDbLine
 10
641.2812802799725
 20
197.040235802184
 30
0.0
 11
642.151807864835
 21
184.5336830744706
 31
0.0
  0
LINE
  5
87
330
1F
100
AcDbEntity
  8
2
  6
CONTINUOUS
 62
   253
100
AcDbLine
 10
566.7187197200274
 20
197.0402358021839
 30
0.0
 11
566.756984315387
 21
197.8674356126245
 31
0.0
  0
LINE
  5
88
330
1F
100
AcDbEntity
  8
2
  6
CONTINUOUS
 62
   253
100
AcDbLine
 10
609.8209011118621
 20
208.1266450409314
 30
0.0
 11
615.7289691504014
 21
208.1266450409314
 31
0.0
  0
LINE
  5
89
330
1F
100
AcDbEntity
  8
2
  6
CONTINUOUS
 62
   253
100
AcDbLine
 10
615.7289691504013
 20
208.1266450409314
 30
0.0
 11
615.7947994989792
 21
208.4999875
 31
0.0
  0
ELLIPSE
  5
8A
330
1F
100
AcDbEntity
  8
2
  6
CONTINUOUS
 62
     7
100
AcDbEllipse
 10
562.7503046560879
 20
109.2015496187164
 30
0.0
 11
2.000304656087817
 21
0.0
 31
0.0
210
0.0
220
0.0
230
-1.0
 40
0.9998476951563912
 41
2.46685171136624
 42
3.141592653589793
  0
LINE
  5
8B
330
1F
100
AcDbEntity
  8
2
  6
CONTINUOUS
 62
   253
100
AcDbLine
 10
590.9031586415938
 20
207.885452264499
 30
0.0
 11
590.837328293016
 21
208.2587947235675
 31
0.0
  0
LINE
  5
8C
330
1F
100
AcDbEntity
  8
2
  6
CONTINUOUS
 62
     7
100
AcDbLine
 10
568.1507761305804
 20
99.2504263043386
 30
0.0
 11
561.1883291407653
 21
107.9521595236076
 31
0.0
  0
ELLIPSE
  5
8D
330
1F
100
AcDbEntity
  8
2
  6
CONTINUOUS
 62
   253
100
AcDbEllipse
 10
609.8209011118621
 20
207.6267211933532
 30
0.0
 11
0.3535533905932719
 21
0.3535533905932784
 31
0.0
210
0.0
220
0.0
230
1.0
 40
0.9996954598818879
 41
0.785550456645021
 42
2.356042196944759
  0
LINE
  5
8E
330
1F
100
AcDbEntity
  8
2
  6
CONTINUOUS
 62
     7
100
AcDbLine
 10
567.7131981638953
 20
199.8422996632693
 30
0.0
 11
590.837328293016
 21
208.2587947235675
 31
0.0
  0
ELLIPSE
  5
8F
330
1F
100
AcDbEntity
  8
2
  6
CONTINUOUS
 62
     7
100
AcDbEllipse
 10
569.7123709826137
 20
100.5002921560878
 30
0.0
 11
-0.392064560686017
 21
-1.961517980218153
 31
0.0
210
0.0
220
0.0
230
-1.0
 40
0.9998416118300394
 41
6.085937367809509
 42
6.981809996404374
  0
LINE
  5
90
330
1F
100
AcDbEntity
  8
2
  6
CONTINUOUS
 62
     7
100
AcDbLine
 10
637.6889834367731
 20
8.964320184967136
 30
0.0
 11
638.2789981368952
 21
8.964320184967136
 31
0.0
  0
CIRCLE
  5
91
330
1F
100
AcDbEntity
  8
2
  6
CONTINUOUS
 62
     7
100
AcDbCircle
 10
642.25
 20
113.4999875
 30
0.0
 40
2.500000000000002
  0
LINE
  5
92
330
1F
100
AcDbEntity
  8
2
  6
CONTINUOUS
 62
   253
100
AcDbLine
 10
617.1626717069842
 20
208.2587947235675
 30
0.0
 11
617.0968413584062
 21
207.885452264499
 31
0.0
  0
LINE
  5
93
330
1F
100
AcDbEntity
  8
2
  6
CONTINUOUS
 62
     7
100
AcDbLine
 10
647.2500000000001
 20
109.2015496187164
 30
0.0
 11
647.2500000000001
 21
133.4999875
 31
0.0
  0
LINE
  5
94
330
1F
100
AcDbEntity
  8
2
  6
CONTINUOUS
 62
     7
100
AcDbLine
 10
569.7210018631048
 20
8.964320184967136
 30
0.0
 11
570.3110165632268
 21
8.964320184967136
 31
0.0
  0
LINE
  5
95
330
1F
100
AcDbEntity
  8
2
  6
CONTINUOUS
 62
     7
100
AcDbLine
 10
560.7500000000003
 20
133.4999875
 30
0.0
 11
560.7500000000001
 21
109.2015496187164
 31
0.0
  0
ELLIPSE
  5
96
330
1F
100
AcDbEntity
  8
2
  6
CONTINUOUS
 62
   253
100
AcDbEllipse
 10
568.749070261015
 20
197.6931506756127
 30
0.0
 11
1.217522858017426
 21
1.58670668058248
 31
0.0
210
0.0
220
0.0
230
1.0
 40
0.9997859007887517
 41
1.003661345784637
 42
2.137931307805149
  0
LINE
  5
97
330
1F
100
AcDbEntity
  8
2
  6
CONTINUOUS
 62
   253
100
AcDbLine
 10
592.2052005010208
 20
208.4999875
 30
0.0
 11
592.2710308495988
 21
208.1266450409315
 31
0.0
  0
LINE
  5
98
330
1F
100
AcDbEntity
  8
2
  6
CONTINUOUS
 62
     7
100
AcDbLine
 10
646.8116708592348
 20
107.9521595236076
 30
0.0
 11
639.8492238694198
 21
99.25042630433859
 31
0.0
  0
CIRCLE
  5
99
330
1F
100
AcDbEntity
  8
2
  6
CONTINUOUS
 62
     7
100
AcDbCircle
 10
565.75
 20
113.4999875
 30
0.0
 40
2.500000000000002
  0
ELLIPSE
  5
9A
330
1F
100
AcDbEntity
  8
2
  6
CONTINUOUS
 62
     7
100
AcDbEllipse
 10
639.6022926138425
 20
197.9627608920647
 30
0.0
 11
1.587046465979051
 21
1.217783584522358
 31
0.0
210
0.0
220
0.0
230
-1.0
 40
0.9997859007887525
 41
5.716050326169321
 42
6.850320288189856
  0
CIRCLE
  5
9B
330
1F
100
AcDbEntity
  8
2
  6
CONTINUOUS
 62
     7
100
AcDbCircle
 10
-604.0000000000001
 20
203.4999875
 30
0.0
 40
2.500000000000002
210
0.0
220
0.0
230
-1.0
  0
ELLIPSE
  5
9C
330
1F
100
AcDbEntity
  8
2
  6
CONTINUOUS
 62
     7
100
AcDbEllipse
 10
638.2876290173862
 20
100.5002921560878
 30
0.0
 11
-0.392064560686016
 21
1.961517980218153
 31
0.0
210
0.0
220
0.0
230
-1.0
 40
0.9998416118300394
 41
2.442967964365003
 42
3.338840592959862
  0
ELLIPSE
  5
9D
330
1F
100
AcDbEntity
  8
2
  6
CONTINUOUS
 62
     7
100
AcDbEllipse
 10
615.79458463899
 20
204.4993781878244
 30
0.0
 11
0.6947018059927031
 21
3.939849722382017
 31
0.0
210
0.0
220
0.0
230
-1.0
 40
0.9998429609308022
 41
6.108679237369794
 42
6.457691376989381
  0
ELLIPSE
  5
9E
330
1F
100
AcDbEntity
  8
2
  6
CONTINUOUS
 62
     7
100
AcDbEllipse
 10
645.2496953439122
 20
109.2015496187164
 30
0.0
 11
2.000304656087817
 21
0.0
 31
0.0
210
0.0
220
0.0
230
-1.0
 40
0.9998476951563912
 41
0.0
 42
0.6747409422235536
  0
ELLIPSE
  5
9F
330
1F
100
AcDbEntity
  8
2
  6
CONTINUOUS
 62
     7
100
AcDbEllipse
 10
592.2054153610098
 20
204.4993781878244
 30
0.0
 11
-0.6947018059927031
 21
3.939849722382017
 31
0.0
210
0.0
220
0.0
230
-1.0
 40
0.9998429609308022
 41
6.108679237369792
 42
6.457691376989379
  0
ELLIPSE
  5
A0
330
1F
100
AcDbEntity
  8
2
  6
CONTINUOUS
 62
     7
100
AcDbEllipse
 10
568.3977073861575
 20
197.9627608920647
 30
0.0
 11
-1.587046465979051
 21
1.217783584522358
 31
0.0
210
0.0
220
0.0
230
-1.0
 40
0.9997859007887525
 41
5.716050326169319
 42
6.850320288189839
  0
ELLIPSE
  5
A1
330
1F
100
AcDbEntity
  8
2
  6
CONTINUOUS
 62
   253
100
AcDbEllipse
 10
639.250929738985
 20
197.6931506756127
 30
0.0
 11
1.217522858017443
 21
-1.586706680582472
 31
0.0
210
0.0
220
0.0
230
1.0
 40
0.9997859007887517
 41
1.003661345784645
 42
2.13793130780518
  0
LINE
  5
A2
330
1F
100
AcDbEntity
  8
2
  6
CONTINUOUS
 62
     7
100
AcDbLine
 10
615.7947994989792
 20
208.4999875
 30
0.0
 11
592.2052005010207
 21
208.4999875
 31
0.0
  0
LINE
  5
A3
330
1F
100
AcDbEntity
  8
2
  6
CONTINUOUS
 62
     7
100
AcDbLine
 10
617.1626717069842
 20
208.2587947235675
 30
0.0
 11
640.2868018361047
 21
199.8422996632693
 31
0.0
  0
LWPOLYLINE
  5
A4
330
1F
100
AcDbEntity
  8
2
  6
CONTINUOUS
 62
     7
100
AcDbPolyline
 90
       29
 70
     0
 43
0.0
 10
-573.5918945589556
 20
45.14155618223206
 10
-573.5927077021582
 20
45.16602571520887
 10
-573.5947180055525
 20
45.19042610246891
 10
-573.5979206478036
 20
45.21469882427134
 10
-573.6023079479764
 20
45.2387856670569
 10
-573.6078693839563
 20
45.26262886306223
 10
-573.6145916176849
 20
45.28617122886495
 10
-573.6224585271485
 20
45.30935630252734
 10
-573.6314512450441
 20
45.33212847900972
 10
-573.6415482040286
 20
45.35443314352863
 10
-573.6527251884444
 20
45.3762168025402
 10
-573.6649553923959
 20
45.39742721203422
 10
-573.6782094840388
 20
45.41801350283177
 10
-573.6924556759265
 20
45.43792630258515
 10
-573.707659801246
 20
45.4571178541884
 10
-573.723785395762
 20
45.47554213031358
 10
-573.7407937852681
 20
45.49315494379871
 10
-573.75864417834
 20
45.50991405362237
 10
-573.7772937641664
 20
45.52577926621089
 10
-573.7966978152224
 20
45.54071253183498
 10
-573.81680979454
 20
45.55467803586497
 10
-573.8375814673185
 20
45.56764228466535
 10
-573.8589630166065
 20
45.57957418592306
 10
-573.8809031627784
 20
45.5904451232165
 10
-573.903349286519
 20
45.60022902464659
 10
-573.9262475550208
 20
45.60890242536546
 10
-573.9495430510927
 20
45.61644452385232
 10
-573.9731799048677
 20
45.62283723180209
 10
-573.997101427796
 20
45.62806521750679
210
0.0
220
0.0
230
-1.0
  0
LWPOLYLINE
  5
A5
330
1F
100
AcDbEntity
  8
2
  6
CONTINUOUS
 62
     7
100
AcDbPolyline
 90
       33
 70
     0
 43
0.0
 10
-570.8109404108095
 20
9.455593981999161
 10
-570.8099281147161
 20
9.43134650166437
 10
-570.8077404527634
 20
9.407176702717207
 10
-570.804382578777
 20
9.383141525824632
 10
-570.7998624034385
 20
9.359297594502907
 10
-570.7941905756488
 20
9.335701081720465
 10
-570.7873804574416
 20
9.312407577562256
 10
-570.7794480925029
 20
9.289471958267265
 10
-570.7704121683754
 20
9.266948256947751
 10
-570.7602939724334
 20
9.24488953629489
 10
-570.7491173417311
 20
9.223347763570352
 10
-570.7369086068486
 20
9.202373688178778
 10
-570.7236965298576
 20
9.182016722109305
 10
-570.7095122365648
 20
9.162324823527745
 10
-570.6943891431818
 20
9.143344383793911
 10
-570.6783628776018
 20
9.125120118170043
 10
-570.6614711954661
 20
9.107694960477906
 10
-570.6437538912162
 20
9.091109961952698
 10
-570.6252527043436
 20
9.07540419453212
 10
-570.6060112210578
 20
9.060614658808252
 10
-570.5860747716032
 20
9.04677619685948
 10
-570.565490323467
 20
9.033921410167302
 10
-570.5443063707314
 20
9.02208058281187
 10
-570.5225728198271
 20
9.011281610126861
 10
-570.500340871961
 20
9.001549932982092
 10
-570.4776629024943
 20
8.99290847784824
 10
-570.454592337552
 20
8.985377602785393
 10
-570.4311835281596
 20
8.97897504948228
 10
-570.4074916221992
 20
8.973715901459276
 10
-570.3835724344887
 20
8.969612548533831
 10
-570.3594823152898
 20
8.966674657631707
 10
-570.3352780175554
 20
8.964909150013106
 10
-570.3110165632268
 20
8.964320184967136
210
0.0
220
0.0
230
-1.0
  0
LWPOLYLINE
  5
A6
330
1F
100
AcDbEntity
  8
2
  6
CONTINUOUS
 62
     7
100
AcDbPolyline
 90
       33
 70
     0
 43
0.0
 10
-637.6889834367731
 20
8.964320184967136
 10
-637.6647219824446
 20
8.964909150013106
 10
-637.6405176847102
 20
8.966674657631692
 10
-637.6164275655113
 20
8.969612548533817
 10
-637.5925083778008
 20
8.973715901459276
 10
-637.5688164718403
 20
8.97897504948228
 10
-637.545407662448
 20
8.985377602785393
 10
-637.5223370975058
 20
8.992908477848227
 10
-637.4996591280391
 20
9.001549932982078
 10
-637.4774271801731
 20
9.011281610126861
 10
-637.4556936292686
 20
9.022080582811856
 10
-637.434509676533
 20
9.033921410167302
 10
-637.413925228397
 20
9.04677619685948
 10
-637.3939887789423
 20
9.060614658808252
 10
-637.3747472956564
 20
9.075404194532108
 10
-637.3562461087838
 20
9.091109961952698
 10
-637.3385288045339
 20
9.107694960477891
 10
-637.3216371223983
 20
9.125120118170043
 10
-637.3056108568185
 20
9.143344383793911
 10
-637.2904877634352
 20
9.162324823527745
 10
-637.2763034701422
 20
9.182016722109305
 10
-637.2630913931514
 20
9.202373688178778
 10
-637.2508826582688
 20
9.223347763570338
 10
-637.2397060275667
 20
9.244889536294876
 10
-637.2295878316245
 20
9.266948256947751
 10
-637.2205519074971
 20
9.289471958267251
 10
-637.2126195425585
 20
9.312407577562256
 10
-637.2058094243511
 20
9.335701081720465
 10
-637.2001375965617
 20
9.359297594502907
 10
-637.1956174212231
 20
9.383141525824618
 10
-637.1922595472365
 20
9.407176702717193
 10
-637.1900718852838
 20
9.43134650166437
 10
-637.1890595891907
 20
9.455593981999147
210
0.0
220
0.0
230
-1.0
  0
LWPOLYLINE
  5
A7
330
1F
100
AcDbEntity
  8
2
  6
CONTINUOUS
 62
     7
100
AcDbPolyline
 90
       29
 70
     0
 43
0.0
 10
-634.0028985722039
 20
45.62806521750679
 10
-634.0268200951323
 20
45.6228372318021
 10
-634.0504569489071
 20
45.61644452385233
 10
-634.073752444979
 20
45.60890242536546
 10
-634.096650713481
 20
45.60022902464659
 10
-634.1190968372216
 20
45.5904451232165
 10
-634.1410369833935
 20
45.57957418592306
 10
-634.1624185326815
 20
45.56764228466537
 10
-634.1831902054599
 20
45.55467803586497
 10
-634.2033021847777
 20
45.54071253183499
 10
-634.2227062358337
 20
45.52577926621089
 10
-634.24135582166
 20
45.50991405362238
 10
-634.259206214732
 20
45.49315494379871
 10
-634.276214604238
 20
45.4755421303136
 10
-634.292340198754
 20
45.45711785418842
 10
-634.3075443240738
 20
45.43792630258517
 10
-634.3217905159613
 20
45.41801350283177
 10
-634.3350446076041
 20
45.39742721203424
 10
-634.3472748115557
 20
45.3762168025402
 10
-634.3584517959715
 20
45.35443314352865
 10
-634.3685487549559
 20
45.33212847900972
 10
-634.3775414728514
 20
45.30935630252734
 10
-634.3854083823151
 20
45.28617122886495
 10
-634.3921306160437
 20
45.26262886306225
 10
-634.3976920520237
 20
45.23878566705691
 10
-634.4020793521964
 20
45.21469882427134
 10
-634.4052819944477
 20
45.19042610246891
 10
-634.4072922978419
 20
45.16602571520887
 10
-634.4081054410445
 20
45.14155618223206
210
0.0
220
0.0
230
-1.0
  0
LWPOLYLINE
  5
A8
330
1F
100
AcDbEntity
  8
2
  6
CONTINUOUS
 62
     7
100
AcDbPolyline
 90
       33
 70
     0
 43
0.0
 10
571.8689151587351
 20
47.66189320976577
 10
571.8492177968004
 20
47.65746328944503
 10
571.829713728653
 20
47.65224003572742
 10
571.8101165765712
 20
47.64612287005789
 10
571.7907688669408
 20
47.63919771701766
 10
571.7717194505439
 20
47.63148272935747
 10
571.7530171781626
 20
47.62299605982803
 10
571.7343550561789
 20
47.61357173664488
 10
571.7161017174261
 20
47.60337230630061
 10
571.6985896071319
 20
47.5926077713803
 10
571.681533753221
 20
47.5811294938477
 10
571.6646804168292
 20
47.56873674705911
 10
571.648345411124
 20
47.55563512433118
 10
571.6325715124033
 20
47.5418602966098
 10
571.6174014969655
 20
47.52744793484087
 10
571.6025841517695
 20
47.51212357511851
 10
571.5884338713744
 20
47.49618019033841
 10
571.5753961718492
 20
47.48018373021888
 10
571.5630303491747
 20
47.4636626008697
 10
571.551278902313
 20
47.44652423429684
 10
571.5402505120077
 20
47.42891324277046
 10
571.529747717901
 20
47.41045979258931
 10
571.5200385258494
 20
47.39157932570674
 10
571.5110780489871
 20
47.37216222813417
 10
571.5029563236737
 20
47.35238346856431
 10
571.495931301256
 20
47.3329975169049
 10
571.4897112481129
 20
47.31334319801037
 10
571.4842720153704
 20
47.2933154225589
 10
571.4796674587483
 20
47.27308537077518
 10
571.4758329688384
 20
47.2522438570558
 10
571.4728827717911
 20
47.23126644854185
 10
571.4708099070141
 20
47.21003694657588
 10
571.4696407130652
 20
47.18874784374799
  0
LWPOLYLINE
  5
A9
330
1F
100
AcDbEntity
  8
2
  6
CONTINUOUS
 62
     7
100
AcDbPolyline
 90
       33
 70
     0
 43
0.0
 10
636.5303592869348
 20
47.18874784374798
 10
636.5292769830118
 20
47.20888015439524
 10
636.5273865192311
 20
47.22896108551161
 10
636.5246359111301
 20
47.24928894419708
 10
636.5210519995867
 20
47.26951150608111
 10
636.5166438885942
 20
47.28957708923542
 10
636.5114206821454
 20
47.30943401173177
 10
636.5052699135218
 20
47.32941235122759
 10
636.4982894423365
 20
47.34912113931641
 10
636.4906300061144
 20
47.36819639740805
 10
636.4821924840087
 20
47.38694421363223
 10
636.4728215072474
 20
47.405648281134
 10
636.4626661307911
 20
47.42396235605148
 10
636.4517539578351
 20
47.44183797056345
 10
636.4401125915741
 20
47.45922665684872
 10
636.4275136805985
 20
47.47642215243775
 10
636.4141925354994
 20
47.49306478822727
 10
636.4006313467332
 20
47.50861944654426
 10
636.3864394791914
 20
47.5236000598011
 10
636.3715351288483
 20
47.53807869301764
 10
636.3560421383398
 20
47.55192352825605
 10
636.3396290405572
 20
47.56539135282851
 10
636.3226596279676
 20
47.5781475338473
 10
636.3050330587203
 20
47.59025448440743
 10
636.2869061782352
 20
47.60159359318995
 10
636.2689789111895
 20
47.61178321497661
 10
636.2506483506126
 20
47.62122203062757
 10
636.2318144643723
 20
47.62995112015825
 10
636.212636437329
 20
47.63788815044485
 10
636.1927208415339
 20
47.64516494343635
 10
636.1725167778477
 20
47.65158840392012
 10
636.1519099172726
 20
47.65718416372358
 10
636.1310848412649
 20
47.66189320976576
  0
LINE
  5
AA
330
1F
100
AcDbEntity
  8
2
  6
CONTINUOUS
 62
     7
100
AcDbLine
 10
616.2142858289046
 20
206.5042435564388
 30
0.0
 11
616.1192972336548
 21
206.6629404710822
 31
0.0
  0
ELLIPSE
  5
AB
330
1F
100
AcDbEntity
  8
2
  6
CONTINUOUS
 62
   253
100
AcDbEllipse
 10
566.5461984464908
 20
134.7849737592063
 30
0.0
 11
-5.004111904556969
 21
-0.2544250082380192
 31
0.0
210
0.0
220
0.0
230
-1.0
 40
0.9978290300264167
 41
5.810076644402783
 42
6.420845840262394
  0
LINE
  5
AC
330
1F
100
AcDbEntity
  8
2
  6
CONTINUOUS
 62
   253
100
AcDbLine
 10
629.4069156216657
 20
99.22864115176498
 30
0.0
 11
629.4069156216657
 21
99.63050693177408
 31
0.0
  0
LINE
  5
AD
330
1F
100
AcDbEntity
  8
2
  6
CONTINUOUS
 62
     7
100
AcDbLine
 10
578.0911285244472
 20
99.20611450256082
 30
0.0
 11
573.9971014277961
 21
99.19232074483928
 31
0.0
  0
LINE
  5
AE
330
1F
100
AcDbEntity
  8
2
  6
CONTINUOUS
 62
   253
100
AcDbLine
 10
617.2495620093144
 20
206.4706568393264
 30
0.0
 11
619.2794453228782
 21
189.9308668769546
 31
0.0
  0
LINE
  5
AF
330
1F
100
AcDbEntity
  8
2
  6
CONTINUOUS
 62
     7
100
AcDbLine
 10
573.25
 20
98.4999875
 30
0.0
 11
569.7122492037055
 21
98.4999875
 31
0.0
  0
LINE
  5
B0
330
1F
100
AcDbEntity
  8
2
  6
CONTINUOUS
 62
     7
100
AcDbLine
 10
634.0028985722039
 20
99.19232074483926
 30
0.0
 11
634.4081054410445
 21
99.18382869804037
 31
0.0
  0
LINE
  5
B1
330
1F
100
AcDbEntity
  8
2
  6
CONTINUOUS
 62
     7
100
AcDbLine
 10
571.8689151587351
 20
103.4984671266577
 30
0.0
 11
571.4696407130652
 21
103.4996592917323
 31
0.0
  0
LINE
  5
B2
330
1F
100
AcDbEntity
  8
2
  6
CONTINUOUS
 62
     7
100
AcDbLine
 10
629.7677646653804
 20
103.498634411615
 30
0.0
 11
636.1254119947845
 21
103.498634411615
 31
0.0
  0
LINE
  5
B3
330
1F
100
AcDbEntity
  8
2
  6
CONTINUOUS
 62
   253
100
AcDbLine
 10
635.2720835043855
 20
99.20993561161214
 30
0.0
 11
630.0684660852063
 21
99.22753039425704
 31
0.0
  0
LINE
  5
B4
330
1F
100
AcDbEntity
  8
2
  6
CONTINUOUS
 62
     7
100
AcDbLine
 10
591.8807027663453
 20
206.6629404710822
 30
0.0
 11
591.7857141710958
 21
206.5042435564391
 31
0.0
  0
LINE
  5
B5
330
1F
100
AcDbEntity
  8
2
  6
CONTINUOUS
 62
     7
100
AcDbLine
 10
629.9088714755528
 20
99.20611450256082
 30
0.0
 11
634.0028985722039
 21
99.19232074483926
 31
0.0
  0
LINE
  5
B6
330
1F
100
AcDbEntity
  8
2
  6
CONTINUOUS
 62
     7
100
AcDbLine
 10
571.4696407130652
 20
103.4996592917323
 30
0.0
 11
571.4694335112507
 21
103.4999875
 31
0.0
  0
LINE
  5
B7
330
1F
100
AcDbEntity
  8
2
  6
CONTINUOUS
 62
   253
100
AcDbLine
 10
619.3311329787622
 20
189.8212818937404
 30
0.0
 11
640.677360009412
 21
185.7568183412756
 31
0.0
  0
LINE
  5
B8
330
1F
100
AcDbEntity
  8
2
  6
CONTINUOUS
 62
   253
100
AcDbLine
 10
636.5303592869348
 20
103.4996592917323
 30
0.0
 11
635.7622991686377
 21
99.61180139162124
 31
0.0
  0
LINE
  5
B9
330
1F
100
AcDbEntity
  8
2
  6
CONTINUOUS
 62
   253
100
AcDbLine
 10
598.6248519072144
 20
206.309387080489
 30
0.0
 11
598.5758136551277
 21
203.4999875
 31
0.0
  0
LINE
  5
BA
330
1F
100
AcDbEntity
  8
2
  6
CONTINUOUS
 62
     7
100
AcDbLine
 10
617.0968413584063
 20
207.885452264499
 30
0.0
 11
617.153308794909
 21
207.8611403787996
 31
0.0
  0
ELLIPSE
  5
BB
330
1F
100
AcDbEntity
  8
2
  6
CONTINUOUS
 62
   253
100
AcDbEllipse
 10
572.7279164956145
 20
99.70985945919034
 30
0.0
 11
0.3904402070924055
 21
-0.312340270675496
 31
0.0
210
0.0
220
0.0
230
-1.0
 40
0.9997502639897721
 41
0.8961957947358664
 42
2.269322428640841
  0
ELLIPSE
  5
BC
330
1F
100
AcDbEntity
  8
2
  6
CONTINUOUS
 62
   253
100
AcDbEllipse
 10
577.9315339147937
 20
99.72745424183525
 30
0.0
 11
0.001690620259771757
 21
-0.4999971417949667
 31
0.0
210
0.0
220
0.0
230
-1.0
 40
0.1901759170598179
 41
0.0177777695424172
 42
1.396461336990924
  0
LINE
  5
BD
330
1F
100
AcDbEntity
  8
2
  6
CONTINUOUS
 62
   253
100
AcDbLine
 10
578.5930843783344
 20
99.22864115176498
 30
0.0
 11
578.5930843783344
 21
99.63050693177408
 31
0.0
  0
LINE
  5
BE
330
1F
100
AcDbEntity
  8
2
  6
CONTINUOUS
 62
     7
100
AcDbLine
 10
571.4694335112507
 20
103.4999875
 30
0.0
 11
571.4645124861047
 21
115.3559463470841
 31
0.0
  0
LINE
  5
BF
330
1F
100
AcDbEntity
  8
2
  6
CONTINUOUS
 62
   253
100
AcDbLine
 10
609.4241863448724
 20
203.4999875
 30
0.0
 11
609.3751480927857
 21
206.309387080489
 31
0.0
  0
LINE
  5
C0
330
1F
100
AcDbEntity
  8
2
  6
CONTINUOUS
 62
     7
100
AcDbLine
 10
636.5305664887495
 20
103.4999875
 30
0.0
 11
636.5303592869349
 21
103.4996592917323
 31
0.0
  0
LINE
  5
C1
330
1F
100
AcDbEntity
  8
2
  6
CONTINUOUS
 62
     7
100
AcDbLine
 10
573.5918945589556
 20
99.18382869804036
 30
0.0
 11
573.9971014277961
 21
99.19232074483925
 31
0.0
  0
LINE
  5
C2
330
1F
100
AcDbEntity
  8
2
  6
CONTINUOUS
 62
   253
100
AcDbLine
 10
588.7205546771219
 20
189.9308668769545
 30
0.0
 11
590.7504379906857
 21
206.4706568393262
 31
0.0
  0
LINE
  5
C3
330
1F
100
AcDbEntity
  8
2
  6
CONTINUOUS
 62
     7
100
AcDbLine
 10
571.8745880052156
 20
103.498634411615
 30
0.0
 11
578.2322353346198
 21
103.498634411615
 31
0.0
  0
LINE
  5
C4
330
1F
100
AcDbEntity
  8
2
  6
CONTINUOUS
 62
   253
100
AcDbLine
 10
570.7690223771724
 20
117.5241183672691
 30
0.0
 11
562.2074361692711
 21
132.2832939231613
 31
0.0
  0
LINE
  5
C5
330
1F
100
AcDbEntity
  8
2
  6
CONTINUOUS
 62
     7
100
AcDbLine
 10
578.0911285244472
 20
99.20611450256082
 30
0.0
 11
578.572238283473
 21
99.20691762959282
 31
0.0
  0
LINE
  5
C6
330
1F
100
AcDbEntity
  8
2
  6
CONTINUOUS
 62
     7
100
AcDbLine
 10
573.5918945589556
 20
99.18382869804037
 30
0.0
 11
573.25
 21
98.4999875
 31
0.0
  0
ELLIPSE
  5
C7
330
1F
100
AcDbEntity
  8
2
  6
CONTINUOUS
 62
   253
100
AcDbEllipse
 10
578.5157140990162
 20
99.16612028894498
 30
0.0
 11
3.518763519449891
 21
0.001375137442693155
 31
0.0
210
0.0
220
0.0
230
1.0
 40
0.0177635517900694
 41
1.548799695899153
 42
1.73758023829272
  0
LINE
  5
C8
330
1F
100
AcDbEntity
  8
2
  6
CONTINUOUS
 62
     7
100
AcDbLine
 10
647.2500000000001
 20
133.4999875
 30
0.0
 11
641.5949516777305
 21
198.1374855981846
 31
0.0
  0
ELLIPSE
  5
C9
330
1F
100
AcDbEntity
  8
2
  6
CONTINUOUS
 62
   253
100
AcDbEllipse
 10
566.4395548575687
 20
115.0244991293781
 30
0.0
 11
-1.294095225512618
 21
4.829629131445335
 31
0.0
210
0.0
220
0.0
230
1.0
 40
0.9998367628379624
 41
4.45063040232227
 42
4.974147558447103
  0
ELLIPSE
  5
CA
330
1F
100
AcDbEntity
  8
2
  6
CONTINUOUS
 62
   253
100
AcDbEllipse
 10
641.5604451424313
 20
115.0244991293781
 30
0.0
 11
-1.294095225512615
 21
-4.829629131445336
 31
0.0
210
0.0
220
0.0
230
1.0
 40
0.9998367628379624
 41
4.450630402322277
 42
4.974147558447105
  0
LINE
  5
CB
330
1F
100
AcDbEntity
  8
2
  6
CONTINUOUS
 62
   253
100
AcDbLine
 10
561.5545887589491
 20
135.2181599301903
 30
0.0
 11
565.679942641507
 21
182.435737467204
 31
0.0
  0
LINE
  5
CC
330
1F
100
AcDbEntity
  8
2
  6
CONTINUOUS
 62
   253
100
AcDbLine
 10
591.7857141710958
 20
206.504243556439
 30
0.0
 11
589.755830857532
 21
189.9644535940672
 31
0.0
  0
LINE
  5
CD
330
1F
100
AcDbEntity
  8
2
  6
CONTINUOUS
 62
     7
100
AcDbLine
 10
616.1192972336548
 20
206.6629404710822
 30
0.0
 11
615.7854365869041
 21
208.0050856124348
 31
0.0
  0
ELLIPSE
  5
CE
330
1F
100
AcDbEntity
  8
2
  6
CONTINUOUS
 62
   253
100
AcDbEllipse
 10
567.6720285871351
 20
182.2614525301922
 30
0.0
 11
1.99241007768871
 21
-0.1740749330733282
 31
0.0
210
0.0
220
0.0
230
1.0
 40
0.006801730291737
 41
1.762829304813546
 42
3.124138957289472
  0
ELLIPSE
  5
CF
330
1F
100
AcDbEntity
  8
2
  6
CONTINUOUS
 62
   253
100
AcDbEllipse
 10
640.327971412865
 20
182.2614525301923
 30
0.0
 11
1.992410077688703
 21
0.1740749330733344
 31
0.0
210
0.0
220
0.0
230
1.0
 40
0.0068017302917394
 41
0.0174536963005036
 42
1.378763348776249
  0
LINE
  5
D0
330
1F
100
AcDbEntity
  8
2
  6
CONTINUOUS
 62
   253
100
AcDbLine
 10
577.9315339147937
 20
99.22753039425706
 30
0.0
 11
572.7279164956145
 21
99.20993561161215
 31
0.0
  0
LINE
  5
D1
330
1F
100
AcDbEntity
  8
2
  6
CONTINUOUS
 62
     7
100
AcDbLine
 10
636.5354875138953
 20
115.3559463470841
 30
0.0
 11
636.5305664887494
 21
103.4999875
 31
0.0
  0
LINE
  5
D2
330
1F
100
AcDbEntity
  8
2
  6
CONTINUOUS
 62
     7
100
AcDbLine
 10
638.2877507962947
 20
98.4999875
 30
0.0
 11
634.7500000000001
 21
98.4999875
 31
0.0
  0
LINE
  5
D3
330
1F
100
AcDbEntity
  8
2
  6
CONTINUOUS
 62
   253
100
AcDbLine
 10
618.2441691424682
 20
189.9644535940672
 30
0.0
 11
616.2142858289044
 21
206.5042435564388
 31
0.0
  0
LINE
  5
D4
330
1F
100
AcDbEntity
  8
2
  6
CONTINUOUS
 62
   253
100
AcDbLine
 10
572.2377008313624
 20
99.61180139162124
 30
0.0
 11
571.4696407130652
 21
103.4996592917323
 31
0.0
  0
ELLIPSE
  5
D5
330
1F
100
AcDbEntity
  8
2
  6
CONTINUOUS
 62
     7
100
AcDbEllipse
 10
571.9703955896127
 20
100.998634411615
 30
0.0
 11
0.09964126382778087
 21
-2.499923658606234
 31
0.0
210
0.0
220
0.0
230
1.0
 40
0.1960751254723085
 41
3.133777704719527
 42
3.145346172998557
  0
ELLIPSE
  5
D6
330
1F
100
AcDbEntity
  8
2
  6
CONTINUOUS
 62
   253
100
AcDbEllipse
 10
629.4842859009837
 20
99.16612028894498
 30
0.0
 11
-3.518763519449891
 21
0.001375137442693141
 31
0.0
210
0.0
220
0.0
230
1.0
 40
0.0177635517900694
 41
4.545605068886863
 42
4.734385611280431
  0
LINE
  5
D7
330
1F
100
AcDbEntity
  8
2
  6
CONTINUOUS
 62
   253
100
AcDbLine
 10
609.3751480927857
 20
206.309387080489
 30
0.0
 11
609.3209772642839
 21
207.6267211933533
 31
0.0
  0
LINE
  5
D8
330
1F
100
AcDbEntity
  8
2
  6
CONTINUOUS
 62
     7
100
AcDbLine
 10
617.3102287326
 20
207.0692640278008
 30
0.0
 11
617.2495620093148
 21
206.4706568393262
 31
0.0
  0
LINE
  5
D9
330
1F
100
AcDbEntity
  8
2
  6
CONTINUOUS
 62
   253
100
AcDbLine
 10
629.4069156216657
 20
99.22864115176498
 30
0.0
 11
578.5930843783344
 21
99.22864115176498
 31
0.0
  0
LINE
  5
DA
330
1F
100
AcDbEntity
  8
2
  6
CONTINUOUS
 62
     7
100
AcDbLine
 10
636.5303592869348
 20
103.4996592917323
 30
0.0
 11
636.1310848412649
 21
103.4984671266577
 31
0.0
  0
ELLIPSE
  5
DB
330
1F
100
AcDbEntity
  8
2
  6
CONTINUOUS
 62
   253
100
AcDbEllipse
 10
571.4117980148847
 20
129.0193983482104
 30
0.0
 11
0.02670730219175371
 21
-13.99493807073949
 31
0.0
210
0.0
220
0.0
230
-1.0
 40
0.0087986405134511
 41
6.065118438294927
 42
6.280845710089499
  0
LINE
  5
DC
330
1F
100
AcDbEntity
  8
2
  6
CONTINUOUS
 62
   253
100
AcDbLine
 10
642.320057358493
 20
182.4357374672041
 30
0.0
 11
646.445411241051
 21
135.2181599301904
 31
0.0
  0
LINE
  5
DD
330
1F
100
AcDbEntity
  8
2
  6
CONTINUOUS
 62
     7
100
AcDbLine
 10
619.6092750393518
 20
187.2036177797016
 30
0.0
 11
619.6025361957807
 21
186.3264219416859
 31
0.0
  0
ELLIPSE
  5
DE
330
1F
100
AcDbEntity
  8
2
  6
CONTINUOUS
 62
   253
100
AcDbEllipse
 10
630.0684660852063
 20
99.72745424183525
 30
0.0
 11
-0.001690620259772405
 21
-0.4999971417949667
 31
0.0
210
0.0
220
0.0
230
1.0
 40
0.1901759170598152
 41
0.0177777695424172
 42
1.39646133699094
  0
LINE
  5
DF
330
1F
100
AcDbEntity
  8
2
  6
CONTINUOUS
 62
     7
100
AcDbLine
 10
634.4081054410445
 20
99.18382869804036
 30
0.0
 11
634.75
 21
98.49998749999999
 31
0.0
  0
ELLIPSE
  5
E0
330
1F
100
AcDbEntity
  8
2
  6
CONTINUOUS
 62
     7
100
AcDbEllipse
 10
636.0296044103875
 20
100.998634411615
 30
0.0
 11
0.09964126382778091
 21
2.49992365860623
 31
0.0
210
0.0
220
0.0
230
1.0
 40
0.1960751254723088
 41
6.279431787770839
 42
6.291000256049843
  0
ELLIPSE
  5
E1
330
1F
100
AcDbEntity
  8
2
  6
CONTINUOUS
 62
   253
100
AcDbEllipse
 10
641.4538015535092
 20
134.7849737592063
 30
0.0
 11
5.004111904556969
 21
-0.2544250082380192
 31
0.0
210
0.0
220
0.0
230
-1.0
 40
0.9978290300264167
 41
6.145524774096777
 42
6.756293969956382
  0
MTEXT
  5
E2
330
1F
100
AcDbEntity
  8
2
 62
     1
100
AcDbMText
 10
669.3590096286107
 20
-15.75792172064522
 30
0.0
 40
3.0
 41
0.0
 71
     1
 72
     1
  1
{\fＭＳ ゴシック;MIDW-60}
  0
ELLIPSE
  5
E3
330
1F
100
AcDbEntity
  8
2
  6
CONTINUOUS
 62
     7
100
AcDbEllipse
 10
719.535679815033
 20
83.49863441161494
 30
0.0
 11
-3.931802194456479
 21
19.99947732227878
 31
0.0
210
0.0
220
0.0
230
1.0
 40
0.0367749839585337
 41
6.275955646068288
 42
6.277101107836344
  0
LINE
  5
E4
330
1F
100
AcDbEntity
  8
2
  6
CONTINUOUS
 62
     7
100
AcDbLine
 10
755.0440671043111
 20
98.56093382656984
 30
0.0
 11
717.862779740944
 21
99.20993561161214
 31
0.0
  0
LINE
  5
E5
330
1F
100
AcDbEntity
  8
2
  6
CONTINUOUS
 62
     7
100
AcDbLine
 10
716.8547753183146
 20
99.22753039425706
 30
0.0
 11
716.791140063305
 21
99.22864115176498
 31
0.0
  0
ELLIPSE
  5
E6
330
1F
100
AcDbEntity
  8
2
  6
CONTINUOUS
 62
   253
100
AcDbEllipse
 10
720.5340349027967
 20
129.0193983482104
 30
0.0
 11
1.599085975336842
 21
11.50352945579356
 31
0.0
210
0.0
220
0.0
230
1.0
 40
0.1721744432040439
 41
2.994591261777249
 42
3.210318533571797
  0
ELLIPSE
  5
E7
330
1F
100
AcDbEntity
  8
2
  6
CONTINUOUS
 62
   253
100
AcDbEllipse
 10
724.6179308299991
 20
182.0699729787568
 30
0.0
 11
2.851717450138208
 21
-4.234077552847881
 31
0.0
210
0.0
220
0.0
230
-1.0
 40
0.9787061039519473
 41
2.200543657087515
 42
2.96756041840275
  0
LINE
  5
E8
330
1F
100
AcDbEntity
  8
2
  6
CONTINUOUS
 62
   253
100
AcDbLine
 10
719.0747361758511
 20
117.524118367269
 30
0.0
 11
755.0444060182516
 21
117.3558856837074
 31
0.0
  0
LINE
  5
E9
330
1F
100
AcDbEntity
  8
2
  6
CONTINUOUS
 62
   253
100
AcDbLine
 10
737.1016044323198
 20
199.5722496777093
 30
0.0
 11
758.5356798150328
 21
199.8422996632693
 31
0.0
  0
LINE
  5
EA
330
1F
100
AcDbEntity
  8
2
  6
CONTINUOUS
 62
     7
100
AcDbLine
 10
717.0001459091002
 20
189.9644535940672
 30
0.0
 11
733.5399358714718
 21
206.5042435564388
 31
0.0
  0
LINE
  5
EB
330
1F
100
AcDbEntity
  8
2
  6
CONTINUOUS
 62
   253
100
AcDbLine
 10
717.2057721620541
 20
119.0075991406772
 30
0.0
 11
718.6620899809006
 21
117.6802645385915
 31
0.0
  0
LINE
  5
EC
330
1F
100
AcDbEntity
  8
2
  6
CONTINUOUS
 62
     7
100
AcDbLine
 10
755.0440671043111
 20
98.56093382656984
 30
0.0
 11
756.0269536118144
 21
98.54377747876431
 31
0.0
  0
LINE
  5
ED
330
1F
100
AcDbEntity
  8
2
  6
CONTINUOUS
 62
   253
100
AcDbLine
 10
716.8369812242196
 20
103.498634411615
 30
0.0
 11
717.2057721620541
 21
119.0075991406772
 31
0.0
  0
ELLIPSE
  5
EE
330
1F
100
AcDbEntity
  8
2
  6
CONTINUOUS
 62
   253
100
AcDbEllipse
 10
735.1900125121443
 20
196.8659508651722
 30
0.0
 11
1.399712662604731
 21
-1.428567276030095
 31
0.0
210
0.0
220
0.0
230
1.0
 40
0.0486563047688087
 41
1.645323916405777
 42
2.879475511692565
  0
LINE
  5
EF
330
1F
100
AcDbEntity
  8
2
  6
CONTINUOUS
 62
   253
100
AcDbLine
 10
717.2057721620541
 20
119.0075991406772
 30
0.0
 11
719.1495002822331
 21
133.3296674012811
 31
0.0
  0
LINE
  5
F0
330
1F
100
AcDbEntity
  8
2
  6
CONTINUOUS
 62
     7
100
AcDbLine
 10
715.535679815033
 20
186.2333703757592
 30
0.0
 11
715.6092976019899
 21
186.3264219416858
 31
0.0
  0
ELLIPSE
  5
F1
330
1F
100
AcDbEntity
  8
2
  6
CONTINUOUS
 62
   253
100
AcDbEllipse
 10
722.4256413379147
 20
184.3593981374589
 30
0.0
 11
1.399712662604749
 21
-1.428567276030076
 31
0.0
210
0.0
220
0.0
230
1.0
 40
0.0486563047688105
 41
1.645323916405725
 42
2.879475511692523
  0
ELLIPSE
  5
F2
330
1F
100
AcDbEntity
  8
2
  6
CONTINUOUS
 62
     7
100
AcDbEllipse
 10
755.035679815033
 20
100.9504777432036
 30
0.0
 11
-0.008898905595845717
 21
-2.549509159656849
 31
0.0
210
0.0
220
0.0
230
-1.0
 40
0.1960851175268384
 41
3.140908230601724
 42
3.141247194169363
  0
LINE
  5
F3
330
1F
100
AcDbEntity
  8
2
  6
CONTINUOUS
 62
     7
100
AcDbLine
 10
717.3112521562521
 20
103.4996592917323
 30
0.0
 11
716.8381067902343
 21
103.4984671266577
 31
0.0
  0
LINE
  5
F4
330
1F
100
AcDbEntity
  8
2
  6
CONTINUOUS
 62
   253
100
AcDbLine
 10
717.6012869013985
 20
115.3559463470841
 30
0.0
 11
717.3193615596024
 21
103.4999875
 31
0.0
  0
LINE
  5
F5
330
1F
100
AcDbEntity
  8
2
  6
CONTINUOUS
 62
   253
100
AcDbLine
 10
755.0444060182516
 20
114.8562664458164
 30
0.0
 11
719.0747361758511
 21
115.0244991293781
 31
0.0
  0
ELLIPSE
  5
F6
330
1F
100
AcDbEntity
  8
2
  6
CONTINUOUS
 62
   253
100
AcDbEllipse
 10
720.6212969349831
 20
129.0193983482104
 30
0.0
 11
2.034895237728429
 21
13.95847047899422
 31
0.0
210
0.0
220
0.0
230
-1.0
 40
0.4961681520777312
 41
3.071742355744825
 42
3.287469627539377
  0
ELLIPSE
  5
F7
330
1F
100
AcDbEntity
  8
2
  6
CONTINUOUS
 62
   253
100
AcDbEllipse
 10
718.681676377504
 20
134.8314995421697
 30
0.0
 11
0.07361264262644394
 21
2.999708105122287
 31
0.0
210
0.0
220
0.0
230
1.0
 40
0.1937073046141179
 41
4.192788659901835
 42
4.803557855761445
  0
LINE
  5
F8
330
1F
100
AcDbEntity
  8
2
  6
CONTINUOUS
 62
     7
100
AcDbLine
 10
755.5356798150328
 20
99.60653042959643
 30
0.0
 11
755.5356798150328
 21
108.2645070473848
 31
0.0
  0
LINE
  5
F9
330
1F
100
AcDbEntity
  8
2
  6
CONTINUOUS
 62
     7
100
AcDbLine
 10
758.535679815033
 20
107.9521595236076
 30
0.0
 11
758.535679815033
 21
99.2504263043386
 31
0.0
  0
LINE
  5
FA
330
1F
100
AcDbEntity
  8
2
  6
CONTINUOUS
 62
     7
100
AcDbLine
 10
717.1607892483544
 20
189.9308668769545
 30
0.0
 11
717.0660433616847
 21
189.8212818937403
 31
0.0
  0
ELLIPSE
  5
FB
330
1F
100
AcDbEntity
  8
2
  6
CONTINUOUS
 62
   253
100
AcDbEllipse
 10
720.6448674840257
 20
134.7849737592063
 30
0.0
 11
0.07993445566211954
 21
4.999718280471748
 31
0.0
210
0.0
220
0.0
230
-1.0
 40
0.1091100260276522
 41
1.482301147055057
 42
2.093070342914665
  0
LINE
  5
FC
330
1F
100
AcDbEntity
  8
2
  6
CONTINUOUS
 62
   253
100
AcDbLine
 10
733.8561206193982
 20
198.263371068989
 30
0.0
 11
733.7005792107259
 21
206.4706568393263
 31
0.0
  0
ARC
  5
FD
330
1F
100
AcDbEntity
  8
2
  6
CONTINUOUS
 62
     7
100
AcDbCircle
 10
-720.535679815033
 20
186.4289196881345
 30
0.0
 40
4.999999999999948
210
0.0
220
0.0
230
-1.0
100
AcDbArc
 50
0.0
 51
36.69261492000017
  0
LINE
  5
FE
330
1F
100
AcDbEntity
  8
2
  6
CONTINUOUS
 62
     7
100
AcDbLine
 10
755.5356798150328
 20
108.2645070473848
 30
0.0
 11
755.5356798150328
 21
109.2015496187164
 31
0.0
  0
LINE
  5
FF
330
1F
100
AcDbEntity
  8
2
  6
CONTINUOUS
 62
   253
100
AcDbLine
 10
755.0444060182516
 20
132.1487416487951
 30
0.0
 11
721.0777865758802
 21
132.2832939231613
 31
0.0
  0
LINE
  5
100
330
1F
100
AcDbEntity
  8
2
  6
CONTINUOUS
 62
     7
100
AcDbLine
 10
716.3095759286781
 20
99.63050693177406
 30
0.0
 11
715.5356902043959
 21
103.499935553185
 31
0.0
  0
ELLIPSE
  5
101
330
1F
100
AcDbEntity
  8
2
  6
CONTINUOUS
 62
     7
100
AcDbEllipse
 10
717.268639736425
 20
100.9999875
 30
0.0
 11
0.05283439129514095
 21
2.499977681435162
 31
0.0
210
0.0
220
0.0
230
1.0
 40
0.1999403541319303
 41
0.0042255033366502
 42
0.0204295879906351
  0
ELLIPSE
  5
102
330
1F
100
AcDbEntity
  8
2
  6
CONTINUOUS
 62
   253
100
AcDbEllipse
 10
755.035679815033
 20
117.1059237599183
 30
0.0
 11
-0.500000000000056
 21
0.0
 31
0.0
210
0.0
220
0.0
230
1.0
 40
0.4999999999999979
 41
3.141592653589738
 42
4.694935687864644
  0
LINE
  5
103
330
1F
100
AcDbEntity
  8
2
  6
CONTINUOUS
 62
     7
100
AcDbLine
 10
758.535679815033
 20
208.4999875
 30
0.0
 11
758.535679815033
 21
208.2587947235675
 31
0.0
  0
LINE
  5
104
330
1F
100
AcDbEntity
  8
2
  6
CONTINUOUS
 62
     7
100
AcDbLine
 10
737.1469046598614
 20
207.8854522644989
 30
0.0
 11
736.9445164775374
 21
207.8611403787995
 31
0.0
  0
LINE
  5
105
330
1F
100
AcDbEntity
  8
2
  6
CONTINUOUS
 62
     7
100
AcDbLine
 10
755.5356798150328
 20
109.2015496187164
 30
0.0
 11
755.5356798150328
 21
131.6802806544507
 31
0.0
  0
LINE
  5
106
330
1F
100
AcDbEntity
  8
2
  6
CONTINUOUS
 62
     7
100
AcDbLine
 10
715.535679815033
 20
103.4999875
 30
0.0
 11
715.535679815033
 21
186.2333703757592
 31
0.0
  0
LINE
  5
107
330
1F
100
AcDbEntity
  8
2
  6
CONTINUOUS
 62
     7
100
AcDbLine
 10
758.535679815033
 20
199.8422996632693
 30
0.0
 11
758.535679815033
 21
198.1374855981845
 31
0.0
  0
ARC
  5
108
330
1F
100
AcDbEntity
  8
2
  6
CONTINUOUS
 62
     7
100
AcDbCircle
 10
-737.234166692048
 20
203.1274065651493
 30
0.0
 40
5.000000000000238
210
0.0
220
0.0
230
-1.0
100
AcDbArc
 50
45.00000000000068
 51
77.30032981864107
  0
LINE
  5
109
330
1F
100
AcDbEntity
  8
2
  6
CONTINUOUS
 62
   253
100
AcDbLine
 10
578.2322353346199
 20
103.498634411615
 30
0.0
 11
588.3974638042195
 21
186.3264219416857
 31
0.0
  0
LINE
  5
10A
330
1F
100
AcDbEntity
  8
2
  6
CONTINUOUS
 62
     7
100
AcDbLine
 10
755.5356798150328
 20
99.0437013263425
 30
0.0
 11
755.5356798150328
 21
99.60653042959643
 31
0.0
  0
LINE
  5
10B
330
1F
100
AcDbEntity
  8
2
  6
CONTINUOUS
 62
   253
100
AcDbLine
 10
719.5894225933189
 20
182.3079783131556
 30
0.0
 11
715.6092976019897
 21
186.3264219416858
 31
0.0
  0
LINE
  5
10C
330
1F
100
AcDbEntity
  8
2
  6
CONTINUOUS
 62
     7
100
AcDbLine
 10
755.5356798150328
 20
103.4504777432036
 30
0.0
 11
755.0444060180009
 21
103.4999873535349
 31
0.0
  0
ELLIPSE
  5
10D
330
1F
100
AcDbEntity
  8
2
  6
CONTINUOUS
 62
   253
100
AcDbEllipse
 10
721.5526136998405
 20
182.2614525301923
 30
0.0
 11
1.999953382792574
 21
-0.01365527943650928
 31
0.0
210
0.0
220
0.0
230
1.0
 40
0.0870354531829429
 41
1.588844283593823
 42
2.950153936069657
  0
LINE
  5
10E
330
1F
100
AcDbEntity
  8
2
  6
CONTINUOUS
 62
     7
100
AcDbLine
 10
715.6092976019897
 20
103.498634411615
 30
0.0
 11
716.8369812242195
 21
103.498634411615
 31
0.0
  0
LINE
  5
10F
330
1F
100
AcDbEntity
  8
2
  6
CONTINUOUS
 62
     7
100
AcDbLine
 10
758.535679815033
 20
99.2504263043386
 30
0.0
 11
758.535679815033
 21
98.4999875
 31
0.0
  0
LINE
  5
110
330
1F
100
AcDbEntity
  8
2
  6
CONTINUOUS
 62
     7
100
AcDbLine
 10
716.8381067902344
 20
103.4984671266577
 30
0.0
 11
716.8369812242197
 21
103.498634411615
 31
0.0
  0
LINE
  5
111
330
1F
100
AcDbEntity
  8
2
  6
CONTINUOUS
 62
   253
100
AcDbLine
 10
717.3880715613852
 20
99.6228166902143
 30
0.0
 11
716.8381067902343
 21
103.4984671266577
 31
0.0
  0
LINE
  5
112
330
1F
100
AcDbEntity
  8
2
  6
CONTINUOUS
 62
     7
100
AcDbLine
 10
715.535679815033
 20
186.2333703757592
 30
0.0
 11
715.535679815033
 21
186.4289196881345
 31
0.0
  0
LINE
  5
113
330
1F
100
AcDbEntity
  8
2
  6
CONTINUOUS
 62
     7
100
AcDbLine
 10
717.8627797409439
 20
99.20993561161214
 30
0.0
 11
716.8547753183145
 21
99.22753039425706
 31
0.0
  0
ARC
  5
114
330
1F
100
AcDbEntity
  8
2
  6
CONTINUOUS
 62
     7
100
AcDbCircle
 10
-756.0356798150331
 20
99.0437013263425
 30
0.0
 40
0.4999999999999925
210
0.0
220
0.0
230
-1.0
100
AcDbArc
 50
270.9999999999998
 51
359.9999999999993
  0
LINE
  5
115
330
1F
100
AcDbEntity
  8
2
  6
CONTINUOUS
 62
   253
100
AcDbLine
 10
717.3112521562521
 20
103.4996592917323
 30
0.0
 11
717.8629491979143
 21
99.61180139162123
 31
0.0
  0
LINE
  5
116
330
1F
100
AcDbEntity
  8
2
  6
CONTINUOUS
 62
     7
100
AcDbLine
 10
588.3974638042193
 20
186.3264219416857
 30
0.0
 11
589.1556617488069
 21
186.2333703757591
 31
0.0
  0
ELLIPSE
  5
117
330
1F
100
AcDbEntity
  8
2
  6
CONTINUOUS
 62
   253
100
AcDbEllipse
 10
717.8715059441625
 20
99.70985945919033
 30
0.0
 11
-0.008726203218633379
 21
-0.4999238475781883
 31
0.0
210
0.0
220
0.0
230
-1.0
 40
0.9817444174892197
 41
0.0
 42
1.378683567448489
  0
ARC
  5
118
330
1F
100
AcDbEntity
  8
2
  6
CONTINUOUS
 62
     7
100
AcDbCircle
 10
-716.7998662665237
 20
99.72856499934316
 30
0.0
 40
0.4999999999999925
210
0.0
220
0.0
230
-1.0
100
AcDbArc
 50
270.999999999999
 51
348.6900675259793
  0
LINE
  5
119
330
1F
100
AcDbEntity
  8
2
  6
CONTINUOUS
 62
   253
100
AcDbLine
 10
721.0777865758802
 20
132.2832939231613
 30
0.0
 11
719.0747361758512
 21
117.524118367269
 31
0.0
  0
LINE
  5
11A
330
1F
100
AcDbEntity
  8
2
  6
CONTINUOUS
 62
     7
100
AcDbLine
 10
758.535679815033
 20
208.2587947235675
 30
0.0
 11
758.535679815033
 21
199.8422996632693
 31
0.0
  0
LINE
  5
11B
330
1F
100
AcDbEntity
  8
2
  6
CONTINUOUS
 62
   253
100
AcDbLine
 10
719.2670304710173
 20
135.0904007761419
 30
0.0
 11
719.5894225933189
 21
182.3079783131556
 31
0.0
  0
LINE
  5
11C
330
1F
100
AcDbEntity
  8
2
  6
CONTINUOUS
 62
   253
100
AcDbLine
 10
755.0444060182516
 20
114.8562664458164
 30
0.0
 11
755.5356798150328
 21
114.8562664458164
 31
0.0
  0
LINE
  5
11D
330
1F
100
AcDbEntity
  8
2
  6
CONTINUOUS
 62
     7
100
AcDbLine
 10
717.3193615596024
 20
103.4999875
 30
0.0
 11
755.0442365612814
 21
103.4999875
 31
0.0
  0
LINE
  5
11E
330
1F
100
AcDbEntity
  8
2
  6
CONTINUOUS
 62
     7
100
AcDbLine
 10
715.535690204396
 20
103.499935553185
 30
0.0
 11
715.6084251751699
 21
103.4986212907898
 31
0.0
  0
ELLIPSE
  5
11F
330
1F
100
AcDbEntity
  8
2
  6
CONTINUOUS
 62
   253
100
AcDbEllipse
 10
737.1365092451945
 20
197.6931506756127
 30
0.0
 11
0.02519619342528902
 21
-1.999841281661335
 31
0.0
210
0.0
220
0.0
230
-1.0
 40
0.0164159469263843
 41
1.658263231196742
 42
2.792533193216324
  0
LINE
  5
120
330
1F
100
AcDbEntity
  8
2
  6
CONTINUOUS
 62
   253
100
AcDbLine
 10
736.9445164775374
 20
207.8611403787996
 30
0.0
 11
737.1016044323197
 21
199.5722496777093
 31
0.0
  0
ELLIPSE
  5
121
330
1F
100
AcDbEntity
  8
2
  6
CONTINUOUS
 62
   253
100
AcDbEllipse
 10
717.8715059441625
 20
99.70985945919033
 30
0.0
 11
-0.008726203218640417
 21
-0.4999238475781881
 31
0.0
210
0.0
220
0.0
230
-1.0
 40
0.0139600329695787
 41
0.0
 42
1.37312663390595
  0
LINE
  5
122
330
1F
100
AcDbEntity
  8
2
  6
CONTINUOUS
 62
     7
100
AcDbLine
 10
578.2367654931612
 20
103.4986212907898
 30
0.0
 11
578.992827796591
 21
103.499935553185
 31
0.0
  0
LINE
  5
123
330
1F
100
AcDbEntity
  8
2
  6
CONTINUOUS
 62
   253
100
AcDbLine
 10
567.3226399905882
 20
185.7568183412755
 30
0.0
 11
588.668867021238
 21
189.8212818937403
 31
0.0
  0
LINE
  5
124
330
1F
100
AcDbEntity
  8
2
  6
CONTINUOUS
 62
     7
100
AcDbLine
 10
618.844338251193
 20
186.2333703757592
 30
0.0
 11
618.7400691997819
 21
186.4289196881345
 31
0.0
  0
LINE
  5
125
330
1F
100
AcDbEntity
  8
2
  6
CONTINUOUS
 62
     7
100
AcDbLine
 10
716.5264164757529
 20
189.4165286779965
 30
0.0
 11
717.0001459091003
 21
189.9644535940673
 31
0.0
  0
LINE
  5
126
330
1F
100
AcDbEntity
  8
2
  6
CONTINUOUS
 62
     7
100
AcDbLine
 10
629.007172203409
 20
103.499935553185
 30
0.0
 11
629.7632345068388
 21
103.4986212907898
 31
0.0
  0
LINE
  5
127
330
1F
100
AcDbEntity
  8
2
  6
CONTINUOUS
 62
     7
100
AcDbLine
 10
588.3907249606484
 20
187.2036177797018
 30
0.0
 11
588.668867021238
 21
189.8212818937403
 31
0.0
  0
LINE
  5
128
330
1F
100
AcDbEntity
  8
2
  6
CONTINUOUS
 62
     7
100
AcDbLine
 10
589.2599308002182
 20
186.4289196881345
 30
0.0
 11
589.155661748807
 21
186.2333703757591
 31
0.0
  0
LINE
  5
129
330
1F
100
AcDbEntity
  8
2
  6
CONTINUOUS
 62
     7
100
AcDbLine
 10
579.0020193049638
 20
103.4999875
 30
0.0
 11
628.9979806950362
 21
103.4999875
 31
0.0
  0
ELLIPSE
  5
12A
330
1F
100
AcDbEntity
  8
2
  6
CONTINUOUS
 62
     7
100
AcDbEllipse
 10
631.4525261495816
 20
83.49998750000003
 30
0.0
 11
-2.555930540305082
 21
19.9935710680739
 31
0.0
210
0.0
220
0.0
230
1.0
 40
0.1983880270925321
 41
6.255550104502254
 42
6.257829289388988
  0
LINE
  5
12B
330
1F
100
AcDbEntity
  8
2
  6
CONTINUOUS
 62
     7
100
AcDbLine
 10
733.5399358714717
 20
206.5042435564388
 30
0.0
 11
733.6986327861151
 21
206.6629404710822
 31
0.0
  0
LINE
  5
12C
330
1F
100
AcDbEntity
  8
2
  6
CONTINUOUS
 62
     7
100
AcDbLine
 10
737.1469046598615
 20
208.1266450409314
 30
0.0
 11
737.1469046598615
 21
207.8854522644989
 31
0.0
  0
LINE
  5
12D
330
1F
100
AcDbEntity
  8
2
  6
CONTINUOUS
 62
     7
100
AcDbLine
 10
618.2958567983525
 20
189.4165286779965
 30
0.0
 11
618.2441691424685
 21
189.9644535940673
 31
0.0
  0
LINE
  5
12E
330
1F
100
AcDbEntity
  8
2
  6
CONTINUOUS
 62
   253
100
AcDbLine
 10
589.755830857532
 20
189.9644535940673
 30
0.0
 11
618.2441691424684
 21
189.9644535940673
 31
0.0
  0
ELLIPSE
  5
12F
330
1F
100
AcDbEntity
  8
2
  6
CONTINUOUS
 62
   253
100
AcDbEllipse
 10
635.2720835043855
 20
99.70985945919034
 30
0.0
 11
-0.3904402070924846
 21
-0.3123402706753928
 31
0.0
210
0.0
220
0.0
230
1.0
 40
0.9997502639897723
 41
0.8961957947361286
 42
2.26932242864109
  0
LINE
  5
130
330
1F
100
AcDbEntity
  8
2
  6
CONTINUOUS
 62
   253
100
AcDbLine
 10
588.3974638042193
 20
186.3264219416857
 30
0.0
 11
567.2929296148412
 21
182.3079783131556
 31
0.0
  0
LINE
  5
131
330
1F
100
AcDbEntity
  8
2
  6
CONTINUOUS
 62
     7
100
AcDbLine
 10
629.427761716527
 20
99.20691762959281
 30
0.0
 11
578.572238283473
 21
99.20691762959281
 31
0.0
  0
LINE
  5
132
330
1F
100
AcDbEntity
  8
2
  6
CONTINUOUS
 62
   253
100
AcDbLine
 10
628.9979806950362
 20
103.4999875
 30
0.0
 11
618.844338251193
 21
186.2333703757592
 31
0.0
  0
LINE
  5
133
330
1F
100
AcDbEntity
  8
2
  6
CONTINUOUS
 62
     7
100
AcDbLine
 10
588.7205546771219
 20
189.9308668769545
 30
0.0
 11
589.755830857532
 21
189.9644535940673
 31
0.0
  0
LINE
  5
134
330
1F
100
AcDbEntity
  8
2
  6
CONTINUOUS
 62
     7
100
AcDbLine
 10
619.2794453228787
 20
189.9308668769545
 30
0.0
 11
619.3311329787626
 21
189.8212818937403
 31
0.0
  0
LINE
  5
135
330
1F
100
AcDbEntity
  8
2
  6
CONTINUOUS
 62
     7
100
AcDbLine
 10
619.3311329787623
 20
189.8212818937403
 30
0.0
 11
619.6092750393519
 21
187.2036177797016
 31
0.0
  0
LINE
  5
136
330
1F
100
AcDbEntity
  8
2
  6
CONTINUOUS
 62
     7
100
AcDbLine
 10
618.7400691997819
 20
186.4289196881345
 30
0.0
 11
618.295856798352
 21
189.4165286779965
 31
0.0
  0
LINE
  5
137
330
1F
100
AcDbEntity
  8
2
  6
CONTINUOUS
 62
     7
100
AcDbLine
 10
618.2441691424682
 20
189.9644535940672
 30
0.0
 11
619.2794453228787
 21
189.9308668769544
 31
0.0
  0
LINE
  5
138
330
1F
100
AcDbEntity
  8
2
  6
CONTINUOUS
 62
     7
100
AcDbLine
 10
588.3974638042193
 20
186.3264219416857
 30
0.0
 11
588.3907249606483
 21
187.2036177797019
 31
0.0
  0
ARC
  5
139
330
1F
100
AcDbEntity
  8
2
  6
CONTINUOUS
 62
     7
100
AcDbCircle
 10
-737.234166692048
 20
203.1274065651495
 30
0.0
 40
5.0
210
0.0
220
0.0
230
-1.0
100
AcDbArc
 50
75.7908737211647
 51
77.70932454054426
  0
LINE
  5
13A
330
1F
100
AcDbEntity
  8
2
  6
CONTINUOUS
 62
     7
100
AcDbLine
 10
737.1469046598614
 20
208.1266450409314
 30
0.0
 11
758.5356798150328
 21
208.4999875
 31
0.0
  0
LINE
  5
13B
330
1F
100
AcDbEntity
  8
2
  6
CONTINUOUS
 62
   253
100
AcDbLine
 10
645.792563830729
 20
132.2832939231613
 30
0.0
 11
637.2309776228275
 21
117.5241183672691
 31
0.0
  0
LINE
  5
13C
330
1F
100
AcDbEntity
  8
2
  6
CONTINUOUS
 62
     7
100
AcDbLine
 10
629.427761716527
 20
99.20691762959281
 30
0.0
 11
629.9088714755528
 21
99.20611450256081
 31
0.0
  0
ELLIPSE
  5
13D
330
1F
100
AcDbEntity
  8
2
  6
CONTINUOUS
 62
     7
100
AcDbEllipse
 10
576.5474738504183
 20
83.49998750000005
 30
0.0
 11
-2.555930540305082
 21
-19.9935710680739
 31
0.0
210
0.0
220
0.0
230
1.0
 40
0.1983880270925321
 41
3.16694867138039
 42
3.169227856267127
  0
LINE
  5
13E
330
1F
100
AcDbEntity
  8
2
  6
CONTINUOUS
 62
     7
100
AcDbLine
 10
589.7041432016481
 20
189.4165286779963
 30
0.0
 11
589.2599308002181
 21
186.4289196881346
 31
0.0
  0
LINE
  5
13F
330
1F
100
AcDbEntity
  8
2
  6
CONTINUOUS
 62
   253
100
AcDbLine
 10
619.6025361957807
 20
186.3264219416859
 30
0.0
 11
629.7677646653802
 21
103.498634411615
 31
0.0
  0
LINE
  5
140
330
1F
100
AcDbEntity
  8
2
  6
CONTINUOUS
 62
   253
100
AcDbLine
 10
578.992827796591
 20
103.499935553185
 30
0.0
 11
578.5930843783343
 21
99.63050693177408
 31
0.0
  0
LINE
  5
141
330
1F
100
AcDbEntity
  8
2
  6
CONTINUOUS
 62
   253
100
AcDbLine
 10
577.8381810684643
 20
99.6404114728592
 30
0.0
 11
578.2367654931611
 21
103.4986212907898
 31
0.0
  0
LINE
  5
142
330
1F
100
AcDbEntity
  8
2
  6
CONTINUOUS
 62
   253
100
AcDbLine
 10
629.4069156216657
 20
99.63050693177408
 30
0.0
 11
629.007172203409
 21
103.499935553185
 31
0.0
  0
LINE
  5
143
330
1F
100
AcDbEntity
  8
2
  6
CONTINUOUS
 62
   253
100
AcDbLine
 10
589.1556617488069
 20
186.2333703757591
 30
0.0
 11
579.0020193049638
 21
103.4999875
 31
0.0
  0
LINE
  5
144
330
1F
100
AcDbEntity
  8
2
  6
CONTINUOUS
 62
     7
100
AcDbLine
 10
588.668867021238
 20
189.8212818937403
 30
0.0
 11
588.720554677122
 21
189.9308668769545
 31
0.0
  0
ELLIPSE
  5
145
330
1F
100
AcDbEntity
  8
2
  6
CONTINUOUS
 62
   253
100
AcDbEllipse
 10
636.5882019851155
 20
129.0193983482104
 30
0.0
 11
0.02670730219175353
 21
13.99493807073949
 31
0.0
210
0.0
220
0.0
230
-1.0
 40
0.008798640513451
 41
3.143932250679637
 42
3.359659522474367
  0
LINE
  5
146
330
1F
100
AcDbEntity
  8
2
  6
CONTINUOUS
 62
   253
100
AcDbLine
 10
640.7070703851588
 20
182.3079783131556
 30
0.0
 11
619.6025361957808
 21
186.3264219416858
 31
0.0
  0
ELLIPSE
  5
147
330
1F
100
AcDbEntity
  8
2
  6
CONTINUOUS
 62
     7
100
AcDbEllipse
 10
576.547307789571
 20
83.49863441161494
 30
0.0
 11
-1.752745862669508
 21
-19.99703900623362
 31
0.0
210
0.0
220
0.0
230
1.0
 40
0.1963422288273225
 41
3.157654942493047
 42
3.158800404261092
  0
LINE
  5
148
330
1F
100
AcDbEntity
  8
2
  6
CONTINUOUS
 62
     7
100
AcDbLine
 10
736.1349637482407
 20
208.0050856124348
 30
0.0
 11
737.1469046598615
 21
208.1266450409314
 31
0.0
  0
LINE
  5
149
330
1F
100
AcDbEntity
  8
2
  6
CONTINUOUS
 62
     7
100
AcDbLine
 10
618.844338251193
 20
186.2333703757592
 30
0.0
 11
619.6025361957807
 21
186.3264219416858
 31
0.0
  0
LINE
  5
14A
330
1F
100
AcDbEntity
  8
2
  6
CONTINUOUS
 62
     7
100
AcDbLine
 10
733.5399358714718
 20
206.5042435564389
 30
0.0
 11
733.7005792107259
 21
206.4706568393262
 31
0.0
  0
LINE
  5
14B
330
1F
100
AcDbEntity
  8
2
  6
CONTINUOUS
 62
   253
100
AcDbLine
 10
618.7400691997819
 20
186.4289196881345
 30
0.0
 11
589.2599308002181
 21
186.4289196881345
 31
0.0
  0
LINE
  5
14C
330
1F
100
AcDbEntity
  8
2
  6
CONTINUOUS
 62
   253
100
AcDbLine
 10
629.7632345068388
 20
103.4986212907898
 30
0.0
 11
630.1618189315357
 21
99.6404114728592
 31
0.0
  0
LINE
  5
14D
330
1F
100
AcDbEntity
  8
2
  6
CONTINUOUS
 62
     7
100
AcDbLine
 10
717.0001459091002
 20
189.9644535940672
 30
0.0
 11
717.1607892483544
 21
189.9308668769544
 31
0.0
  0
LINE
  5
14E
330
1F
100
AcDbEntity
  8
2
  6
CONTINUOUS
 62
     7
100
AcDbLine
 10
589.755830857532
 20
189.9644535940673
 30
0.0
 11
589.7041432016481
 21
189.4165286779963
 31
0.0
  0
ELLIPSE
  5
14F
330
1F
100
AcDbEntity
  8
2
  6
CONTINUOUS
 62
     7
100
AcDbEllipse
 10
631.4526922104288
 20
83.49863441161494
 30
0.0
 11
-1.752745862669504
 21
19.99703900623359
 31
0.0
210
0.0
220
0.0
230
1.0
 40
0.1963422288273228
 41
6.265977556508277
 42
6.267123018276335
  0
LINE
  5
150
330
1F
100
AcDbEntity
  8
2
  6
CONTINUOUS
 62
   253
100
AcDbLine
 10
615.5858595700768
 20
27.09941671265004
 30
0.0
 11
612.184424154674
 21
27.09941671265004
 31
0.0
  0
LINE
  5
151
330
1F
100
AcDbEntity
  8
2
  6
CONTINUOUS
 62
     7
100
AcDbLine
 10
578.0911285244472
 20
46.41830906811911
 30
0.0
 11
573.997101427796
 21
45.62806521750679
 31
0.0
  0
LINE
  5
152
330
1F
100
AcDbEntity
  8
2
  6
CONTINUOUS
 62
     7
100
AcDbLine
 10
646.8116708592348
 20
5.964320184967134
 30
0.0
 11
639.8492238694198
 21
5.964320184967134
 31
0.0
  0
LINE
  5
153
330
1F
100
AcDbEntity
  8
2
  6
CONTINUOUS
 62
     7
100
AcDbLine
 10
591.5266003179479
 20
5.964320184967134
 30
0.0
 11
592.3816181185643
 21
5.964320184967134
 31
0.0
  0
ELLIPSE
  5
154
330
1F
100
AcDbEntity
  8
2
  6
CONTINUOUS
 62
     7
100
AcDbEllipse
 10
631.4526922104288
 20
44.96432018496716
 30
0.0
 11
-3.899505766147208
 21
3.428571537142768
 31
0.0
210
0.0
220
0.0
230
1.0
 40
0.5283528112109562
 41
5.54993391797746
 42
5.551079379745518
  0
LINE
  5
155
330
1F
100
AcDbEntity
  8
2
  6
CONTINUOUS
 62
     7
100
AcDbLine
 10
758.535679815033
 20
98.4999875
 30
0.0
 11
756.0269536118144
 21
98.5437774787643
 31
0.0
  0
LINE
  5
156
330
1F
100
AcDbEntity
  8
2
  6
CONTINUOUS
 62
     7
100
AcDbLine
 10
647.069264992078
 20
9.455387455824415
 30
0.0
 11
646.4643489562196
 21
43.30951431748589
 31
0.0
  0
LINE
  5
157
330
1F
100
AcDbEntity
  8
2
  6
CONTINUOUS
 62
   253
100
AcDbLine
 10
717.0660433616848
 20
189.8212818937404
 30
0.0
 11
721.0917494451687
 21
185.7568183412756
 31
0.0
  0
ELLIPSE
  5
158
330
1F
100
AcDbEntity
  8
2
  6
CONTINUOUS
 62
   253
100
AcDbEllipse
 10
612.184424154674
 20
27.09505344490086
 30
0.0
 11
0.4999809615320872
 21
-0.00436326774918703
 31
0.0
210
0.0
220
0.0
230
-1.0
 40
0.0087262032439444
 41
3.14159265358754
 42
4.712312827962788
  0
LINE
  5
159
330
1F
100
AcDbEntity
  8
2
  6
CONTINUOUS
 62
     7
100
AcDbLine
 10
755.0444060182516
 20
135.0840732292155
 30
0.0
 11
755.2921269357722
 21
134.2698636053508
 31
0.0
  0
LWPOLYLINE
  5
15A
330
1F
100
AcDbEntity
  8
2
  6
CONTINUOUS
 62
     7
100
AcDbPolyline
 90
        8
 70
     0
 43
0.0
 10
647.2050985166544
 20
8.473041538947706
 10
647.1918781222763
 20
8.57858602165082
 10
647.1513853920665
 20
8.689239773765845
 10
647.0898797938345
 20
8.782525433040853
 10
647.0127153133393
 20
8.856765439088573
 10
646.9194388578564
 20
8.91341774770861
 10
646.8241695825892
 20
8.945768377186857
 42
0.0199759796240048
 10
646.4530523452257
 20
8.954878287313669
  0
LINE
  5
15B
330
1F
100
AcDbEntity
  8
2
  6
CONTINUOUS
 62
     7
100
AcDbLine
 10
596.0000190384679
 20
5.964320184967134
 30
0.0
 11
596.5
 21
5.964320184967134
 31
0.0
  0
LINE
  5
15C
330
1F
100
AcDbEntity
  8
2
  6
CONTINUOUS
 62
   253
100
AcDbLine
 10
721.1953167646642
 20
135.2181599301904
 30
0.0
 11
755.0444060182516
 21
135.0840732292155
 31
0.0
  0
LINE
  5
15D
330
1F
100
AcDbEntity
  8
2
  6
CONTINUOUS
 62
   253
100
AcDbLine
 10
592.4141404299235
 20
27.09941671265004
 30
0.0
 11
592.3816181185645
 21
5.964320184967141
 31
0.0
  0
LINE
  5
15E
330
1F
100
AcDbEntity
  8
2
  6
CONTINUOUS
 62
   253
100
AcDbLine
 10
616.9154622696659
 20
27.27377070434586
 30
0.0
 11
616.4408773706933
 21
27.09941671265005
 31
0.0
  0
LWPOLYLINE
  5
15F
330
1F
100
AcDbEntity
  8
2
  6
CONTINUOUS
 62
     7
100
AcDbPolyline
 90
        3
 70
     0
 43
0.0
 10
563.1502868703835
 20
45.21310643679022
 42
0.0296305004201065
 10
562.7001895629102
 20
45.08615476586722
 42
0.2876636010560844
 10
561.5356510461588
 20
43.30951445021601
  0
ELLIPSE
  5
160
330
1F
100
AcDbEntity
  8
2
  6
CONTINUOUS
 62
   253
100
AcDbEllipse
 10
737.1979370455539
 20
194.3958846043481
 30
0.0
 11
-0.3536367056419697
 21
5.165634919563915
 31
0.0
210
0.0
220
0.0
230
-1.0
 40
0.9655895467389278
 41
5.622032320957394
 42
6.334699865858755
  0
LINE
  5
161
330
1F
100
AcDbEntity
  8
2
  6
CONTINUOUS
 62
     7
100
AcDbLine
 10
589.194807706006
 20
48.9674095099224
 30
0.0
 11
589.1374174198562
 21
48.96546972130392
 31
0.0
  0
LINE
  5
162
330
1F
100
AcDbEntity
  8
2
  6
CONTINUOUS
 62
     7
100
AcDbLine
 10
758.535679815033
 20
109.2015496187164
 30
0.0
 11
758.5356798150325
 21
133.4999875
 31
0.0
  0
ELLIPSE
  5
163
330
1F
100
AcDbEntity
  8
2
  6
CONTINUOUS
 62
   253
100
AcDbEllipse
 10
737.1630322326793
 20
194.5701695413599
 30
0.0
 11
-0.1566710699524214
 21
3.294402313269255
 31
0.0
210
0.0
220
0.0
230
1.0
 40
0.9095300656510946
 41
6.25141999730821
 42
6.96408754220957
  0
LINE
  5
164
330
1F
100
AcDbEntity
  8
2
  6
CONTINUOUS
 62
     7
100
AcDbLine
 10
758.535679815033
 20
109.2015496187164
 30
0.0
 11
758.535679815033
 21
107.9521595236076
 31
0.0
  0
LINE
  5
165
330
1F
100
AcDbEntity
  8
2
  6
CONTINUOUS
 62
   253
100
AcDbLine
 10
615.6183818814355
 20
5.964320184967134
 30
0.0
 11
615.5858595700768
 21
27.09941671265003
 31
0.0
  0
LINE
  5
166
330
1F
100
AcDbEntity
  8
2
  6
CONTINUOUS
 62
     7
100
AcDbLine
 10
618.8584428075388
 20
48.96558137902435
 30
0.0
 11
618.8049068192902
 21
48.96738822877608
 31
0.0
  0
LINE
  5
167
330
1F
100
AcDbEntity
  8
2
  6
CONTINUOUS
 62
     7
100
AcDbLine
 10
758.5356798150325
 20
133.4999875
 30
0.0
 11
758.535679815033
 21
198.1374855981846
 31
0.0
  0
ELLIPSE
  5
168
330
1F
100
AcDbEntity
  8
2
  6
CONTINUOUS
 62
   253
100
AcDbEllipse
 10
595.815575845326
 20
27.09505344490086
 30
0.0
 11
0.4999809615320871
 21
0.004363267749186966
 31
0.0
210
0.0
220
0.0
230
-1.0
 40
0.0087262032439442
 41
4.712465132806567
 42
6.283185307179586
  0
LINE
  5
169
330
1F
100
AcDbEntity
  8
2
  6
CONTINUOUS
 62
     7
100
AcDbLine
 10
596.0000190384679
 20
5.964320184967134
 30
0.0
 11
592.3816181185645
 21
5.964320184967134
 31
0.0
  0
LINE
  5
16A
330
1F
100
AcDbEntity
  8
2
  6
CONTINUOUS
 62
     7
100
AcDbLine
 10
573.25
 20
5.964320184967134
 30
0.0
 11
569.7122492037055
 21
5.964320184967134
 31
0.0
  0
LINE
  5
16B
330
1F
100
AcDbEntity
  8
2
  6
CONTINUOUS
 62
     7
100
AcDbLine
 10
570.8109433686874
 20
9.455763438718789
 30
0.0
 11
571.4694335112507
 21
47.1806384403978
 31
0.0
  0
LINE
  5
16C
330
1F
100
AcDbEntity
  8
2
  6
CONTINUOUS
 62
     7
100
AcDbLine
 10
616.4733996820521
 20
5.964320184967134
 30
0.0
 11
634.75
 21
5.964320184967134
 31
0.0
  0
LINE
  5
16D
330
1F
100
AcDbEntity
  8
2
  6
CONTINUOUS
 62
   253
100
AcDbLine
 10
755.5356798150328
 20
131.6802806544507
 30
0.0
 11
755.5303308381946
 21
131.9352501420765
 31
0.0
  0
LINE
  5
16E
330
1F
100
AcDbEntity
  8
2
  6
CONTINUOUS
 62
     7
100
AcDbLine
 10
561.6224606819164
 20
8.964320184967136
 30
0.0
 11
568.5498970582611
 21
8.964320184967136
 31
0.0
  0
LINE
  5
16F
330
1F
100
AcDbEntity
  8
2
  6
CONTINUOUS
 62
     7
100
AcDbLine
 10
571.4704400854533
 20
47.20330310293657
 30
0.0
 11
563.4836106085514
 21
45.33472155856013
 31
0.0
  0
LINE
  5
170
330
1F
100
AcDbEntity
  8
2
  6
CONTINUOUS
 62
     7
100
AcDbLine
 10
570.8109433686874
 20
9.455763438718789
 30
0.0
 11
570.8109404108138
 21
9.455593982249807
 31
0.0
  0
ARC
  5
171
330
1F
100
AcDbEntity
  8
2
  6
CONTINUOUS
 62
     7
100
AcDbCircle
 10
-647.5691851920601
 20
9.464320184967137
 30
0.0
 40
0.4999999999999867
210
0.0
220
0.0
230
-1.0
100
AcDbArc
 50
343.2850482266628
 51
358.9763301813506
  0
LINE
  5
172
330
1F
100
AcDbEntity
  8
2
  6
CONTINUOUS
 62
     7
100
AcDbLine
 10
636.5305664887494
 20
47.1806384403978
 30
0.0
 11
636.5303592869348
 21
47.18874784374798
 31
0.0
  0
ELLIPSE
  5
173
330
1F
100
AcDbEntity
  8
2
  6
CONTINUOUS
 62
   253
100
AcDbEllipse
 10
595.8033865011823
 20
28.4918139362772
 30
0.0
 11
0.4999809615320872
 21
0.00436326774918638
 31
0.0
210
0.0
220
0.0
230
-1.0
 40
0.7070933185723277
 41
4.718559611971253
 42
6.283185307179586
  0
LINE
  5
174
330
1F
100
AcDbEntity
  8
2
  6
CONTINUOUS
 62
   253
100
AcDbLine
 10
592.4141404299235
 20
27.09941671265004
 30
0.0
 11
592.4141404299235
 21
28.84536732687047
 31
0.0
  0
ELLIPSE
  5
175
330
1F
100
AcDbEntity
  8
2
  6
CONTINUOUS
 62
   253
100
AcDbEllipse
 10
721.1126913887548
 20
133.2831416183177
 30
0.0
 11
-1.981831868932418
 21
0.268965505750806
 31
0.0
210
0.0
220
0.0
230
1.0
 40
0.4983513191085582
 41
0.2204134786851699
 42
1.620754372753451
  0
LINE
  5
176
330
1F
100
AcDbEntity
  8
2
  6
CONTINUOUS
 62
   253
100
AcDbLine
 10
595.815575845326
 20
27.09941671265004
 30
0.0
 11
592.4141404299235
 21
27.09941671265004
 31
0.0
  0
LINE
  5
177
330
1F
100
AcDbEntity
  8
2
  6
CONTINUOUS
 62
     7
100
AcDbLine
 10
561.5356510437804
 20
43.30951431748589
 30
0.0
 11
560.930735007922
 21
9.455387455824415
 31
0.0
  0
ELLIPSE
  5
178
330
1F
100
AcDbEntity
  8
2
  6
CONTINUOUS
 62
   253
100
AcDbEllipse
 10
718.9874741436647
 20
115.0244991293781
 30
0.0
 11
-0.02338509698377546
 21
-4.999945313424847
 31
0.0
210
0.0
220
0.0
230
-1.0
 40
0.0174522156129565
 41
4.188790199016485
 42
4.712307355141162
  0
LINE
  5
179
330
1F
100
AcDbEntity
  8
2
  6
CONTINUOUS
 62
     7
100
AcDbLine
 10
611.5
 20
5.964320184967134
 30
0.0
 11
611.9999809615322
 21
5.964320184967134
 31
0.0
  0
LINE
  5
17A
330
1F
100
AcDbEntity
  8
2
  6
CONTINUOUS
 62
     7
100
AcDbLine
 10
571.4696407130652
 20
47.18874784374799
 30
0.0
 11
571.4694335112507
 21
47.1806384403978
 31
0.0
  0
LINE
  5
17B
330
1F
100
AcDbEntity
  8
0
  6
CENTER
 62
     1
100
AcDbLine
 10
604.0000000000003
 20
87.49999999999997
 30
0.0
 11
604.0000000000001
 21
215.0
 31
0.0
  0
LINE
  5
17D
330
1F
100
AcDbEntity
  8
2
  6
CONTINUOUS
 62
     7
100
AcDbLine
 10
568.549897058261
 20
8.964320184967136
 30
0.0
 11
569.7210018631047
 21
8.964320184967136
 31
0.0
  0
ELLIPSE
  5
17E
330
1F
100
AcDbEntity
  8
2
  6
CONTINUOUS
 62
   253
100
AcDbEllipse
 10
612.1966134988177
 20
28.4918139362772
 30
0.0
 11
0.4999809615320872
 21
-0.004363267749187952
 31
0.0
210
0.0
220
0.0
230
-1.0
 40
0.7070933185723262
 41
3.141592653589793
 42
4.706218348798013
  0
LINE
  5
17F
330
1F
100
AcDbEntity
  8
2
  6
CONTINUOUS
 62
   253
100
AcDbLine
 10
758.535679815033
 20
198.1374855981846
 30
0.0
 11
737.10160443232
 21
197.8674356126245
 31
0.0
  0
LINE
  5
180
330
1F
100
AcDbEntity
  8
2
  6
CONTINUOUS
 62
   253
100
AcDbLine
 10
735.1551076992697
 20
197.040235802184
 30
0.0
 11
722.3907365250402
 21
184.5336830744707
 31
0.0
  0
LINE
  5
181
330
1F
100
AcDbEntity
  8
2
  6
CONTINUOUS
 62
   253
100
AcDbLine
 10
755.5303308381946
 20
131.9352501420765
 30
0.0
 11
755.2921269357722
 21
134.2698636053508
 31
0.0
  0
LINE
  5
182
330
1F
100
AcDbEntity
  8
2
  6
CONTINUOUS
 62
     7
100
AcDbLine
 10
615.6183818814355
 20
5.964320184967134
 30
0.0
 11
616.4733996820521
 21
5.964320184967134
 31
0.0
  0
ELLIPSE
  5
183
330
1F
100
AcDbEntity
  8
2
  6
CONTINUOUS
 62
   253
100
AcDbEllipse
 10
755.035679815033
 20
131.898779725006
 30
0.0
 11
-0.500000000000056
 21
0.0
 31
0.0
210
0.0
220
0.0
230
1.0
 40
0.4999999999999967
 41
3.287996769984003
 42
4.694935687864671
  0
ELLIPSE
  5
184
330
1F
100
AcDbEntity
  8
2
  6
CONTINUOUS
 62
   253
100
AcDbEllipse
 10
592.4141404299235
 20
27.07760037390411
 30
0.0
 11
2.499997040191715
 21
-0.003846951066964448
 31
0.0
210
0.0
220
0.0
230
-1.0
 40
0.0087265251676105
 41
4.363323129738084
 42
4.712375552162678
  0
LWPOLYLINE
  5
185
330
1F
100
AcDbEntity
  8
2
  6
CONTINUOUS
 62
     7
100
AcDbPolyline
 90
        3
 70
     0
 43
0.0
 10
646.4643116155689
 20
43.30918981821186
 42
0.2864114416482234
 10
645.321525839038
 20
45.07697132553898
 42
0.0359364286570558
 10
644.8497131296166
 20
45.21310643679021
  0
LINE
  5
186
330
1F
100
AcDbEntity
  8
2
  6
CONTINUOUS
 62
   253
100
AcDbLine
 10
615.5858595700768
 20
28.84536732687047
 30
0.0
 11
615.5858595700768
 21
27.09941671265004
 31
0.0
  0
ELLIPSE
  5
187
330
1F
100
AcDbEntity
  8
2
  6
CONTINUOUS
 62
   253
100
AcDbEllipse
 10
724.5830260171246
 20
182.2442579157686
 30
0.0
 11
1.961854657741527
 21
-2.491972941476605
 31
0.0
210
0.0
220
0.0
230
1.0
 40
0.9451807417384428
 41
3.243966304753728
 42
4.010983066068967
  0
LINE
  5
188
330
1F
100
AcDbEntity
  8
2
  6
CONTINUOUS
 62
   253
100
AcDbLine
 10
721.517708886966
 20
182.4357374672041
 30
0.0
 11
721.1953167646643
 21
135.2181599301904
 31
0.0
  0
LWPOLYLINE
  5
189
330
1F
100
AcDbEntity
  8
2
  6
CONTINUOUS
 62
     7
100
AcDbPolyline
 90
        4
 70
     0
 43
0.0
 10
755.2921269357723
 20
134.2698636053507
 42
0.0842864057624141
 10
755.6072542715714
 20
133.5765357380562
 10
755.6805057293025
 20
133.5074387028733
 10
755.7129588275294
 20
133.4978362913699
  0
ELLIPSE
  5
18A
330
1F
100
AcDbEntity
  8
2
  6
CONTINUOUS
 62
   253
100
AcDbEllipse
 10
721.2302215775389
 20
135.0438749931786
 30
0.0
 11
-1.999953382792574
 21
0.0136552794365099
 31
0.0
210
0.0
220
0.0
230
-1.0
 40
0.0870354531829428
 41
0.1914387175201425
 42
1.552748369995943
  0
ARC
  5
18B
330
1F
100
AcDbEntity
  8
2
  6
CONTINUOUS
 62
     7
100
AcDbCircle
 10
-560.43081480794
 20
9.464320184967137
 30
0.0
 40
0.4999999999999983
210
0.0
220
0.0
230
-1.0
100
AcDbArc
 50
181.0236698186494
 51
196.7148820169322
  0
LINE
  5
18C
330
1F
100
AcDbEntity
  8
2
  6
CONTINUOUS
 62
     7
100
AcDbLine
 10
644.5163893914487
 20
45.3347215585601
 30
0.0
 11
636.5295770178949
 21
47.2032991014738
 31
0.0
  0
LINE
  5
18D
330
1F
100
AcDbEntity
  8
2
  6
CONTINUOUS
 62
   253
100
AcDbLine
 10
721.0917494451687
 20
185.7568183412756
 30
0.0
 11
733.8561206193982
 21
198.263371068989
 31
0.0
  0
ELLIPSE
  5
18E
330
1F
100
AcDbEntity
  8
2
  6
CONTINUOUS
 62
   253
100
AcDbEllipse
 10
615.5858595700768
 20
27.07760037390411
 30
0.0
 11
2.49999704019177
 21
0.003846951066965575
 31
0.0
210
0.0
220
0.0
230
-1.0
 40
0.008726525167612
 41
4.712402408606724
 42
5.061454831031382
  0
LINE
  5
18F
330
1F
100
AcDbEntity
  8
2
  6
CONTINUOUS
 62
     7
100
AcDbLine
 10
758.5356798150325
 20
133.4999875
 30
0.0
 11
755.7129588275294
 21
133.4978362913699
 31
0.0
  0
LINE
  5
190
330
1F
100
AcDbEntity
  8
2
  6
CONTINUOUS
 62
     7
100
AcDbLine
 10
615.6183818814355
 20
5.964320184967134
 30
0.0
 11
611.9999809615321
 21
5.964320184967134
 31
0.0
  0
ARC
  5
191
330
1F
100
AcDbEntity
  8
2
  6
CONTINUOUS
 62
     7
100
AcDbCircle
 10
561.2937138263425
 20
8.464320184967136
 30
0.0
 40
0.5000000000000004
100
AcDbArc
 50
89.9999999999992
 51
179.0000000000002
  0
ELLIPSE
  5
192
330
1F
100
AcDbEntity
  8
2
  6
CONTINUOUS
 62
     7
100
AcDbEllipse
 10
631.4525261495816
 20
44.96432018496716
 30
0.0
 11
-4.381090032376543
 21
3.200757605633008
 31
0.0
210
0.0
220
0.0
230
1.0
 40
0.5475782303333174
 41
5.637720748977829
 42
5.639999933864559
  0
LINE
  5
193
330
1F
100
AcDbEntity
  8
0
  6
CENTER
 62
     1
100
AcDbLine
 10
604.0
 20
52.5
 30
0.0
 11
604.0
 21
2.499999999999995
 31
0.0
  0
LINE
  5
194
330
1F
100
AcDbEntity
  8
2
  6
CONTINUOUS
 62
     7
100
AcDbLine
 10
573.5918945589556
 20
45.14155618223206
 30
0.0
 11
573.25
 21
5.964320184967134
 31
0.0
  0
LINE
  5
195
330
1F
100
AcDbEntity
  8
2
  6
CONTINUOUS
 62
     7
100
AcDbLine
 10
560.7939767122402
 20
8.483744341862609
 30
0.0
 11
560.7937899787643
 21
8.473046388185773
 31
0.0
  0
LINE
  5
196
330
1F
100
AcDbEntity
  8
2
  6
CONTINUOUS
 62
     7
100
AcDbLine
 10
571.8745880052156
 20
47.66301877578054
 30
0.0
 11
571.8689151587351
 21
47.66189320976577
 31
0.0
  0
LINE
  5
197
330
1F
100
AcDbEntity
  8
2
  6
CONTINUOUS
 62
     7
100
AcDbLine
 10
569.7122492037055
 20
5.964320184967134
 30
0.0
 11
568.1507761305804
 21
5.964320184967134
 31
0.0
  0
LINE
  5
198
330
1F
100
AcDbEntity
  8
2
  6
CONTINUOUS
 62
     7
100
AcDbLine
 10
647.090709358707
 20
9.319196460649936
 30
0.0
 11
647.1258118768068
 21
9.207873064232693
 31
0.0
  0
LINE
  5
199
330
1F
100
AcDbEntity
  8
2
  6
CONTINUOUS
 62
     7
100
AcDbLine
 10
636.5305664887494
 20
47.1806384403978
 30
0.0
 11
637.1890566313126
 21
9.455763438718789
 31
0.0
  0
ELLIPSE
  5
19A
330
1F
100
AcDbEntity
  8
2
  6
CONTINUOUS
 62
     7
100
AcDbEllipse
 10
563.9392231771126
 20
43.3873086112454
 30
0.0
 11
0.4556125685612482
 21
-1.947412947314723
 31
0.0
210
0.0
220
0.0
230
-1.0
 40
0.8590995206525601
 41
2.935109757347431
 42
3.141592653589793
  0
LINE
  5
19B
330
1F
100
AcDbEntity
  8
2
  6
CONTINUOUS
 62
     7
100
AcDbLine
 10
638.2789981368952
 20
8.964320184967136
 30
0.0
 11
639.450102941739
 21
8.964320184967136
 31
0.0
  0
LINE
  5
19C
330
1F
100
AcDbEntity
  8
2
  6
CONTINUOUS
 62
   253
100
AcDbLine
 10
591.2925079181949
 20
28.91931923153239
 30
0.0
 11
589.2414448403636
 21
45.63168505089976
 31
0.0
  0
LINE
  5
19D
330
1F
100
AcDbEntity
  8
2
  6
CONTINUOUS
 62
     7
100
AcDbLine
 10
639.8492238694198
 20
5.964320184967134
 30
0.0
 11
638.2877507962947
 21
5.964320184967134
 31
0.0
  0
LINE
  5
19E
330
1F
100
AcDbEntity
  8
2
  6
CONTINUOUS
 62
     7
100
AcDbLine
 10
571.8745880052156
 20
47.66301877578054
 30
0.0
 11
578.2322353346198
 21
48.8907023980103
 31
0.0
  0
ELLIPSE
  5
19F
330
1F
100
AcDbEntity
  8
2
  6
CONTINUOUS
 62
     7
100
AcDbEllipse
 10
576.547307789571
 20
44.96432018496716
 30
0.0
 11
-3.899505766147211
 21
-3.428571537142768
 31
0.0
210
0.0
220
0.0
230
1.0
 40
0.5283528112109556
 41
3.873698581023862
 42
3.874844042791916
  0
LINE
  5
1A0
330
1F
100
AcDbEntity
  8
2
  6
CONTINUOUS
 62
     7
100
AcDbLine
 10
636.1310848412649
 20
47.66189320976576
 30
0.0
 11
636.1254119947846
 21
47.66301877578052
 31
0.0
  0
LINE
  5
1A1
330
1F
100
AcDbEntity
  8
2
  6
CONTINUOUS
 62
     7
100
AcDbLine
 10
647.2500000000001
 20
5.964320184967134
 30
0.0
 11
646.8116708592348
 21
5.964320184967134
 31
0.0
  0
LINE
  5
1A2
330
1F
100
AcDbEntity
  8
2
  6
CONTINUOUS
 62
     7
100
AcDbLine
 10
578.2367654931612
 20
48.89157482483024
 30
0.0
 11
578.992827796591
 21
48.96430979560415
 31
0.0
  0
LINE
  5
1A3
330
1F
100
AcDbEntity
  8
2
  6
CONTINUOUS
 62
   253
100
AcDbLine
 10
618.7585551596369
 20
45.63168505089968
 30
0.0
 11
616.7074920818056
 21
28.91931923153251
 31
0.0
  0
ELLIPSE
  5
1A4
330
1F
100
AcDbEntity
  8
2
  6
CONTINUOUS
 62
   253
100
AcDbEllipse
 10
618.1115075468808
 20
43.96432018496714
 30
0.0
 11
2.481382570219571
 21
-0.3045333154360368
 31
0.0
210
0.0
220
0.0
230
-1.0
 40
0.7044591188163876
 41
4.626147084775704
 42
4.888953677733411
  0
LINE
  5
1A5
330
1F
100
AcDbEntity
  8
2
  6
CONTINUOUS
 62
     7
100
AcDbLine
 10
629.427761716527
 20
46.46432018496716
 30
0.0
 11
578.572238283473
 21
46.46432018496716
 31
0.0
  0
ELLIPSE
  5
1A6
330
1F
100
AcDbEntity
  8
2
  6
CONTINUOUS
 62
   253
100
AcDbEllipse
 10
591.9395555309512
 20
27.25195436559977
 30
0.0
 11
2.481382570219574
 21
0.3045333154360413
 31
0.0
210
0.0
220
0.0
230
-1.0
 40
0.7044591188163892
 41
4.535824283035924
 42
4.798630875993613
  0
LINE
  5
1A7
330
1F
100
AcDbEntity
  8
2
  6
CONTINUOUS
 62
     7
100
AcDbLine
 10
629.7677646653804
 20
48.8907023980103
 30
0.0
 11
636.1254119947845
 21
47.66301877578052
 31
0.0
  0
ELLIPSE
  5
1A8
330
1F
100
AcDbEntity
  8
2
  6
CONTINUOUS
 62
   253
100
AcDbEllipse
 10
561.2939005598186
 20
8.475018138643971
 30
0.0
 11
0.499923847578243
 21
-0.008726203218623711
 31
0.0
210
0.0
220
0.0
230
1.0
 40
0.9972801209661879
 41
1.714878011301094
 42
3.141592653589763
  0
LINE
  5
1A9
330
1F
100
AcDbEntity
  8
2
  6
CONTINUOUS
 62
     7
100
AcDbLine
 10
568.1507761305803
 20
5.964320184967134
 30
0.0
 11
561.1883291407652
 21
5.964320184967134
 31
0.0
  0
LINE
  5
1AA
330
1F
100
AcDbEntity
  8
2
  6
CONTINUOUS
 62
     7
100
AcDbLine
 10
579.0020193049638
 20
48.96432018496714
 30
0.0
 11
628.9979806950362
 21
48.96432018496714
 31
0.0
  0
LINE
  5
1AB
330
1F
100
AcDbEntity
  8
2
  6
CONTINUOUS
 62
     7
100
AcDbLine
 10
629.9088714755528
 20
46.41830906811913
 30
0.0
 11
634.0028985722039
 21
45.62806521750679
 31
0.0
  0
LWPOLYLINE
  5
1AC
330
1F
100
AcDbEntity
  8
2
  6
CONTINUOUS
 62
   253
100
AcDbPolyline
 90
        3
 70
     0
 43
0.0
 10
611.7073654114419
 20
29.72604276559703
 42
0.5155287685501876
 10
601.9031411321449
 20
37.69641024621195
 42
0.3356562240075568
 10
596.2926345885581
 20
29.72604276559704
  0
ELLIPSE
  5
1AD
330
1F
100
AcDbEntity
  8
2
  6
CONTINUOUS
 62
     7
100
AcDbEllipse
 10
576.5474738504183
 20
44.96432018496716
 30
0.0
 11
-4.381090032376543
 21
-3.200757605633008
 31
0.0
210
0.0
220
0.0
230
1.0
 40
0.5475782303333174
 41
3.784778026904819
 42
3.787057211791552
  0
LINE
  5
1AE
330
1F
100
AcDbEntity
  8
2
  6
CONTINUOUS
 62
   253
100
AcDbLine
 10
561.2307319444791
 20
8.969669161805555
 30
0.0
 11
561.2937138263425
 21
8.964320184967136
 31
0.0
  0
ELLIPSE
  5
1AF
330
1F
100
AcDbEntity
  8
2
  6
CONTINUOUS
 62
     7
100
AcDbEllipse
 10
578.5668827521882
 20
43.96432018496715
 30
0.0
 11
2.495001400184704
 21
0.3478516264638422
 31
0.0
210
0.0
220
0.0
230
-1.0
 40
0.9922565862375834
 41
4.659830635395285
 42
4.851982551336748
  0
LINE
  5
1B0
330
1F
100
AcDbEntity
  8
2
  6
CONTINUOUS
 62
   253
100
AcDbLine
 10
618.1115075468806
 20
46.46432018496714
 30
0.0
 11
618.1115075468806
 21
45.73208713793352
 31
0.0
  0
LINE
  5
1B1
330
1F
100
AcDbEntity
  8
2
  6
CONTINUOUS
 62
     7
100
AcDbLine
 10
637.1890595891863
 20
9.455593982249793
 30
0.0
 11
637.1890566313126
 21
9.455763438718789
 31
0.0
  0
ELLIPSE
  5
1B2
330
1F
100
AcDbEntity
  8
2
  6
CONTINUOUS
 62
   253
100
AcDbEllipse
 10
618.1115075468806
 20
43.96432018496715
 30
0.0
 11
0.0
 21
-2.500000000000002
 31
0.0
210
0.0
220
0.0
230
-1.0
 40
0.3473586434017711
 41
3.14159265358981
 42
3.982286568296521
  0
ELLIPSE
  5
1B3
330
1F
100
AcDbEntity
  8
2
  6
CONTINUOUS
 62
   253
100
AcDbEllipse
 10
589.8884924531197
 20
43.96432018496715
 30
0.0
 11
0.0
 21
2.499999999999988
 31
0.0
210
0.0
220
0.0
230
-1.0
 40
0.3473586434017711
 41
5.442491392472892
 42
6.283185307179586
  0
LINE
  5
1B4
330
1F
100
AcDbEntity
  8
2
  6
CONTINUOUS
 62
     7
100
AcDbLine
 10
560.7500000000001
 20
5.964320184967134
 30
0.0
 11
560.7937899787644
 21
8.473046388185773
 31
0.0
  0
LINE
  5
1B5
330
1F
100
AcDbEntity
  8
2
  6
CONTINUOUS
 62
     7
100
AcDbLine
 10
647.2062100212356
 20
8.473046388185773
 30
0.0
 11
647.25
 21
5.964320184967134
 31
0.0
  0
LINE
  5
1B6
330
1F
100
AcDbEntity
  8
2
  6
CONTINUOUS
 62
     7
100
AcDbLine
 10
646.7062861736575
 20
8.964320184967136
 30
0.0
 11
646.3775393180837
 21
8.964320184967136
 31
0.0
  0
ELLIPSE
  5
1B7
330
1F
100
AcDbEntity
  8
2
  6
CONTINUOUS
 62
     7
100
AcDbEllipse
 10
629.4331172478118
 20
43.96432018496715
 30
0.0
 11
2.495001400184705
 21
-0.3478516264638398
 31
0.0
210
0.0
220
0.0
230
-1.0
 40
0.9922565862375834
 41
4.572795409432631
 42
4.764947325374086
  0
ELLIPSE
  5
1B8
330
1F
100
AcDbEntity
  8
2
  6
CONTINUOUS
 62
   253
100
AcDbEllipse
 10
591.9395555309512
 20
27.25195436559977
 30
0.0
 11
-0.01706871172937548
 21
2.499941731136935
 31
0.0
210
0.0
220
0.0
230
-1.0
 40
0.341960489393109
 41
4.723450586446943
 42
5.444844596178046
  0
LINE
  5
1B9
330
1F
100
AcDbEntity
  8
2
  6
CONTINUOUS
 62
     7
100
AcDbLine
 10
560.7992707781111
 20
8.787041172470866
 30
0.0
 11
560.8741881231933
 21
9.207873064227947
 31
0.0
  0
LINE
  5
1BA
330
1F
100
AcDbEntity
  8
2
  6
CONTINUOUS
 62
     7
100
AcDbLine
 10
561.1883291407652
 20
5.964320184967134
 30
0.0
 11
560.7500000000001
 21
5.964320184967134
 31
0.0
  0
LINE
  5
1BB
330
1F
100
AcDbEntity
  8
2
  6
CONTINUOUS
 62
     7
100
AcDbLine
 10
629.0071722034089
 20
48.96430979560415
 30
0.0
 11
629.7632345068387
 21
48.89157482483024
 31
0.0
  0
LINE
  5
1BC
330
1F
100
AcDbEntity
  8
2
  6
CONTINUOUS
 62
     7
100
AcDbLine
 10
561.2937138263425
 20
8.964320184967136
 30
0.0
 11
561.6224606819164
 21
8.964320184967136
 31
0.0
  0
ELLIPSE
  5
1BD
330
1F
100
AcDbEntity
  8
2
  6
CONTINUOUS
 62
     7
100
AcDbEllipse
 10
646.3775393180837
 20
8.464320184967136
 30
0.0
 11
0.0
 21
-0.5000000000000004
 31
0.0
210
0.0
220
0.0
230
1.0
 40
0.780822391229966
 41
2.946946423365779
 42
3.141592653589793
  0
LINE
  5
1BE
330
1F
100
AcDbEntity
  8
2
  6
CONTINUOUS
 62
     7
100
AcDbLine
 10
647.2062100212356
 20
8.473046388185773
 30
0.0
 11
647.2050984637051
 21
8.47304153871671
 31
0.0
  0
LINE
  5
1BF
330
1F
100
AcDbEntity
  8
2
  6
CONTINUOUS
 62
     7
100
AcDbLine
 10
639.450102941739
 20
8.964320184967136
 30
0.0
 11
646.3775393180837
 21
8.964320184967136
 31
0.0
  0
LINE
  5
1C0
330
1F
100
AcDbEntity
  8
2
  6
CONTINUOUS
 62
     7
100
AcDbLine
 10
634.4081054410445
 20
45.14155618223206
 30
0.0
 11
634.75
 21
5.964320184967134
 31
0.0
  0
LINE
  5
1C1
330
1F
100
AcDbEntity
  8
2
  6
CONTINUOUS
 62
     7
100
AcDbLine
 10
638.2877507962947
 20
5.964320184967134
 30
0.0
 11
634.7500000000001
 21
5.964320184967134
 31
0.0
  0
LINE
  5
1C2
330
1F
100
AcDbEntity
  8
2
  6
CONTINUOUS
 62
   253
100
AcDbLine
 10
615.5858595700768
 20
28.84536732687047
 30
0.0
 11
616.0604444690493
 21
29.0197213185663
 31
0.0
  0
LINE
  5
1C3
330
1F
100
AcDbEntity
  8
2
  6
CONTINUOUS
 62
     7
100
AcDbLine
 10
560.7951485900888
 20
8.550881178837704
 30
0.0
 11
560.7992707781111
 21
8.787041172470866
 31
0.0
  0
LINE
  5
1C4
330
1F
100
AcDbEntity
  8
2
  6
CONTINUOUS
 62
     7
100
AcDbLine
 10
647.2007292218889
 20
8.787041172470811
 30
0.0
 11
647.2048458713156
 21
8.55119848477065
 31
0.0
  0
LINE
  5
1C5
330
1F
100
AcDbEntity
  8
2
  6
CONTINUOUS
 62
     7
100
AcDbLine
 10
647.1258118768067
 20
9.207873064227934
 30
0.0
 11
647.2007292218889
 21
8.787041172470811
 31
0.0
  0
LINE
  5
1C6
330
1F
100
AcDbEntity
  8
2
  6
CONTINUOUS
 62
     7
100
AcDbLine
 10
611.7073654114419
 20
29.72604276559703
 30
0.0
 11
611.5
 21
5.964320184967134
 31
0.0
  0
LINE
  5
1C7
330
1F
100
AcDbEntity
  8
2
  6
CONTINUOUS
 62
   253
100
AcDbLine
 10
619.3994255932897
 20
45.63168505089976
 30
0.0
 11
618.7585551596369
 21
45.63168505089968
 31
0.0
  0
LINE
  5
1C8
330
1F
100
AcDbEntity
  8
0
  6
CENTER
 62
     1
100
AcDbLine
 10
637.75
 20
113.4999875
 30
0.0
 11
646.7499999999999
 21
113.4999875
 31
0.0
  0
LINE
  5
1C9
330
1F
100
AcDbEntity
  8
2
  6
CONTINUOUS
 62
   253
100
AcDbLine
 10
588.6005744067106
 20
45.63168505089976
 30
0.0
 11
573.5714367642961
 21
42.79732510758453
 31
0.0
  0
LINE
  5
1CA
330
1F
100
AcDbEntity
  8
2
  6
CONTINUOUS
 62
   253
100
AcDbLine
 10
591.5591226293069
 20
27.09941671265004
 30
0.0
 11
591.0845377303347
 21
27.27377070434571
 31
0.0
  0
LINE
  5
1CB
330
1F
100
AcDbEntity
  8
2
  6
CONTINUOUS
 62
   253
100
AcDbLine
 10
589.8884924531197
 20
45.73208713793352
 30
0.0
 11
589.8884924531197
 21
46.46432018496714
 31
0.0
  0
LINE
  5
1CC
330
1F
100
AcDbEntity
  8
0
  6
CENTER
 62
     1
100
AcDbLine
 10
642.25
 20
108.9999875
 30
0.0
 11
642.25
 21
117.9999875
 31
0.0
  0
ELLIPSE
  5
1CD
330
1F
100
AcDbEntity
  8
2
  6
CONTINUOUS
 62
   253
100
AcDbEllipse
 10
589.8884924531197
 20
43.96432018496714
 30
0.0
 11
2.481382570219625
 21
0.3045333154360411
 31
0.0
210
0.0
220
0.0
230
-1.0
 40
0.7044591188163923
 41
4.535824283035934
 42
4.798630875993627
  0
LINE
  5
1CE
330
1F
100
AcDbEntity
  8
2
  6
CONTINUOUS
 62
   253
100
AcDbLine
 10
616.4408773706933
 20
27.09941671265005
 30
0.0
 11
616.4733996820521
 21
5.964320184967134
 31
0.0
  0
ELLIPSE
  5
1CF
330
1F
100
AcDbEntity
  8
2
  6
CONTINUOUS
 62
   253
100
AcDbEllipse
 10
616.0604444690492
 20
27.25195436559993
 30
0.0
 11
-0.01706871172937783
 21
-2.499941731136934
 31
0.0
210
0.0
220
0.0
230
-1.0
 40
0.3419604893931087
 41
3.979933364591393
 42
4.701327374322464
  0
LINE
  5
1D0
330
1F
100
AcDbEntity
  8
2
  6
CONTINUOUS
 62
   253
100
AcDbLine
 10
591.5266003179479
 20
5.964320184967134
 30
0.0
 11
591.5591226293069
 21
27.09941671265003
 31
0.0
  0
LINE
  5
1D1
330
1F
100
AcDbEntity
  8
2
  6
CONTINUOUS
 62
     7
100
AcDbLine
 10
596.5
 20
5.964320184967134
 30
0.0
 11
611.5
 21
5.964320184967148
 31
0.0
  0
LINE
  5
1D2
330
1F
100
AcDbEntity
  8
2
  6
CONTINUOUS
 62
   253
100
AcDbLine
 10
592.4141404299235
 20
28.84536732687047
 30
0.0
 11
595.8033865011824
 21
28.84536732687047
 31
0.0
  0
LINE
  5
1D3
330
1F
100
AcDbEntity
  8
2
  6
CONTINUOUS
 62
   253
100
AcDbLine
 10
634.5650868768856
 20
27.15326535384102
 30
0.0
 11
616.9154622696659
 21
27.27377070434586
 31
0.0
  0
LINE
  5
1D4
330
1F
100
AcDbEntity
  8
0
  6
CENTER
 62
     1
100
AcDbLine
 10
599.5000000000001
 20
203.4999875
 30
0.0
 11
608.5
 21
203.4999875
 31
0.0
  0
ELLIPSE
  5
1D5
330
1F
100
AcDbEntity
  8
2
  6
CONTINUOUS
 62
   253
100
AcDbEllipse
 10
616.0604444690492
 20
27.25195436559993
 30
0.0
 11
2.481382570219631
 21
-0.3045333154360664
 31
0.0
210
0.0
220
0.0
230
-1.0
 40
0.7044591188163891
 41
4.626147084775806
 42
4.888953677733472
  0
ELLIPSE
  5
1D6
330
1F
100
AcDbEntity
  8
2
  6
CONTINUOUS
 62
     7
100
AcDbEllipse
 10
644.0607768228874
 20
43.3873086112454
 30
0.0
 11
0.4556125685612488
 21
1.947412947314722
 31
0.0
210
0.0
220
0.0
230
-1.0
 40
0.8590995206525605
 41
0.0
 42
0.2064846769661672
  0
LINE
  5
1D7
330
1F
100
AcDbEntity
  8
2
  6
CONTINUOUS
 62
     7
100
AcDbLine
 10
596.2926345885581
 20
29.72604276559704
 30
0.0
 11
596.5
 21
5.96432018496713
 31
0.0
  0
LINE
  5
1D8
330
1F
100
AcDbEntity
  8
2
  6
CONTINUOUS
 62
   253
100
AcDbLine
 10
634.4285632357039
 20
42.79732510758459
 30
0.0
 11
619.3994255932897
 21
45.63168505089976
 31
0.0
  0
LINE
  5
1D9
330
1F
100
AcDbEntity
  8
2
  6
CONTINUOUS
 62
   253
100
AcDbLine
 10
573.4492620708371
 20
28.79749190416247
 30
0.0
 11
591.2925079181949
 21
28.91931923153239
 31
0.0
  0
LINE
  5
1DA
330
1F
100
AcDbEntity
  8
2
  6
CONTINUOUS
 62
   253
100
AcDbLine
 10
589.2414448403636
 20
45.63168505089976
 30
0.0
 11
588.6005744067106
 21
45.63168505089976
 31
0.0
  0
LINE
  5
1DB
330
1F
100
AcDbEntity
  8
2
  6
CONTINUOUS
 62
     7
100
AcDbLine
 10
647.2062100212356
 20
8.473046388185773
 30
0.0
 11
647.2060232877596
 21
8.483744341862609
 31
0.0
  0
LINE
  5
1DC
330
1F
100
AcDbEntity
  8
2
  6
CONTINUOUS
 62
     7
100
AcDbLine
 10
573.25
 20
5.964320184967134
 30
0.0
 11
591.5266003179479
 21
5.964320184967134
 31
0.0
  0
LINE
  5
1DD
330
1F
100
AcDbEntity
  8
0
  6
CENTER
 62
     1
100
AcDbLine
 10
565.75
 20
108.9999875
 30
0.0
 11
565.75
 21
117.9999875
 31
0.0
  0
LINE
  5
1DE
330
1F
100
AcDbEntity
  8
0
  6
CENTER
 62
     1
100
AcDbLine
 10
561.25
 20
113.4999875
 30
0.0
 11
570.2499999999999
 21
113.4999875
 31
0.0
  0
LINE
  5
1DF
330
1F
100
AcDbEntity
  8
2
  6
CONTINUOUS
 62
   253
100
AcDbLine
 10
591.9395555309512
 20
29.01972131856613
 30
0.0
 11
592.4141404299235
 21
28.84536732687047
 31
0.0
  0
LINE
  5
1E0
330
1F
100
AcDbEntity
  8
2
  6
CONTINUOUS
 62
   253
100
AcDbLine
 10
612.1966134988177
 20
28.84536732687047
 30
0.0
 11
615.5858595700768
 21
28.84536732687047
 31
0.0
  0
LINE
  5
1E1
330
1F
100
AcDbEntity
  8
2
  6
CONTINUOUS
 62
   253
100
AcDbLine
 10
616.7074920818056
 20
28.91931923153251
 30
0.0
 11
634.550737929163
 21
28.7974919041626
 31
0.0
  0
LINE
  5
1E2
330
1F
100
AcDbEntity
  8
2
  6
CONTINUOUS
 62
   253
100
AcDbLine
 10
589.8884924531197
 20
45.73208713793352
 30
0.0
 11
591.9395555309512
 21
29.01972131856614
 31
0.0
  0
LINE
  5
1E3
330
1F
100
AcDbEntity
  8
2
  6
CONTINUOUS
 62
   253
100
AcDbLine
 10
618.1115075468806
 20
45.73208713793352
 30
0.0
 11
589.8884924531197
 21
45.73208713793352
 31
0.0
  0
LINE
  5
1E4
330
1F
100
AcDbEntity
  8
2
  6
CONTINUOUS
 62
   253
100
AcDbLine
 10
591.0845377303347
 20
27.27377070434571
 30
0.0
 11
573.4349131231145
 21
27.15326535384087
 31
0.0
  0
LINE
  5
1E5
330
1F
100
AcDbEntity
  8
2
  6
CONTINUOUS
 62
   253
100
AcDbLine
 10
616.0604444690493
 20
29.0197213185663
 30
0.0
 11
618.1115075468806
 21
45.73208713793352
 31
0.0
  0
LINE
  5
1E6
330
1F
100
AcDbEntity
  8
2
  6
CONTINUOUS
 62
     7
100
AcDbLine
 10
560.8741881231933
 20
9.207873064232707
 30
0.0
 11
560.9092906576756
 21
9.319196514612326
 31
0.0
  0
ENDSEC
  0
SECTION
  2
OBJECTS
  0
DICTIONARY
  5
C
330
0
100
AcDbDictionary
  3
ACAD_GROUP
350
D
  3
ACAD_LAYOUT
350
1A
  3
ACAD_MATERIAL
350
43
  3
ACAD_MLEADERSTYLE
350
6B
  3
ACAD_MLINESTYLE
350
17
  3
ACAD_PLOTSETTINGS
350
19
  3
ACAD_SCALELIST
350
47
  3
ACAD_VISUALSTYLE
350
2A
  3
ACDBHEADERROUNDTRIPXREC
350
1E7
  3
ACDBVARIABLEDICTIONARY
350
208
  0
DICTIONARY
  5
20F
330
8
100
AcDbDictionary
280
     1
  3
ACAD_XREC_ROUNDTRIP
360
210
  0
DICTIONARY
  5
D
102
{ACAD_REACTORS
330
C
102
}
330
C
100
AcDbDictionary
  0
DICTIONARY
  5
1A
102
{ACAD_REACTORS
330
C
102
}
330
C
100
AcDbDictionary
  0
DICTIONARY
  5
43
102
{ACAD_REACTORS
330
C
102
}
330
C
100
AcDbDictionary
  3
BYBLOCK
350
45
  3
BYLAYER
350
44
  3
GLOBAL
350
46
  0
DICTIONARY
  5
6B
102
{ACAD_REACTORS
330
C
102
}
330
C
100
AcDbDictionary
  3
STANDARD
350
6C
  0
DICTIONARY
  5
17
102
{ACAD_REACTORS
330
C
102
}
330
C
100
AcDbDictionary
  3
STANDARD
350
18
  0
DICTIONARY
  5
19
102
{ACAD_REACTORS
330
C
102
}
330
C
100
AcDbDictionary
  0
DICTIONARY
  5
47
102
{ACAD_REACTORS
330
C
102
}
330
C
100
AcDbDictionary
  3
A0
350
48
  3
A1
350
49
  3
A2
350
4A
  3
A3
350
4B
  3
A4
350
4C
  3
A5
350
4D
  3
A6
350
4E
  3
A7
350
4F
  3
A8
350
50
  3
A9
350
51
  3
B0
350
52
  3
B1
350
53
  3
B2
350
54
  3
B3
350
55
  3
B4
350
56
  3
B5
350
57
  3
B6
350
58
  3
B7
350
59
  3
B8
350
5A
  3
B9
350
5B
  3
C0
350
5C
  3
C1
350
5D
  3
C2
350
5E
  3
C3
350
5F
  3
C4
350
60
  3
C5
350
61
  3
C6
350
62
  3
C7
350
63
  3
C8
350
64
  3
C9
350
65
  3
D0
350
66
  3
D1
350
67
  3
D2
350
68
  0
DICTIONARY
  5
2A
102
{ACAD_REACTORS
330
C
102
}
330
C
100
AcDbDictionary
  3
2DWIREFRAME
350
2F
  3
BASIC
350
32
  3
BRIGHTEN
350
36
  3
COLORCHANGE
350
3A
  3
CONCEPTUAL
350
34
  3
DIM
350
35
  3
EDGECOLOROFF
350
3D
  3
FACEPATTERN
350
39
  3
FLAT
350
2B
  3
FLATWITHEDGES
350
2C
  3
GOURAUD
350
2D
  3
GOURAUDWITHEDGES
350
2E
  3
HIDDEN
350
31
  3
JITTEROFF
350
3B
  3
LINEPATTERN
350
38
  3
OVERHANGOFF
350
3C
  3
REALISTIC
350
33
  3
SHADED
350
42
  3
SHADED_WITH_EDGES
350
41
  3
SHADES_OF_GRAY
350
3E
  3
SKETCHY
350
3F
  3
THICKEN
350
37
  3
WIREFRAME
350
30
  3
X-RAY
350
40
  0
DICTIONARY
  5
1E7
102
{ACAD_REACTORS
330
C
102
}
330
C
100
AcDbDictionary
  3
CEPSNID
350
1F1
  3
CEPSNTYPE
350
1F0
  3
DIMSTYLEDATA
350
207
  3
FINGERPRINTGUID
350
1F2
  3
HYPERLINKBASE
350
1EA
  3
INSUNITS
350
1EF
  3
LAYOUTDICT
350
1EC
  3
LWETCUNION
350
1EE
  3
PLOTSETDICT
350
1ED
  3
PSVPSCALE
350
1F4
  3
PUCSBASE
350
1F7
  3
PUCSORGBACK
350
1FD
  3
PUCSORGBOTTOM
350
1F9
  3
PUCSORGFRONT
350
1FC
  3
PUCSORGLEFT
350
1FA
  3
PUCSORGRIGHT
350
1FB
  3
PUCSORGTOP
350
1F8
  3
PUCSORTHOREF
350
1F5
  3
PUCSORTHOVIEW
350
1F6
  3
STYLESHEET
350
1EB
  3
TSTACKALIGN
350
1E8
  3
TSTACKSIZE
350
1E9
  3
UCSBASE
350
200
  3
UCSORGBACK
350
206
  3
UCSORGBOTTOM
350
202
  3
UCSORGFRONT
350
205
  3
UCSORGLEFT
350
203
  3
UCSORGRIGHT
350
204
  3
UCSORGTOP
350
201
  3
UCSORTHOREF
350
1FE
  3
UCSORTHOVIEW
350
1FF
  3
VERSIONGUID
350
1F3
  0
DICTIONARY
  5
208
102
{ACAD_REACTORS
330
C
102
}
330
C
100
AcDbDictionary
  3
CANNOSCALE
350
211
  3
CMLEADERSTYLE
350
20A
  3
CTABLESTYLE
350
209
  3
DIMASSOC
350
20D
  3
HIDETEXT
350
20E
  3
MSLTSCALE
350
212
  0
XRECORD
  5
210
102
{ACAD_REACTORS
330
20F
102
}
330
20F
100
AcDbXrecord
102
VTR_0.000_0.000_1.000_1.000_VISUALSTYLE
340
2F
102
VTR_0.000_0.000_1.000_1.000_GRIDDISPLAY
 70
     3
102
VTR_0.000_0.000_1.000_1.000_GRIDMAJOR
 70
     5
102
VTR_0.000_0.000_1.000_1.000_DEFAULTLIGHTING
280
     1
102
VTR_0.000_0.000_1.000_1.000_DEFAULTLIGHTINGTYPE
 70
     1
102
VTR_0.000_0.000_1.000_1.000_BRIGHTNESS
141
0.0
102
VTR_0.000_0.000_1.000_1.000_CONTRAST
142
0.0
  0
MATERIAL
  5
45
102
{ACAD_REACTORS
330
43
102
}
102
{ACAD_XDICTIONARY
360
215
102
}
330
43
100
AcDbMaterial
  1
BYBLOCK
  0
MATERIAL
  5
44
102
{ACAD_REACTORS
330
43
102
}
102
{ACAD_XDICTIONARY
360
213
102
}
330
43
100
AcDbMaterial
  1
BYLAYER
  0
MATERIAL
  5
46
102
{ACAD_REACTORS
330
43
102
}
102
{ACAD_XDICTIONARY
360
217
102
}
330
43
100
AcDbMaterial
  1
GLOBAL
  0
ACAD_PROXY_OBJECT
  5
6C
102
{ACAD_REACTORS
330
6B
102
}
330
6B
100
AcDbProxyObject
 90
      499
 91
      505
 93
      610
310
40901902A4063FBFFFFFE056BD1B81E855B9FC0AD7A3703D0AD73F4214DD185B99185C9900AD7A3703D0AC73F90141901A02B5E8DC0F42B1CFC02B5E8DC0F42B1CFE5764000000000000300FC0
340
14
340
0
340
11
340
0
 94
        0
1001
ACAD_MLEADERVER
1070
     2
  0
MLINESTYLE
  5
18
102
{ACAD_REACTORS
330
17
102
}
330
17
100
AcDbMlineStyle
  2
Standard
 70
     0
  3

 62
   256
 51
90.0
 52
90.0
 71
     2
 49
0.5
 62
   256
  6
BYLAYER
 49
-0.5
 62
   256
  6
BYLAYER
  0
ACAD_PROXY_OBJECT
  5
48
102
{ACAD_REACTORS
330
47
102
}
330
47
100
AcDbProxyObject
 90
      499
 91
      503
 93
       41
310
903313A31580
  0
ACAD_PROXY_OBJECT
  5
49
102
{ACAD_REACTORS
330
47
102
}
330
47
100
AcDbProxyObject
 90
      499
 91
      503
 93
      105
310
903313A324000000000000004000
  0
ACAD_PROXY_OBJECT
  5
4A
102
{ACAD_REACTORS
330
47
102
}
330
47
100
AcDbProxyObject
 90
      499
 91
      503
 93
      105
310
903313A344000000000000104000
  0
ACAD_PROXY_OBJECT
  5
4B
102
{ACAD_REACTORS
330
47
102
}
330
47
100
AcDbProxyObject
 90
      499
 91
      503
 93
      105
310
903313A354000000000000144000
  0
ACAD_PROXY_OBJECT
  5
4C
102
{ACAD_REACTORS
330
47
102
}
330
47
100
AcDbProxyObject
 90
      499
 91
      503
 93
      105
310
903313A384000000000000204000
  0
ACAD_PROXY_OBJECT
  5
4D
102
{ACAD_REACTORS
330
47
102
}
330
47
100
AcDbProxyObject
 90
      499
 91
      503
 93
      113
310
904313A31304000000000000244000
  0
ACAD_PROXY_OBJECT
  5
4E
102
{ACAD_REACTORS
330
47
102
}
330
47
100
AcDbProxyObject
 90
      499
 91
      503
 93
      113
310
904313A31364000000000000304000
  0
ACAD_PROXY_OBJECT
  5
4F
102
{ACAD_REACTORS
330
47
102
}
330
47
100
AcDbProxyObject
 90
      499
 91
      503
 93
      113
310
904313A32304000000000000344000
  0
ACAD_PROXY_OBJECT
  5
50
102
{ACAD_REACTORS
330
47
102
}
330
47
100
AcDbProxyObject
 90
      499
 91
      503
 93
      113
310
904313A333040000000000003E4000
  0
ACAD_PROXY_OBJECT
  5
51
102
{ACAD_REACTORS
330
47
102
}
330
47
100
AcDbProxyObject
 90
      499
 91
      503
 93
      113
310
904313A34304000000000000444000
  0
ACAD_PROXY_OBJECT
  5
52
102
{ACAD_REACTORS
330
47
102
}
330
47
100
AcDbProxyObject
 90
      499
 91
      503
 93
      113
310
904313A35304000000000000494000
  0
ACAD_PROXY_OBJECT
  5
53
102
{ACAD_REACTORS
330
47
102
}
330
47
100
AcDbProxyObject
 90
      499
 91
      503
 93
      121
310
905313A3130304000000000000594000
  0
ACAD_PROXY_OBJECT
  5
54
102
{ACAD_REACTORS
330
47
102
}
330
47
100
AcDbProxyObject
 90
      499
 91
      503
 93
      105
310
903323A310000000000000010100
  0
ACAD_PROXY_OBJECT
  5
55
102
{ACAD_REACTORS
330
47
102
}
330
47
100
AcDbProxyObject
 90
      499
 91
      503
 93
      105
310
903343A310000000000000410100
  0
ACAD_PROXY_OBJECT
  5
56
102
{ACAD_REACTORS
330
47
102
}
330
47
100
AcDbProxyObject
 90
      499
 91
      503
 93
      105
310
903383A310000000000000810100
  0
ACAD_PROXY_OBJECT
  5
57
102
{ACAD_REACTORS
330
47
102
}
330
47
100
AcDbProxyObject
 90
      499
 91
      503
 93
      113
310
90431303A310000000000000910100
  0
ACAD_PROXY_OBJECT
  5
58
102
{ACAD_REACTORS
330
47
102
}
330
47
100
AcDbProxyObject
 90
      499
 91
      503
 93
      121
310
9053130303A310000000000001650100
  0
ACAD_PROXY_OBJECT
  5
59
102
{ACAD_REACTORS
330
47
102
}
330
47
100
AcDbProxyObject
 90
      499
 91
      503
 93
      257
310
90E312F31323822203D2031272D3022000000000000200FC000000000000284000
  0
ACAD_PROXY_OBJECT
  5
5A
102
{ACAD_REACTORS
330
47
102
}
330
47
100
AcDbProxyObject
 90
      499
 91
      503
 93
      249
310
90D312F363422203D2031272D3022000000000000240FC000000000000284000
  0
ACAD_PROXY_OBJECT
  5
5B
102
{ACAD_REACTORS
330
47
102
}
330
47
100
AcDbProxyObject
 90
      499
 91
      503
 93
      249
310
90D312F333222203D2031272D3022000000000000280FC000000000000284000
  0
ACAD_PROXY_OBJECT
  5
5C
102
{ACAD_REACTORS
330
47
102
}
330
47
100
AcDbProxyObject
 90
      499
 91
      503
 93
      249
310
90D312F313622203D2031272D30220000000000002C0FC000000000000284000
  0
ACAD_PROXY_OBJECT
  5
5D
102
{ACAD_REACTORS
330
47
102
}
330
47
100
AcDbProxyObject
 90
      499
 91
      503
 93
      249
310
90D332F333222203D2031272D30220000000000002E0FC000000000000284000
  0
ACAD_PROXY_OBJECT
  5
5E
102
{ACAD_REACTORS
330
47
102
}
330
47
100
AcDbProxyObject
 90
      499
 91
      503
 93
      241
310
90C312F3822203D2031272D3022000000000000300FC000000000000284000
  0
ACAD_PROXY_OBJECT
  5
5F
102
{ACAD_REACTORS
330
47
102
}
330
47
100
AcDbProxyObject
 90
      499
 91
      503
 93
      249
310
90D332F313622203D2031272D3022000000000000320FC000000000000284000
  0
ACAD_PROXY_OBJECT
  5
60
102
{ACAD_REACTORS
330
47
102
}
330
47
100
AcDbProxyObject
 90
      499
 91
      503
 93
      241
310
90C312F3422203D2031272D3022000000000000340FC000000000000284000
  0
ACAD_PROXY_OBJECT
  5
61
102
{ACAD_REACTORS
330
47
102
}
330
47
100
AcDbProxyObject
 90
      499
 91
      503
 93
      241
310
90C332F3822203D2031272D3022000000000000360FC000000000000284000
  0
ACAD_PROXY_OBJECT
  5
62
102
{ACAD_REACTORS
330
47
102
}
330
47
100
AcDbProxyObject
 90
      499
 91
      503
 93
      241
310
90C312F3222203D2031272D3022000000000000380FC000000000000284000
  0
ACAD_PROXY_OBJECT
  5
63
102
{ACAD_REACTORS
330
47
102
}
330
47
100
AcDbProxyObject
 90
      499
 91
      503
 93
      241
310
90C332F3422203D2031272D30220000000000003A0FC000000000000284000
  0
ACAD_PROXY_OBJECT
  5
64
102
{ACAD_REACTORS
330
47
102
}
330
47
100
AcDbProxyObject
 90
      499
 91
      503
 93
      161
310
90A3122203D2031272D30224000000000000284000
  0
ACAD_PROXY_OBJECT
  5
65
102
{ACAD_REACTORS
330
47
102
}
330
47
100
AcDbProxyObject
 90
      499
 91
      503
 93
      257
310
90E312D312F3222203D2031272D30220000000000003E0FC000000000000284000
  0
ACAD_PROXY_OBJECT
  5
66
102
{ACAD_REACTORS
330
47
102
}
330
47
100
AcDbProxyObject
 90
      499
 91
      503
 93
      225
310
90A3322203D2031272D302200000000000002100000000000000284000
  0
ACAD_PROXY_OBJECT
  5
67
102
{ACAD_REACTORS
330
47
102
}
330
47
100
AcDbProxyObject
 90
      499
 91
      503
 93
      225
310
90A3622203D2031272D302200000000000006100000000000000284000
  0
ACAD_PROXY_OBJECT
  5
68
102
{ACAD_REACTORS
330
47
102
}
330
47
100
AcDbProxyObject
 90
      499
 91
      503
 93
      249
310
90D31272D3022203D2031272D30220000000000000A100000000000000284000
  0
ACAD_PROXY_OBJECT
  5
2F
102
{ACAD_REACTORS
330
2A
102
}
330
2A
100
AcDbProxyObject
 90
      499
 91
      501
 93
      436
310
42CC9915DA5C99599C985B595049028333333333333E33F0000000000000F90107901411070040501600405405064090741402480A0340
1001
ACAD
1000
AcDbSavedByObjectVersion
1070
     0
  0
ACAD_PROXY_OBJECT
  5
32
102
{ACAD_REACTORS
330
2A
102
}
330
2A
100
AcDbProxyObject
 90
      499
 91
      501
 93
      388
310
4150985CDA58D07406404333333333333E33F0000000000000F90107A41107004050150841D405064090741402480A0350
1001
ACAD
1000
AcDbSavedByObjectVersion
1070
     0
  0
ACAD_PROXY_OBJECT
  5
36
102
{ACAD_REACTORS
330
2A
102
}
330
2A
100
AcDbProxyObject
 90
      499
 91
      501
 93
      428
310
42109C9A59DA1D195B90C409028333333333333E33F0000000000000F9010790141107004050150841D405064090741402480A029950
1001
ACAD
1000
AcDbSavedByObjectVersion
1070
     0
  0
ACAD_PROXY_OBJECT
  5
3A
102
{ACAD_REACTORS
330
2A
102
}
330
2A
100
AcDbProxyObject
 90
      499
 91
      501
 93
      452
310
42D0DBDB1BDC90DA185B99D95104090240C333333333333E33F0000000000000F90108901411070040501508421405064090741402480A0350
1001
ACAD
1000
AcDbSavedByObjectVersion
1070
     0
  0
ACAD_PROXY_OBJECT
  5
34
102
{ACAD_REACTORS
330
2A
102
}
330
2A
100
AcDbProxyObject
 90
      499
 91
      501
 93
      500
310
4290DBDB98D95C1D1D585B10940D028333333333333E33F0000000000000F90107902409070040501000000000018199010841D405064090740C02480A0340
1001
ACAD
1000
AcDbSavedByObjectVersion
1070
     0
  0
ACAD_PROXY_OBJECT
  5
35
102
{ACAD_REACTORS
330
2A
102
}
330
2A
100
AcDbProxyObject
 90
      499
 91
      501
 93
      412
310
40D11A5B50B409028333333333333E33F0000000000000F9010790141107004050150841D405064090741402480A02677FFFFFD0
1001
ACAD
1000
AcDbSavedByObjectVersion
1070
     0
  0
ACAD_PROXY_OBJECT
  5
3D
102
{ACAD_REACTORS
330
2A
102
}
330
2A
100
AcDbProxyObject
 90
      499
 91
      501
 93
      452
310
43115919D950DBDB1BDC93D999916409028333333333333E33F0000000000000F9010790141107004050150841D405064090741402480A0350
1001
ACAD
1000
AcDbSavedByObjectVersion
1070
     0
  0
ACAD_PROXY_OBJECT
  5
39
102
{ACAD_REACTORS
330
2A
102
}
330
2A
100
AcDbProxyObject
 90
      499
 91
      501
 93
      444
310
42D19858D95C185D1D195C9B90F409028333333333333E33F0000000000000F9010790141107004050150841D405064090741402480A0350
1001
ACAD
1000
AcDbSavedByObjectVersion
1070
     0
  0
ACAD_PROXY_OBJECT
  5
2B
102
{ACAD_REACTORS
330
2A
102
}
330
2A
100
AcDbProxyObject
 90
      499
 91
      501
 93
      380
310
41119B185D240901404333333333333E33F0000000000000F9010740A907004050150841D405064090741402480A1B50
1001
ACAD
1000
AcDbSavedByObjectVersion
1070
     0
  0
ACAD_PROXY_OBJECT
  5
2C
102
{ACAD_REACTORS
330
2A
102
}
330
2A
100
AcDbProxyObject
 90
      499
 91
      501
 93
      468
310
43519B185D15DA5D1A115919D95CD0140901404333333333333E33F0000000000000F90107409019070040501600405405064090741402480A1B50
1001
ACAD
1000
AcDbSavedByObjectVersion
1070
     0
  0
ACAD_PROXY_OBJECT
  5
2D
102
{ACAD_REACTORS
330
2A
102
}
330
2A
100
AcDbProxyObject
 90
      499
 91
      501
 93
      404
310
41D1DBDD5C985D5910240902404333333333333E33F0000000000000F9010740A9070040501641D405064090741402480A1B50
1001
ACAD
1000
AcDbSavedByObjectVersion
1070
     0
  0
ACAD_PROXY_OBJECT
  5
2E
102
{ACAD_REACTORS
330
2A
102
}
330
2A
100
AcDbProxyObject
 90
      499
 91
      501
 93
      492
310
4411DBDD5C985D5915DA5D1A115919D95CD0340902404333333333333E33F0000000000000F90107409019070040501600405405064090741402480A1B50
1001
ACAD
1000
AcDbSavedByObjectVersion
1070
     0
  0
ACAD_PROXY_OBJECT
  5
31
102
{ACAD_REACTORS
330
2A
102
}
330
2A
100
AcDbProxyObject
 90
      499
 91
      501
 93
      476
310
41921A5919195B90640502408333333333333E33F0000000000000F901079024090700405020000000000001110200405405064090740C02480A0340
1001
ACAD
1000
AcDbSavedByObjectVersion
1070
     0
  0
ACAD_PROXY_OBJECT
  5
3B
102
{ACAD_REACTORS
330
2A
102
}
330
2A
100
AcDbProxyObject
 90
      499
 91
      501
 93
      428
310
42529A5D1D195C93D999914409028333333333333E33F0000000000000F9010790141107004050150A41D405064090741402480A0350
1001
ACAD
1000
AcDbSavedByObjectVersion
1070
     0
  0
ACAD_PROXY_OBJECT
  5
38
102
{ACAD_REACTORS
330
2A
102
}
330
2A
100
AcDbProxyObject
 90
      499
 91
      501
 93
      444
310
42D31A5B995C185D1D195C9B90E409028333333333333E33F0000000000000F9010790141107004050750841D405064090741402483A0350
1001
ACAD
1000
AcDbSavedByObjectVersion
1070
     0
  0
ACAD_PROXY_OBJECT
  5
3C
102
{ACAD_REACTORS
330
2A
102
}
330
2A
100
AcDbProxyObject
 90
      499
 91
      501
 93
      444
310
42D3DD995C9A185B99D3D999915409028333333333333E33F0000000000000F9010790141107004050150941D405064090741402480A0350
1001
ACAD
1000
AcDbSavedByObjectVersion
1070
     0
  0
ACAD_PROXY_OBJECT
  5
33
102
{ACAD_REACTORS
330
2A
102
}
330
2A
100
AcDbProxyObject
 90
      499
 91
      501
 93
      428
310
425499585B1A5CDD1A58D08409038333333333333E33F0000000000000F9010740A907004050150800405405064090740C02480A1B40
1001
ACAD
1000
AcDbSavedByObjectVersion
1070
     0
  0
ACAD_PROXY_OBJECT
  5
42
102
{ACAD_REACTORS
330
2A
102
}
330
2A
100
AcDbProxyObject
 90
      499
 91
      501
 93
      420
310
4194DA1859195911B40902404333333333333E33F0000000000000F9010740A41107004050150800405405064090840C02480A0B40
1001
ACAD
1000
AcDbSavedByObjectVersion
1070
     0
  0
ACAD_PROXY_OBJECT
  5
41
102
{ACAD_REACTORS
330
2A
102
}
330
2A
100
AcDbProxyObject
 90
      499
 91
      501
 93
      516
310
4454DA18591959081DDA5D1A08195919D95CD1A40902404333333333333E33F0000000000000F901074090142907004050250800405405064090740C02480A0B40
1001
ACAD
1000
AcDbSavedByObjectVersion
1070
     0
  0
ACAD_PROXY_OBJECT
  5
3E
102
{ACAD_REACTORS
330
2A
102
}
330
2A
100
AcDbProxyObject
 90
      499
 91
      501
 93
      532
310
4394DA1859195CC81BD98811DC985E5174090240C333333333333E33F0000000000000F901079024090741D01000000000000111010841D405064090740C02480A0340
1001
ACAD
1000
AcDbSavedByObjectVersion
1070
     0
  0
ACAD_PROXY_OBJECT
  5
3F
102
{ACAD_REACTORS
330
2A
102
}
330
2A
100
AcDbProxyObject
 90
      499
 91
      501
 93
      476
310
41D4DAD95D18DA1E51840502408333333333333E33F0000000000000F901079024090741D01000000000000111010B41D405064090741802480A0340
1001
ACAD
1000
AcDbSavedByObjectVersion
1070
     0
  0
ACAD_PROXY_OBJECT
  5
37
102
{ACAD_REACTORS
330
2A
102
}
330
2A
100
AcDbProxyObject
 90
      499
 91
      501
 93
      412
310
41D51A1A58DAD95B90D409028333333333333E33F0000000000000F9010790141107004050150C41D405064090741402480A0350
1001
ACAD
1000
AcDbSavedByObjectVersion
1070
     0
  0
ACAD_PROXY_OBJECT
  5
30
102
{ACAD_REACTORS
330
2A
102
}
330
2A
100
AcDbProxyObject
 90
      499
 91
      501
 93
      420
310
4255DA5C99599C985B595059028333333333333E33F0000000000000F90107901411070040501600405405064090740C02480A0340
1001
ACAD
1000
AcDbSavedByObjectVersion
1070
     0
  0
ACAD_PROXY_OBJECT
  5
40
102
{ACAD_REACTORS
330
2A
102
}
330
2A
100
AcDbProxyObject
 90
      499
 91
      501
 93
      404
310
41560B54985E51940902404000000000000E03F0000000000000F9010740501907004050150841D405064090740C02480A1B40
1001
ACAD
1000
AcDbSavedByObjectVersion
1070
     0
  0
XRECORD
  5
1F1
102
{ACAD_REACTORS
330
1E7
102
}
330
1E7
100
AcDbXrecord
340
0
  0
XRECORD
  5
1F0
102
{ACAD_REACTORS
330
1E7
102
}
330
1E7
100
AcDbXrecord
 90
        0
  0
XRECORD
  5
207
102
{ACAD_REACTORS
330
1E7
102
}
330
1E7
100
AcDbXrecord
1000
DSTYLE
1002
{
1070
   179
 70
     2
1070
   171
 70
     2
1070
   143
 40
25.4
1070
   274
 70
     2
1070
    41
 40
3.0
1070
   141
 40
0.09
1070
    43
 40
0.38
1070
   278
 70
    46
1070
    44
 40
1.5
1070
    42
 40
0.0625
1070
   147
 40
1.5
1070
   272
 70
     4
1070
    73
 70
     1
1070
   172
 70
     0
1070
    74
 70
     1
1070
   283
 70
     1
1070
   340
340
6F
1070
   140
 40
3.0
1070
   284
 70
     0
1070
    78
 70
     0
1002
}
  0
XRECORD
  5
1F2
102
{ACAD_REACTORS
330
1E7
102
}
330
1E7
100
AcDbXrecord
  1
{303CCFA1-4BB7-4176-B2E0-BA0DFEAA30A4}
  0
XRECORD
  5
1EA
102
{ACAD_REACTORS
330
1E7
102
}
330
1E7
100
AcDbXrecord
  1

  0
XRECORD
  5
1EF
102
{ACAD_REACTORS
330
1E7
102
}
330
1E7
100
AcDbXrecord
 90
        4
  0
XRECORD
  5
1EC
102
{ACAD_REACTORS
330
1E7
102
}
330
1E7
100
AcDbXrecord
340
1A
  0
XRECORD
  5
1EE
102
{ACAD_REACTORS
330
1E7
102
}
330
1E7
100
AcDbXrecord
 90
    10269
  0
XRECORD
  5
1ED
102
{ACAD_REACTORS
330
1E7
102
}
330
1E7
100
AcDbXrecord
340
19
  0
XRECORD
  5
1F4
102
{ACAD_REACTORS
330
1E7
102
}
330
1E7
100
AcDbXrecord
 40
0.0
  0
XRECORD
  5
1F7
102
{ACAD_REACTORS
330
1E7
102
}
330
1E7
100
AcDbXrecord
340
0
  0
XRECORD
  5
1FD
102
{ACAD_REACTORS
330
1E7
102
}
330
1E7
100
AcDbXrecord
 10
0.0
 20
0.0
 30
0.0
  0
XRECORD
  5
1F9
102
{ACAD_REACTORS
330
1E7
102
}
330
1E7
100
AcDbXrecord
 10
0.0
 20
0.0
 30
0.0
  0
XRECORD
  5
1FC
102
{ACAD_REACTORS
330
1E7
102
}
330
1E7
100
AcDbXrecord
 10
0.0
 20
0.0
 30
0.0
  0
XRECORD
  5
1FA
102
{ACAD_REACTORS
330
1E7
102
}
330
1E7
100
AcDbXrecord
 10
0.0
 20
0.0
 30
0.0
  0
XRECORD
  5
1FB
102
{ACAD_REACTORS
330
1E7
102
}
330
1E7
100
AcDbXrecord
 10
0.0
 20
0.0
 30
0.0
  0
XRECORD
  5
1F8
102
{ACAD_REACTORS
330
1E7
102
}
330
1E7
100
AcDbXrecord
 10
0.0
 20
0.0
 30
0.0
  0
XRECORD
  5
1F5
102
{ACAD_REACTORS
330
1E7
102
}
330
1E7
100
AcDbXrecord
340
0
  0
XRECORD
  5
1F6
102
{ACAD_REACTORS
330
1E7
102
}
330
1E7
100
AcDbXrecord
 70
     0
  0
XRECORD
  5
1EB
102
{ACAD_REACTORS
330
1E7
102
}
330
1E7
100
AcDbXrecord
  1

  0
XRECORD
  5
1E8
102
{ACAD_REACTORS
330
1E7
102
}
330
1E7
100
AcDbXrecord
 90
        1
  0
XRECORD
  5
1E9
102
{ACAD_REACTORS
330
1E7
102
}
330
1E7
100
AcDbXrecord
 90
       70
  0
XRECORD
  5
200
102
{ACAD_REACTORS
330
1E7
102
}
330
1E7
100
AcDbXrecord
340
0
  0
XRECORD
  5
206
102
{ACAD_REACTORS
330
1E7
102
}
330
1E7
100
AcDbXrecord
 10
0.0
 20
0.0
 30
0.0
  0
XRECORD
  5
202
102
{ACAD_REACTORS
330
1E7
102
}
330
1E7
100
AcDbXrecord
 10
0.0
 20
0.0
 30
0.0
  0
XRECORD
  5
205
102
{ACAD_REACTORS
330
1E7
102
}
330
1E7
100
AcDbXrecord
 10
0.0
 20
0.0
 30
0.0
  0
XRECORD
  5
203
102
{ACAD_REACTORS
330
1E7
102
}
330
1E7
100
AcDbXrecord
 10
0.0
 20
0.0
 30
0.0
  0
XRECORD
  5
204
102
{ACAD_REACTORS
330
1E7
102
}
330
1E7
100
AcDbXrecord
 10
0.0
 20
0.0
 30
0.0
  0
XRECORD
  5
201
102
{ACAD_REACTORS
330
1E7
102
}
330
1E7
100
AcDbXrecord
 10
0.0
 20
0.0
 30
0.0
  0
XRECORD
  5
1FE
102
{ACAD_REACTORS
330
1E7
102
}
330
1E7
100
AcDbXrecord
340
0
  0
XRECORD
  5
1FF
102
{ACAD_REACTORS
330
1E7
102
}
330
1E7
100
AcDbXrecord
 70
     0
  0
XRECORD
  5
1F3
102
{ACAD_REACTORS
330
1E7
102
}
330
1E7
100
AcDbXrecord
  1
{FAEB1C32-E019-11D5-929B-00C0DF256EC4}
  0
DICTIONARYVAR
  5
211
102
{ACAD_REACTORS
330
208
102
}
330
208
100
DictionaryVariables
280
     0
  1
1:1
  0
DICTIONARYVAR
  5
20A
102
{ACAD_REACTORS
330
208
102
}
330
208
100
DictionaryVariables
280
     0
  1
Standard
  0
DICTIONARYVAR
  5
209
102
{ACAD_REACTORS
330
208
102
}
330
208
100
DictionaryVariables
280
     0
  1
Standard
  0
DICTIONARYVAR
  5
20D
102
{ACAD_REACTORS
330
208
102
}
330
208
100
DictionaryVariables
280
     0
  1
2
  0
DICTIONARYVAR
  5
20E
102
{ACAD_REACTORS
330
208
102
}
330
208
100
DictionaryVariables
280
     0
  1
1
  0
DICTIONARYVAR
  5
212
102
{ACAD_REACTORS
330
208
102
}
330
208
100
DictionaryVariables
280
     0
  1
1
  0
DICTIONARY
  5
215
330
45
100
AcDbDictionary
280
     1
  3
ACAD_XREC_ROUNDTRIP
360
216
  0
DICTIONARY
  5
213
330
44
100
AcDbDictionary
280
     1
  3
ACAD_XREC_ROUNDTRIP
360
214
  0
DICTIONARY
  5
217
330
46
100
AcDbDictionary
280
     1
  3
ACAD_XREC_ROUNDTRIP
360
218
  0
XRECORD
  5
216
102
{ACAD_REACTORS
330
215
102
}
330
215
100
AcDbXrecord
102
MATERIAL
148
0.0
149
0.0
149
0.0
 93
        0
 94
      127
282
     0
 72
     1
 77
     1
171
     1
175
     1
179
     1
273
     0
  0
XRECORD
  5
214
102
{ACAD_REACTORS
330
213
102
}
330
213
100
AcDbXrecord
102
MATERIAL
148
0.0
149
0.0
149
0.0
 93
        0
 94
      127
282
     0
 72
     1
 77
     1
171
     1
175
     1
179
     1
273
     0
  0
XRECORD
  5
218
102
{ACAD_REACTORS
330
217
102
}
330
217
100
AcDbXrecord
102
MATERIAL
148
0.0
149
0.0
149
0.0
 93
        0
 94
      127
282
     0
 72
     1
 77
     1
171
     1
175
     1
179
     1
273
     0
  0
ENDSEC
  0
EOF
