  0
SECTION
  2
HEADER
  9
$ACADVER
  1
AC1004
  9
$INSBASE
 10
0.0
 20
0.0
  9
$EXTMIN
 10
0.0
 20
-39.67925095343504
  9
$EXTMAX
 10
541.6792509534425
 20
215.9999875
  9
$LIMMIN
 10
0.0
 20
0.0
  9
$LIMMAX
 10
12.0
 20
9.0
  9
$ORTHOMODE
 70
     0
  9
$REGENMODE
 70
     1
  9
$FILLMODE
 70
     1
  9
$QTEXTMODE
 70
     0
  9
$DRAGMODE
 70
     2
  9
$LTSCALE
 40
1.0
  9
$OSMODE
 70
    37
  9
$ATTMODE
 70
     1
  9
$TEXTSIZE
 40
0.2
  9
$TRACEWID
 40
0.05
  9
$TEXTSTYLE
  7
STANDARD
  9
$CLAYER
  8
0
  9
$CELTYPE
  6
BYLAYER
  9
$CECOLOR
 62
   256
  9
$DIMSCALE
 40
1.0
  9
$DIMASZ
 40
3.0
  9
$DIMEXO
 40
0.0625
  9
$DIMDLI
 40
0.38
  9
$DIMRND
 40
0.0
  9
$DIMDLE
 40
0.0
  9
$DIMEXE
 40
1.5
  9
$DIMTP
 40
0.0
  9
$DIMTM
 40
0.0
  9
$DIMTXT
 40
3.0
  9
$DIMCEN
 40
0.09
  9
$DIMTSZ
 40
0.0
  9
$DIMTOL
 70
     0
  9
$DIMLIM
 70
     0
  9
$DIMTIH
 70
     1
  9
$DIMTOH
 70
     1
  9
$DIMSE1
 70
     0
  9
$DIMSE2
 70
     0
  9
$DIMTAD
 70
     1
  9
$DIMZIN
 70
     0
  9
$DIMBLK
  1

  9
$DIMASO
 70
     1
  9
$DIMSHO
 70
     1
  9
$DIMPOST
  1

  9
$DIMAPOST
  1

  9
$DIMALT
 70
     0
  9
$DIMALTD
 70
     2
  9
$DIMALTF
 40
25.4
  9
$DIMLFAC
 40
1.0
  9
$DIMTOFL
 70
     0
  9
$DIMTVP
 40
0.0
  9
$DIMTIX
 70
     0
  9
$DIMSOXD
 70
     0
  9
$DIMSAH
 70
     0
  9
$DIMBLK1
  1

  9
$DIMBLK2
  1

  9
$LUNITS
 70
     2
  9
$LUPREC
 70
     4
  9
$SKETCHINC
 40
0.1
  9
$FILLETRAD
 40
0.5
  9
$AUNITS
 70
     0
  9
$AUPREC
 70
     0
  9
$MENU
  1
.
  9
$ELEVATION
 40
0.0
  9
$THICKNESS
 40
0.0
  9
$LIMCHECK
 70
     0
  9
$CHAMFERA
 40
0.0
  9
$CHAMFERB
 40
0.0
  9
$SKPOLY
 70
     0
  9
$TDCREATE
 40
2460255.63789647
  9
$TDUPDATE
 40
2460255.637896771
  9
$TDINDWG
 40
0.0000000116
  9
$TDUSRTIMER
 40
0.0000000116
  9
$USRTIMER
 70
     1
  9
$ANGBASE
 50
0.0
  9
$ANGDIR
 70
     0
  9
$PDMODE
 70
     0
  9
$PDSIZE
 40
0.0
  9
$PLINEWID
 40
0.0
  9
$COORDS
 70
     1
  9
$SPLFRAME
 70
     0
  9
$SPLINETYPE
 70
     6
  9
$SPLINESEGS
 70
     8
  9
$ATTDIA
 70
     0
  9
$ATTREQ
 70
     1
  9
$SURFTAB1
 70
     6
  9
$SURFTAB2
 70
     6
  9
$SURFTYPE
 70
     6
  9
$SURFU
 70
     6
  9
$SURFV
 70
     6
  9
$UCSNAME
  2

  9
$UCSORG
 10
0.0
 20
0.0
 30
0.0
  9
$UCSXDIR
 10
1.0
 20
0.0
 30
0.0
  9
$UCSYDIR
 10
0.0
 20
1.0
 30
0.0
  9
$USERI1
 70
     0
  9
$USERI2
 70
     0
  9
$USERI3
 70
     0
  9
$USERI4
 70
     0
  9
$USERI5
 70
     0
  9
$USERR1
 40
0.0
  9
$USERR2
 40
0.0
  9
$USERR3
 40
0.0
  9
$USERR4
 40
0.0
  9
$USERR5
 40
0.0
  9
$WORLDVIEW
 70
     1
  0
ENDSEC
  0
SECTION
  2
TABLES
  0
TABLE
  2
LTYPE
 70
     2
  0
LTYPE
  2
CONTINUOUS
 70
     0
  3
Solid line
 72
    65
 73
     0
 40
0.0
  0
LTYPE
  2
CENTER
 70
     0
  3

 72
    65
 73
     0
 40
0.0
  0
ENDTAB
  0
TABLE
  2
LAYER
 70
     1
  0
LAYER
  2
0
 70
     0
 62
     7
  6
CONTINUOUS
  0
ENDTAB
  0
TABLE
  2
STYLE
 70
     2
  0
STYLE
  2
STANDARD
 70
     0
 40
0.0
 41
1.0
 50
0.0
 71
     0
 42
0.2
  3
txt
  4

  0
STYLE
  2
ＭＳ_ゴシック
 70
     0
 40
0.0
 41
1.0
 50
0.0
 71
     0
 42
0.2
  3
ＭＳ ゴシック.shx
  4

  0
ENDTAB
  0
TABLE
  2
VIEW
 70
     0
  0
ENDTAB
  0
ENDSEC
  0
SECTION
  2
BLOCKS
  0
BLOCK
  8
0
  2
D_FRAME_VIEW_2072
 70
     0
 10
0.0
 20
0.0
  0
LINE
  8
0
  6
CONTINUOUS
 62
     9
 10
538.6739019765967
 20
115.4352501420765
 11
538.4356980741742
 21
117.7698636053507
  0
ARC
  8
0
  6
CONTINUOUS
 62
     7
 10
540.6351163047514
 20
118.351251490732
 40
2.274962071390073
 50
194.8067332732846
 51
214.0782045733327
  0
POLYLINE
  8
0
  6
CONTINUOUS
 62
     7
 66
     1
  0
VERTEX
  8
0
  6
CONTINUOUS
 62
     7
 10
538.7508254099733
 20
117.0765357380562
  0
VERTEX
  8
0
  6
CONTINUOUS
 62
     7
 10
538.8240768677045
 20
117.0074387028733
  0
VERTEX
  8
0
  6
CONTINUOUS
 62
     7
 10
538.8565299659314
 20
116.9978362913698
  0
SEQEND
  8
0
  6
CONTINUOUS
 62
     7
  0
LINE
  8
0
  6
CONTINUOUS
 62
     7
 10
541.6792509534425
 20
116.9999875
 11
541.6792509534349
 21
87.70154961871644
  0
LINE
  8
0
  6
CONTINUOUS
 62
     9
 10
539.1705247502165
 20
87.70154961871644
 11
541.6792509534351
 21
87.70154961871644
  0
LINE
  8
0
  6
CONTINUOUS
 62
     7
 10
541.6792509534425
 20
116.9999875
 11
538.8565299659314
 21
116.9978362913698
  0
LINE
  8
0
  6
CONTINUOUS
 62
     9
 10
484.2877233938599
 20
118.7975887880719
 11
538.1879771566538
 21
118.5840732292155
  0
LINE
  8
0
  6
CONTINUOUS
 62
     9
 10
484.9061312277521
 20
178.0945447124978
 11
484.2877233938598
 21
118.7975887880719
  0
POLYLINE
  8
0
  6
CONTINUOUS
 62
     9
 66
     1
  0
VERTEX
  8
0
  6
CONTINUOUS
 62
     9
 10
485.8818868125953
 20
180.2949488960682
  0
VERTEX
  8
0
  6
CONTINUOUS
 62
     9
 10
485.4734654311548
 20
179.8421714454688
  0
VERTEX
  8
0
  6
CONTINUOUS
 62
     9
 10
485.1670960172287
 20
179.3095324038842
  0
VERTEX
  8
0
  6
CONTINUOUS
 62
     9
 10
484.9753599937732
 20
178.718905224605
  0
VERTEX
  8
0
  6
CONTINUOUS
 62
     9
 10
484.9061312277521
 20
178.0945447124978
  0
SEQEND
  8
0
  6
CONTINUOUS
 62
     9
  0
LINE
  8
0
  6
CONTINUOUS
 62
     9
 10
506.5300589072565
 20
198.7681940928375
 11
485.8818868125953
 21
180.2949488960682
  0
POLYLINE
  8
0
  6
CONTINUOUS
 62
     9
 66
     1
  0
VERTEX
  8
0
  6
CONTINUOUS
 62
     9
 10
508.3862241240721
 20
199.5064564122273
  0
VERTEX
  8
0
  6
CONTINUOUS
 62
     9
 10
507.7219983592052
 20
199.415952338256
  0
VERTEX
  8
0
  6
CONTINUOUS
 62
     9
 10
507.0928306257018
 20
199.1657101582962
  0
VERTEX
  8
0
  6
CONTINUOUS
 62
     9
 10
506.5300589072565
 20
198.7681940928374
  0
SEQEND
  8
0
  6
CONTINUOUS
 62
     9
  0
LINE
  8
0
  6
CONTINUOUS
 62
     9
 10
541.6792509534351
 20
199.925918472241
 11
508.3862241240723
 21
199.5064564122273
  0
LINE
  8
0
  6
CONTINUOUS
 62
     7
 10
541.6792509534425
 20
116.9999875
 11
541.6792509534349
 21
199.925918472241
  0
LINE
  8
0
  6
CONTINUOUS
 62
     7
 10
538.1879771566538
 20
118.5840732292155
 11
538.4356980741743
 21
117.7698636053507
  0
LINE
  8
0
  6
CONTINUOUS
 62
     9
 10
541.6792509534351
 20
86.45215952360759
 11
539.1724369335169
 21
86.45215952360759
  0
LINE
  8
0
  6
CONTINUOUS
 62
     7
 10
541.6792509534351
 20
87.70154961871644
 11
541.6792509534351
 21
86.45215952360759
  0
POLYLINE
  8
0
  6
CONTINUOUS
 62
     9
 66
     1
  0
VERTEX
  8
0
  6
CONTINUOUS
 62
     9
 10
538.6739019765968
 20
115.4352501420765
  0
VERTEX
  8
0
  6
CONTINUOUS
 62
     9
 10
538.6493822736452
 20
115.4838922119828
  0
VERTEX
  8
0
  6
CONTINUOUS
 62
     9
 10
538.6059342945008
 20
115.5291075102793
  0
VERTEX
  8
0
  6
CONTINUOUS
 62
     9
 10
538.5453073277429
 20
115.5690755931507
  0
VERTEX
  8
0
  6
CONTINUOUS
 62
     9
 10
538.4699423168317
 20
115.6021872784834
  0
VERTEX
  8
0
  6
CONTINUOUS
 62
     9
 10
538.3828735836271
 20
115.627109434239
  0
VERTEX
  8
0
  6
CONTINUOUS
 62
     9
 10
538.2876066614957
 20
115.6428386525884
  0
VERTEX
  8
0
  6
CONTINUOUS
 62
     9
 10
538.1879771566538
 20
115.6487416487951
  0
SEQEND
  8
0
  6
CONTINUOUS
 62
     9
  0
LINE
  8
0
  6
CONTINUOUS
 62
     9
 10
539.1705247502165
 20
87.70154961871644
 11
538.6792509534351
 21
87.70154961871644
  0
LINE
  8
0
  6
CONTINUOUS
 62
     7
 10
538.679250953435
 20
87.70154961871644
 11
538.679250953435
 21
115.1802806544508
  0
LINE
  8
0
  6
CONTINUOUS
 62
     9
 10
538.679250953435
 20
115.1802806544508
 11
538.6739019765967
 21
115.4352501420765
  0
POLYLINE
  8
0
  6
CONTINUOUS
 62
     9
 66
     1
  0
VERTEX
  8
0
  6
CONTINUOUS
 62
     9
 10
538.679250953435
 20
86.7645070473848
  0
VERTEX
  8
0
  6
CONTINUOUS
 62
     9
 10
538.6886928510885
 20
86.70408742346976
  0
VERTEX
  8
0
  6
CONTINUOUS
 62
     9
 10
538.7166619463238
 20
86.64594970317579
  0
VERTEX
  8
0
  6
CONTINUOUS
 62
     9
 10
538.7621019138022
 20
86.59228960812219
  0
VERTEX
  8
0
  6
CONTINUOUS
 62
     9
 10
538.8232965954345
 20
86.54513375081123
  0
VERTEX
  8
0
  6
CONTINUOUS
 62
     9
 10
538.897934815537
 20
86.50626309435692
  0
VERTEX
  8
0
  6
CONTINUOUS
 62
     9
 10
538.9831976683688
 20
86.47714568979912
  0
VERTEX
  8
0
  6
CONTINUOUS
 62
     9
 10
539.0758649814094
 20
86.45888123135288
  0
VERTEX
  8
0
  6
CONTINUOUS
 62
     9
 10
539.1724369335168
 20
86.45215952360759
  0
SEQEND
  8
0
  6
CONTINUOUS
 62
     9
  0
LINE
  8
0
  6
CONTINUOUS
 62
     7
 10
538.679250953435
 20
86.76450704738481
 11
538.679250953435
 21
87.70154961871646
  0
POLYLINE
  8
0
  6
CONTINUOUS
 62
     9
 66
     1
  0
VERTEX
  8
0
  6
CONTINUOUS
 62
     9
 10
484.1751909571917
 20
115.8627029834026
  0
VERTEX
  8
0
  6
CONTINUOUS
 62
     9
 10
484.2310701547644
 20
116.7896184329926
  0
VERTEX
  8
0
  6
CONTINUOUS
 62
     9
 10
484.2691046488471
 20
117.7815715096
  0
VERTEX
  8
0
  6
CONTINUOUS
 62
     9
 10
484.2877233938598
 20
118.7975887880719
  0
SEQEND
  8
0
  6
CONTINUOUS
 62
     9
  0
LINE
  8
0
  6
CONTINUOUS
 62
     9
 10
538.1879771566538
 20
115.6487416487951
 11
484.1751909571917
 21
115.8627029834026
  0
LINE
  8
0
  6
CONTINUOUS
 62
     9
 10
539.1724369335167
 20
77.79418290581924
 11
541.6792509534349
 21
77.75042630433862
  0
LINE
  8
0
  6
CONTINUOUS
 62
     7
 10
541.6792509534351
 20
86.45215952360759
 11
541.6792509534351
 21
77.75042630433862
  0
POLYLINE
  8
0
  6
CONTINUOUS
 62
     9
 66
     1
  0
VERTEX
  8
0
  6
CONTINUOUS
 62
     9
 10
538.6792509534351
 20
98.87387295234952
  0
VERTEX
  8
0
  6
CONTINUOUS
 62
     9
 10
538.669855236949
 20
98.92211048182037
  0
VERTEX
  8
0
  6
CONTINUOUS
 62
     9
 10
538.6420212054439
 20
98.96853510668763
  0
VERTEX
  8
0
  6
CONTINUOUS
 62
     9
 10
538.5967949415946
 20
99.0114020564984
  0
VERTEX
  8
0
  6
CONTINUOUS
 62
     9
 10
538.5358761780122
 20
99.04910026842448
  0
VERTEX
  8
0
  6
CONTINUOUS
 62
     9
 10
538.4615544164222
 20
99.08021293562074
  0
VERTEX
  8
0
  6
CONTINUOUS
 62
     9
 10
538.3766228816272
 20
99.10357075488675
  0
VERTEX
  8
0
  6
CONTINUOUS
 62
     9
 10
538.2842735441138
 20
99.11829587243228
  0
VERTEX
  8
0
  6
CONTINUOUS
 62
     9
 10
538.1879771566538
 20
99.12383487613862
  0
SEQEND
  8
0
  6
CONTINUOUS
 62
     9
  0
POLYLINE
  8
0
  6
CONTINUOUS
 62
     9
 66
     1
  0
VERTEX
  8
0
  6
CONTINUOUS
 62
     9
 10
538.679250953435
 20
78.10653042959645
  0
VERTEX
  8
0
  6
CONTINUOUS
 62
     9
 10
538.6886928510885
 20
78.04611080568141
  0
VERTEX
  8
0
  6
CONTINUOUS
 62
     9
 10
538.7166619463238
 20
77.98797308538744
  0
VERTEX
  8
0
  6
CONTINUOUS
 62
     9
 10
538.7621019138022
 20
77.93431299033384
  0
VERTEX
  8
0
  6
CONTINUOUS
 62
     9
 10
538.8232965954345
 20
77.8871571330229
  0
VERTEX
  8
0
  6
CONTINUOUS
 62
     9
 10
538.897934815537
 20
77.84828647656857
  0
VERTEX
  8
0
  6
CONTINUOUS
 62
     9
 10
538.9831976683687
 20
77.81916907201077
  0
VERTEX
  8
0
  6
CONTINUOUS
 62
     9
 10
539.0758649814094
 20
77.80090461356453
  0
VERTEX
  8
0
  6
CONTINUOUS
 62
     9
 10
539.1724369335167
 20
77.79418290581924
  0
SEQEND
  8
0
  6
CONTINUOUS
 62
     9
  0
LINE
  8
0
  6
CONTINUOUS
 62
     7
 10
538.679250953435
 20
78.10653042959645
 11
538.679250953435
 21
86.7645070473848
  0
LINE
  8
0
  6
CONTINUOUS
 62
     9
 10
484.1751909571917
 20
115.8627029834026
 11
482.1080249731174
 21
99.38612476901729
  0
LINE
  8
0
  6
CONTINUOUS
 62
     9
 10
482.1080249731174
 20
99.38612476901729
 11
538.1879771566537
 21
99.12383487613862
  0
POLYLINE
  8
0
  6
CONTINUOUS
 62
     9
 66
     1
  0
VERTEX
  8
0
  6
CONTINUOUS
 62
     9
 10
482.2397966508847
 20
116.9127573371487
  0
VERTEX
  8
0
  6
CONTINUOUS
 62
     9
 10
482.2971797394561
 20
117.4688121076191
  0
VERTEX
  8
0
  6
CONTINUOUS
 62
     9
 10
482.3352142335388
 20
118.0639236870305
  0
VERTEX
  8
0
  6
CONTINUOUS
 62
     9
 10
482.3523290875528
 20
118.6735105096499
  0
SEQEND
  8
0
  6
CONTINUOUS
 62
     9
  0
POLYLINE
  8
0
  6
CONTINUOUS
 62
     9
 66
     1
  0
VERTEX
  8
0
  6
CONTINUOUS
 62
     9
 10
484.2877233938598
 20
118.7975887880719
  0
VERTEX
  8
0
  6
CONTINUOUS
 62
     9
 10
483.8964369695814
 20
118.797669303467
  0
VERTEX
  8
0
  6
CONTINUOUS
 62
     9
 10
483.52168723301
 20
118.7909842479588
  0
VERTEX
  8
0
  6
CONTINUOUS
 62
     9
 10
483.1780148851775
 20
118.7777930090372
  0
VERTEX
  8
0
  6
CONTINUOUS
 62
     9
 10
482.8787547903285
 20
118.7586074212485
  0
VERTEX
  8
0
  6
CONTINUOUS
 62
     9
 10
482.6355185685533
 20
118.7341719064535
  0
VERTEX
  8
0
  6
CONTINUOUS
 62
     9
 10
482.4577440521861
 20
118.7054345894417
  0
VERTEX
  8
0
  6
CONTINUOUS
 62
     9
 10
482.3523290875528
 20
118.6735105096499
  0
SEQEND
  8
0
  6
CONTINUOUS
 62
     9
  0
POLYLINE
  8
0
  6
CONTINUOUS
 62
     9
 66
     1
  0
VERTEX
  8
0
  6
CONTINUOUS
 62
     9
 10
482.2397966508847
 20
116.9127573371487
  0
VERTEX
  8
0
  6
CONTINUOUS
 62
     9
 10
482.3338716111721
 20
116.7065955865391
  0
VERTEX
  8
0
  6
CONTINUOUS
 62
     9
 10
482.5047276838716
 20
116.5068160186739
  0
VERTEX
  8
0
  6
CONTINUOUS
 62
     9
 10
482.7453728903
 20
116.3215942544592
  0
VERTEX
  8
0
  6
CONTINUOUS
 62
     9
 10
483.0459592565045
 20
116.1585101627674
  0
VERTEX
  8
0
  6
CONTINUOUS
 62
     9
 10
483.3941858239542
 20
116.0242376678825
  0
VERTEX
  8
0
  6
CONTINUOUS
 62
     9
 10
483.7758020442307
 20
115.9242716311063
  0
VERTEX
  8
0
  6
CONTINUOUS
 62
     9
 10
484.1751909571917
 20
115.8627029834026
  0
SEQEND
  8
0
  6
CONTINUOUS
 62
     9
  0
LINE
  8
0
  6
CONTINUOUS
 62
     9
 10
482.3523290875528
 20
118.6735105096499
 11
482.9707369214451
 21
177.9704664340758
  0
POLYLINE
  8
0
  6
CONTINUOUS
 62
     9
 66
     1
  0
VERTEX
  8
0
  6
CONTINUOUS
 62
     9
 10
484.9061312277521
 20
178.0945447124978
  0
VERTEX
  8
0
  6
CONTINUOUS
 62
     9
 10
484.5148448034737
 20
178.0946252278929
  0
VERTEX
  8
0
  6
CONTINUOUS
 62
     9
 10
484.1400950669023
 20
178.0879401723846
  0
VERTEX
  8
0
  6
CONTINUOUS
 62
     9
 10
483.7964227190699
 20
178.074748933463
  0
VERTEX
  8
0
  6
CONTINUOUS
 62
     9
 10
483.4971626242209
 20
178.0555633456744
  0
VERTEX
  8
0
  6
CONTINUOUS
 62
     9
 10
483.2539264024458
 20
178.0311278308793
  0
VERTEX
  8
0
  6
CONTINUOUS
 62
     9
 10
483.0761518860785
 20
178.0023905138675
  0
VERTEX
  8
0
  6
CONTINUOUS
 62
     9
 10
482.9707369214452
 20
177.9704664340757
  0
SEQEND
  8
0
  6
CONTINUOUS
 62
     9
  0
LINE
  8
0
  6
CONTINUOUS
 62
     9
 10
481.6927958091082
 20
99.55343675787874
 11
482.1080249731175
 21
99.38612476901729
  0
LINE
  8
0
  6
CONTINUOUS
 62
     9
 10
480.2338692715894
 20
100.9242882872681
 11
481.6927958091082
 21
99.5534367578787
  0
LINE
  8
0
  6
CONTINUOUS
 62
     9
 10
480.2338692715894
 20
100.9242882872681
 11
482.2397966508847
 21
116.9127573371487
  0
LINE
  8
0
  6
CONTINUOUS
 62
     9
 10
482.9707369214452
 20
177.9704664340757
 11
478.438652715072
 21
183.6629075661081
  0
LINE
  8
0
  6
CONTINUOUS
 62
     9
 10
479.801250388594
 20
83.99778153241176
 11
480.2338692715894
 21
100.9242882872681
  0
LINE
  8
0
  6
CONTINUOUS
 62
     7
 10
478.4386527150719
 20
83.99778153241176
 11
479.801250388594
 21
83.99778153241176
  0
POLYLINE
  8
0
  6
CONTINUOUS
 62
     9
 66
     1
  0
VERTEX
  8
0
  6
CONTINUOUS
 62
     9
 10
484.6462597936872
 20
181.5759301450155
  0
VERTEX
  8
0
  6
CONTINUOUS
 62
     9
 10
483.9594028930812
 20
180.8290314307245
  0
VERTEX
  8
0
  6
CONTINUOUS
 62
     9
 10
483.4382081394062
 20
179.9545873335408
  0
VERTEX
  8
0
  6
CONTINUOUS
 62
     9
 10
483.1040790127109
 20
178.9885079363192
  0
VERTEX
  8
0
  6
CONTINUOUS
 62
     9
 10
482.9707369214451
 20
177.9704664340757
  0
SEQEND
  8
0
  6
CONTINUOUS
 62
     9
  0
POLYLINE
  8
0
  6
CONTINUOUS
 62
     9
 66
     1
  0
VERTEX
  8
0
  6
CONTINUOUS
 62
     9
 10
485.8818868125953
 20
180.2949488960682
  0
VERTEX
  8
0
  6
CONTINUOUS
 62
     9
 10
485.6104529500849
 20
180.5933792948814
  0
VERTEX
  8
0
  6
CONTINUOUS
 62
     9
 10
485.3518909354275
 20
180.8719469719117
  0
VERTEX
  8
0
  6
CONTINUOUS
 62
     9
 10
485.117065119685
 20
181.1189469710317
  0
VERTEX
  8
0
  6
CONTINUOUS
 62
     9
 10
484.9158424978374
 20
181.3240007580771
  0
VERTEX
  8
0
  6
CONTINUOUS
 62
     9
 10
484.7566781138642
 20
181.478492309801
  0
VERTEX
  8
0
  6
CONTINUOUS
 62
     9
 10
484.6462597936872
 20
181.5759301450155
  0
SEQEND
  8
0
  6
CONTINUOUS
 62
     9
  0
LINE
  8
0
  6
CONTINUOUS
 62
     9
 10
484.6462597936874
 20
181.5759301450154
 11
505.2944318883486
 21
200.0491753417846
  0
POLYLINE
  8
0
  6
CONTINUOUS
 62
     9
 66
     1
  0
VERTEX
  8
0
  6
CONTINUOUS
 62
     9
 10
506.5300589072566
 20
198.7681940928374
  0
VERTEX
  8
0
  6
CONTINUOUS
 62
     9
 10
506.2586250447463
 20
199.0666244916505
  0
VERTEX
  8
0
  6
CONTINUOUS
 62
     9
 10
506.0000630300889
 20
199.3451921686807
  0
VERTEX
  8
0
  6
CONTINUOUS
 62
     9
 10
505.7652372143464
 20
199.5921921678006
  0
VERTEX
  8
0
  6
CONTINUOUS
 62
     9
 10
505.5640145924988
 20
199.797245954846
  0
VERTEX
  8
0
  6
CONTINUOUS
 62
     9
 10
505.4048502085256
 20
199.9517375065699
  0
VERTEX
  8
0
  6
CONTINUOUS
 62
     9
 10
505.2944318883486
 20
200.0491753417845
  0
SEQEND
  8
0
  6
CONTINUOUS
 62
     9
  0
POLYLINE
  8
0
  6
CONTINUOUS
 62
     9
 66
     1
  0
VERTEX
  8
0
  6
CONTINUOUS
 62
     9
 10
508.3862241240721
 20
201.2112704773124
  0
VERTEX
  8
0
  6
CONTINUOUS
 62
     9
 10
508.3826681128273
 20
201.0491866194638
  0
VERTEX
  8
0
  6
CONTINUOUS
 62
     9
 10
508.3804825262279
 20
200.8259225886971
  0
VERTEX
  8
0
  6
CONTINUOUS
 62
     9
 10
508.3797452404455
 20
200.5494336625499
  0
VERTEX
  8
0
  6
CONTINUOUS
 62
     9
 10
508.3804825262279
 20
200.2295716122009
  0
VERTEX
  8
0
  6
CONTINUOUS
 62
     9
 10
508.3826681128273
 20
199.8777336670897
  0
VERTEX
  8
0
  6
CONTINUOUS
 62
     9
 10
508.3862241240721
 20
199.5064564122274
  0
SEQEND
  8
0
  6
CONTINUOUS
 62
     9
  0
LINE
  8
0
  6
CONTINUOUS
 62
     9
 10
508.3862241240722
 20
201.2112704773121
 11
541.679250953435
 21
201.6307325373257
  0
LINE
  8
0
  6
CONTINUOUS
 62
     7
 10
541.6792509534351
 20
201.6307325373257
 11
541.6792509534351
 21
199.925918472241
  0
LINE
  8
0
  6
CONTINUOUS
 62
     7
 10
541.6792509534351
 20
76.99998750000002
 11
539.1705247502165
 21
77.04377747876431
  0
LINE
  8
0
  6
CONTINUOUS
 62
     7
 10
541.6792509534351
 20
77.75042630433862
 11
541.6792509534351
 21
76.9999875
  0
ARC
  8
0
  6
CONTINUOUS
 62
     7
 10
539.179250953435
 20
77.54370132634251
 40
0.5000000000000054
 50
179.9999999999984
 51
269.0000000000003
  0
LINE
  8
0
  6
CONTINUOUS
 62
     7
 10
538.679250953435
 20
77.5437013263425
 11
538.679250953435
 21
78.10653042959645
  0
POLYLINE
  8
0
  6
CONTINUOUS
 62
     9
 66
     1
  0
VERTEX
  8
0
  6
CONTINUOUS
 62
     9
 10
508.3862241240723
 20
201.2112704773121
  0
VERTEX
  8
0
  6
CONTINUOUS
 62
     9
 10
507.2793843536064
 20
201.0680744154531
  0
VERTEX
  8
0
  6
CONTINUOUS
 62
     9
 10
506.2313871732956
 20
200.6741694139417
  0
VERTEX
  8
0
  6
CONTINUOUS
 62
     9
 10
505.2944318883486
 20
200.0491753417846
  0
SEQEND
  8
0
  6
CONTINUOUS
 62
     9
  0
LINE
  8
0
  6
CONTINUOUS
 62
     9
 10
480.0558291774895
 20
187.3416562135291
 11
484.6462597936874
 21
181.5759301450154
  0
LINE
  8
0
  6
CONTINUOUS
 62
     9
 10
505.2944318883485
 20
200.0491753417846
 11
505.5823148790257
 21
210.8804233656914
  0
LINE
  8
0
  6
CONTINUOUS
 62
     9
 10
508.6770006073193
 20
212.151382646353
 11
508.3862241240723
 21
201.2112704773121
  0
LINE
  8
0
  6
CONTINUOUS
 62
     7
 10
541.6792509534351
 20
201.6307325373257
 11
541.6792509534351
 21
212.7587947235674
  0
LINE
  8
0
  6
CONTINUOUS
 62
     9
 10
538.1879771566538
 20
96.62421563824763
 11
538.6792509534351
 21
96.62421563824763
  0
POLYLINE
  8
0
  6
CONTINUOUS
 62
     9
 66
     1
  0
VERTEX
  8
0
  6
CONTINUOUS
 62
     9
 10
482.1080249731175
 20
96.8865055311263
  0
VERTEX
  8
0
  6
CONTINUOUS
 62
     9
 10
482.1107585952565
 20
97.7546029614557
  0
VERTEX
  8
0
  6
CONTINUOUS
 62
     9
 10
482.1107585952565
 20
98.59633189241562
  0
VERTEX
  8
0
  6
CONTINUOUS
 62
     9
 10
482.1080249731176
 20
99.38612476901763
  0
SEQEND
  8
0
  6
CONTINUOUS
 62
     9
  0
LINE
  8
0
  6
CONTINUOUS
 62
     9
 10
538.1879771566538
 20
96.62421563824763
 11
482.1080249731175
 21
96.8865055311263
  0
LINE
  8
0
  6
CONTINUOUS
 62
     7
 10
538.679250953435
 20
83.96445359406724
 11
538.1879771565865
 21
83.99998744559458
  0
LINE
  8
0
  6
CONTINUOUS
 62
     9
 10
480.6234304242629
 20
97.22267731354825
 11
482.1080249731174
 21
96.8865055311263
  0
LINE
  8
0
  6
CONTINUOUS
 62
     7
 10
480.2854761505207
 20
83.9999875
 11
538.1878894538929
 21
83.9999875
  0
LINE
  8
0
  6
CONTINUOUS
 62
     7
 10
480.2854761505206
 20
83.99998749999999
 11
480.2810058702659
 21
83.99984786355651
  0
ARC
  8
0
  6
CONTINUOUS
 62
     9
 10
499.8777842122508
 20
101.1203286886612
 40
19.64489312862052
 50
180.5717757778411
 51
191.4437221608659
  0
LINE
  8
0
  6
CONTINUOUS
 62
     7
 10
538.1878017511322
 20
77.06093097251978
 11
539.1705247502163
 21
77.04377747876433
  0
LINE
  8
0
  6
CONTINUOUS
 62
     7
 10
538.1878017511322
 20
77.06093097251978
 11
480.8051834643462
 21
78.06254830046677
  0
LINE
  8
0
  6
CONTINUOUS
 62
     7
 10
480.281005870266
 20
83.99984786355652
 11
479.8016609423075
 21
83.99774157394954
  0
LINE
  8
0
  6
CONTINUOUS
 62
     7
 10
479.8016609423075
 20
83.99774157394954
 11
479.801250388594
 21
83.99778153241172
  0
LINE
  8
0
  6
CONTINUOUS
 62
     9
 10
480.3245626875976
 20
78.50398105652962
 11
479.8016609423075
 21
83.99774157394954
  0
POLYLINE
  8
0
  6
CONTINUOUS
 62
     9
 66
     1
  0
VERTEX
  8
0
  6
CONTINUOUS
 62
     9
 10
480.3245626875976
 20
78.50398105652965
  0
VERTEX
  8
0
  6
CONTINUOUS
 62
     9
 10
480.346521054263
 20
78.40403028208533
  0
VERTEX
  8
0
  6
CONTINUOUS
 62
     9
 10
480.3880893615934
 20
78.31072715694582
  0
VERTEX
  8
0
  6
CONTINUOUS
 62
     9
 10
480.4475235533212
 20
78.22798634376178
  0
VERTEX
  8
0
  6
CONTINUOUS
 62
     9
 10
480.5223299851001
 20
78.15927934866525
  0
VERTEX
  8
0
  6
CONTINUOUS
 62
     9
 10
480.6093700488278
 20
78.10748886939156
  0
VERTEX
  8
0
  6
CONTINUOUS
 62
     9
 10
480.7049918573239
 20
78.07478784767841
  0
VERTEX
  8
0
  6
CONTINUOUS
 62
     9
 10
480.8051834643462
 20
78.06254830046677
  0
SEQEND
  8
0
  6
CONTINUOUS
 62
     9
  0
LINE
  8
0
  6
CONTINUOUS
 62
     7
 10
480.8051834643463
 20
78.06254830046677
 11
479.7012501377199
 21
78.08181752835947
  0
LINE
  8
0
  6
CONTINUOUS
 62
     7
 10
478.3792546772574
 20
83.9999614332437
 11
478.4385534684013
 21
83.99778153241176
  0
LINE
  8
0
  6
CONTINUOUS
 62
     7
 10
479.1632586141646
 20
78.5119338748935
 11
478.3792546772574
 21
83.9999614332437
  0
ARC
  8
0
  6
CONTINUOUS
 62
     7
 10
479.6582333609952
 20
78.58264455301216
 40
0.5000000000000064
 50
188.1301023541567
 51
269.0000000000003
  0
LINE
  8
0
  6
CONTINUOUS
 62
     7
 10
479.7012501377199
 20
78.08181752835947
 11
479.6495071577766
 21
78.08272070543396
  0
LINE
  8
0
  6
CONTINUOUS
 62
     7
 10
478.3792509534351
 20
83.99998749999997
 11
478.3792509534351
 21
183.5624942489287
  0
LINE
  8
0
  6
CONTINUOUS
 62
     7
 10
478.3792509534351
 20
183.5624942489287
 11
478.4386527150719
 21
183.6629075661081
  0
POLYLINE
  8
0
  6
CONTINUOUS
 62
     7
 10
0.0
 20
0.0
 30
0.0
 66
     1
 70
     8
  0
VERTEX
  8
0
  6
CONTINUOUS
 62
     7
 10
478.3792546772574
 20
83.99996143324373
 30
0.0
 70
    32
  0
VERTEX
  8
0
  6
CONTINUOUS
 62
     7
 10
478.3792509534351
 20
83.9999875
 30
0.0
 70
    32
  0
SEQEND
  8
0
  6
CONTINUOUS
 62
     7
  0
ARC
  8
0
  6
CONTINUOUS
 62
     7
 10
483.3792509534352
 20
183.8082949855094
 40
5.00000000000006
 50
141.4769919017004
 51
179.9999999999993
  0
LINE
  8
0
  6
CONTINUOUS
 62
     7
 10
479.4674603915334
 20
186.9224392660169
 11
479.9909789339493
 21
187.4851975844329
  0
LINE
  8
0
  6
CONTINUOUS
 62
     7
 10
478.3792509534351
 20
183.5624942489287
 11
478.3792509534351
 21
183.8082949855095
  0
LINE
  8
0
  6
CONTINUOUS
 62
     7
 10
479.9909789339493
 20
187.4851975844329
 11
505.4127609270025
 21
210.911413072912
  0
LINE
  8
0
  6
CONTINUOUS
 62
     7
 10
506.8817914919712
 20
211.9524843887467
 11
507.6856091547392
 21
212.2498480020286
  0
ARC
  8
0
  6
CONTINUOUS
 62
     7
 10
509.0121105026502
 20
207.4290188021936
 40
4.999999999998994
 50
115.2180172125958
 51
132.660620685969
  0
LINE
  8
0
  6
CONTINUOUS
 62
     7
 10
507.6856091547393
 20
212.2498480020286
 11
508.9248484704643
 21
212.4282572779748
  0
LINE
  8
0
  6
CONTINUOUS
 62
     7
 10
505.4127609270025
 20
210.911413072912
 11
505.6238384831648
 21
211.1059214011162
  0
LINE
  8
0
  6
CONTINUOUS
 62
     7
 10
508.9248484704643
 20
212.4282572779748
 11
541.6792509534351
 21
212.9999875
  0
LINE
  8
0
  6
CONTINUOUS
 62
     7
 10
541.6792509534351
 20
212.9999875
 11
541.6792509534351
 21
212.7587947235675
  0
ARC
  8
0
  6
CONTINUOUS
 62
     7
 10
509.0121105026506
 20
207.4290188021928
 40
5.000000000000001
 50
115.0257067773083
 51
117.332007040109
  0
ARC
  8
0
  6
CONTINUOUS
 62
     7
 10
509.0121105026506
 20
207.4290188021928
 40
5.000000000000001
 50
102.7943951840678
 51
105.5383624436708
  0
ENDBLK
  8
0
  0
BLOCK
  8
0
  2
D_FRAME_VIEW_2354
 70
     0
 10
0.0
 20
0.0
  0
LINE
  8
0
  6
CONTINUOUS
 62
     7
 10
412.3992238694198
 20
-36.67925095343501
 11
410.8377507962946
 21
-36.67925095343501
  0
LINE
  8
0
  6
CONTINUOUS
 62
     7
 10
319.1622492037054
 20
-36.67925095343501
 11
317.6007761305803
 21
-36.67925095343501
  0
LINE
  8
0
  6
CONTINUOUS
 62
     7
 10
405.9999999999999
 20
-36.67925095343501
 11
405.4843625213173
 21
22.40695168489425
  0
POLYLINE
  8
0
  6
CONTINUOUS
 62
     7
 66
     1
  0
VERTEX
  8
0
  6
CONTINUOUS
 62
     7
 10
405.0693073488536
 20
22.89526599479793
  0
VERTEX
  8
0
  6
CONTINUOUS
 62
     7
 10
405.0936776935216
 20
22.89043984325041
  0
VERTEX
  8
0
  6
CONTINUOUS
 62
     7
 10
405.1177782032323
 20
22.88440926827451
  0
VERTEX
  8
0
  6
CONTINUOUS
 62
     7
 10
405.1415493776284
 20
22.87718915840869
  0
VERTEX
  8
0
  6
CONTINUOUS
 62
     7
 10
405.1649325294297
 20
22.86879733896544
  0
VERTEX
  8
0
  6
CONTINUOUS
 62
     7
 10
405.1878699293224
 20
22.85925452802334
  0
VERTEX
  8
0
  6
CONTINUOUS
 62
     7
 10
405.2103049484841
 20
22.84858428527747
  0
VERTEX
  8
0
  6
CONTINUOUS
 62
     7
 10
405.2321821983909
 20
22.83681295387421
  0
VERTEX
  8
0
  6
CONTINUOUS
 62
     7
 10
405.2534476675635
 20
22.82396959537418
  0
VERTEX
  8
0
  6
CONTINUOUS
 62
     7
 10
405.2740488549125
 20
22.81008591800378
  0
VERTEX
  8
0
  6
CONTINUOUS
 62
     7
 10
405.2939348993557
 20
22.79519619837264
  0
VERTEX
  8
0
  6
CONTINUOUS
 62
     7
 10
405.313056705386
 20
22.77933719685006
  0
VERTEX
  8
0
  6
CONTINUOUS
 62
     7
 10
405.3313670642801
 20
22.76254806680943
  0
VERTEX
  8
0
  6
CONTINUOUS
 62
     7
 10
405.3488207706499
 20
22.74487025796477
  0
VERTEX
  8
0
  6
CONTINUOUS
 62
     7
 10
405.3653747340474
 20
22.72634741403788
  0
VERTEX
  8
0
  6
CONTINUOUS
 62
     7
 10
405.3809880853479
 20
22.70702526500889
  0
VERTEX
  8
0
  6
CONTINUOUS
 62
     7
 10
405.3956222776496
 20
22.68695151421621
  0
VERTEX
  8
0
  6
CONTINUOUS
 62
     7
 10
405.4092411814398
 20
22.66617572058437
  0
VERTEX
  8
0
  6
CONTINUOUS
 62
     7
 10
405.4218111737933
 20
22.64474917627102
  0
VERTEX
  8
0
  6
CONTINUOUS
 62
     7
 10
405.4333012213815
 20
22.62272478003456
  0
VERTEX
  8
0
  6
CONTINUOUS
 62
     7
 10
405.4436829570891
 20
22.60015690663551
  0
VERTEX
  8
0
  6
CONTINUOUS
 62
     7
 10
405.4529307500481
 20
22.57710127259377
  0
VERTEX
  8
0
  6
CONTINUOUS
 62
     7
 10
405.4610217689163
 20
22.55361479863335
  0
VERTEX
  8
0
  6
CONTINUOUS
 62
     7
 10
405.4679360382444
 20
22.52975546915406
  0
VERTEX
  8
0
  6
CONTINUOUS
 62
     7
 10
405.4736564877918
 20
22.50558218907717
  0
VERTEX
  8
0
  6
CONTINUOUS
 62
     7
 10
405.4781689946709
 20
22.48115463841846
  0
VERTEX
  8
0
  6
CONTINUOUS
 62
     7
 10
405.481462418214
 20
22.45653312494769
  0
VERTEX
  8
0
  6
CONTINUOUS
 62
     7
 10
405.4835286274777
 20
22.43177843529818
  0
VERTEX
  8
0
  6
CONTINUOUS
 62
     7
 10
405.4843625213173
 20
22.40695168489425
  0
SEQEND
  8
0
  6
CONTINUOUS
 62
     7
  0
LINE
  8
0
  6
CONTINUOUS
 62
     7
 10
399.8886940309705
 20
23.78807807766471
 11
405.0693073488536
 21
22.89526599479793
  0
LINE
  8
0
  6
CONTINUOUS
 62
     7
 10
399.8886940309704
 20
23.78807807766471
 11
399.506770055003
 21
23.82074904656496
  0
LINE
  8
0
  6
CONTINUOUS
 62
     7
 10
330.493229944997
 20
23.82074904656496
 11
399.506770055003
 21
23.82074904656496
  0
LINE
  8
0
  6
CONTINUOUS
 62
     7
 10
330.493229944997
 20
23.82074904656497
 11
330.1113059690295
 21
23.78807807766472
  0
LINE
  8
0
  6
CONTINUOUS
 62
     7
 10
330.1113059690295
 20
23.78807807766472
 11
324.9306926511464
 21
22.89526599479794
  0
POLYLINE
  8
0
  6
CONTINUOUS
 62
     7
 66
     1
  0
VERTEX
  8
0
  6
CONTINUOUS
 62
     7
 10
324.5156374786827
 20
22.40695168489426
  0
VERTEX
  8
0
  6
CONTINUOUS
 62
     7
 10
324.5164713725222
 20
22.43177843529818
  0
VERTEX
  8
0
  6
CONTINUOUS
 62
     7
 10
324.518537581786
 20
22.4565331249477
  0
VERTEX
  8
0
  6
CONTINUOUS
 62
     7
 10
324.521831005329
 20
22.48115463841847
  0
VERTEX
  8
0
  6
CONTINUOUS
 62
     7
 10
324.5263435122081
 20
22.50558218907718
  0
VERTEX
  8
0
  6
CONTINUOUS
 62
     7
 10
324.5320639617556
 20
22.52975546915408
  0
VERTEX
  8
0
  6
CONTINUOUS
 62
     7
 10
324.5389782310836
 20
22.55361479863337
  0
VERTEX
  8
0
  6
CONTINUOUS
 62
     7
 10
324.5470692499518
 20
22.57710127259378
  0
VERTEX
  8
0
  6
CONTINUOUS
 62
     7
 10
324.5563170429108
 20
22.60015690663553
  0
VERTEX
  8
0
  6
CONTINUOUS
 62
     7
 10
324.5666987786185
 20
22.62272478003457
  0
VERTEX
  8
0
  6
CONTINUOUS
 62
     7
 10
324.5781888262067
 20
22.64474917627104
  0
VERTEX
  8
0
  6
CONTINUOUS
 62
     7
 10
324.5907588185601
 20
22.66617572058439
  0
VERTEX
  8
0
  6
CONTINUOUS
 62
     7
 10
324.6043777223504
 20
22.68695151421622
  0
VERTEX
  8
0
  6
CONTINUOUS
 62
     7
 10
324.6190119146521
 20
22.70702526500892
  0
VERTEX
  8
0
  6
CONTINUOUS
 62
     7
 10
324.6346252659525
 20
22.7263474140379
  0
VERTEX
  8
0
  6
CONTINUOUS
 62
     7
 10
324.65117922935
 20
22.74487025796479
  0
VERTEX
  8
0
  6
CONTINUOUS
 62
     7
 10
324.6686329357199
 20
22.76254806680945
  0
VERTEX
  8
0
  6
CONTINUOUS
 62
     7
 10
324.686943294614
 20
22.77933719685008
  0
VERTEX
  8
0
  6
CONTINUOUS
 62
     7
 10
324.7060651006443
 20
22.79519619837266
  0
VERTEX
  8
0
  6
CONTINUOUS
 62
     7
 10
324.7259511450874
 20
22.8100859180038
  0
VERTEX
  8
0
  6
CONTINUOUS
 62
     7
 10
324.7465523324365
 20
22.82396959537419
  0
VERTEX
  8
0
  6
CONTINUOUS
 62
     7
 10
324.7678178016091
 20
22.83681295387423
  0
VERTEX
  8
0
  6
CONTINUOUS
 62
     7
 10
324.7896950515159
 20
22.84858428527749
  0
VERTEX
  8
0
  6
CONTINUOUS
 62
     7
 10
324.8121300706775
 20
22.85925452802336
  0
VERTEX
  8
0
  6
CONTINUOUS
 62
     7
 10
324.8350674705703
 20
22.86879733896546
  0
VERTEX
  8
0
  6
CONTINUOUS
 62
     7
 10
324.8584506223716
 20
22.87718915840872
  0
VERTEX
  8
0
  6
CONTINUOUS
 62
     7
 10
324.8822217967677
 20
22.88440926827452
  0
VERTEX
  8
0
  6
CONTINUOUS
 62
     7
 10
324.9063223064784
 20
22.89043984325042
  0
VERTEX
  8
0
  6
CONTINUOUS
 62
     7
 10
324.9306926511464
 20
22.89526599479795
  0
SEQEND
  8
0
  6
CONTINUOUS
 62
     7
  0
LINE
  8
0
  6
CONTINUOUS
 62
     7
 10
323.9999999999999
 20
-36.67925095343501
 11
324.5156374786827
 21
22.40695168489427
  0
LINE
  8
0
  6
CONTINUOUS
 62
     7
 10
405.9999999999999
 20
-36.67925095343501
 11
410.8377507962946
 21
-36.67925095343501
  0
LINE
  8
0
  6
CONTINUOUS
 62
     7
 10
319.1622492037054
 20
-36.67925095343501
 11
323.9999999999999
 21
-36.67925095343501
  0
LINE
  8
0
  6
CONTINUOUS
 62
     7
 10
410.8289981368952
 20
-33.67925095343502
 11
412.000102941739
 21
-33.67925095343502
  0
LINE
  8
0
  6
CONTINUOUS
 62
     7
 10
408.3215933898649
 20
-33.67925095343502
 11
410.8289981368952
 21
-33.67925095343502
  0
LINE
  8
0
  6
CONTINUOUS
 62
     7
 10
319.1710018631048
 20
-33.67925095343501
 11
321.6784066101351
 21
-33.67925095343501
  0
LINE
  8
0
  6
CONTINUOUS
 62
     7
 10
317.999897058261
 20
-33.67925095343501
 11
319.1710018631048
 21
-33.67925095343501
  0
POLYLINE
  8
0
  6
CONTINUOUS
 62
     7
 66
     1
  0
VERTEX
  8
0
  6
CONTINUOUS
 62
     7
 10
409.2389834367731
 20
-33.67925095343502
  0
VERTEX
  8
0
  6
CONTINUOUS
 62
     7
 10
409.2147219824503
 20
-33.67866198838933
  0
VERTEX
  8
0
  6
CONTINUOUS
 62
     7
 10
409.1905176847216
 20
-33.67689648077157
  0
VERTEX
  8
0
  6
CONTINUOUS
 62
     7
 10
409.1664275655284
 20
-33.67395858987083
  0
VERTEX
  8
0
  6
CONTINUOUS
 62
     7
 10
409.1425083778232
 20
-33.66985523694731
  0
VERTEX
  8
0
  6
CONTINUOUS
 62
     7
 10
409.1188164718681
 20
-33.66459608892677
  0
VERTEX
  8
0
  6
CONTINUOUS
 62
     7
 10
409.0954076624809
 20
-33.65819353562664
  0
VERTEX
  8
0
  6
CONTINUOUS
 62
     7
 10
409.0723370975436
 20
-33.6506626605673
  0
VERTEX
  8
0
  6
CONTINUOUS
 62
     7
 10
409.0496591280814
 20
-33.64202120543744
  0
VERTEX
  8
0
  6
CONTINUOUS
 62
     7
 10
409.0274271802198
 20
-33.63228952829714
  0
VERTEX
  8
0
  6
CONTINUOUS
 62
     7
 10
409.0056936293193
 20
-33.62149055561706
  0
VERTEX
  8
0
  6
CONTINUOUS
 62
     7
 10
408.9845096765873
 20
-33.60964972826697
  0
VERTEX
  8
0
  6
CONTINUOUS
 62
     7
 10
408.9639252284544
 20
-33.59679494158053
  0
VERTEX
  8
0
  6
CONTINUOUS
 62
     7
 10
408.9439887790024
 20
-33.58295647963789
  0
VERTEX
  8
0
  6
CONTINUOUS
 62
     7
 10
408.9247472957189
 20
-33.56816694392051
  0
VERTEX
  8
0
  6
CONTINUOUS
 62
     7
 10
408.906246108848
 20
-33.5524611765067
  0
VERTEX
  8
0
  6
CONTINUOUS
 62
     7
 10
408.8885288045993
 20
-33.53587617798858
  0
VERTEX
  8
0
  6
CONTINUOUS
 62
     7
 10
408.8716371224644
 20
-33.51845102030375
  0
VERTEX
  8
0
  6
CONTINUOUS
 62
     7
 10
408.8556108568847
 20
-33.5002267546874
  0
VERTEX
  8
0
  6
CONTINUOUS
 62
     7
 10
408.840487763501
 20
-33.48124631496127
  0
VERTEX
  8
0
  6
CONTINUOUS
 62
     7
 10
408.8263034702071
 20
-33.46155441638753
  0
VERTEX
  8
0
  6
CONTINUOUS
 62
     7
 10
408.8130913932145
 20
-33.44119745032597
  0
VERTEX
  8
0
  6
CONTINUOUS
 62
     7
 10
408.8008826583296
 20
-33.42022337494237
  0
VERTEX
  8
0
  6
CONTINUOUS
 62
     7
 10
408.7897060276246
 20
-33.39868160222581
  0
VERTEX
  8
0
  6
CONTINUOUS
 62
     7
 10
408.7795878316788
 20
-33.37662288158088
  0
VERTEX
  8
0
  6
CONTINUOUS
 62
     7
 10
408.7705519075473
 20
-33.35409918026924
  0
VERTEX
  8
0
  6
CONTINUOUS
 62
     7
 10
408.7626195426037
 20
-33.33116356098198
  0
VERTEX
  8
0
  6
CONTINUOUS
 62
     7
 10
408.755809424391
 20
-33.30787005683133
  0
VERTEX
  8
0
  6
CONTINUOUS
 62
     7
 10
408.7501375965953
 20
-33.28427354405626
  0
VERTEX
  8
0
  6
CONTINUOUS
 62
     7
 10
408.74561742125
 20
-33.26042961274165
  0
VERTEX
  8
0
  6
CONTINUOUS
 62
     7
 10
408.7422595472563
 20
-33.23639443585589
  0
VERTEX
  8
0
  6
CONTINUOUS
 62
     7
 10
408.7400718852956
 20
-33.2122246369152
  0
VERTEX
  8
0
  6
CONTINUOUS
 62
     7
 10
408.7390595891938
 20
-33.18797715658651
  0
SEQEND
  8
0
  6
CONTINUOUS
 62
     7
  0
POLYLINE
  8
0
  6
CONTINUOUS
 62
     7
 66
     1
  0
VERTEX
  8
0
  6
CONTINUOUS
 62
     7
 10
321.2609404108061
 20
-33.18797715658651
  0
VERTEX
  8
0
  6
CONTINUOUS
 62
     7
 10
321.2599281147044
 20
-33.2122246369152
  0
VERTEX
  8
0
  6
CONTINUOUS
 62
     7
 10
321.2577404527437
 20
-33.23639443585589
  0
VERTEX
  8
0
  6
CONTINUOUS
 62
     7
 10
321.2543825787499
 20
-33.26042961274165
  0
VERTEX
  8
0
  6
CONTINUOUS
 62
     7
 10
321.2498624034046
 20
-33.28427354405626
  0
VERTEX
  8
0
  6
CONTINUOUS
 62
     7
 10
321.244190575609
 20
-33.30787005683133
  0
VERTEX
  8
0
  6
CONTINUOUS
 62
     7
 10
321.2373804573962
 20
-33.33116356098196
  0
VERTEX
  8
0
  6
CONTINUOUS
 62
     7
 10
321.2294480924527
 20
-33.35409918026923
  0
VERTEX
  8
0
  6
CONTINUOUS
 62
     7
 10
321.2204121683212
 20
-33.37662288158087
  0
VERTEX
  8
0
  6
CONTINUOUS
 62
     7
 10
321.2102939723754
 20
-33.39868160222579
  0
VERTEX
  8
0
  6
CONTINUOUS
 62
     7
 10
321.1991173416704
 20
-33.42022337494237
  0
VERTEX
  8
0
  6
CONTINUOUS
 62
     7
 10
321.1869086067854
 20
-33.44119745032597
  0
VERTEX
  8
0
  6
CONTINUOUS
 62
     7
 10
321.1736965297929
 20
-33.46155441638753
  0
VERTEX
  8
0
  6
CONTINUOUS
 62
     7
 10
321.159512236499
 20
-33.48124631496125
  0
VERTEX
  8
0
  6
CONTINUOUS
 62
     7
 10
321.1443891431153
 20
-33.5002267546874
  0
VERTEX
  8
0
  6
CONTINUOUS
 62
     7
 10
321.1283628775356
 20
-33.51845102030375
  0
VERTEX
  8
0
  6
CONTINUOUS
 62
     7
 10
321.1114711954007
 20
-33.53587617798858
  0
VERTEX
  8
0
  6
CONTINUOUS
 62
     7
 10
321.0937538911519
 20
-33.5524611765067
  0
VERTEX
  8
0
  6
CONTINUOUS
 62
     7
 10
321.0752527042811
 20
-33.56816694392051
  0
VERTEX
  8
0
  6
CONTINUOUS
 62
     7
 10
321.0560112209975
 20
-33.58295647963788
  0
VERTEX
  8
0
  6
CONTINUOUS
 62
     7
 10
321.0360747715455
 20
-33.59679494158053
  0
VERTEX
  8
0
  6
CONTINUOUS
 62
     7
 10
321.0154903234127
 20
-33.60964972826695
  0
VERTEX
  8
0
  6
CONTINUOUS
 62
     7
 10
320.9943063706806
 20
-33.62149055561705
  0
VERTEX
  8
0
  6
CONTINUOUS
 62
     7
 10
320.9725728197802
 20
-33.63228952829712
  0
VERTEX
  8
0
  6
CONTINUOUS
 62
     7
 10
320.9503408719185
 20
-33.64202120543744
  0
VERTEX
  8
0
  6
CONTINUOUS
 62
     7
 10
320.9276629024564
 20
-33.65066266056729
  0
VERTEX
  8
0
  6
CONTINUOUS
 62
     7
 10
320.904592337519
 20
-33.65819353562664
  0
VERTEX
  8
0
  6
CONTINUOUS
 62
     7
 10
320.8811835281318
 20
-33.66459608892676
  0
VERTEX
  8
0
  6
CONTINUOUS
 62
     7
 10
320.8574916221767
 20
-33.6698552369473
  0
VERTEX
  8
0
  6
CONTINUOUS
 62
     7
 10
320.8335724344716
 20
-33.67395858987082
  0
VERTEX
  8
0
  6
CONTINUOUS
 62
     7
 10
320.8094823152784
 20
-33.67689648077156
  0
VERTEX
  8
0
  6
CONTINUOUS
 62
     7
 10
320.7852780175497
 20
-33.67866198838933
  0
VERTEX
  8
0
  6
CONTINUOUS
 62
     7
 10
320.7610165632268
 20
-33.67925095343501
  0
SEQEND
  8
0
  6
CONTINUOUS
 62
     7
  0
LINE
  8
0
  6
CONTINUOUS
 62
     7
 10
321.2609419416624
 20
-33.18788945389289
 11
322.2716323253732
 21
24.7145238494794
  0
LINE
  8
0
  6
CONTINUOUS
 62
     7
 10
322.2717303055073
 20
24.71899412973409
 11
322.2716323253732
 21
24.71452384947938
  0
LINE
  8
0
  6
CONTINUOUS
 62
     7
 10
407.7283676746268
 20
24.71452384947938
 11
407.7282696944927
 21
24.71899412973408
  0
LINE
  8
0
  6
CONTINUOUS
 62
     7
 10
407.7283676746268
 20
24.71452384947938
 11
408.7390580583376
 21
-33.18788945389291
  0
LINE
  8
0
  6
CONTINUOUS
 62
     7
 10
317.6007761305803
 20
-36.67925095343501
 11
310.6383291407652
 21
-36.67925095343501
  0
LINE
  8
0
  6
CONTINUOUS
 62
     7
 10
419.3616708592348
 20
-36.67925095343501
 11
412.3992238694198
 21
-36.67925095343501
  0
LINE
  8
0
  6
CONTINUOUS
 62
     7
 10
311.0724606819164
 20
-33.67925095343502
 11
317.999897058261
 21
-33.67925095343502
  0
LINE
  8
0
  6
CONTINUOUS
 62
     7
 10
412.000102941739
 20
-33.67925095343502
 11
418.9275393180836
 21
-33.67925095343502
  0
LINE
  8
0
  6
CONTINUOUS
 62
     9
 10
324.4967675171465
 20
20.24466826447643
 11
345.1953475595466
 21
23.70271126228782
  0
LINE
  8
0
  6
CONTINUOUS
 62
     9
 10
384.5233475595466
 20
23.74970793412123
 11
405.5032324828534
 21
20.24466826447642
  0
POLYLINE
  8
0
  6
CONTINUOUS
 62
     7
 66
     1
  0
VERTEX
  8
0
  6
CONTINUOUS
 62
     7
 10
407.7282696944927
 20
24.71899412973408
  0
VERTEX
  8
0
  6
CONTINUOUS
 62
     7
 10
407.7276935118359
 20
24.73320011275141
  0
VERTEX
  8
0
  6
CONTINUOUS
 62
     7
 10
407.7267149398256
 20
24.74738682506398
  0
VERTEX
  8
0
  6
CONTINUOUS
 62
     7
 10
407.7238784432278
 20
24.77329536820686
  0
VERTEX
  8
0
  6
CONTINUOUS
 62
     7
 10
407.7196991416067
 20
24.79902883758238
  0
VERTEX
  8
0
  6
CONTINUOUS
 62
     7
 10
407.7150294139192
 20
24.82099735135942
  0
VERTEX
  8
0
  6
CONTINUOUS
 62
     7
 10
407.7093792671821
 20
24.84273852577611
  0
VERTEX
  8
0
  6
CONTINUOUS
 62
     7
 10
407.7031058683858
 20
24.86316077940871
  0
VERTEX
  8
0
  6
CONTINUOUS
 62
     7
 10
407.6959664159147
 20
24.8832995123244
  0
VERTEX
  8
0
  6
CONTINUOUS
 62
     7
 10
407.688713427191
 20
24.90137915917343
  0
VERTEX
  8
0
  6
CONTINUOUS
 62
     7
 10
407.6807617937474
 20
24.91916441190241
  0
VERTEX
  8
0
  6
CONTINUOUS
 62
     7
 10
407.6701967139488
 20
24.9402978756879
  0
VERTEX
  8
0
  6
CONTINUOUS
 62
     7
 10
407.6586387675464
 20
24.96092217726366
  0
VERTEX
  8
0
  6
CONTINUOUS
 62
     7
 10
407.646126465611
 20
24.98096751132703
  0
VERTEX
  8
0
  6
CONTINUOUS
 62
     7
 10
407.6350901418484
 20
24.99705547749034
  0
VERTEX
  8
0
  6
CONTINUOUS
 62
     7
 10
407.6234299118533
 20
25.012706895403
  0
VERTEX
  8
0
  6
CONTINUOUS
 62
     7
 10
407.6111724514067
 20
25.02788565575982
  0
VERTEX
  8
0
  6
CONTINUOUS
 62
     7
 10
407.5974938116734
 20
25.04349201178078
  0
VERTEX
  8
0
  6
CONTINUOUS
 62
     7
 10
407.5831790714142
 20
25.05851668845249
  0
VERTEX
  8
0
  6
CONTINUOUS
 62
     7
 10
407.5680684916233
 20
25.07310120635796
  0
VERTEX
  8
0
  6
CONTINUOUS
 62
     7
 10
407.552344405656
 20
25.08704936008075
  0
VERTEX
  8
0
  6
CONTINUOUS
 62
     7
 10
407.5360494285653
 20
25.10032491948789
  0
VERTEX
  8
0
  6
CONTINUOUS
 62
     7
 10
407.5192261754045
 20
25.11289165444634
  0
VERTEX
  8
0
  6
CONTINUOUS
 62
     7
 10
407.5016578721194
 20
25.1248882257726
  0
VERTEX
  8
0
  6
CONTINUOUS
 62
     7
 10
407.4835954256731
 20
25.13612506699742
  0
VERTEX
  8
0
  6
CONTINUOUS
 62
     7
 10
407.4643333862248
 20
25.14697635589508
  0
VERTEX
  8
0
  6
CONTINUOUS
 62
     7
 10
407.444610968802
 20
25.15696391423176
  0
VERTEX
  8
0
  6
CONTINUOUS
 62
     7
 10
407.4242488338155
 20
25.16616003316443
  0
VERTEX
  8
0
  6
CONTINUOUS
 62
     7
 10
407.403496786252
 20
25.17443589094102
  0
VERTEX
  8
0
  6
CONTINUOUS
 62
     7
 10
407.3821002123513
 20
25.18186966471354
  0
VERTEX
  8
0
  6
CONTINUOUS
 62
     7
 10
407.3603894310821
 20
25.18832572695772
  0
VERTEX
  8
0
  6
CONTINUOUS
 62
     7
 10
407.3381680108773
 20
25.19384414089576
  0
VERTEX
  8
0
  6
CONTINUOUS
 62
     7
 10
407.3157174390624
 20
25.19833905769263
  0
SEQEND
  8
0
  6
CONTINUOUS
 62
     7
  0
POLYLINE
  8
0
  6
CONTINUOUS
 62
     7
 66
     1
  0
VERTEX
  8
0
  6
CONTINUOUS
 62
     7
 10
322.6842825609376
 20
25.19833905769264
  0
VERTEX
  8
0
  6
CONTINUOUS
 62
     7
 10
322.6639720918787
 20
25.19431844320733
  0
VERTEX
  8
0
  6
CONTINUOUS
 62
     7
 10
322.6438367022517
 20
25.18945811633143
  0
VERTEX
  8
0
  6
CONTINUOUS
 62
     7
 10
322.6239280631787
 20
25.18377029756788
  0
VERTEX
  8
0
  6
CONTINUOUS
 62
     7
 10
322.6039612035004
 20
25.17715071797178
  0
VERTEX
  8
0
  6
CONTINUOUS
 62
     7
 10
322.584290032386
 20
25.1696960240958
  0
VERTEX
  8
0
  6
CONTINUOUS
 62
     7
 10
322.5646722831184
 20
25.1612926246438
  0
VERTEX
  8
0
  6
CONTINUOUS
 62
     7
 10
322.5454305832728
 20
25.1520582390186
  0
VERTEX
  8
0
  6
CONTINUOUS
 62
     7
 10
322.5265147389297
 20
25.14196086442676
  0
VERTEX
  8
0
  6
CONTINUOUS
 62
     7
 10
322.508587806176
 20
25.13139109994288
  0
VERTEX
  8
0
  6
CONTINUOUS
 62
     7
 10
322.4911009762043
 20
25.12007273071585
  0
VERTEX
  8
0
  6
CONTINUOUS
 62
     7
 10
322.4740993276427
 20
25.10803617389486
  0
VERTEX
  8
0
  6
CONTINUOUS
 62
     7
 10
322.457627939119
 20
25.0953118466291
  0
VERTEX
  8
0
  6
CONTINUOUS
 62
     7
 10
322.4414010200676
 20
25.08164474759278
  0
VERTEX
  8
0
  6
CONTINUOUS
 62
     7
 10
322.4257614044419
 20
25.06729399096764
  0
VERTEX
  8
0
  6
CONTINUOUS
 62
     7
 10
322.410751579245
 20
25.05229860758235
  0
VERTEX
  8
0
  6
CONTINUOUS
 62
     7
 10
322.3962366875083
 20
25.03650117762948
  0
VERTEX
  8
0
  6
CONTINUOUS
 62
     7
 10
322.3828389452871
 20
25.02061896632075
  0
VERTEX
  8
0
  6
CONTINUOUS
 62
     7
 10
322.3701021920144
 20
25.00417903803235
  0
VERTEX
  8
0
  6
CONTINUOUS
 62
     7
 10
322.3580585694899
 20
24.9872250770433
  0
VERTEX
  8
0
  6
CONTINUOUS
 62
     7
 10
322.3467402195124
 20
24.96980076763258
  0
VERTEX
  8
0
  6
CONTINUOUS
 62
     7
 10
322.3359380617291
 20
24.95152764686873
  0
VERTEX
  8
0
  6
CONTINUOUS
 62
     7
 10
322.3259126034287
 20
24.93279646520781
  0
VERTEX
  8
0
  6
CONTINUOUS
 62
     7
 10
322.3166896426964
 20
24.91365893525913
  0
VERTEX
  8
0
  6
CONTINUOUS
 62
     7
 10
322.3082949776174
 20
24.894166769632
  0
VERTEX
  8
0
  6
CONTINUOUS
 62
     7
 10
322.3004674202464
 20
24.87358137447901
  0
VERTEX
  8
0
  6
CONTINUOUS
 62
     7
 10
322.2935220321997
 20
24.85257025043393
  0
VERTEX
  8
0
  6
CONTINUOUS
 62
     7
 10
322.287511997757
 20
24.83127598923279
  0
VERTEX
  8
0
  6
CONTINUOUS
 62
     7
 10
322.2823741330887
 20
24.80938487312423
  0
VERTEX
  8
0
  6
CONTINUOUS
 62
     7
 10
322.2782236535697
 20
24.78728969673277
  0
VERTEX
  8
0
  6
CONTINUOUS
 62
     7
 10
322.2750251304943
 20
24.76466488579518
  0
VERTEX
  8
0
  6
CONTINUOUS
 62
     7
 10
322.2728603672995
 20
24.74192379560559
  0
VERTEX
  8
0
  6
CONTINUOUS
 62
     7
 10
322.2717303055073
 20
24.71899412973409
  0
SEQEND
  8
0
  6
CONTINUOUS
 62
     7
  0
LINE
  8
0
  6
CONTINUOUS
 62
     7
 10
322.6866360705746
 20
25.19874961140607
 11
322.6842825609376
 21
25.19833905769264
  0
LINE
  8
0
  6
CONTINUOUS
 62
     7
 10
322.6866360705746
 20
25.19874961140607
 11
330.5897025770025
 21
26.56134728492816
  0
LINE
  8
0
  6
CONTINUOUS
 62
     7
 10
330.5897025770025
 20
26.56134728492816
 11
330.5902782076919
 21
26.56144653159872
  0
LINE
  8
0
  6
CONTINUOUS
 62
     7
 10
399.4097217923081
 20
26.56144653159873
 11
399.4102974229974
 21
26.56134728492816
  0
LINE
  8
0
  6
CONTINUOUS
 62
     7
 10
399.4102974229974
 20
26.56134728492816
 11
407.3133639294254
 21
25.19874961140607
  0
LINE
  8
0
  6
CONTINUOUS
 62
     7
 10
407.3157174390624
 20
25.19833905769263
 11
407.3133639294254
 21
25.19874961140606
  0
LINE
  8
0
  6
CONTINUOUS
 62
     7
 10
331.2842825930213
 20
26.62074904656497
 11
331.2787613785424
 21
26.62074532274265
  0
LINE
  8
0
  6
CONTINUOUS
 62
     7
 10
331.2842825930213
 20
26.62074904656497
 11
398.7157174069786
 21
26.62074904656497
  0
LINE
  8
0
  6
CONTINUOUS
 62
     7
 10
398.7212386214576
 20
26.62074532274264
 11
398.7157174069787
 21
26.62074904656496
  0
LINE
  8
0
  6
CONTINUOUS
 62
     7
 10
330.5902782076919
 20
26.56144653159872
 11
331.2787613785424
 21
26.62074532274264
  0
LINE
  8
0
  6
CONTINUOUS
 62
     7
 10
398.7212386214575
 20
26.62074532274264
 11
399.4097217923081
 21
26.56144653159873
  0
LINE
  8
0
  6
CONTINUOUS
 62
     7
 10
310.2
 20
-36.67925095343501
 11
310.2437899787643
 21
-34.17052475021637
  0
LINE
  8
0
  6
CONTINUOUS
 62
     7
 10
310.6383291407652
 20
-36.67925095343501
 11
310.2
 21
-36.67925095343501
  0
LINE
  8
0
  6
CONTINUOUS
 62
     7
 10
310.810212766229
 20
-33.67925095343502
 11
311.0724606819164
 21
-33.67925095343502
  0
ARC
  8
0
  6
CONTINUOUS
 62
     7
 10
310.7437138263425
 20
-34.17925095343502
 40
0.4999999999999919
 50
123.3880265994441
 51
179.0000000000001
  0
LINE
  8
0
  6
CONTINUOUS
 62
     7
 10
310.7437138263425
 20
-33.67925095343502
 11
310.7851529201084
 21
-33.67925095343502
  0
LINE
  8
0
  6
CONTINUOUS
 62
     7
 10
310.7851529201084
 20
-33.67925095343502
 11
310.810212766229
 21
-33.67925095343502
  0
ARC
  8
0
  6
CONTINUOUS
 62
     7
 10
419.2562861736575
 20
-34.17925095343502
 40
0.4999999999999919
 50
0.9999999999998435
 51
90.0000000000008
  0
LINE
  8
0
  6
CONTINUOUS
 62
     7
 10
418.9275393180836
 20
-33.67925095343502
 11
419.2562861736575
 21
-33.67925095343502
  0
LINE
  8
0
  6
CONTINUOUS
 62
     7
 10
419.7562100212357
 20
-34.17052475021638
 11
419.8
 21
-36.67925095343501
  0
LINE
  8
0
  6
CONTINUOUS
 62
     7
 10
419.8
 20
-36.67925095343501
 11
419.3616708592348
 21
-36.67925095343501
  0
LINE
  8
0
  6
CONTINUOUS
 62
     7
 10
417.0124852362132
 20
22.62795572071816
 11
416.6755141979052
 21
22.74467569619585
  0
LINE
  8
0
  6
CONTINUOUS
 62
     7
 10
345.1953475644723
 20
23.52074904656498
 11
350.8913475595465
 21
23.52074904656498
  0
LINE
  8
0
  6
CONTINUOUS
 62
     7
 10
378.6353475595465
 20
23.52074904656498
 11
383.8833475595466
 21
23.52074904656498
  0
LINE
  8
0
  6
CONTINUOUS
 62
     7
 10
377.9953475595465
 20
23.52074904656498
 11
378.6353475595465
 21
23.52074904656498
  0
LINE
  8
0
  6
CONTINUOUS
 62
     7
 10
383.8833475595466
 20
23.52074904656498
 11
384.5233475595466
 21
23.52074904656498
  0
LINE
  8
0
  6
CONTINUOUS
 62
     7
 10
419.7562100212357
 20
-34.17052475021638
 11
419.7560232877597
 21
-34.15982679653956
  0
LINE
  8
0
  6
CONTINUOUS
 62
     7
 10
419.6758118768067
 20
-33.43569807417423
 11
419.7507292218889
 21
-33.85652996593137
  0
LINE
  8
0
  6
CONTINUOUS
 62
     7
 10
419.7507292218889
 20
-33.85652996593137
 11
419.7548458713155
 21
-34.0923726536315
  0
LINE
  8
0
  6
CONTINUOUS
 62
     7
 10
419.6407093587069
 20
-33.32437467775222
 11
419.6758118768067
 21
-33.43569807416946
  0
LINE
  8
0
  6
CONTINUOUS
 62
     7
 10
310.2492707781111
 20
-33.85652996593129
 11
310.3241881231933
 21
-33.43569807417422
  0
LINE
  8
0
  6
CONTINUOUS
 62
     7
 10
310.2451485900888
 20
-34.09268995956445
 11
310.2492707781111
 21
-33.85652996593129
  0
LINE
  8
0
  6
CONTINUOUS
 62
     7
 10
310.3241881231932
 20
-33.43569807416945
 11
310.3592906576755
 21
-33.32437462378984
  0
LINE
  8
0
  6
CONTINUOUS
 62
     7
 10
313.3244858020948
 20
22.74467569619587
 11
312.9875143216955
 21
22.62795550556516
  0
LINE
  8
0
  6
CONTINUOUS
 62
     9
 10
345.5105975995044
 20
23.01833406152589
 11
324.4903260315867
 21
19.50654712934834
  0
LINE
  8
0
  6
CONTINUOUS
 62
     9
 10
405.5096739684133
 20
19.50654712934816
 11
384.4894024004944
 21
23.01833406152591
  0
LINE
  8
0
  6
CONTINUOUS
 62
     9
 10
346.3246452248996
 20
23.01833406152589
 11
345.5105975995044
 21
23.01833406152589
  0
LINE
  8
0
  6
CONTINUOUS
 62
     9
 10
349.8293467635487
 20
-2.715100047943727
 11
346.3246452248996
 21
23.01833406152589
  0
LINE
  8
0
  6
CONTINUOUS
 62
     9
 10
324.2985339230224
 20
-2.470651696490335
 11
349.8293467635487
 21
-2.715100047943727
  0
LINE
  8
0
  6
CONTINUOUS
 62
     9
 10
383.6753547751007
 20
23.01833406152588
 11
380.1706532364515
 21
-2.715100047943612
  0
LINE
  8
0
  6
CONTINUOUS
 62
     9
 10
384.4894024004944
 20
23.01833406152591
 11
383.6753547751007
 21
23.01833406152588
  0
LINE
  8
0
  6
CONTINUOUS
 62
     9
 10
380.1706532364515
 20
-2.715100047943612
 11
405.7014660769776
 21
-2.470651696490231
  0
POLYLINE
  8
0
  6
CONTINUOUS
 62
     9
 66
     1
  0
VERTEX
  8
0
  6
CONTINUOUS
 62
     9
 10
346.5224877023749
 20
23.52095488539828
  0
VERTEX
  8
0
  6
CONTINUOUS
 62
     9
 10
346.4160875465274
 20
23.29585586376182
  0
VERTEX
  8
0
  6
CONTINUOUS
 62
     9
 10
346.3246452248995
 20
23.01833406152597
  0
SEQEND
  8
0
  6
CONTINUOUS
 62
     9
  0
POLYLINE
  8
0
  6
CONTINUOUS
 62
     9
 66
     1
  0
VERTEX
  8
0
  6
CONTINUOUS
 62
     9
 10
383.6753547751006
 20
23.01833406152587
  0
VERTEX
  8
0
  6
CONTINUOUS
 62
     9
 10
383.5838485587508
 20
23.29601817023864
  0
VERTEX
  8
0
  6
CONTINUOUS
 62
     9
 10
383.477367333374
 20
23.52120720283192
  0
SEQEND
  8
0
  6
CONTINUOUS
 62
     9
  0
LINE
  8
0
  6
CONTINUOUS
 62
     9
 10
346.8940471241251
 20
23.11158873513872
 11
346.3246452248995
 21
23.0183340615259
  0
LINE
  8
0
  6
CONTINUOUS
 62
     9
 10
346.8940471241251
 20
23.11158873513872
 11
346.8940471241251
 21
23.52095488539824
  0
LINE
  8
0
  6
CONTINUOUS
 62
     9
 10
383.1059528758752
 20
23.52129561730932
 11
383.1059528758752
 21
23.11158873513872
  0
LINE
  8
0
  6
CONTINUOUS
 62
     9
 10
383.1059528758752
 20
23.11158873513872
 11
346.8940471241251
 21
23.11158873513872
  0
LINE
  8
0
  6
CONTINUOUS
 62
     9
 10
383.6753547751007
 20
23.01833406152588
 11
383.1059528758752
 21
23.1115887351387
  0
LINE
  8
0
  6
CONTINUOUS
 62
     9
 10
379.601251337226
 20
-2.621845374330797
 11
383.1059528758752
 21
23.11158873513873
  0
LINE
  8
0
  6
CONTINUOUS
 62
     9
 10
380.1706532364515
 20
-2.715100047943657
 11
379.601251337226
 21
-2.621845374330851
  0
LINE
  8
0
  6
CONTINUOUS
 62
     9
 10
346.8940471241251
 20
23.11158873513872
 11
350.3987486627743
 21
-2.621845374330904
  0
LINE
  8
0
  6
CONTINUOUS
 62
     9
 10
350.3987486627743
 20
-2.621845374330906
 11
349.8293467635487
 21
-2.715100047943733
  0
LINE
  8
0
  6
CONTINUOUS
 62
     9
 10
350.3987486627743
 20
-2.621845374330904
 11
350.9314354755668
 21
-2.834385393299273
  0
LINE
  8
0
  6
CONTINUOUS
 62
     9
 10
379.0685645244332
 20
-2.834385393299277
 11
379.601251337226
 21
-2.621845374330797
  0
LINE
  8
0
  6
CONTINUOUS
 62
     9
 10
373.5924218061368
 20
-2.834385393299273
 11
379.0685645244332
 21
-2.834385393299277
  0
LINE
  8
0
  6
CONTINUOUS
 62
     9
 10
350.9314354755668
 20
-2.834385393299273
 11
356.4075781938631
 21
-2.834385393299273
  0
POLYLINE
  8
0
  6
CONTINUOUS
 62
     9
 66
     1
  0
VERTEX
  8
0
  6
CONTINUOUS
 62
     9
 10
349.8293467635488
 20
-2.715100047943761
  0
VERTEX
  8
0
  6
CONTINUOUS
 62
     9
 10
349.7332744382803
 20
-3.132427014041835
  0
VERTEX
  8
0
  6
CONTINUOUS
 62
     9
 10
349.6712125823221
 20
-3.599852143313984
  0
VERTEX
  8
0
  6
CONTINUOUS
 62
     9
 10
349.6463329982317
 20
-4.093486684808247
  0
SEQEND
  8
0
  6
CONTINUOUS
 62
     9
  0
LINE
  8
0
  6
CONTINUOUS
 62
     9
 10
349.6463329982317
 20
-4.093486684808218
 11
324.2864906393622
 21
-3.850675314231593
  0
POLYLINE
  8
0
  6
CONTINUOUS
 62
     9
 66
     1
  0
VERTEX
  8
0
  6
CONTINUOUS
 62
     9
 10
380.3536670017685
 20
-4.093486684808088
  0
VERTEX
  8
0
  6
CONTINUOUS
 62
     9
 10
380.3287874176782
 20
-3.599852143313803
  0
VERTEX
  8
0
  6
CONTINUOUS
 62
     9
 10
380.2667255617199
 20
-3.132427014041638
  0
VERTEX
  8
0
  6
CONTINUOUS
 62
     9
 10
380.1706532364515
 20
-2.715100047943557
  0
SEQEND
  8
0
  6
CONTINUOUS
 62
     9
  0
LINE
  8
0
  6
CONTINUOUS
 62
     9
 10
405.7135093606378
 20
-3.8506753142315
 11
380.3536670017685
 21
-4.09348668480812
  0
LINE
  8
0
  6
CONTINUOUS
 62
     7
 10
357.2
 20
-36.67925095343503
 11
356.8983946466642
 21
-2.118700642916117
  0
ARC
  8
0
  6
CONTINUOUS
 62
     9
 10
364.2287854415994
 20
-1.470817344762207
 40
8.896442320058702
 50
355.8237385754581
 51
76.89693362119006
  0
ARC
  8
0
  6
CONTINUOUS
 62
     9
 10
365.102913799532
 20
-0.6260031056262577
 40
7.903050291728364
 50
81.68628926310745
 51
165.0710988497601
  0
ARC
  8
0
  6
CONTINUOUS
 62
     9
 10
367.4920593985574
 20
-2.014513718309026
 40
10.5941770700118
 50
161.1408235941977
 51
180.5634762613142
  0
LINE
  8
0
  6
CONTINUOUS
 62
     7
 10
372.8
 20
-36.67925095343503
 11
373.1016053533357
 21
-2.118700642916103
  0
LINE
  8
0
  6
CONTINUOUS
 62
     7
 10
357.2
 20
-36.67925095343503
 11
372.8
 21
-36.67925095343502
  0
LINE
  8
0
  6
CONTINUOUS
 62
     9
 10
350.1790198110241
 20
-4.30602670377659
 11
349.6463329982317
 21
-4.093486684808218
  0
LINE
  8
0
  6
CONTINUOUS
 62
     9
 10
350.1292044682193
 20
-36.67925095343504
 11
350.1790198110241
 21
-4.30602670377659
  0
LINE
  8
0
  6
CONTINUOUS
 62
     7
 10
350.1292044682193
 20
-36.67925095343504
 11
323.9999999999999
 21
-36.67925095343503
  0
LINE
  8
0
  6
CONTINUOUS
 62
     9
 10
379.8209801889758
 20
-4.306026703776594
 11
379.8707955317807
 21
-36.67925095343504
  0
LINE
  8
0
  6
CONTINUOUS
 62
     9
 10
380.3536670017685
 20
-4.09348668480812
 11
379.8209801889758
 21
-4.306026703776594
  0
LINE
  8
0
  6
CONTINUOUS
 62
     7
 10
405.9999999999999
 20
-36.67925095343503
 11
379.8707955317807
 21
-36.67925095343503
  0
POLYLINE
  8
0
  6
CONTINUOUS
 62
     9
 66
     1
  0
VERTEX
  8
0
  6
CONTINUOUS
 62
     9
 10
373.5924218061368
 20
-2.834385393299315
  0
VERTEX
  8
0
  6
CONTINUOUS
 62
     9
 10
373.4952411717596
 20
-2.84038846125841
  0
VERTEX
  8
0
  6
CONTINUOUS
 62
     9
 10
373.4017671577121
 20
-2.859085958608614
  0
VERTEX
  8
0
  6
CONTINUOUS
 62
     9
 10
373.3155650080679
 20
-2.889764733761257
  0
VERTEX
  8
0
  6
CONTINUOUS
 62
     9
 10
373.239922606698
 20
-2.931254650583742
  0
VERTEX
  8
0
  6
CONTINUOUS
 62
     9
 10
373.1777250722735
 20
-2.981973219209025
  0
VERTEX
  8
0
  6
CONTINUOUS
 62
     9
 10
373.1313447153585
 20
-3.039985954656963
  0
VERTEX
  8
0
  6
CONTINUOUS
 62
     9
 10
373.1025505548006
 20
-3.103080161095973
  0
VERTEX
  8
0
  6
CONTINUOUS
 62
     9
 10
373.0924408446048
 20
-3.16884932749866
  0
SEQEND
  8
0
  6
CONTINUOUS
 62
     9
  0
POLYLINE
  8
0
  6
CONTINUOUS
 62
     9
 66
     1
  0
VERTEX
  8
0
  6
CONTINUOUS
 62
     9
 10
356.9075591553952
 20
-3.16884932749866
  0
VERTEX
  8
0
  6
CONTINUOUS
 62
     9
 10
356.8974494451994
 20
-3.103080161095964
  0
VERTEX
  8
0
  6
CONTINUOUS
 62
     9
 10
356.8686552846415
 20
-3.039985954656948
  0
VERTEX
  8
0
  6
CONTINUOUS
 62
     9
 10
356.8222749277265
 20
-2.981973219209003
  0
VERTEX
  8
0
  6
CONTINUOUS
 62
     9
 10
356.760077393302
 20
-2.931254650583714
  0
VERTEX
  8
0
  6
CONTINUOUS
 62
     9
 10
356.6844349919321
 20
-2.889764733761224
  0
VERTEX
  8
0
  6
CONTINUOUS
 62
     9
 10
356.5982328422879
 20
-2.859085958608578
  0
VERTEX
  8
0
  6
CONTINUOUS
 62
     9
 10
356.5047588282404
 20
-2.840388461258371
  0
VERTEX
  8
0
  6
CONTINUOUS
 62
     9
 10
356.4075781938631
 20
-2.834385393299275
  0
SEQEND
  8
0
  6
CONTINUOUS
 62
     9
  0
POLYLINE
  8
0
  6
CONTINUOUS
 62
     9
 66
     1
  0
VERTEX
  8
0
  6
CONTINUOUS
 62
     9
 10
373.5824978095195
 20
-4.306026703776584
  0
VERTEX
  8
0
  6
CONTINUOUS
 62
     9
 10
373.4849610303495
 20
-4.30525940888386
  0
VERTEX
  8
0
  6
CONTINUOUS
 62
     9
 10
373.3911721726462
 20
-4.304689259580987
  0
VERTEX
  8
0
  6
CONTINUOUS
 62
     9
 10
373.3047351412761
 20
-4.304338164268364
  0
VERTEX
  8
0
  6
CONTINUOUS
 62
     9
 10
373.228971341848
 20
-4.304219614037966
  0
VERTEX
  8
0
  6
CONTINUOUS
 62
     9
 10
373.1667920532936
 20
-4.304338164268363
  0
VERTEX
  8
0
  6
CONTINUOUS
 62
     9
 10
373.1205865598639
 20
-4.304689259580987
  0
VERTEX
  8
0
  6
CONTINUOUS
 62
     9
 10
373.0921303411489
 20
-4.30525940888386
  0
VERTEX
  8
0
  6
CONTINUOUS
 62
     9
 10
373.0825168479874
 20
-4.306026703776584
  0
SEQEND
  8
0
  6
CONTINUOUS
 62
     9
  0
POLYLINE
  8
0
  6
CONTINUOUS
 62
     9
 66
     1
  0
VERTEX
  8
0
  6
CONTINUOUS
 62
     9
 10
356.9174831520126
 20
-4.30602670377658
  0
VERTEX
  8
0
  6
CONTINUOUS
 62
     9
 10
356.907869658851
 20
-4.305259408883856
  0
VERTEX
  8
0
  6
CONTINUOUS
 62
     9
 10
356.879413440136
 20
-4.304689259580984
  0
VERTEX
  8
0
  6
CONTINUOUS
 62
     9
 10
356.8332079467063
 20
-4.304338164268359
  0
VERTEX
  8
0
  6
CONTINUOUS
 62
     9
 10
356.771028658152
 20
-4.304219614037962
  0
VERTEX
  8
0
  6
CONTINUOUS
 62
     9
 10
356.6952648587239
 20
-4.304338164268359
  0
VERTEX
  8
0
  6
CONTINUOUS
 62
     9
 10
356.6088278273538
 20
-4.304689259580982
  0
VERTEX
  8
0
  6
CONTINUOUS
 62
     9
 10
356.5150389696505
 20
-4.305259408883855
  0
VERTEX
  8
0
  6
CONTINUOUS
 62
     9
 10
356.4175021904806
 20
-4.306026703776579
  0
SEQEND
  8
0
  6
CONTINUOUS
 62
     9
  0
POLYLINE
  8
0
  6
CONTINUOUS
 62
     9
 66
     1
  0
VERTEX
  8
0
  6
CONTINUOUS
 62
     9
 10
379.8209801889759
 20
-4.306026703776592
  0
VERTEX
  8
0
  6
CONTINUOUS
 62
     9
 10
379.4505755166836
 20
-4.30573056092715
  0
VERTEX
  8
0
  6
CONTINUOUS
 62
     9
 10
379.0685645244332
 20
-4.306026703776591
  0
SEQEND
  8
0
  6
CONTINUOUS
 62
     9
  0
LINE
  8
0
  6
CONTINUOUS
 62
     9
 10
379.0685645244332
 20
-2.834385393299273
 11
379.0685645244332
 21
-4.306026703776583
  0
LINE
  8
0
  6
CONTINUOUS
 62
     9
 10
350.9314354755668
 20
-4.306026703776579
 11
350.9314354755668
 21
-2.834385393299273
  0
LINE
  8
0
  6
CONTINUOUS
 62
     9
 10
356.4175021904805
 20
-4.306026703776583
 11
350.9314354755668
 21
-4.306026703776579
  0
LINE
  8
0
  6
CONTINUOUS
 62
     9
 10
379.0685645244332
 20
-4.306026703776583
 11
373.5824978095195
 21
-4.306026703776583
  0
POLYLINE
  8
0
  6
CONTINUOUS
 62
     9
 66
     1
  0
VERTEX
  8
0
  6
CONTINUOUS
 62
     9
 10
350.9314354755668
 20
-4.306026703776581
  0
VERTEX
  8
0
  6
CONTINUOUS
 62
     9
 10
350.5494244833165
 20
-4.305730560927139
  0
VERTEX
  8
0
  6
CONTINUOUS
 62
     9
 10
350.1790198110243
 20
-4.306026703776581
  0
SEQEND
  8
0
  6
CONTINUOUS
 62
     9
  0
LINE
  8
0
  6
CONTINUOUS
 62
     7
 10
372.8
 20
-36.67925095343503
 11
373.2999809615321
 21
-36.67925095343503
  0
LINE
  8
0
  6
CONTINUOUS
 62
     7
 10
356.7000190384679
 20
-36.67925095343503
 11
357.1999999999999
 21
-36.67925095343503
  0
LINE
  8
0
  6
CONTINUOUS
 62
     9
 10
379.1183798672381
 20
-36.67925095343503
 11
379.0685645244332
 21
-4.306026703776583
  0
LINE
  8
0
  6
CONTINUOUS
 62
     7
 10
379.1183798672381
 20
-36.67925095343503
 11
379.8707955317807
 21
-36.67925095343503
  0
LINE
  8
0
  6
CONTINUOUS
 62
     9
 10
350.9314354755668
 20
-4.306026703776579
 11
350.8816201327618
 21
-36.67925095343504
  0
LINE
  8
0
  6
CONTINUOUS
 62
     7
 10
350.1292044682193
 20
-36.67925095343503
 11
350.8816201327618
 21
-36.67925095343503
  0
LINE
  8
0
  6
CONTINUOUS
 62
     7
 10
373.2999809615321
 20
-36.67925095343503
 11
379.1183798672381
 21
-36.67925095343503
  0
LINE
  8
0
  6
CONTINUOUS
 62
     7
 10
350.8816201327618
 20
-36.67925095343503
 11
356.7000190384679
 21
-36.67925095343503
  0
LINE
  8
0
  6
CONTINUOUS
 62
     7
 10
310.8103051616598
 20
-33.6792509557101
 11
310.4685470332071
 21
-33.76177851622894
  0
LINE
  8
0
  6
CONTINUOUS
 62
     7
 10
416.6755141979052
 20
22.74467569619585
 11
407.7289646289576
 21
24.6803243587675
  0
LINE
  8
0
  6
CONTINUOUS
 62
     7
 10
322.2710353710423
 20
24.6803243587675
 11
313.3244858020948
 21
22.74467569619586
  0
LINE
  8
0
  6
CONTINUOUS
 62
     7
 10
350.8913475595465
 20
23.52074904656498
 11
350.8913475595465
 21
23.82074904656498
  0
LINE
  8
0
  6
CONTINUOUS
 62
     7
 10
345.1953475595466
 20
23.82074904656498
 11
345.1953475595466
 21
23.52074904656498
  0
LINE
  8
0
  6
CONTINUOUS
 62
     7
 10
377.9953475595465
 20
23.82074904656498
 11
377.9953475595465
 21
23.52074904656498
  0
LINE
  8
0
  6
CONTINUOUS
 62
     7
 10
384.5233475595466
 20
23.52074904656498
 11
384.5233475595466
 21
23.82074904656498
  0
ARC
  8
0
  6
CONTINUOUS
 62
     7
 10
420.1191851920601
 20
-33.17925095343502
 40
0.4999999999999726
 50
181.0236698186494
 51
196.7149517733313
  0
ARC
  8
0
  6
CONTINUOUS
 62
     7
 10
309.8808148079399
 20
-33.17925095343502
 40
0.4999999999999982
 50
343.2851179830607
 51
358.9763301813506
  0
LINE
  8
0
  6
CONTINUOUS
 62
     7
 10
419.619264992078
 20
-33.18818368257774
 11
418.6560559737383
 21
20.71781048551337
  0
LINE
  8
0
  6
CONTINUOUS
 62
     7
 10
311.3439440262616
 20
20.71781048551337
 11
310.3807350079219
 21
-33.18818368257774
  0
ARC
  8
0
  6
CONTINUOUS
 62
     7
 10
416.6659457015461
 20
20.6851395132424
 40
1.990335829349749
 50
0.9305448527156094
 51
65.43539426667874
  0
ARC
  8
0
  6
CONTINUOUS
 62
     7
 10
416.3934091245656
 20
19.44503152499778
 40
3.242570610099837
 50
70.17041021439452
 51
78.99346336972295
  0
ARC
  8
0
  6
CONTINUOUS
 62
     7
 10
313.2974183585977
 20
20.6991299115647
 40
1.953563647879109
 50
99.12763655241879
 51
179.4521077024768
  0
LINE
  8
0
  6
CONTINUOUS
 62
     7
 10
384.0008898865417
 20
26.62172431815386
 11
383.9402814487914
 21
26.62363815976873
  0
LINE
  8
0
  6
CONTINUOUS
 62
     7
 10
346.0570665219693
 20
26.62357827712424
 11
345.998654538355
 21
26.62171128722949
  0
ENDBLK
  8
0
  0
BLOCK
  8
0
  2
D_FRAME_DRAWING_17
 70
     0
 10
0.0
 20
0.0
  0
LINE
  8
0
  6
CONTINUOUS
 62
     7
 10
0.0
 20
0.0
 11
210.0
 21
0.0
  0
LINE
  8
0
  6
CONTINUOUS
 62
     7
 10
210.0
 20
0.0
 11
210.0
 21
297.0
  0
LINE
  8
0
  6
CONTINUOUS
 62
     7
 10
210.0
 20
297.0
 11
0.0
 21
297.0
  0
LINE
  8
0
  6
CONTINUOUS
 62
     7
 10
0.0
 20
297.0
 11
0.0
 21
0.0
  0
ENDBLK
  8
0
  0
BLOCK
  8
0
  2
D_FRAME_VIEW_1288
 70
     0
 10
0.0
 20
0.0
  0
LINE
  8
0
  6
CONTINUOUS
 62
     7
 10
398.7212386214575
 20
83.9999614332437
 11
399.4097217923081
 21
83.99778153241176
  0
LINE
  8
0
  6
CONTINUOUS
 62
     9
 10
399.4097217923081
 20
83.99778153241175
 11
400.1504476753414
 21
78.52325028442228
  0
LINE
  8
0
  6
CONTINUOUS
 62
     9
 10
399.4637906090388
 20
78.51193387489349
 11
398.7212386214575
 21
83.9999614332437
  0
LINE
  8
0
  6
CONTINUOUS
 62
     7
 10
398.7212386214575
 20
83.99996143324371
 11
398.7157174069787
 21
83.9999875
  0
LINE
  8
0
  6
CONTINUOUS
 62
     9
 10
398.7157174069786
 20
83.99998749999996
 11
384.0009645712913
 21
183.5624942489287
  0
LINE
  8
0
  6
CONTINUOUS
 62
     7
 10
384.0009645712913
 20
183.5624942489287
 11
384.6803780606642
 21
183.6629075661081
  0
LINE
  8
0
  6
CONTINUOUS
 62
     9
 10
384.6803780606643
 20
183.6629075661081
 11
399.4102974229974
 21
83.99778153241176
  0
LINE
  8
0
  6
CONTINUOUS
 62
     7
 10
399.4097217923081
 20
83.99778153241175
 11
399.4102974229974
 21
83.99778153241175
  0
LINE
  8
0
  6
CONTINUOUS
 62
     7
 10
330.5902782076918
 20
83.99778153241175
 11
331.2787613785424
 21
83.99996143324368
  0
LINE
  8
0
  6
CONTINUOUS
 62
     9
 10
331.2787613785424
 20
83.9999614332437
 11
330.5362093909612
 21
78.51193387489347
  0
LINE
  8
0
  6
CONTINUOUS
 62
     9
 10
329.8495523246586
 20
78.5232502844223
 11
330.5902782076919
 21
83.99778153241175
  0
LINE
  8
0
  6
CONTINUOUS
 62
     7
 10
330.5897025770025
 20
83.99778153241175
 11
330.5902782076918
 21
83.99778153241175
  0
LINE
  8
0
  6
CONTINUOUS
 62
     9
 10
330.5897025770025
 20
83.99778153241172
 11
345.3196219393357
 21
183.662907566108
  0
LINE
  8
0
  6
CONTINUOUS
 62
     7
 10
345.3196219393357
 20
183.662907566108
 11
345.9990354287087
 21
183.5624942489286
  0
LINE
  8
0
  6
CONTINUOUS
 62
     9
 10
345.9990354287087
 20
183.5624942489286
 11
331.2842825930213
 21
83.99998749999999
  0
LINE
  8
0
  6
CONTINUOUS
 62
     7
 10
331.2842825930213
 20
83.99998749999997
 11
331.2787613785424
 21
83.99996143324368
  0
LINE
  8
0
  6
CONTINUOUS
 62
     7
 10
346.1644557089817
 20
183.8082949855095
 11
345.9990354287087
 21
183.5624942489286
  0
LINE
  8
0
  6
CONTINUOUS
 62
     9
 10
383.8355442910184
 20
183.8082949855095
 11
346.1644557089817
 21
183.8082949855095
  0
LINE
  8
0
  6
CONTINUOUS
 62
     7
 10
384.0009645712913
 20
183.5624942489287
 11
383.8355442910184
 21
183.8082949855095
  0
LINE
  8
0
  6
CONTINUOUS
 62
     7
 10
331.2842825930213
 20
83.99998749999999
 11
398.7157174069786
 21
83.99998749999999
  0
LINE
  8
0
  6
CONTINUOUS
 62
     7
 10
346.7016205188807
 20
186.9224392660165
 11
346.1644557089817
 21
183.8082949855095
  0
LINE
  8
0
  6
CONTINUOUS
 62
     7
 10
346.7610505267958
 20
187.4851975844329
 11
346.7016205188807
 21
186.9224392660165
  0
LINE
  8
0
  6
CONTINUOUS
 62
     9
 10
346.7610505267958
 20
187.4851975844329
 11
383.238949473204
 21
187.4851975844329
  0
LINE
  8
0
  6
CONTINUOUS
 62
     7
 10
383.2983794811193
 20
186.9224392660169
 11
383.2389494732042
 21
187.4851975844329
  0
LINE
  8
0
  6
CONTINUOUS
 62
     7
 10
383.8355442910184
 20
183.8082949855095
 11
383.2983794811195
 21
186.9224392660169
  0
LINE
  8
0
  6
CONTINUOUS
 62
     7
 10
383.238949473204
 20
187.4851975844329
 11
384.2742256536141
 21
187.4542078772123
  0
LINE
  8
0
  6
CONTINUOUS
 62
     7
 10
384.2742256536143
 20
187.4542078772124
 11
384.3336556615293
 21
187.3416562135292
  0
LINE
  8
0
  6
CONTINUOUS
 62
     7
 10
384.3336556615296
 20
187.3416562135292
 11
384.6630176626246
 21
184.7219943611973
  0
LINE
  8
0
  6
CONTINUOUS
 62
     7
 10
384.6630176626246
 20
184.7219943611973
 11
384.6803780606643
 21
183.6629075661081
  0
LINE
  8
0
  6
CONTINUOUS
 62
     7
 10
345.7257743463857
 20
187.4542078772123
 11
346.7610505267958
 21
187.4851975844329
  0
LINE
  8
0
  6
CONTINUOUS
 62
     7
 10
345.3196219393357
 20
183.662907566108
 11
345.3369823373755
 21
184.7219943611976
  0
LINE
  8
0
  6
CONTINUOUS
 62
     7
 10
345.3369823373755
 20
184.7219943611977
 11
345.6663443384707
 21
187.341656213529
  0
LINE
  8
0
  6
CONTINUOUS
 62
     7
 10
345.6663443384706
 20
187.341656213529
 11
345.7257743463857
 21
187.4542078772123
  0
LINE
  8
0
  6
CONTINUOUS
 62
     9
 10
345.3196219393357
 20
183.662907566108
 11
318.1922242280049
 21
177.9704664340756
  0
LINE
  8
0
  6
CONTINUOUS
 62
     9
 10
318.1897063676327
 20
181.5759301450153
 11
345.6663443384706
 21
187.341656213529
  0
LINE
  8
0
  6
CONTINUOUS
 62
     9
 10
384.3336556615293
 20
187.3416562135291
 11
411.8102936323671
 21
181.5759301450154
  0
LINE
  8
0
  6
CONTINUOUS
 62
     9
 10
411.807775771995
 20
177.9704664340757
 11
384.6803780606642
 21
183.6629075661081
  0
LINE
  8
0
  6
CONTINUOUS
 62
     7
 10
322.6866360705746
 20
83.99778153241175
 11
330.5897025770026
 21
83.99778153241175
  0
LINE
  8
0
  6
CONTINUOUS
 62
     7
 10
399.4102974229974
 20
83.99778153241175
 11
407.3133639294254
 21
83.99778153241175
  0
LINE
  8
0
  6
CONTINUOUS
 62
     7
 10
407.3157174390623
 20
83.99774157394953
 11
407.3133639294254
 21
83.99778153241171
  0
LINE
  8
0
  6
CONTINUOUS
 62
     7
 10
322.6866360705745
 20
83.99778153241171
 11
322.6842825609376
 21
83.99774157394953
  0
LINE
  8
0
  6
CONTINUOUS
 62
     9
 10
330.5362093909612
 20
78.08272070543393
 11
329.9339224936184
 21
78.08181752835945
  0
POLYLINE
  8
0
  6
CONTINUOUS
 62
     9
 66
     1
  0
VERTEX
  8
0
  6
CONTINUOUS
 62
     9
 10
329.8495523246585
 20
78.52325028442232
  0
VERTEX
  8
0
  6
CONTINUOUS
 62
     9
 10
329.8536475955053
 20
78.423299509978
  0
VERTEX
  8
0
  6
CONTINUOUS
 62
     9
 10
329.8611109115806
 20
78.32999638483848
  0
VERTEX
  8
0
  6
CONTINUOUS
 62
     9
 10
329.8716291390568
 20
78.24725557165446
  0
VERTEX
  8
0
  6
CONTINUOUS
 62
     9
 10
329.8847609710412
 20
78.17854857655793
  0
VERTEX
  8
0
  6
CONTINUOUS
 62
     9
 10
329.8999554432212
 20
78.12675809728424
  0
VERTEX
  8
0
  6
CONTINUOUS
 62
     9
 10
329.9165750503399
 20
78.09405707557109
  0
VERTEX
  8
0
  6
CONTINUOUS
 62
     9
 10
329.9339224936184
 20
78.08181752835945
  0
SEQEND
  8
0
  6
CONTINUOUS
 62
     9
  0
LINE
  8
0
  6
CONTINUOUS
 62
     9
 10
330.5362093909612
 20
78.08272070543394
 11
330.5362093909612
 21
78.51193387489347
  0
LINE
  8
0
  6
CONTINUOUS
 62
     9
 10
400.0660775063816
 20
78.08181752835945
 11
399.4637906090388
 21
78.08272070543393
  0
LINE
  8
0
  6
CONTINUOUS
 62
     9
 10
399.4637906090388
 20
78.08272070543394
 11
399.4637906090388
 21
78.51193387489349
  0
POLYLINE
  8
0
  6
CONTINUOUS
 62
     9
 66
     1
  0
VERTEX
  8
0
  6
CONTINUOUS
 62
     9
 10
400.0660775063815
 20
78.08181752835945
  0
VERTEX
  8
0
  6
CONTINUOUS
 62
     9
 10
400.08342494966
 20
78.09405707557107
  0
VERTEX
  8
0
  6
CONTINUOUS
 62
     9
 10
400.1000445567788
 20
78.12675809728422
  0
VERTEX
  8
0
  6
CONTINUOUS
 62
     9
 10
400.1152390289587
 20
78.17854857655792
  0
VERTEX
  8
0
  6
CONTINUOUS
 62
     9
 10
400.1283708609431
 20
78.24725557165445
  0
VERTEX
  8
0
  6
CONTINUOUS
 62
     9
 10
400.1388890884194
 20
78.32999638483847
  0
VERTEX
  8
0
  6
CONTINUOUS
 62
     9
 10
400.1463524044947
 20
78.42329950997797
  0
VERTEX
  8
0
  6
CONTINUOUS
 62
     9
 10
400.1504476753414
 20
78.52325028442229
  0
SEQEND
  8
0
  6
CONTINUOUS
 62
     9
  0
LINE
  8
0
  6
CONTINUOUS
 62
     9
 10
399.4637906090388
 20
78.08272070543394
 11
330.5362093909612
 21
78.08272070543394
  0
LINE
  8
0
  6
CONTINUOUS
 62
     9
 10
329.9339224936184
 20
78.08181752835945
 11
323.5444679275843
 21
78.06254830046676
  0
LINE
  8
0
  6
CONTINUOUS
 62
     9
 10
406.4555320724157
 20
78.06254830046676
 11
400.0660775063815
 21
78.08181752835945
  0
LINE
  8
0
  6
CONTINUOUS
 62
     7
 10
405.9999999999999
 20
76.9999875
 11
410.8377507962946
 21
76.9999875
  0
LINE
  8
0
  6
CONTINUOUS
 62
     7
 10
405.9999999999999
 20
76.9999875
 11
405.4843625213173
 21
78.03134100341387
  0
LINE
  8
0
  6
CONTINUOUS
 62
     7
 10
405.0693073488536
 20
78.03986456139862
 11
405.4843625213173
 21
78.03134100341389
  0
LINE
  8
0
  6
CONTINUOUS
 62
     7
 10
399.8886940309705
 20
78.05544865427376
 11
405.0693073488536
 21
78.03986456139862
  0
LINE
  8
0
  6
CONTINUOUS
 62
     7
 10
399.506770055003
 20
78.05601892815717
 11
399.8886940309705
 21
78.05544865427376
  0
LINE
  8
0
  6
CONTINUOUS
 62
     7
 10
330.493229944997
 20
78.05601892815717
 11
399.506770055003
 21
78.05601892815717
  0
LINE
  8
0
  6
CONTINUOUS
 62
     7
 10
330.1113059690295
 20
78.05544865427376
 11
330.493229944997
 21
78.05601892815717
  0
LINE
  8
0
  6
CONTINUOUS
 62
     7
 10
330.1113059690295
 20
78.05544865427375
 11
324.9306926511464
 21
78.0398645613986
  0
LINE
  8
0
  6
CONTINUOUS
 62
     7
 10
324.5156374786827
 20
78.03134100341389
 11
324.9306926511464
 21
78.03986456139862
  0
LINE
  8
0
  6
CONTINUOUS
 62
     7
 10
323.9999999999999
 20
76.9999875
 11
324.5156374786826
 21
78.03134100341387
  0
LINE
  8
0
  6
CONTINUOUS
 62
     7
 10
319.1622492037054
 20
76.9999875
 11
323.9999999999999
 21
76.9999875
  0
LINE
  8
0
  6
CONTINUOUS
 62
     7
 10
322.6842825609376
 20
83.99774157394954
 11
322.2717303055073
 21
83.99984786355652
  0
LINE
  8
0
  6
CONTINUOUS
 62
     7
 10
322.2717303055073
 20
83.9998478635565
 11
322.2716323253732
 21
83.99998749999999
  0
LINE
  8
0
  6
CONTINUOUS
 62
     7
 10
322.2716323253732
 20
83.99998749999999
 11
322.2657333115823
 21
97.22267731354825
  0
LINE
  8
0
  6
CONTINUOUS
 62
     9
 10
323.0495685678051
 20
78.4917614699263
 11
322.2717303055073
 21
83.99984786355651
  0
LINE
  8
0
  6
CONTINUOUS
 62
     7
 10
407.7283676746267
 20
83.99998749999999
 11
407.7282696944926
 21
83.9998478635565
  0
LINE
  8
0
  6
CONTINUOUS
 62
     7
 10
407.7282696944927
 20
83.99984786355651
 11
407.3157174390624
 21
83.99774157394954
  0
LINE
  8
0
  6
CONTINUOUS
 62
     7
 10
407.7342666884177
 20
97.22267731354825
 11
407.7283676746267
 21
83.9999875
  0
LINE
  8
0
  6
CONTINUOUS
 62
     9
 10
407.7282696944927
 20
83.99984786355651
 11
406.9504314321949
 21
78.4917614699263
  0
LINE
  8
0
  6
CONTINUOUS
 62
     7
 10
379.7766926252746
 20
210.911413072912
 11
379.6295234409184
 21
211.1059214011162
  0
LINE
  8
0
  6
CONTINUOUS
 62
     9
 10
383.2389494732039
 20
187.4851975844329
 11
379.7766926252743
 21
210.911413072912
  0
LINE
  8
0
  6
CONTINUOUS
 62
     9
 10
350.2233073747255
 20
210.9114130729122
 11
346.7610505267958
 21
187.4851975844329
  0
LINE
  8
0
  6
CONTINUOUS
 62
     7
 10
350.3704765590816
 20
211.1059214011162
 11
350.2233073747255
 21
210.9114130729122
  0
LINE
  8
0
  6
CONTINUOUS
 62
     9
 10
380.8119688056844
 20
210.8804233656914
 11
384.2742256536141
 21
187.4542078772123
  0
LINE
  8
0
  6
CONTINUOUS
 62
     9
 10
345.7257743463858
 20
187.4542078772123
 11
349.1880311943154
 21
210.8804233656916
  0
LINE
  8
0
  6
CONTINUOUS
 62
     9
 10
321.5700486611618
 20
99.38612476901729
 11
312.0156272925691
 21
115.8627029834026
  0
LINE
  8
0
  6
CONTINUOUS
 62
     9
 10
417.9843727074308
 20
115.8627029834026
 11
408.4299513388382
 21
99.38612476901729
  0
LINE
  8
0
  6
CONTINUOUS
 62
     7
 10
321.2609419416624
 20
83.9999875
 11
322.2716323253733
 21
83.9999875
  0
LINE
  8
0
  6
CONTINUOUS
 62
     7
 10
407.7283676746267
 20
83.99998749999999
 11
408.7390580583375
 21
83.9999875
  0
POLYLINE
  8
0
  6
CONTINUOUS
 62
     9
 66
     1
  0
VERTEX
  8
0
  6
CONTINUOUS
 62
     9
 10
323.0495685678051
 20
78.4917614699263
  0
VERTEX
  8
0
  6
CONTINUOUS
 62
     9
 10
323.0741976003833
 20
78.39292594412905
  0
VERTEX
  8
0
  6
CONTINUOUS
 62
     9
 10
323.1183464087561
 20
78.30112786827458
  0
VERTEX
  8
0
  6
CONTINUOUS
 62
     9
 10
323.1801824834259
 20
78.22017755688928
  0
VERTEX
  8
0
  6
CONTINUOUS
 62
     9
 10
323.2571391595539
 20
78.15343506021946
  0
VERTEX
  8
0
  6
CONTINUOUS
 62
     9
 10
323.3460221529655
 20
78.10367069673009
  0
VERTEX
  8
0
  6
CONTINUOUS
 62
     9
 10
323.4431421471061
 20
78.07295006393323
  0
VERTEX
  8
0
  6
CONTINUOUS
 62
     9
 10
323.5444679275843
 20
78.06254830046677
  0
SEQEND
  8
0
  6
CONTINUOUS
 62
     9
  0
POLYLINE
  8
0
  6
CONTINUOUS
 62
     9
 66
     1
  0
VERTEX
  8
0
  6
CONTINUOUS
 62
     9
 10
406.4555320724157
 20
78.06254830046676
  0
VERTEX
  8
0
  6
CONTINUOUS
 62
     9
 10
406.5568578528939
 20
78.07295006393322
  0
VERTEX
  8
0
  6
CONTINUOUS
 62
     9
 10
406.6539778470344
 20
78.10367069673008
  0
VERTEX
  8
0
  6
CONTINUOUS
 62
     9
 10
406.742860840446
 20
78.15343506021946
  0
VERTEX
  8
0
  6
CONTINUOUS
 62
     9
 10
406.819817516574
 20
78.22017755688928
  0
VERTEX
  8
0
  6
CONTINUOUS
 62
     9
 10
406.8816535912438
 20
78.30112786827458
  0
VERTEX
  8
0
  6
CONTINUOUS
 62
     9
 10
406.9258023996167
 20
78.39292594412905
  0
VERTEX
  8
0
  6
CONTINUOUS
 62
     9
 10
406.9504314321948
 20
78.4917614699263
  0
SEQEND
  8
0
  6
CONTINUOUS
 62
     9
  0
POLYLINE
  8
0
  6
CONTINUOUS
 62
     9
 66
     1
  0
VERTEX
  8
0
  6
CONTINUOUS
 62
     9
 10
322.2398196173399
 20
96.8865055311263
  0
VERTEX
  8
0
  6
CONTINUOUS
 62
     9
 10
322.1638227193864
 20
97.75460296145556
  0
VERTEX
  8
0
  6
CONTINUOUS
 62
     9
 10
321.9382821320898
 20
98.59633189241536
  0
VERTEX
  8
0
  6
CONTINUOUS
 62
     9
 10
321.5700486611618
 20
99.38612476901727
  0
SEQEND
  8
0
  6
CONTINUOUS
 62
     9
  0
POLYLINE
  8
0
  6
CONTINUOUS
 62
     9
 66
     1
  0
VERTEX
  8
0
  6
CONTINUOUS
 62
     9
 10
408.4299513388382
 20
99.38612476901727
  0
VERTEX
  8
0
  6
CONTINUOUS
 62
     9
 10
408.0617178679101
 20
98.59633189241536
  0
VERTEX
  8
0
  6
CONTINUOUS
 62
     9
 10
407.8361772806135
 20
97.75460296145556
  0
VERTEX
  8
0
  6
CONTINUOUS
 62
     9
 10
407.76018038266
 20
96.8865055311263
  0
SEQEND
  8
0
  6
CONTINUOUS
 62
     9
  0
POLYLINE
  8
0
  6
CONTINUOUS
 62
     9
 66
     1
  0
VERTEX
  8
0
  6
CONTINUOUS
 62
     9
 10
311.3628691836316
 20
118.7975887880719
  0
VERTEX
  8
0
  6
CONTINUOUS
 62
     9
 10
311.3779801911143
 20
117.7815715096
  0
VERTEX
  8
0
  6
CONTINUOUS
 62
     9
 10
311.5986039078569
 20
116.7896184329926
  0
VERTEX
  8
0
  6
CONTINUOUS
 62
     9
 10
312.0156272925691
 20
115.8627029834026
  0
SEQEND
  8
0
  6
CONTINUOUS
 62
     9
  0
POLYLINE
  8
0
  6
CONTINUOUS
 62
     9
 66
     1
  0
VERTEX
  8
0
  6
CONTINUOUS
 62
     9
 10
417.9843727074309
 20
115.8627029834026
  0
VERTEX
  8
0
  6
CONTINUOUS
 62
     9
 10
418.4013960921432
 20
116.7896184329926
  0
VERTEX
  8
0
  6
CONTINUOUS
 62
     9
 10
418.6220198088856
 20
117.7815715096
  0
VERTEX
  8
0
  6
CONTINUOUS
 62
     9
 10
418.6371308163684
 20
118.7975887880719
  0
SEQEND
  8
0
  6
CONTINUOUS
 62
     9
  0
LINE
  8
0
  6
CONTINUOUS
 62
     9
 10
311.3628691836315
 20
118.797588788072
 11
316.5398450270633
 21
178.0945447124977
  0
POLYLINE
  8
0
  6
CONTINUOUS
 62
     9
 66
     1
  0
VERTEX
  8
0
  6
CONTINUOUS
 62
     9
 10
318.1922242280049
 20
177.9704664340756
  0
VERTEX
  8
0
  6
CONTINUOUS
 62
     9
 10
317.8139744058104
 20
178.0023905138675
  0
VERTEX
  8
0
  6
CONTINUOUS
 62
     9
 10
317.4635820863018
 20
178.0311278308792
  0
VERTEX
  8
0
  6
CONTINUOUS
 62
     9
 10
317.1546428759989
 20
178.0555633456743
  0
VERTEX
  8
0
  6
CONTINUOUS
 62
     9
 10
316.8991439552938
 20
178.0747489334629
  0
VERTEX
  8
0
  6
CONTINUOUS
 62
     9
 10
316.7069989626962
 20
178.0879401723845
  0
VERTEX
  8
0
  6
CONTINUOUS
 62
     9
 10
316.5856633347801
 20
178.0946252278928
  0
VERTEX
  8
0
  6
CONTINUOUS
 62
     9
 10
316.5398450270633
 20
178.0945447124977
  0
SEQEND
  8
0
  6
CONTINUOUS
 62
     9
  0
POLYLINE
  8
0
  6
CONTINUOUS
 62
     9
 66
     1
  0
VERTEX
  8
0
  6
CONTINUOUS
 62
     9
 10
413.4601549729366
 20
178.0945447124978
  0
VERTEX
  8
0
  6
CONTINUOUS
 62
     9
 10
413.4143366652198
 20
178.0946252278929
  0
VERTEX
  8
0
  6
CONTINUOUS
 62
     9
 10
413.2930010373037
 20
178.0879401723846
  0
VERTEX
  8
0
  6
CONTINUOUS
 62
     9
 10
413.1008560447061
 20
178.074748933463
  0
VERTEX
  8
0
  6
CONTINUOUS
 62
     9
 10
412.8453571240009
 20
178.0555633456744
  0
VERTEX
  8
0
  6
CONTINUOUS
 62
     9
 10
412.5364179136981
 20
178.0311278308793
  0
VERTEX
  8
0
  6
CONTINUOUS
 62
     9
 10
412.1860255941895
 20
178.0023905138675
  0
VERTEX
  8
0
  6
CONTINUOUS
 62
     9
 10
411.807775771995
 20
177.9704664340757
  0
SEQEND
  8
0
  6
CONTINUOUS
 62
     9
  0
LINE
  8
0
  6
CONTINUOUS
 62
     9
 10
413.4601549729367
 20
178.0945447124978
 11
418.6371308163684
 21
118.7975887880719
  0
POLYLINE
  8
0
  6
CONTINUOUS
 62
     9
 66
     1
  0
VERTEX
  8
0
  6
CONTINUOUS
 62
     9
 10
316.5398450270633
 20
178.0945447124977
  0
VERTEX
  8
0
  6
CONTINUOUS
 62
     9
 10
316.5932564853567
 20
178.7189052246048
  0
VERTEX
  8
0
  6
CONTINUOUS
 62
     9
 10
316.6415701190778
 20
179.309532403884
  0
VERTEX
  8
0
  6
CONTINUOUS
 62
     9
 10
316.682801871618
 20
179.8421714454685
  0
VERTEX
  8
0
  6
CONTINUOUS
 62
     9
 10
316.7152585122097
 20
180.294948896068
  0
SEQEND
  8
0
  6
CONTINUOUS
 62
     9
  0
POLYLINE
  8
0
  6
CONTINUOUS
 62
     9
 66
     1
  0
VERTEX
  8
0
  6
CONTINUOUS
 62
     9
 10
318.1897063676327
 20
181.5759301450153
  0
VERTEX
  8
0
  6
CONTINUOUS
 62
     9
 10
317.8071007074545
 20
181.4784923098008
  0
VERTEX
  8
0
  6
CONTINUOUS
 62
     9
 10
317.4623218106485
 20
181.3240007580769
  0
VERTEX
  8
0
  6
CONTINUOUS
 62
     9
 10
317.1698567200179
 20
181.1189469710315
  0
VERTEX
  8
0
  6
CONTINUOUS
 62
     9
 10
316.9419943381775
 20
180.8719469719115
  0
VERTEX
  8
0
  6
CONTINUOUS
 62
     9
 10
316.7883090680549
 20
180.5933792948812
  0
VERTEX
  8
0
  6
CONTINUOUS
 62
     9
 10
316.7152585122097
 20
180.294948896068
  0
SEQEND
  8
0
  6
CONTINUOUS
 62
     9
  0
POLYLINE
  8
0
  6
CONTINUOUS
 62
     9
 66
     1
  0
VERTEX
  8
0
  6
CONTINUOUS
 62
     9
 10
413.2847414877903
 20
180.2949488960682
  0
VERTEX
  8
0
  6
CONTINUOUS
 62
     9
 10
413.3171981283819
 20
179.8421714454687
  0
VERTEX
  8
0
  6
CONTINUOUS
 62
     9
 10
413.3584298809221
 20
179.3095324038842
  0
VERTEX
  8
0
  6
CONTINUOUS
 62
     9
 10
413.4067435146433
 20
178.7189052246049
  0
VERTEX
  8
0
  6
CONTINUOUS
 62
     9
 10
413.4601549729367
 20
178.0945447124978
  0
SEQEND
  8
0
  6
CONTINUOUS
 62
     9
  0
POLYLINE
  8
0
  6
CONTINUOUS
 62
     9
 66
     1
  0
VERTEX
  8
0
  6
CONTINUOUS
 62
     9
 10
413.2847414877903
 20
180.2949488960682
  0
VERTEX
  8
0
  6
CONTINUOUS
 62
     9
 10
413.2116909319451
 20
180.5933792948814
  0
VERTEX
  8
0
  6
CONTINUOUS
 62
     9
 10
413.0580056618224
 20
180.8719469719117
  0
VERTEX
  8
0
  6
CONTINUOUS
 62
     9
 10
412.8301432799821
 20
181.1189469710317
  0
VERTEX
  8
0
  6
CONTINUOUS
 62
     9
 10
412.5376781893515
 20
181.3240007580771
  0
VERTEX
  8
0
  6
CONTINUOUS
 62
     9
 10
412.1928992925455
 20
181.478492309801
  0
VERTEX
  8
0
  6
CONTINUOUS
 62
     9
 10
411.8102936323672
 20
181.5759301450155
  0
SEQEND
  8
0
  6
CONTINUOUS
 62
     9
  0
LINE
  8
0
  6
CONTINUOUS
 62
     9
 10
412.0303338665527
 20
198.7681940928375
 11
413.2847414877903
 21
180.2949488960682
  0
LINE
  8
0
  6
CONTINUOUS
 62
     9
 10
411.9982675280417
 20
199.5064564122273
 11
412.0303338665528
 21
198.7681940928373
  0
LINE
  8
0
  6
CONTINUOUS
 62
     7
 10
419.8000000000001
 20
116.9999875
 11
412.5449211275956
 21
199.9259184722409
  0
LINE
  8
0
  6
CONTINUOUS
 62
     7
 10
419.6002372633663
 20
118.5840732292155
 11
419.6758118768067
 21
117.7698636053507
  0
LINE
  8
0
  6
CONTINUOUS
 62
     7
 10
310.2000000000001
 20
116.9999875000001
 11
317.4550788724044
 21
199.9259184722409
  0
LINE
  8
0
  6
CONTINUOUS
 62
     9
 10
317.9696661334472
 20
198.7681940928375
 11
318.0017324719584
 21
199.5064564122274
  0
LINE
  8
0
  6
CONTINUOUS
 62
     9
 10
316.7152585122096
 20
180.294948896068
 11
317.9696661334472
 21
198.7681940928375
  0
ARC
  8
0
  6
CONTINUOUS
 62
     9
 10
365.0
 20
207.7397057263465
 40
6.252284904761019
 50
177.6140949743945
 51
2.385905025605553
  0
LINE
  8
0
  6
CONTINUOUS
 62
     9
 10
358.856902308648
 20
210.7382311412238
 11
358.7531351920659
 21
207.9999875
  0
LINE
  8
0
  6
CONTINUOUS
 62
     9
 10
371.2468648079342
 20
207.9999875
 11
371.1430976913521
 21
210.7382311412238
  0
LINE
  8
0
  6
CONTINUOUS
 62
     9
 10
371.143097691352
 20
210.7382311412238
 11
371.0393512633812
 21
211.9283334303965
  0
LINE
  8
0
  6
CONTINUOUS
 62
     9
 10
358.9606487366187
 20
211.9283334303965
 11
358.856902308648
 21
210.7382311412238
  0
LINE
  8
0
  6
CONTINUOUS
 62
     7
 10
380.8531779450402
 20
211.5700003912155
 11
380.8119688056846
 21
210.8804233656914
  0
LINE
  8
0
  6
CONTINUOUS
 62
     7
 10
380.6472463703859
 20
212.151382646353
 11
380.8531779450402
 21
211.5700003912155
  0
LINE
  8
0
  6
CONTINUOUS
 62
     9
 10
380.647246370386
 20
212.151382646353
 11
410.690117686416
 21
201.2112704773121
  0
LINE
  8
0
  6
CONTINUOUS
 62
     7
 10
349.1468220549598
 20
211.5700003912154
 11
349.352753629614
 21
212.151382646353
  0
LINE
  8
0
  6
CONTINUOUS
 62
     7
 10
349.1880311943154
 20
210.8804233656916
 11
349.1468220549599
 21
211.5700003912154
  0
LINE
  8
0
  6
CONTINUOUS
 62
     9
 10
319.309882313584
 20
201.2112704773121
 11
349.352753629614
 21
212.151382646353
  0
POLYLINE
  8
0
  6
CONTINUOUS
 62
     9
 66
     1
  0
VERTEX
  8
0
  6
CONTINUOUS
 62
     9
 10
411.9982675280416
 20
199.5064564122273
  0
VERTEX
  8
0
  6
CONTINUOUS
 62
     9
 10
411.9299494113902
 20
199.8777336670894
  0
VERTEX
  8
0
  6
CONTINUOUS
 62
     9
 10
411.7930841716542
 20
200.2295716122005
  0
VERTEX
  8
0
  6
CONTINUOUS
 62
     9
 10
411.5925485503471
 20
200.5494336625494
  0
VERTEX
  8
0
  6
CONTINUOUS
 62
     9
 10
411.3354879730811
 20
200.8259225886966
  0
VERTEX
  8
0
  6
CONTINUOUS
 62
     9
 10
411.0310619458861
 20
201.0491866194634
  0
VERTEX
  8
0
  6
CONTINUOUS
 62
     9
 10
410.690117686416
 20
201.2112704773121
  0
SEQEND
  8
0
  6
CONTINUOUS
 62
     9
  0
POLYLINE
  8
0
  6
CONTINUOUS
 62
     9
 66
     1
  0
VERTEX
  8
0
  6
CONTINUOUS
 62
     9
 10
319.309882313584
 20
201.2112704773121
  0
VERTEX
  8
0
  6
CONTINUOUS
 62
     9
 10
318.9689380541138
 20
201.0491866194634
  0
VERTEX
  8
0
  6
CONTINUOUS
 62
     9
 10
318.6645120269189
 20
200.8259225886966
  0
VERTEX
  8
0
  6
CONTINUOUS
 62
     9
 10
318.4074514496527
 20
200.5494336625494
  0
VERTEX
  8
0
  6
CONTINUOUS
 62
     9
 10
318.2069158283458
 20
200.2295716122005
  0
VERTEX
  8
0
  6
CONTINUOUS
 62
     9
 10
318.0700505886097
 20
199.8777336670894
  0
VERTEX
  8
0
  6
CONTINUOUS
 62
     9
 10
318.0017324719584
 20
199.5064564122273
  0
SEQEND
  8
0
  6
CONTINUOUS
 62
     9
  0
LINE
  8
0
  6
CONTINUOUS
 62
     7
 10
349.352753629614
 20
212.151382646353
 11
349.4381397568455
 21
212.1870645015422
  0
ARC
  8
0
  6
CONTINUOUS
 62
     7
 10
350.8062284477082
 20
208.4276387620538
 40
4.000618521778098
 50
90.00310040910556
 51
109.9968995908949
  0
LINE
  8
0
  6
CONTINUOUS
 62
     7
 10
350.8060119648504
 20
212.4282572779748
 11
350.7206258376189
 21
212.2498480020286
  0
LINE
  8
0
  6
CONTINUOUS
 62
     7
 10
350.7206258376189
 20
212.2498480020286
 11
350.3704765590816
 21
211.1059214011162
  0
LINE
  8
0
  6
CONTINUOUS
 62
     7
 10
380.4795997651074
 20
212.2159886094145
 11
380.38450392088
 21
212.2469456704388
  0
LINE
  8
0
  6
CONTINUOUS
 62
     7
 10
380.38450392088
 20
212.2469456704388
 11
379.1939880351496
 21
212.4282572779747
  0
LINE
  8
0
  6
CONTINUOUS
 62
     7
 10
379.6295234409184
 20
211.1059214011162
 11
379.2793741623811
 21
212.2498480020286
  0
LINE
  8
0
  6
CONTINUOUS
 62
     7
 10
379.2793741623811
 20
212.2498480020286
 11
379.1939880351496
 21
212.4282572779748
  0
LINE
  8
0
  6
CONTINUOUS
 62
     7
 10
380.5618602431545
 20
212.1870645015422
 11
380.4795997651074
 21
212.2159886094145
  0
LINE
  8
0
  6
CONTINUOUS
 62
     7
 10
380.5618602431545
 20
212.1870645015422
 11
380.647246370386
 21
212.151382646353
  0
LINE
  8
0
  6
CONTINUOUS
 62
     9
 10
350.8060119648504
 20
212.4282572779748
 11
358.4609533231092
 21
212.4282572779748
  0
LINE
  8
0
  6
CONTINUOUS
 62
     9
 10
371.5390466768907
 20
212.4282572779748
 11
379.1939880351496
 21
212.4282572779748
  0
POLYLINE
  8
0
  6
CONTINUOUS
 62
     9
 66
     1
  0
VERTEX
  8
0
  6
CONTINUOUS
 62
     9
 10
358.9606487366187
 20
211.9283334303965
  0
VERTEX
  8
0
  6
CONTINUOUS
 62
     9
 10
358.9509952961059
 20
212.0258264222336
  0
VERTEX
  8
0
  6
CONTINUOUS
 62
     9
 10
358.9225243719938
 20
212.119575708682
  0
VERTEX
  8
0
  6
CONTINUOUS
 62
     9
 10
358.8763292403221
 20
212.2059813416611
  0
VERTEX
  8
0
  6
CONTINUOUS
 62
     9
 10
358.8141837820652
 20
212.2817253674626
  0
VERTEX
  8
0
  6
CONTINUOUS
 62
     9
 10
358.738474366567
 20
212.3438992353055
  0
VERTEX
  8
0
  6
CONTINUOUS
 62
     9
 10
358.6521082155819
 20
212.3901154849255
  0
VERTEX
  8
0
  6
CONTINUOUS
 62
     9
 10
358.5584017667197
 20
212.4185994244243
  0
VERTEX
  8
0
  6
CONTINUOUS
 62
     9
 10
358.4609533231092
 20
212.4282572779748
  0
SEQEND
  8
0
  6
CONTINUOUS
 62
     9
  0
POLYLINE
  8
0
  6
CONTINUOUS
 62
     9
 66
     1
  0
VERTEX
  8
0
  6
CONTINUOUS
 62
     9
 10
371.5390466768907
 20
212.4282572779748
  0
VERTEX
  8
0
  6
CONTINUOUS
 62
     9
 10
371.4415982332802
 20
212.4185994244243
  0
VERTEX
  8
0
  6
CONTINUOUS
 62
     9
 10
371.347891784418
 20
212.3901154849255
  0
VERTEX
  8
0
  6
CONTINUOUS
 62
     9
 10
371.2615256334328
 20
212.3438992353055
  0
VERTEX
  8
0
  6
CONTINUOUS
 62
     9
 10
371.1858162179346
 20
212.2817253674626
  0
VERTEX
  8
0
  6
CONTINUOUS
 62
     9
 10
371.1236707596778
 20
212.2059813416611
  0
VERTEX
  8
0
  6
CONTINUOUS
 62
     9
 10
371.0774756280061
 20
212.119575708682
  0
VERTEX
  8
0
  6
CONTINUOUS
 62
     9
 10
371.049004703894
 20
212.0258264222336
  0
VERTEX
  8
0
  6
CONTINUOUS
 62
     9
 10
371.0393512633811
 20
211.9283334303965
  0
SEQEND
  8
0
  6
CONTINUOUS
 62
     9
  0
POLYLINE
  8
0
  6
CONTINUOUS
 62
     7
 66
     1
  0
VERTEX
  8
0
  6
CONTINUOUS
 62
     7
 10
412.5449211275956
 20
199.9259184722409
  0
VERTEX
  8
0
  6
CONTINUOUS
 62
     7
 10
412.4766613987368
 20
200.2972405296321
  0
VERTEX
  8
0
  6
CONTINUOUS
 62
     7
 10
412.3398320451577
 20
200.6491060111598
  0
VERTEX
  8
0
  6
CONTINUOUS
 62
     7
 10
412.1393085296867
 20
200.9689773506435
  0
VERTEX
  8
0
  6
CONTINUOUS
 62
     7
 10
411.8822358465846
 20
201.245456987656
  0
VERTEX
  8
0
  6
CONTINUOUS
 62
     7
 10
411.5777739332327
 20
201.4686934820061
  0
VERTEX
  8
0
  6
CONTINUOUS
 62
     7
 10
411.23677128597
 20
201.6307325373257
  0
SEQEND
  8
0
  6
CONTINUOUS
 62
     7
  0
POLYLINE
  8
0
  6
CONTINUOUS
 62
     7
 66
     1
  0
VERTEX
  8
0
  6
CONTINUOUS
 62
     7
 10
318.76322871403
 20
201.6307325373257
  0
VERTEX
  8
0
  6
CONTINUOUS
 62
     7
 10
318.4222260667672
 20
201.4686934820061
  0
VERTEX
  8
0
  6
CONTINUOUS
 62
     7
 10
318.1177641534154
 20
201.245456987656
  0
VERTEX
  8
0
  6
CONTINUOUS
 62
     7
 10
317.8606914703132
 20
200.9689773506435
  0
VERTEX
  8
0
  6
CONTINUOUS
 62
     7
 10
317.6601679548423
 20
200.6491060111598
  0
VERTEX
  8
0
  6
CONTINUOUS
 62
     7
 10
317.5233386012631
 20
200.2972405296321
  0
VERTEX
  8
0
  6
CONTINUOUS
 62
     7
 10
317.4550788724043
 20
199.9259184722409
  0
SEQEND
  8
0
  6
CONTINUOUS
 62
     7
  0
LINE
  8
0
  6
CONTINUOUS
 62
     9
 10
380.6626717069839
 20
212.7587947235675
 11
380.5618602431544
 21
212.1870645015422
  0
LINE
  8
0
  6
CONTINUOUS
 62
     7
 10
411.2367712859699
 20
201.6307325373257
 11
380.6626717069839
 21
212.7587947235674
  0
LINE
  8
0
  6
CONTINUOUS
 62
     9
 10
349.4381397568455
 20
212.1870645015422
 11
349.337328293016
 21
212.7587947235675
  0
LINE
  8
0
  6
CONTINUOUS
 62
     7
 10
349.3373282930161
 20
212.7587947235675
 11
318.76322871403
 21
201.6307325373257
  0
LINE
  8
0
  6
CONTINUOUS
 62
     9
 10
379.1939880351495
 20
212.4282572779748
 11
379.294799498979
 21
212.9999875
  0
POLYLINE
  8
0
  6
CONTINUOUS
 62
     7
 66
     1
  0
VERTEX
  8
0
  6
CONTINUOUS
 62
     7
 10
380.6626717069839
 20
212.7587947235674
  0
VERTEX
  8
0
  6
CONTINUOUS
 62
     7
 10
379.9892864449826
 20
212.9392279102063
  0
VERTEX
  8
0
  6
CONTINUOUS
 62
     7
 10
379.294799498979
 20
212.9999874999999
  0
SEQEND
  8
0
  6
CONTINUOUS
 62
     7
  0
LINE
  8
0
  6
CONTINUOUS
 62
     9
 10
350.705200501021
 20
212.9999875
 11
350.8060119648504
 21
212.4282572779748
  0
POLYLINE
  8
0
  6
CONTINUOUS
 62
     7
 66
     1
  0
VERTEX
  8
0
  6
CONTINUOUS
 62
     7
 10
350.705200501021
 20
212.9999875
  0
VERTEX
  8
0
  6
CONTINUOUS
 62
     7
 10
350.0107135550174
 20
212.9392279102064
  0
VERTEX
  8
0
  6
CONTINUOUS
 62
     7
 10
349.3373282930161
 20
212.7587947235675
  0
SEQEND
  8
0
  6
CONTINUOUS
 62
     7
  0
LINE
  8
0
  6
CONTINUOUS
 62
     7
 10
350.705200501021
 20
212.9999875
 11
379.294799498979
 21
212.9999875
  0
LINE
  8
0
  6
CONTINUOUS
 62
     9
 10
321.6784066101351
 20
77.04377747876431
 11
321.6784066101351
 21
77.54370132634251
  0
LINE
  8
0
  6
CONTINUOUS
 62
     9
 10
408.3215933898649
 20
77.04377747876431
 11
408.3215933898649
 21
77.5437013263425
  0
LINE
  8
0
  6
CONTINUOUS
 62
     7
 10
320.7610165632268
 20
83.96445359406727
 11
321.2609404108061
 21
83.99998744559461
  0
LINE
  8
0
  6
CONTINUOUS
 62
     9
 10
321.6784066101351
 20
77.54370132634251
 11
320.7610165632267
 21
83.96445359406725
  0
LINE
  8
0
  6
CONTINUOUS
 62
     7
 10
408.7390595891938
 20
83.99998744559458
 11
409.2389834367731
 21
83.96445359406724
  0
LINE
  8
0
  6
CONTINUOUS
 62
     9
 10
409.2389834367731
 20
83.96445359406721
 11
408.3215933898649
 21
77.5437013263425
  0
POLYLINE
  8
0
  6
CONTINUOUS
 62
     9
 66
     1
  0
VERTEX
  8
0
  6
CONTINUOUS
 62
     9
 10
320.7610165632268
 20
96.62421563824763
  0
VERTEX
  8
0
  6
CONTINUOUS
 62
     9
 10
320.6926622990653
 20
97.4055148323532
  0
VERTEX
  8
0
  6
CONTINUOUS
 62
     9
 10
320.4896757704984
 20
98.16307087021704
  0
VERTEX
  8
0
  6
CONTINUOUS
 62
     9
 10
320.1582227026664
 20
98.8738729523495
  0
SEQEND
  8
0
  6
CONTINUOUS
 62
     9
  0
LINE
  8
0
  6
CONTINUOUS
 62
     9
 10
320.7610165632268
 20
83.96445359406725
 11
320.7610165632268
 21
96.62421563824763
  0
ARC
  8
0
  6
CONTINUOUS
 62
     9
 10
321.4236435955748
 20
118.2704477607153
 40
11.11073788188628
 50
182.582283176406
 51
194.784035391888
  0
LINE
  8
0
  6
CONTINUOUS
 62
     9
 10
320.1582227026664
 20
98.87387295234952
 11
310.7437138263425
 21
115.1802806544507
  0
LINE
  8
0
  6
CONTINUOUS
 62
     9
 10
310.6807319444791
 20
115.4352501420765
 11
310.7437138263425
 21
115.1802806544507
  0
LINE
  8
0
  6
CONTINUOUS
 62
     9
 10
409.2389834367731
 20
96.62421563824763
 11
409.2389834367731
 21
83.96445359406721
  0
POLYLINE
  8
0
  6
CONTINUOUS
 62
     9
 66
     1
  0
VERTEX
  8
0
  6
CONTINUOUS
 62
     9
 10
409.8417772973335
 20
98.8738729523495
  0
VERTEX
  8
0
  6
CONTINUOUS
 62
     9
 10
409.5103242295016
 20
98.16307087021704
  0
VERTEX
  8
0
  6
CONTINUOUS
 62
     9
 10
409.3073377009346
 20
97.4055148323532
  0
VERTEX
  8
0
  6
CONTINUOUS
 62
     9
 10
409.2389834367731
 20
96.62421563824763
  0
SEQEND
  8
0
  6
CONTINUOUS
 62
     9
  0
LINE
  8
0
  6
CONTINUOUS
 62
     9
 10
419.2562861736575
 20
115.1802806544507
 11
419.3192680555209
 21
115.4352501420765
  0
LINE
  8
0
  6
CONTINUOUS
 62
     9
 10
419.2562861736575
 20
115.1802806544507
 11
409.8417772973336
 21
98.8738729523495
  0
ARC
  8
0
  6
CONTINUOUS
 62
     9
 10
408.3191544350392
 20
118.3097278276084
 40
11.36948202989594
 50
345.355316142416
 51
357.27836528929
  0
LINE
  8
0
  6
CONTINUOUS
 62
     7
 10
316.4000000000001
 20
91.99998749999999
 11
317.6017849556983
 21
92.69383836768044
  0
ARC
  8
0
  6
CONTINUOUS
 62
     7
 10
315.2
 20
91.99998749999999
 40
2.500000000000002
 50
16.11345963736971
 51
73.88654036262778
  0
LINE
  8
0
  6
CONTINUOUS
 62
     7
 10
315.8938508676805
 20
94.40177245569835
 11
315.2
 21
93.19998750000008
  0
LINE
  8
0
  6
CONTINUOUS
 62
     7
 10
315.2
 20
93.19998750000008
 11
314.5061491323195
 21
94.40177245569839
  0
ARC
  8
0
  6
CONTINUOUS
 62
     7
 10
315.2
 20
91.99998749999999
 40
2.500000000000002
 50
106.1134596373688
 51
163.8865403626278
  0
LINE
  8
0
  6
CONTINUOUS
 62
     7
 10
312.7982150443016
 20
92.69383836768054
 11
313.9999999999999
 21
91.99998750000002
  0
LINE
  8
0
  6
CONTINUOUS
 62
     7
 10
313.9999999999999
 20
91.99998750000002
 11
312.7982150443016
 21
91.30613663231952
  0
ARC
  8
0
  6
CONTINUOUS
 62
     7
 10
315.2
 20
91.99998749999999
 40
2.500000000000002
 50
196.1134596373701
 51
253.8865403626289
  0
LINE
  8
0
  6
CONTINUOUS
 62
     7
 10
314.5061491323194
 20
89.59820254430161
 11
315.2
 21
90.79998749999993
  0
LINE
  8
0
  6
CONTINUOUS
 62
     7
 10
315.2
 20
90.79998749999993
 11
315.8938508676804
 21
89.59820254430161
  0
ARC
  8
0
  6
CONTINUOUS
 62
     7
 10
315.2
 20
91.99998749999999
 40
2.5
 50
286.1134596373709
 51
343.8865403626291
  0
LINE
  8
0
  6
CONTINUOUS
 62
     7
 10
317.6017849556983
 20
91.3061366323195
 11
316.4000000000001
 21
91.99998749999999
  0
LINE
  8
0
  6
CONTINUOUS
 62
     7
 10
416.0
 20
91.99998750000002
 11
417.2017849556984
 21
91.30613663231952
  0
LINE
  8
0
  6
CONTINUOUS
 62
     7
 10
417.2017849556984
 20
92.69383836768054
 11
416.0
 21
91.99998750000002
  0
ARC
  8
0
  6
CONTINUOUS
 62
     7
 10
414.8
 20
91.99998749999999
 40
2.500000000000002
 50
16.11345963737222
 51
73.88654036263125
  0
LINE
  8
0
  6
CONTINUOUS
 62
     7
 10
414.8
 20
93.19998750000008
 11
415.4938508676804
 21
94.40177245569839
  0
LINE
  8
0
  6
CONTINUOUS
 62
     7
 10
414.1061491323194
 20
94.40177245569835
 11
414.8
 21
93.19998750000008
  0
ARC
  8
0
  6
CONTINUOUS
 62
     7
 10
414.8
 20
91.99998749999999
 40
2.5
 50
106.1134596373723
 51
163.8865403626303
  0
LINE
  8
0
  6
CONTINUOUS
 62
     7
 10
413.5999999999999
 20
91.99998749999999
 11
412.3982150443016
 21
92.69383836768043
  0
LINE
  8
0
  6
CONTINUOUS
 62
     7
 10
412.3982150443016
 20
91.3061366323195
 11
413.5999999999999
 21
91.99998749999999
  0
ARC
  8
0
  6
CONTINUOUS
 62
     7
 10
414.8
 20
91.99998749999999
 40
2.5
 50
196.1134596373709
 51
253.8865403626291
  0
LINE
  8
0
  6
CONTINUOUS
 62
     7
 10
414.8
 20
90.79998749999993
 11
414.1061491323195
 21
89.59820254430161
  0
LINE
  8
0
  6
CONTINUOUS
 62
     7
 10
415.4938508676805
 20
89.59820254430161
 11
414.8
 21
90.79998749999993
  0
ARC
  8
0
  6
CONTINUOUS
 62
     7
 10
414.8
 20
91.99998749999999
 40
2.500000000000004
 50
286.1134596373711
 51
343.8865403626299
  0
ARC
  8
0
  6
CONTINUOUS
 62
     7
 10
365.0
 20
207.9999875
 40
2.499999999999993
 50
286.1134596373726
 51
343.8865403626293
  0
LINE
  8
0
  6
CONTINUOUS
 62
     7
 10
367.4017849556983
 20
208.6938383676806
 11
366.1999999999999
 21
207.9999875
  0
ARC
  8
0
  6
CONTINUOUS
 62
     7
 10
365.0
 20
207.9999875
 40
2.499999999999996
 50
16.11345963737296
 51
73.88654036262943
  0
LINE
  8
0
  6
CONTINUOUS
 62
     7
 10
364.9999999999999
 20
209.1999875
 11
365.6938508676805
 21
210.4017724556984
  0
LINE
  8
0
  6
CONTINUOUS
 62
     7
 10
364.3061491323194
 20
210.4017724556984
 11
364.9999999999999
 21
209.1999875
  0
ARC
  8
0
  6
CONTINUOUS
 62
     7
 10
365.0
 20
207.9999875
 40
2.499999999999995
 50
106.1134596373725
 51
163.8865403626294
  0
ARC
  8
0
  6
CONTINUOUS
 62
     7
 10
365.0
 20
207.9999875
 40
2.499999999999989
 50
196.1134596373724
 51
253.8865403626294
  0
LINE
  8
0
  6
CONTINUOUS
 62
     7
 10
366.2
 20
207.9999875
 11
367.4017849556984
 21
207.3061366323195
  0
LINE
  8
0
  6
CONTINUOUS
 62
     7
 10
365.6938508676805
 20
205.5982025443017
 11
365.0
 21
206.7999875
  0
LINE
  8
0
  6
CONTINUOUS
 62
     7
 10
362.5982150443016
 20
207.3061366323194
 11
363.8
 21
207.9999874999999
  0
LINE
  8
0
  6
CONTINUOUS
 62
     7
 10
363.8
 20
207.9999874999999
 11
362.5982150443016
 21
208.6938383676805
  0
LINE
  8
0
  6
CONTINUOUS
 62
     7
 10
365.0000000000001
 20
206.7999875
 11
364.3061491323195
 21
205.5982025443016
  0
LINE
  8
0
  6
CONTINUOUS
 62
     7
 10
310.2
 20
87.70154961871643
 11
310.2000000000001
 21
116.9999875
  0
LINE
  8
0
  6
CONTINUOUS
 62
     7
 10
419.8000000000001
 20
116.9999875
 11
419.8
 21
87.70154961871644
  0
POLYLINE
  8
0
  6
CONTINUOUS
 62
     7
 66
     1
  0
VERTEX
  8
0
  6
CONTINUOUS
 62
     7
 10
317.6007761305802
 20
77.75042630433859
  0
VERTEX
  8
0
  6
CONTINUOUS
 62
     7
 10
317.848473776705
 20
77.49210475734141
  0
VERTEX
  8
0
  6
CONTINUOUS
 62
     7
 10
318.138239410736
 20
77.2820719265129
  0
VERTEX
  8
0
  6
CONTINUOUS
 62
     7
 10
318.460795398827
 20
77.12705258343141
  0
VERTEX
  8
0
  6
CONTINUOUS
 62
     7
 10
318.8058142348801
 20
77.03201009343532
  0
VERTEX
  8
0
  6
CONTINUOUS
 62
     7
 10
319.1622492037053
 20
76.9999875
  0
SEQEND
  8
0
  6
CONTINUOUS
 62
     7
  0
POLYLINE
  8
0
  6
CONTINUOUS
 62
     7
 66
     1
  0
VERTEX
  8
0
  6
CONTINUOUS
 62
     7
 10
410.8377507962946
 20
76.99998749999999
  0
VERTEX
  8
0
  6
CONTINUOUS
 62
     7
 10
411.1941857651199
 20
77.0320100934353
  0
VERTEX
  8
0
  6
CONTINUOUS
 62
     7
 10
411.5392046011729
 20
77.1270525834314
  0
VERTEX
  8
0
  6
CONTINUOUS
 62
     7
 10
411.861760589264
 20
77.28207192651288
  0
VERTEX
  8
0
  6
CONTINUOUS
 62
     7
 10
412.151526223295
 20
77.49210475734142
  0
VERTEX
  8
0
  6
CONTINUOUS
 62
     7
 10
412.3992238694198
 20
77.75042630433859
  0
SEQEND
  8
0
  6
CONTINUOUS
 62
     7
  0
POLYLINE
  8
0
  6
CONTINUOUS
 62
     7
 66
     1
  0
VERTEX
  8
0
  6
CONTINUOUS
 62
     7
 10
310.2
 20
87.70154961871643
  0
VERTEX
  8
0
  6
CONTINUOUS
 62
     7
 10
310.2503809347659
 20
87.25550524811227
  0
VERTEX
  8
0
  6
CONTINUOUS
 62
     7
 10
310.3989858870621
 20
86.83192958723166
  0
VERTEX
  8
0
  6
CONTINUOUS
 62
     7
 10
310.6383291407652
 20
86.45215952360753
  0
SEQEND
  8
0
  6
CONTINUOUS
 62
     7
  0
POLYLINE
  8
0
  6
CONTINUOUS
 62
     7
 66
     1
  0
VERTEX
  8
0
  6
CONTINUOUS
 62
     7
 10
419.3616708592348
 20
86.45215952360753
  0
VERTEX
  8
0
  6
CONTINUOUS
 62
     7
 10
419.6010141129379
 20
86.83192958723164
  0
VERTEX
  8
0
  6
CONTINUOUS
 62
     7
 10
419.749619065234
 20
87.25550524811224
  0
VERTEX
  8
0
  6
CONTINUOUS
 62
     7
 10
419.8
 20
87.70154961871637
  0
SEQEND
  8
0
  6
CONTINUOUS
 62
     7
  0
LINE
  8
0
  6
CONTINUOUS
 62
     7
 10
419.3616708592348
 20
86.45215952360758
 11
412.3992238694197
 21
77.75042630433859
  0
LINE
  8
0
  6
CONTINUOUS
 62
     7
 10
317.6007761305803
 20
77.75042630433857
 11
310.6383291407652
 21
86.45215952360758
  0
ENDBLK
  8
0
  0
ENDSEC
  0
SECTION
  2
ENTITIES
  0
LINE
  8
0
  6
CENTER
 62
     1
 10
365.0
 20
-39.67925095343504
 11
365.0
 21
29.62363815976873
  0
LINE
  8
0
  6
CENTER
 62
     1
 10
365.0
 20
73.99998749999999
 11
365.0
 21
215.9999875
  0
INSERT
  8
0
  6
CENTER
 62
     7
  2
D_FRAME_VIEW_2072
 10
0.0
 20
0.0
 30
0.0
  0
INSERT
  8
0
  6
CENTER
 62
     7
  2
D_FRAME_VIEW_2354
 10
0.0
 20
0.0
 30
0.0
  0
INSERT
  8
0
 62
     7
  2
D_FRAME_DRAWING_17
 10
0.0
 20
0.0
 30
0.0
  0
LINE
  8
0
  6
CENTER
 62
     1
 10
414.8
 20
87.49998749999999
 11
414.8
 21
96.49998749999999
  0
LINE
  8
0
  6
CENTER
 62
     1
 10
310.7
 20
91.99998749999999
 11
319.7
 21
91.99998749999999
  0
LINE
  8
0
  6
CENTER
 62
     1
 10
315.2
 20
87.49998749999999
 11
315.2
 21
96.49998749999999
  0
LINE
  8
0
  6
CENTER
 62
     1
 10
410.3
 20
91.99998749999999
 11
419.3
 21
91.99998749999999
  0
LINE
  8
0
  6
CENTER
 62
     1
 10
360.5
 20
207.9999875
 11
369.5
 21
207.9999875
  0
TEXT
  8
0
  6
CONTINUOUS
 62
     7
 10
498.846392397149
 20
-14.45754657996749
 40
8.0
  1
MIDW-80
  0
INSERT
  8
0
  6
CENTER
 62
     7
  2
D_FRAME_VIEW_1288
 10
0.0
 20
0.0
 30
0.0
  0
ENDSEC
  0
EOF
