  0
SECTION
  2
HEADER
  9
$ACADVER
  1
AC1014
  9
$ACADMAINTVER
 70
     9
  9
$DWGCODEPAGE
  3
ANSI_932
  9
$INSBASE
 10
0.0
 20
0.0
 30
0.0
  9
$EXTMIN
 10
72.39999999999999
 20
350.0272727272728
 30
0.0
  9
$EXTMAX
 10
197.1969273824082
 20
472.5
 30
0.0
  9
$LIMMIN
 10
0.0
 20
0.0
  9
$LIMMAX
 10
12.0
 20
9.0
  9
$ORTHOMODE
 70
     0
  9
$REGENMODE
 70
     1
  9
$FILLMODE
 70
     1
  9
$QTEXTMODE
 70
     0
  9
$MIRRTEXT
 70
     1
  9
$DRAGMODE
 70
     2
  9
$LTSCALE
 40
1.0
  9
$OSMODE
 70
    37
  9
$ATTMODE
 70
     1
  9
$TEXTSIZE
 40
0.2
  9
$TRACEWID
 40
0.05
  9
$TEXTSTYLE
  7
STANDARD
  9
$CLAYER
  8
0
  9
$CELTYPE
  6
BYLAYER
  9
$CECOLOR
 62
   256
  9
$CELTSCALE
 40
1.0
  9
$DELOBJ
 70
     1
  9
$DISPSILH
 70
     0
  9
$DIMSCALE
 40
1.0
  9
$DIMASZ
 40
3.0
  9
$DIMEXO
 40
0.0625
  9
$DIMDLI
 40
0.38
  9
$DIMRND
 40
0.0
  9
$DIMDLE
 40
0.0
  9
$DIMEXE
 40
1.5
  9
$DIMTP
 40
0.0
  9
$DIMTM
 40
0.0
  9
$DIMTXT
 40
3.0
  9
$DIMCEN
 40
0.09
  9
$DIMTSZ
 40
0.0
  9
$DIMTOL
 70
     0
  9
$DIMLIM
 70
     0
  9
$DIMTIH
 70
     1
  9
$DIMTOH
 70
     1
  9
$DIMSE1
 70
     0
  9
$DIMSE2
 70
     0
  9
$DIMTAD
 70
     1
  9
$DIMZIN
 70
     0
  9
$DIMBLK
  1

  9
$DIMASO
 70
     1
  9
$DIMSHO
 70
     1
  9
$DIMPOST
  1

  9
$DIMAPOST
  1

  9
$DIMALT
 70
     0
  9
$DIMALTD
 70
     2
  9
$DIMALTF
 40
25.4
  9
$DIMLFAC
 40
1.0
  9
$DIMTOFL
 70
     0
  9
$DIMTVP
 40
0.0
  9
$DIMTIX
 70
     0
  9
$DIMSOXD
 70
     0
  9
$DIMSAH
 70
     0
  9
$DIMBLK1
  1

  9
$DIMBLK2
  1

  9
$DIMSTYLE
  2
STANDARD
  9
$DIMCLRD
 70
     0
  9
$DIMCLRE
 70
     0
  9
$DIMCLRT
 70
     0
  9
$DIMTFAC
 40
1.0
  9
$DIMGAP
 40
1.5
  9
$DIMJUST
 70
     0
  9
$DIMSD1
 70
     0
  9
$DIMSD2
 70
     0
  9
$DIMTOLJ
 70
     1
  9
$DIMTZIN
 70
     0
  9
$DIMALTZ
 70
     0
  9
$DIMALTTZ
 70
     0
  9
$DIMFIT
 70
     3
  9
$DIMUPT
 70
     0
  9
$DIMUNIT
 70
     2
  9
$DIMDEC
 70
     2
  9
$DIMTDEC
 70
     4
  9
$DIMALTU
 70
     2
  9
$DIMALTTD
 70
     2
  9
$DIMTXSTY
  7
ＭＳ_ゴシック
  9
$DIMAUNIT
 70
     0
  9
$LUNITS
 70
     2
  9
$LUPREC
 70
     4
  9
$SKETCHINC
 40
0.1
  9
$FILLETRAD
 40
0.5
  9
$AUNITS
 70
     0
  9
$AUPREC
 70
     0
  9
$MENU
  1
.
  9
$ELEVATION
 40
0.0
  9
$PELEVATION
 40
0.0
  9
$THICKNESS
 40
0.0
  9
$LIMCHECK
 70
     0
  9
$CHAMFERA
 40
0.0
  9
$CHAMFERB
 40
0.0
  9
$CHAMFERC
 40
0.0
  9
$CHAMFERD
 40
0.0
  9
$SKPOLY
 70
     0
  9
$TDCREATE
 40
2459535.642178634
  9
$TDUPDATE
 40
2459535.64217882
  9
$TDINDWG
 40
0.0000000116
  9
$TDUSRTIMER
 40
0.0000000116
  9
$USRTIMER
 70
     1
  9
$ANGBASE
 50
0.0
  9
$ANGDIR
 70
     0
  9
$PDMODE
 70
     0
  9
$PDSIZE
 40
0.0
  9
$PLINEWID
 40
0.0
  9
$COORDS
 70
     1
  9
$SPLFRAME
 70
     0
  9
$SPLINETYPE
 70
     6
  9
$SPLINESEGS
 70
     8
  9
$ATTDIA
 70
     0
  9
$ATTREQ
 70
     1
  9
$HANDLING
 70
     1
  9
$HANDSEED
  5
111
  9
$SURFTAB1
 70
     6
  9
$SURFTAB2
 70
     6
  9
$SURFTYPE
 70
     6
  9
$SURFU
 70
     6
  9
$SURFV
 70
     6
  9
$UCSNAME
  2

  9
$UCSORG
 10
0.0
 20
0.0
 30
0.0
  9
$UCSXDIR
 10
1.0
 20
0.0
 30
0.0
  9
$UCSYDIR
 10
0.0
 20
1.0
 30
0.0
  9
$PUCSNAME
  2

  9
$PUCSORG
 10
0.0
 20
0.0
 30
0.0
  9
$PUCSXDIR
 10
1.0
 20
0.0
 30
0.0
  9
$PUCSYDIR
 10
0.0
 20
1.0
 30
0.0
  9
$USERI1
 70
     0
  9
$USERI2
 70
     0
  9
$USERI3
 70
     0
  9
$USERI4
 70
     0
  9
$USERI5
 70
     0
  9
$USERR1
 40
0.0
  9
$USERR2
 40
0.0
  9
$USERR3
 40
0.0
  9
$USERR4
 40
0.0
  9
$USERR5
 40
0.0
  9
$WORLDVIEW
 70
     1
  9
$SHADEDGE
 70
     3
  9
$SHADEDIF
 70
    70
  9
$TILEMODE
 70
     1
  9
$MAXACTVP
 70
    64
  9
$PINSBASE
 10
0.0
 20
0.0
 30
0.0
  9
$PLIMCHECK
 70
     0
  9
$PEXTMIN
 10
1.000000000000000E+20
 20
1.000000000000000E+20
 30
1.000000000000000E+20
  9
$PEXTMAX
 10
-1.000000000000000E+20
 20
-1.000000000000000E+20
 30
-1.000000000000000E+20
  9
$PLIMMIN
 10
0.0
 20
0.0
  9
$PLIMMAX
 10
12.0
 20
9.0
  9
$UNITMODE
 70
     0
  9
$VISRETAIN
 70
     1
  9
$PLINEGEN
 70
     0
  9
$PSLTSCALE
 70
     1
  9
$TREEDEPTH
 70
  3020
  9
$PICKSTYLE
 70
     1
  9
$CMLSTYLE
  2
STANDARD
  9
$CMLJUST
 70
     0
  9
$CMLSCALE
 40
1.0
  9
$PROXYGRAPHICS
 70
     1
  9
$MEASUREMENT
 70
     1
  0
ENDSEC
  0
SECTION
  2
CLASSES
  0
CLASS
  1
ACDBDICTIONARYWDFLT
  2
AcDbDictionaryWithDefault
  3
ObjectDBX Classes
 90
        0
280
     0
281
     0
  0
CLASS
  1
VISUALSTYLE
  2
AcDbVisualStyle
  3
ObjectDBX Classes
 90
     4095
280
     0
281
     0
  0
CLASS
  1
MATERIAL
  2
AcDbMaterial
  3
ObjectDBX Classes
 90
     1153
280
     0
281
     0
  0
CLASS
  1
SCALE
  2
AcDbScale
  3
ObjectDBX Classes
 90
     1153
280
     0
281
     0
  0
CLASS
  1
TABLESTYLE
  2
AcDbTableStyle
  3
ObjectDBX Classes
 90
     4095
280
     0
281
     0
  0
CLASS
  1
MLEADERSTYLE
  2
AcDbMLeaderStyle
  3
ACDB_MLEADERSTYLE_CLASS
 90
     4095
280
     0
281
     0
  0
CLASS
  1
SUN
  2
AcDbSun
  3
SCENEOE
 90
     1153
280
     0
281
     0
  0
CLASS
  1
DICTIONARYVAR
  2
AcDbDictionaryVar
  3
ObjectDBX Classes
 90
        0
280
     0
281
     0
  0
CLASS
  1
XRECORD
  2
AcDbXrecord
  3
ObjectDBX Classes
 90
        0
280
     0
281
     0
  0
CLASS
  1
LWPOLYLINE
  2
AcDbPolyline
  3
ObjectDBX Classes
 90
        0
280
     0
281
     1
  0
CLASS
  1
HATCH
  2
AcDbHatch
  3
ObjectDBX Classes
 90
        0
280
     0
281
     1
  0
CLASS
  1
ACDBPLACEHOLDER
  2
AcDbPlaceHolder
  3
ObjectDBX Classes
 90
        0
280
     0
281
     0
  0
CLASS
  1
LAYOUT
  2
AcDbLayout
  3
ObjectDBX Classes
 90
        0
280
     0
281
     0
  0
ENDSEC
  0
SECTION
  2
TABLES
  0
TABLE
  2
VPORT
  5
8
102
{ACAD_XDICTIONARY
360
106
102
}
330
0
100
AcDbSymbolTable
 70
     1
  0
VPORT
  5
29
330
8
100
AcDbSymbolTableRecord
100
AcDbViewportTableRecord
  2
*ACTIVE
 70
     0
 10
0.0
 20
0.0
 11
1.0
 21
1.0
 12
134.7984636912041
 22
411.2636363636364
 13
0.0
 23
0.0
 14
0.5
 24
0.5
 15
0.5
 25
0.5
 16
0.0
 26
0.0
 36
1.0
 17
0.0
 27
0.0
 37
0.0
 40
122.4727272727272
 41
1.6
 42
50.0
 43
0.0
 44
0.0
 50
0.0
 51
0.0
 71
     0
 72
   100
 73
     1
 74
     3
 75
     0
 76
     0
 77
     0
 78
     0
  0
ENDTAB
  0
TABLE
  2
LTYPE
  5
5
330
0
100
AcDbSymbolTable
 70
     2
  0
LTYPE
  5
14
330
5
100
AcDbSymbolTableRecord
100
AcDbLinetypeTableRecord
  2
BYBLOCK
 70
     0
  3

 72
    65
 73
     0
 40
0.0
  0
LTYPE
  5
15
330
5
100
AcDbSymbolTableRecord
100
AcDbLinetypeTableRecord
  2
BYLAYER
 70
     0
  3

 72
    65
 73
     0
 40
0.0
  0
LTYPE
  5
16
330
5
100
AcDbSymbolTableRecord
100
AcDbLinetypeTableRecord
  2
CONTINUOUS
 70
     0
  3
Solid line
 72
    65
 73
     0
 40
0.0
  0
LTYPE
  5
7C
330
5
100
AcDbSymbolTableRecord
100
AcDbLinetypeTableRecord
  2
CENTER
 70
     0
  3

 72
    65
 73
     0
 40
0.0
  0
ENDTAB
  0
TABLE
  2
LAYER
  5
2
330
0
100
AcDbSymbolTable
 70
     1
  0
LAYER
  5
10
330
2
100
AcDbSymbolTableRecord
100
AcDbLayerTableRecord
  2
0
 70
     0
 62
     7
  6
CONTINUOUS
  0
ENDTAB
  0
TABLE
  2
STYLE
  5
3
330
0
100
AcDbSymbolTable
 70
     2
  0
STYLE
  5
11
330
3
100
AcDbSymbolTableRecord
100
AcDbTextStyleTableRecord
  2
STANDARD
 70
     0
 40
0.0
 41
1.0
 50
0.0
 71
     0
 42
0.2
  3
txt
  4

  0
STYLE
  5
6E
330
3
100
AcDbSymbolTableRecord
100
AcDbTextStyleTableRecord
  2
ＭＳ_ゴシック
 70
     0
 40
0.0
 41
1.0
 50
0.0
 71
     0
 42
0.2
  3
ＭＳ ゴシック.shx
  4

  0
ENDTAB
  0
TABLE
  2
VIEW
  5
6
330
0
100
AcDbSymbolTable
 70
     0
  0
ENDTAB
  0
TABLE
  2
UCS
  5
7
330
0
100
AcDbSymbolTable
 70
     0
  0
ENDTAB
  0
TABLE
  2
APPID
  5
9
330
0
100
AcDbSymbolTable
 70
     2
  0
APPID
  5
12
330
9
100
AcDbSymbolTableRecord
100
AcDbRegAppTableRecord
  2
ACAD
 70
     0
  0
APPID
  5
110
330
9
100
AcDbSymbolTableRecord
100
AcDbRegAppTableRecord
  2
ACAD_MLEADERVER
 70
     0
  0
ENDTAB
  0
TABLE
  2
DIMSTYLE
  5
A
330
0
100
AcDbSymbolTable
 70
     1
  0
DIMSTYLE
105
27
330
A
100
AcDbSymbolTableRecord
100
AcDbDimStyleTableRecord
  2
STANDARD
 70
     0
  3

  4

  5

  6

  7

 40
1.0
 41
0.18
 42
0.0625
 43
0.38
 44
0.18
 45
0.0
 46
0.0
 47
0.0
 48
0.0
140
0.18
141
0.09
142
0.0
143
25.4
144
1.0
145
0.0
146
1.0
147
0.09
 71
     0
 72
     0
 73
     1
 74
     1
 75
     0
 76
     0
 77
     0
 78
     0
170
     0
171
     2
172
     0
173
     0
174
     0
175
     0
176
     0
177
     0
178
     0
270
     2
271
     4
272
     4
273
     2
274
     2
340
11
275
     0
280
     0
281
     0
282
     0
283
     1
284
     0
285
     0
286
     0
287
     3
288
     0
  0
ENDTAB
  0
TABLE
  2
BLOCK_RECORD
  5
1
330
0
100
AcDbSymbolTable
 70
     0
  0
BLOCK_RECORD
  5
1F
330
1
100
AcDbSymbolTableRecord
100
AcDbBlockTableRecord
  2
*MODEL_SPACE
  0
BLOCK_RECORD
  5
1B
330
1
100
AcDbSymbolTableRecord
100
AcDbBlockTableRecord
  2
*PAPER_SPACE
  0
ENDTAB
  0
ENDSEC
  0
SECTION
  2
BLOCKS
  0
BLOCK
  5
20
330
1F
100
AcDbEntity
  8
0
100
AcDbBlockBegin
  2
*MODEL_SPACE
 70
     0
 10
0.0
 20
0.0
 30
0.0
  3
*MODEL_SPACE
  1

  0
ENDBLK
  5
21
330
1F
100
AcDbEntity
  8
0
100
AcDbBlockEnd
  0
BLOCK
  5
1C
330
1B
100
AcDbEntity
 67
     1
  8
0
100
AcDbBlockBegin
  2
*PAPER_SPACE
 70
     0
 10
0.0
 20
0.0
 30
0.0
  3
*PAPER_SPACE
  1

  0
ENDBLK
  5
1D
330
1B
100
AcDbEntity
 67
     1
  8
0
100
AcDbBlockEnd
  0
ENDSEC
  0
SECTION
  2
ENTITIES
  0
MTEXT
  5
6F
330
1F
100
AcDbEntity
  8
0
 62
     7
100
AcDbMText
 10
127.7045454545455
 20
352.6863636363637
 30
0.0
 40
3.0
 41
0.0
 71
     1
 72
     1
  1
{\fＭＳ ゴシック;MSB-4}
  0
LINE
  5
70
330
1F
100
AcDbEntity
  8
0
  6
CONTINUOUS
 62
     7
100
AcDbLine
 10
197.1969273824082
 20
359.9287560051515
 30
0.0
 11
197.1969273824082
 21
359.9251927545076
 31
0.0
  0
LINE
  5
71
330
1F
100
AcDbEntity
  8
0
  6
CONTINUOUS
 62
     7
100
AcDbLine
 10
197.1969273824082
 20
359.9251927545076
 30
0.0
 11
197.1969273824082
 21
359.9216295038636
 31
0.0
  0
LINE
  5
72
330
1F
100
AcDbEntity
  8
0
  6
CONTINUOUS
 62
     7
100
AcDbLine
 10
197.1969273824082
 20
359.9216295038636
 30
0.0
 11
197.1969273824082
 21
359.9180662532196
 31
0.0
  0
LINE
  5
73
330
1F
100
AcDbEntity
  8
0
  6
CONTINUOUS
 62
     7
100
AcDbLine
 10
197.1969273824082
 20
359.9180662532196
 30
0.0
 11
197.1969273824082
 21
359.9145030025758
 31
0.0
  0
LINE
  5
74
330
1F
100
AcDbEntity
  8
0
  6
CONTINUOUS
 62
     7
100
AcDbLine
 10
197.1969273824082
 20
359.9145030025758
 30
0.0
 11
197.1969273824082
 21
359.9109397519318
 31
0.0
  0
LINE
  5
75
330
1F
100
AcDbEntity
  8
0
  6
CONTINUOUS
 62
     7
100
AcDbLine
 10
197.1969273824082
 20
359.9109397519318
 30
0.0
 11
197.1969273824082
 21
359.9073765012878
 31
0.0
  0
LINE
  5
76
330
1F
100
AcDbEntity
  8
0
  6
CONTINUOUS
 62
     7
100
AcDbLine
 10
197.1969273824082
 20
359.9073765012878
 30
0.0
 11
197.1969273824082
 21
359.9038132506439
 31
0.0
  0
LINE
  5
77
330
1F
100
AcDbEntity
  8
0
  6
CONTINUOUS
 62
     7
100
AcDbLine
 10
197.1969273824082
 20
359.9038132506439
 30
0.0
 11
197.1969273824082
 21
359.90025
 31
0.0
  0
LINE
  5
78
330
1F
100
AcDbEntity
  8
0
  6
CONTINUOUS
 62
     7
100
AcDbLine
 10
74.05585195386084
 20
366.30025
 30
0.0
 11
76.74368824509936
 21
373.3023029299926
 31
0.0
  0
LINE
  5
79
330
1F
100
AcDbEntity
  8
0
  6
CONTINUOUS
 62
     7
100
AcDbLine
 10
106.0
 20
359.90025
 30
0.0
 11
105.9746920834068
 21
362.80025
 31
0.0
  0
LINE
  5
7A
330
1F
100
AcDbEntity
  8
0
  6
CONTINUOUS
 62
     7
100
AcDbLine
 10
73.99999999999999
 20
359.90025
 30
0.0
 11
74.02530791659319
 21
362.80025
 31
0.0
  0
LINE
  5
7B
330
1F
100
AcDbEntity
  8
0
  6
CENTER
 62
     1
100
AcDbLine
 10
90.0
 20
472.5
 30
0.0
 11
90.0
 21
407.4999999999999
 31
0.0
  0
LINE
  5
7D
330
1F
100
AcDbEntity
  8
0
  6
CENTER
 62
     1
100
AcDbLine
 10
90.0
 20
385.0
 30
0.0
 11
90.0
 21
355.0
 31
0.0
  0
LINE
  5
7E
330
1F
100
AcDbEntity
  8
0
  6
CONTINUOUS
 62
     7
100
AcDbLine
 10
105.9441480461391
 20
366.30025
 30
0.0
 11
103.2563117549006
 21
373.3023029299926
 31
0.0
  0
LINE
  5
7F
330
1F
100
AcDbEntity
  8
0
  6
CONTINUOUS
 62
     7
100
AcDbLine
 10
107.6
 20
359.90025
 30
0.0
 11
107.1002093252925
 21
359.90025
 31
0.0
  0
LINE
  5
80
330
1F
100
AcDbEntity
  8
0
  6
CONTINUOUS
 62
     7
100
AcDbLine
 10
72.45585195386086
 20
366.30025
 30
0.0
 11
72.45593762410789
 21
366.3004731786237
 31
0.0
  0
LINE
  5
81
330
1F
100
AcDbEntity
  8
0
  6
CONTINUOUS
 62
     7
100
AcDbLine
 10
72.89979067470745
 20
359.90025
 30
0.0
 11
72.39999999999999
 21
359.90025
 31
0.0
  0
ARC
  5
82
330
1F
100
AcDbEntity
  8
0
  6
CONTINUOUS
 62
     7
100
AcDbCircle
 10
100.9318695584986
 20
372.410660255693
 30
0.0
 40
2.489589962834499
100
AcDbArc
 50
20.98652670111257
 51
89.9759936156046
  0
LINE
  5
83
330
1F
100
AcDbEntity
  8
0
  6
CONTINUOUS
 62
     7
100
AcDbLine
 10
79.06708732711502
 20
374.90025
 30
0.0
 11
100.932912672885
 21
374.90025
 31
0.0
  0
ARC
  5
84
330
1F
100
AcDbEntity
  8
0
  6
CONTINUOUS
 62
     7
100
AcDbCircle
 10
79.06777913070928
 20
372.4111710580763
 30
0.0
 40
2.489079038062101
100
AcDbArc
 50
90.01592453518244
 51
159.0215551481003
  0
LINE
  5
85
330
1F
100
AcDbEntity
  8
0
  6
CONTINUOUS
 62
     7
100
AcDbLine
 10
72.89979067470745
 20
359.90025
 30
0.0
 11
73.99999999999997
 21
359.90025
 31
0.0
  0
LINE
  5
86
330
1F
100
AcDbEntity
  8
0
  6
CONTINUOUS
 62
     7
100
AcDbLine
 10
107.1002093252925
 20
359.90025
 30
0.0
 11
106.0
 21
359.90025
 31
0.0
  0
LINE
  5
87
330
1F
100
AcDbEntity
  8
0
  6
CONTINUOUS
 62
     7
100
AcDbLine
 10
105.9746920834068
 20
362.80025
 30
0.0
 11
105.25
 21
362.80025
 31
0.0
  0
LWPOLYLINE
  5
88
330
1F
100
AcDbEntity
  8
0
  6
CONTINUOUS
 62
     7
100
AcDbPolyline
 90
       33
 70
     0
 43
0.0
 10
-105.25
 20
362.80025
 10
-105.2131992442544
 20
362.8011534078461
 10
-105.1764871447528
 20
362.8038614549958
 10
-105.1399521441585
 20
362.8083676175264
 10
-105.1036822584879
 20
362.8146610396976
 10
-105.0677648650725
 20
362.8227265601041
 10
-105.0322864920592
 20
362.8325447482008
 10
-104.9973326099558
 20
362.8440919511127
 10
-104.9629874257262
 20
362.8573403506165
 10
-104.9293336799273
 20
362.8722580301574
 10
-104.8964524473805
 20
362.8888090517387
 10
-104.8644229418551
 20
362.9069535424998
 10
-104.8333223252353
 20
362.9266477907731
 10
-104.8032255216307
 20
362.9478443513895
 10
-104.7742050368773
 20
362.9704921599779
 10
-104.7463307838647
 20
362.9945366559837
 10
-104.7196699141101
 20
363.0199199141101
 10
-104.6942866559838
 20
363.0465807838647
 10
-104.6702421599779
 20
363.0744550368772
 10
-104.6475943513895
 20
363.1034755216306
 10
-104.6263977907731
 20
363.1335723252353
 10
-104.6067035424998
 20
363.164672941855
 10
-104.5885590517387
 20
363.1967024473805
 10
-104.5720080301574
 20
363.2295836799273
 10
-104.5570903506165
 20
363.2632374257262
 10
-104.5438419511127
 20
363.2975826099558
 10
-104.5322947482008
 20
363.3325364920591
 10
-104.5224765601041
 20
363.3680148650725
 10
-104.5144110396976
 20
363.4039322584879
 10
-104.5081176175264
 20
363.4402021441584
 10
-104.5036114549958
 20
363.4767371447528
 10
-104.5009034078461
 20
363.5134492442544
 10
-104.5
 20
363.5502499999999
210
0.0
220
0.0
230
-1.0
  0
LWPOLYLINE
  5
89
330
1F
100
AcDbEntity
  8
0
  6
CONTINUOUS
 62
     7
100
AcDbPolyline
 90
       33
 70
     0
 43
0.0
 10
-75.49999999999999
 20
363.5502499999999
 10
-75.49909659215386
 20
363.5134492442544
 10
-75.49638854500414
 20
363.4767371447528
 10
-75.49188238247358
 20
363.4402021441584
 10
-75.48558896030241
 20
363.4039322584879
 10
-75.4775234398959
 20
363.3680148650725
 10
-75.46770525179915
 20
363.3325364920591
 10
-75.45615804888725
 20
363.2975826099558
 10
-75.44290964938345
 20
363.2632374257262
 10
-75.42799196984257
 20
363.2295836799273
 10
-75.41144094826126
 20
363.1967024473805
 10
-75.39329645750018
 20
363.164672941855
 10
-75.3736022092269
 20
363.1335723252353
 10
-75.35240564861047
 20
363.1034755216306
 10
-75.32975784002205
 20
363.0744550368772
 10
-75.30571334401621
 20
363.0465807838647
 10
-75.2803300858899
 20
363.0199199141101
 10
-75.25366921613525
 20
362.9945366559837
 10
-75.22579496312272
 20
362.9704921599779
 10
-75.1967744783693
 20
362.9478443513895
 10
-75.16667767476468
 20
362.9266477907731
 10
-75.1355770581449
 20
362.9069535424998
 10
-75.10354755261949
 20
362.8888090517387
 10
-75.0706663200727
 20
362.8722580301574
 10
-75.0370125742738
 20
362.8573403506165
 10
-75.00266739004415
 20
362.8440919511127
 10
-74.96771350794083
 20
362.8325447482008
 10
-74.93223513492744
 20
362.8227265601041
 10
-74.89631774151209
 20
362.8146610396976
 10
-74.8600478558415
 20
362.8083676175264
 10
-74.82351285524716
 20
362.8038614549958
 10
-74.78680075574555
 20
362.8011534078461
 10
-74.74999999999999
 20
362.80025
210
0.0
220
0.0
230
-1.0
  0
LINE
  5
8A
330
1F
100
AcDbEntity
  8
0
  6
CONTINUOUS
 62
     7
100
AcDbLine
 10
74.74999999999999
 20
362.80025
 30
0.0
 11
74.02530791659319
 21
362.80025
 31
0.0
  0
LINE
  5
8B
330
1F
100
AcDbEntity
  8
0
  6
CONTINUOUS
 62
     7
100
AcDbLine
 10
75.49982877991393
 20
363.799208772324
 30
0.0
 11
75.49999999999999
 21
363.7989122104357
 31
0.0
  0
LINE
  5
8C
330
1F
100
AcDbEntity
  8
0
  6
CONTINUOUS
 62
     7
100
AcDbLine
 10
75.5
 20
363.7989122104356
 30
0.0
 11
75.5
 21
363.5502499999999
 31
0.0
  0
LINE
  5
8D
330
1F
100
AcDbEntity
  8
0
  6
CONTINUOUS
 62
     7
100
AcDbLine
 10
104.5
 20
363.5502499999999
 30
0.0
 11
104.5
 21
363.7989122104356
 31
0.0
  0
LINE
  5
8E
330
1F
100
AcDbEntity
  8
0
  6
CONTINUOUS
 62
     7
100
AcDbLine
 10
104.5
 20
363.7989122104357
 30
0.0
 11
104.5001712200861
 21
363.799208772324
 31
0.0
  0
LINE
  5
8F
330
1F
100
AcDbEntity
  8
0
  6
CONTINUOUS
 62
     7
100
AcDbLine
 10
74.05585195386084
 20
366.30025
 30
0.0
 11
75.49982877991393
 21
363.799208772324
 31
0.0
  0
LINE
  5
90
330
1F
100
AcDbEntity
  8
0
  6
CONTINUOUS
 62
     7
100
AcDbLine
 10
104.5001712200861
 20
363.799208772324
 30
0.0
 11
105.9441480461391
 21
366.30025
 31
0.0
  0
LINE
  5
91
330
1F
100
AcDbEntity
  8
0
  6
CONTINUOUS
 62
     7
100
AcDbLine
 10
72.4559376241079
 20
366.3004731786237
 30
0.0
 11
75.39777868051091
 21
373.9642311447265
 31
0.0
  0
LINE
  5
92
330
1F
100
AcDbEntity
  8
0
  6
CONTINUOUS
 62
     7
100
AcDbLine
 10
104.6022213194891
 20
373.9642311447265
 30
0.0
 11
107.5440623758921
 21
366.3004731786237
 31
0.0
  0
LINE
  5
93
330
1F
100
AcDbEntity
  8
0
  6
CONTINUOUS
 62
     7
100
AcDbLine
 10
79.08145350818826
 20
376.50025
 30
0.0
 11
100.9185464918117
 21
376.50025
 31
0.0
  0
ARC
  5
94
330
1F
100
AcDbEntity
  8
0
  6
CONTINUOUS
 62
     7
100
AcDbCircle
 10
77.40218669909416
 20
375.0002495184381
 30
0.0
 40
1.500000481698161
100
AcDbArc
 50
90.05213270682309
 51
159.0272069922625
  0
LINE
  5
95
330
1F
100
AcDbEntity
  8
0
  6
CONTINUOUS
 62
     7
100
AcDbLine
 10
77.40218654912451
 20
376.50025
 30
0.0
 11
79.08145350818826
 21
376.50025
 31
0.0
  0
LINE
  5
96
330
1F
100
AcDbEntity
  8
0
  6
CONTINUOUS
 62
     7
100
AcDbLine
 10
75.3977786805109
 20
373.9642311447265
 30
0.0
 11
76.00181590937869
 21
375.5378019243179
 31
0.0
  0
ARC
  5
97
330
1F
100
AcDbEntity
  8
0
  6
CONTINUOUS
 62
     7
100
AcDbCircle
 10
102.5978133009058
 20
375.0002495184381
 30
0.0
 40
1.500000481698161
100
AcDbArc
 50
20.97279300773749
 51
89.9478672931769
  0
LINE
  5
98
330
1F
100
AcDbEntity
  8
0
  6
CONTINUOUS
 62
     7
100
AcDbLine
 10
102.5978134508755
 20
376.50025
 30
0.0
 11
100.9185464918117
 21
376.50025
 31
0.0
  0
LINE
  5
99
330
1F
100
AcDbEntity
  8
0
  6
CONTINUOUS
 62
     7
100
AcDbLine
 10
104.6022213194891
 20
373.9642311447265
 30
0.0
 11
103.9981840906213
 21
375.5378019243179
 31
0.0
  0
LINE
  5
9A
330
1F
100
AcDbEntity
  8
0
  6
CONTINUOUS
 62
     7
100
AcDbLine
 10
75.34054261924116
 20
377.4606254216512
 30
0.0
 11
72.4
 21
369.8002499999999
 31
0.0
  0
LINE
  5
9B
330
1F
100
AcDbEntity
  8
0
  6
CONTINUOUS
 62
     7
100
AcDbLine
 10
104.6594573807588
 20
377.4606254216512
 30
0.0
 11
107.6
 21
369.8002499999999
 31
0.0
  0
LINE
  5
9C
330
1F
100
AcDbEntity
  8
0
  6
CONTINUOUS
 62
     7
100
AcDbLine
 10
90.0
 20
380.00025
 30
0.0
 11
100.9308718780452
 21
380.00025
 31
0.0
  0
LINE
  5
9D
330
1F
100
AcDbEntity
  8
0
  6
CONTINUOUS
 62
     7
100
AcDbLine
 10
90.0
 20
380.00025
 30
0.0
 11
79.06912812195475
 21
380.00025
 31
0.0
  0
ARC
  5
9E
330
1F
100
AcDbEntity
  8
0
  6
CONTINUOUS
 62
     7
100
AcDbCircle
 10
100.9235540336115
 20
375.9826063212242
 30
0.0
 40
4.0176503432297
100
AcDbArc
 50
21.58502103667112
 51
89.89564003902724
  0
ARC
  5
9F
330
1F
100
AcDbEntity
  8
0
  6
CONTINUOUS
 62
     7
100
AcDbCircle
 10
79.0764459663885
 20
375.9826063212242
 30
0.0
 40
4.0176503432297
100
AcDbArc
 50
90.10435996097272
 51
158.4149789633288
  0
LINE
  5
A0
330
1F
100
AcDbEntity
  8
0
  6
CONTINUOUS
 62
     7
100
AcDbLine
 10
72.39999999999999
 20
369.80025
 30
0.0
 11
72.39999999999999
 21
367.0582700572718
 31
0.0
  0
LINE
  5
A1
330
1F
100
AcDbEntity
  8
0
  6
CONTINUOUS
 62
     7
100
AcDbLine
 10
107.6
 20
369.80025
 30
0.0
 11
107.6
 21
367.0582700572718
 31
0.0
  0
LINE
  5
A2
330
1F
100
AcDbEntity
  8
0
  6
CONTINUOUS
 62
     7
100
AcDbLine
 10
107.6
 20
367.0582700572718
 30
0.0
 11
107.6
 21
359.9787760051515
 31
0.0
  0
LINE
  5
A3
330
1F
100
AcDbEntity
  8
0
  6
CONTINUOUS
 62
     7
100
AcDbLine
 10
72.39999999999999
 20
367.0582700572718
 30
0.0
 11
72.39999999999999
 21
359.9787760051515
 31
0.0
  0
LINE
  5
A4
330
1F
100
AcDbEntity
  8
0
  6
CONTINUOUS
 62
     7
100
AcDbLine
 10
90.0
 20
462.1969273824082
 30
0.0
 11
100.9308718780452
 21
462.1969273824082
 31
0.0
  0
LINE
  5
A5
330
1F
100
AcDbEntity
  8
0
  6
CONTINUOUS
 62
     7
100
AcDbLine
 10
90.0
 20
462.1969273824082
 30
0.0
 11
79.06912812195475
 21
462.1969273824082
 31
0.0
  0
LINE
  5
A6
330
1F
100
AcDbEntity
  8
0
  6
CONTINUOUS
 62
     7
100
AcDbLine
 10
75.34054261924116
 20
462.1969273824082
 30
0.0
 11
79.06912812195475
 21
462.1969273824082
 31
0.0
  0
LINE
  5
A7
330
1F
100
AcDbEntity
  8
0
  6
CONTINUOUS
 62
     7
100
AcDbLine
 10
104.6594573807588
 20
462.1969273824082
 30
0.0
 11
100.9308718780452
 21
462.1969273824082
 31
0.0
  0
LINE
  5
A8
330
1F
100
AcDbEntity
  8
0
  6
CONTINUOUS
 62
     7
100
AcDbLine
 10
75.34054261924116
 20
462.1969273824082
 30
0.0
 11
72.39999999999999
 21
462.1969273824082
 31
0.0
  0
LINE
  5
A9
330
1F
100
AcDbEntity
  8
0
  6
CONTINUOUS
 62
     7
100
AcDbLine
 10
104.6594573807588
 20
462.1969273824082
 30
0.0
 11
107.6
 21
462.1969273824082
 31
0.0
  0
LINE
  5
AA
330
1F
100
AcDbEntity
  8
0
  6
CONTINUOUS
 62
     7
100
AcDbLine
 10
106.1686812755391
 20
412.5016823367171
 30
0.0
 11
103.2563117549006
 21
412.8992992143029
 31
0.0
  0
LINE
  5
AB
330
1F
100
AcDbEntity
  8
0
  6
CONTINUOUS
 62
     7
100
AcDbLine
 10
103.2563117549006
 20
412.8992992143029
 30
0.0
 11
100.932912672885
 21
412.9830440716538
 31
0.0
  0
LINE
  5
AC
330
1F
100
AcDbEntity
  8
0
  6
CONTINUOUS
 62
     7
100
AcDbLine
 10
79.06708732711502
 20
412.9830440716538
 30
0.0
 11
100.932912672885
 21
412.9830440716538
 31
0.0
  0
LINE
  5
AD
330
1F
100
AcDbEntity
  8
0
  6
CONTINUOUS
 62
     7
100
AcDbLine
 10
76.74368824509936
 20
412.8992992143029
 30
0.0
 11
79.06708732711502
 21
412.9830440716538
 31
0.0
  0
LINE
  5
AE
330
1F
100
AcDbEntity
  8
0
  6
CONTINUOUS
 62
     7
100
AcDbLine
 10
73.83131872446087
 20
412.5016823367171
 30
0.0
 11
76.74368824509936
 21
412.8992992143029
 31
0.0
  0
LINE
  5
AF
330
1F
100
AcDbEntity
  8
0
  6
CONTINUOUS
 62
     7
100
AcDbLine
 10
73.99999999999999
 20
412.1969273824082
 30
0.0
 11
74.02989971497398
 21
412.3764852375922
 31
0.0
  0
LINE
  5
B0
330
1F
100
AcDbEntity
  8
0
  6
CONTINUOUS
 62
     7
100
AcDbLine
 10
72.89979067470745
 20
412.1969273824082
 30
0.0
 11
73.99999999999999
 21
412.1969273824082
 31
0.0
  0
LINE
  5
B1
330
1F
100
AcDbEntity
  8
0
  6
CONTINUOUS
 62
     7
100
AcDbLine
 10
107.1002093252925
 20
412.1969273824082
 30
0.0
 11
106.0
 21
412.1969273824082
 31
0.0
  0
LINE
  5
B2
330
1F
100
AcDbEntity
  8
0
  6
CONTINUOUS
 62
     7
100
AcDbLine
 10
106.0
 20
412.1969273824082
 30
0.0
 11
105.970100285026
 21
412.3764852375922
 31
0.0
  0
LINE
  5
B3
330
1F
100
AcDbEntity
  8
0
  6
CONTINUOUS
 62
     7
100
AcDbLine
 10
107.5440623758921
 20
413.0236444049137
 30
0.0
 11
107.5441480461391
 21
413.0327946736455
 31
0.0
  0
LINE
  5
B4
330
1F
100
AcDbEntity
  8
0
  6
CONTINUOUS
 62
     7
100
AcDbLine
 10
72.45585195386086
 20
413.0327946736455
 30
0.0
 11
72.4559376241079
 21
413.0236444049137
 31
0.0
  0
LWPOLYLINE
  5
B5
330
1F
100
AcDbEntity
  8
0
  6
CONTINUOUS
 62
     7
100
AcDbPolyline
 90
       33
 70
     0
 43
0.0
 10
72.4559376241079
 20
413.0236444049137
 10
72.45697847254525
 20
412.9994414548573
 10
72.45919072567956
 20
412.9753058045991
 10
72.4625691804923
 20
412.9512942189979
 10
72.46710589116434
 20
412.9274631711235
 10
72.47279018776399
 20
412.9038687094376
 10
72.47960870134159
 20
412.8805663259723
 10
72.4875453953721
 20
412.8576108258185
 10
72.49658160347151
 20
412.8350561982291
 10
72.50669607329857
 20
412.8129554896409
 10
72.5178650165383
 20
412.7913606789147
 10
72.53006216484994
 20
412.7703225550849
 10
72.54325883164778
 20
412.7498905979095
 10
72.55742397956928
 20
412.7301128614972
 10
72.57252429347227
 20
412.7110358612888
 10
72.58852425878902
 20
412.6927044646573
 10
72.60538624505335
 20
412.6751617853838
 10
72.62307059440411
 20
412.6584490822576
 10
72.6415357148567
 20
412.6426056620394
 10
72.66073817812386
 20
412.6276687870158
 10
72.68063282175491
 20
412.6136735873607
 10
72.70117285535375
 20
412.6006529785138
 10
72.72230997062573
 20
412.588637583765
 10
72.74399445499422
 20
412.5776556622323
 10
72.76617530852023
 20
412.5677330423983
 10
72.78880036384953
 20
412.5588930613642
 10
72.81181640890554
 20
412.5511565099632
 10
72.8351693120394
 20
412.5445415838617
 10
72.85880414934255
 20
412.5390638407657
 10
72.8826653338229
 20
412.5347361638296
 10
72.90669674614034
 20
412.5315687313569
 10
72.93084186659432
 20
412.5295689928613
 10
72.9550439080531
 20
412.5287416515461
  0
LINE
  5
B6
330
1F
100
AcDbEntity
  8
0
  6
CONTINUOUS
 62
     7
100
AcDbLine
 10
72.45585195386086
 20
427.1969273824082
 30
0.0
 11
72.39999999999999
 21
427.1969273824082
 31
0.0
  0
LINE
  5
B7
330
1F
100
AcDbEntity
  8
0
  6
CONTINUOUS
 62
     7
100
AcDbLine
 10
72.39999999999999
 20
462.1969273824082
 30
0.0
 11
72.39999999999999
 21
427.1969273824082
 31
0.0
  0
LINE
  5
B8
330
1F
100
AcDbEntity
  8
0
  6
CONTINUOUS
 62
     7
100
AcDbLine
 10
107.6
 20
462.1969273824082
 30
0.0
 11
107.6
 21
427.1969273824082
 31
0.0
  0
LWPOLYLINE
  5
B9
330
1F
100
AcDbEntity
  8
0
  6
CONTINUOUS
 62
     7
100
AcDbPolyline
 90
        9
 70
     0
 43
0.0
 10
107.1002093252925
 20
412.1969273824082
 10
107.19772580785
 20
412.2065423512356
 10
107.2914881877059
 20
412.2350179740005
 10
107.3778953174424
 20
412.281260582693
 10
107.4536285439644
 20
412.3434941297006
 10
107.5157791685641
 20
412.4193284007663
 10
107.5619601617992
 20
412.5058508163476
 10
107.5903978425325
 20
412.5997382955466
 10
107.6
 20
412.697384886234
  0
LWPOLYLINE
  5
BA
330
1F
100
AcDbEntity
  8
0
  6
CONTINUOUS
 62
     7
100
AcDbPolyline
 90
        9
 70
     0
 43
0.0
 10
72.4
 20
412.697384886234
 10
72.40960215746748
 20
412.5997382955466
 10
72.4380398382008
 20
412.5058508163476
 10
72.48422083143593
 20
412.4193284007663
 10
72.5463714560356
 20
412.3434941297006
 10
72.62210468255759
 20
412.281260582693
 10
72.70851181229413
 20
412.2350179740005
 10
72.80227419215
 20
412.2065423512356
 10
72.89979067470746
 20
412.1969273824082
  0
LWPOLYLINE
  5
BB
330
1F
100
AcDbEntity
  8
0
  6
CONTINUOUS
 62
     7
100
AcDbPolyline
 90
       29
 70
     0
 43
0.0
 10
-105.0
 20
412.3955977055855
 10
-104.9784031830259
 20
412.3963662070921
 10
-104.9568466778287
 20
412.3980652756283
 10
-104.9353707209408
 20
412.4006917397791
 10
-104.9140153985463
 20
412.4042406970887
 10
-104.8928205716578
 20
412.4087055232117
 10
-104.871825801713
 20
412.4140778842778
 10
-104.8510702767313
 20
412.4203477524472
 10
-104.8305927381667
 20
412.4275034246284
 10
-104.8104314085945
 20
412.4355315443223
 10
-104.7906239203669
 20
412.444417126554
 10
-104.7712072453693
 20
412.4541435858415
 10
-104.7522176260106
 20
412.4646927671554
 10
-104.7336905075741
 20
412.4760449798049
 10
-104.7156604720571
 20
412.4881790341922
 10
-104.6981611736212
 20
412.5010722813643
 10
-104.6812252757748
 20
412.5147006552886
 10
-104.6648843904047
 20
412.5290387177735
 10
-104.6491690187707
 20
412.5440597059503
 10
-104.6341084945731
 20
412.5597355822279
 10
-104.6197309291993
 20
412.5760370866266
 10
-104.6060631592526
 20
412.5929337913937
 10
-104.5931306964595
 20
412.6103941577986
 10
-104.5809576800512
 20
412.6283855950018
 10
-104.5695668317056
 20
412.6468745208877
 10
-104.5589794131363
 20
412.665826424748
 10
-104.5492151864062
 20
412.6852059316976
 10
-104.5402923770403
 20
412.704976868704
 10
-104.5322276400069
 20
412.7251023321068
210
0.0
220
0.0
230
-1.0
  0
LINE
  5
BC
330
1F
100
AcDbEntity
  8
0
  6
CONTINUOUS
 62
     7
100
AcDbLine
 10
107.6
 20
427.1969273824082
 30
0.0
 11
107.6
 21
412.697384886234
 31
0.0
  0
LINE
  5
BD
330
1F
100
AcDbEntity
  8
0
  6
CONTINUOUS
 62
     7
100
AcDbLine
 10
72.39999999999999
 20
427.1969273824082
 30
0.0
 11
72.39999999999999
 21
412.697384886234
 31
0.0
  0
LWPOLYLINE
  5
BE
330
1F
100
AcDbEntity
  8
0
  6
CONTINUOUS
 62
     7
100
AcDbPolyline
 90
       29
 70
     0
 43
0.0
 10
-75.46777235999312
 20
412.7251023321068
 10
-75.45970762295968
 20
412.704976868704
 10
-75.45078481359381
 20
412.6852059316976
 10
-75.44102058686369
 20
412.665826424748
 10
-75.43043316829441
 20
412.6468745208877
 10
-75.4190423199488
 20
412.6283855950018
 10
-75.40686930354049
 20
412.6103941577986
 10
-75.39393684074743
 20
412.5929337913938
 10
-75.38026907080065
 20
412.5760370866266
 10
-75.36589150542687
 20
412.5597355822279
 10
-75.35083098122925
 20
412.5440597059503
 10
-75.3351156095953
 20
412.5290387177735
 10
-75.31877472422524
 20
412.5147006552886
 10
-75.3018388263788
 20
412.5010722813643
 10
-75.28433952794286
 20
412.4881790341922
 10
-75.26630949242585
 20
412.4760449798049
 10
-75.24778237398941
 20
412.4646927671554
 10
-75.22879275463067
 20
412.4541435858415
 10
-75.2093760796331
 20
412.444417126554
 10
-75.18956859140548
 20
412.4355315443223
 10
-75.16940726183334
 20
412.4275034246284
 10
-75.14892972326871
 20
412.4203477524472
 10
-75.128174198287
 20
412.4140778842778
 10
-75.1071794283422
 20
412.4087055232117
 10
-75.08598460145366
 20
412.4042406970887
 10
-75.0646292790592
 20
412.4006917397791
 10
-75.04315332217129
 20
412.3980652756283
 10
-75.02159681697407
 20
412.3963662070921
 10
-74.99999999999999
 20
412.3955977055855
210
0.0
220
0.0
230
-1.0
  0
LWPOLYLINE
  5
BF
330
1F
100
AcDbEntity
  8
0
  6
CONTINUOUS
 62
     7
100
AcDbPolyline
 90
        7
 70
     0
 43
0.0
 10
104.5304742146706
 20
412.7172493642008
 10
104.5748511160293
 20
412.6261116314838
 10
104.6367411056253
 20
412.5457989772415
 10
104.7135947592695
 20
412.4796197074658
 10
104.802246257014
 20
412.4302999339608
 10
104.8990437922544
 20
412.3998712780663
 10
105.0
 20
412.389587182413
  0
LWPOLYLINE
  5
C0
330
1F
100
AcDbEntity
  8
0
  6
CONTINUOUS
 62
     7
100
AcDbPolyline
 90
        7
 70
     0
 43
0.0
 10
74.99999999999999
 20
412.389587182413
 10
75.10312026185309
 20
412.4003217874637
 10
75.20180662606873
 20
412.4320640430819
 10
75.29181584084283
 20
412.4834491165019
 10
75.36927774877313
 20
412.5522675859133
 10
75.43086169335821
 20
412.6355604397363
 10
75.47391972838952
 20
412.729746306268
  0
LWPOLYLINE
  5
C1
330
1F
100
AcDbEntity
  8
0
  6
CONTINUOUS
 62
     7
100
AcDbPolyline
 90
       45
 70
     0
 43
0.0
 10
75.00218317602541
 20
412.3896422561101
 10
75.01010833720719
 20
412.390134218305
 10
75.0196481398666
 20
412.3907713777712
 10
75.0283543157022
 20
412.391401519769
 10
75.0337734351589
 20
412.3918203566944
 10
75.03885286974227
 20
412.3922337152626
 10
75.04360771001421
 20
412.39264079988
 10
75.04821736507867
 20
412.3930773028977
 10
75.05337571591585
 20
412.3936953778193
 10
75.0591768935376
 20
412.3945206948962
 10
75.06563993475575
 20
412.3955674884343
 10
75.07010501212366
 20
412.3963573243728
 10
75.07484846346091
 20
412.3972500988554
 10
75.07987344168987
 20
412.3982522856918
 10
75.08518258341932
 20
412.399371065001
 10
75.09077797949563
 20
412.4006143124813
 10
75.09666114333923
 20
412.4019905873808
 10
75.10283297709901
 20
412.4035091190385
 10
75.11489811862043
 20
412.406695811017
 10
75.12792935752009
 20
412.4104607003937
 10
75.14191354156014
 20
412.4148769976883
 10
75.15642910954891
 20
412.4198805865582
 10
75.17179683620202
 20
412.4256563235585
 10
75.18797594470956
 20
412.4322874809931
 10
75.20491445419692
 20
412.4398611772648
 10
75.22254827717796
 20
412.4484675546431
 10
75.24080033568802
 20
412.458198831534
 10
75.25957971985491
 20
412.4691482190477
 10
75.2746035848936
 20
412.4786447806549
 10
75.28982963484805
 20
412.4889914195134
 10
75.30519454304373
 20
412.5002312566787
 10
75.32062891339251
 20
412.5124058671537
 10
75.33605719538564
 20
412.5255547536855
 10
75.35112498365335
 20
412.539452858214
 10
75.3660248438698
 20
412.5543582175309
 10
75.38066789388478
 20
412.5702991313584
 10
75.39495974268209
 20
412.587299694872
 10
75.40756378885459
 20
412.6036905852704
 10
75.41971677920398
 20
412.6209837311108
 10
75.43133705017114
 20
412.6391854820026
 10
75.44234004478332
 20
412.6582975671098
 10
75.45263865091461
 20
412.6783166544854
 10
75.46061839677527
 20
412.6956858764901
 10
75.46799442767565
 20
412.7136706793463
 10
75.47243067989858
 20
412.7256596155394
  0
LINE
  5
C2
330
1F
100
AcDbEntity
  8
0
  6
CONTINUOUS
 62
     7
100
AcDbLine
 10
105.25
 20
412.3758000049694
 30
0.0
 11
105.9702143889737
 21
412.3758000049694
 31
0.0
  0
LINE
  5
C3
330
1F
100
AcDbEntity
  8
0
  6
CONTINUOUS
 62
     7
100
AcDbLine
 10
74.02978561102633
 20
412.3758000049694
 30
0.0
 11
74.74999999999999
 21
412.3758000049694
 31
0.0
  0
LINE
  5
C4
330
1F
100
AcDbEntity
  8
0
  6
CONTINUOUS
 62
     7
100
AcDbLine
 10
197.1969273824082
 20
377.4606254216512
 30
0.0
 11
197.1969273824082
 21
369.80025
 31
0.0
  0
LINE
  5
C5
330
1F
100
AcDbEntity
  8
0
  6
CONTINUOUS
 62
     7
100
AcDbLine
 10
147.5287416515461
 20
366.2316434243581
 30
0.0
 11
147.9259701735027
 21
373.8112151480753
 31
0.0
  0
LINE
  5
C6
330
1F
100
AcDbEntity
  8
0
  6
CONTINUOUS
 62
     7
100
AcDbLine
 10
162.1969273824082
 20
366.30025
 30
0.0
 11
148.0327946736455
 21
366.30025
 31
0.0
  0
LINE
  5
C7
330
1F
100
AcDbEntity
  8
0
  6
CONTINUOUS
 62
     7
100
AcDbLine
 10
197.1969273824082
 20
369.80025
 30
0.0
 11
197.1969273824082
 21
367.0582700572718
 31
0.0
  0
LINE
  5
C8
330
1F
100
AcDbEntity
  8
0
  6
CONTINUOUS
 62
     7
100
AcDbLine
 10
148.0236444049138
 20
366.3004731786237
 30
0.0
 11
148.0327946736455
 21
366.30025
 31
0.0
  0
LINE
  5
C9
330
1F
100
AcDbEntity
  8
0
  6
CONTINUOUS
 62
     7
100
AcDbLine
 10
162.1969273824082
 20
359.90025
 30
0.0
 11
147.6973848862341
 21
359.90025
 31
0.0
  0
LINE
  5
CA
330
1F
100
AcDbEntity
  8
0
  6
CONTINUOUS
 62
     7
100
AcDbLine
 10
197.1969273824082
 20
359.90025
 30
0.0
 11
162.1969273824082
 21
359.90025
 31
0.0
  0
ARC
  5
CB
330
1F
100
AcDbEntity
  8
0
  6
CONTINUOUS
 62
     7
100
AcDbCircle
 10
148.5413788018642
 20
376.00025
 30
0.0
 40
0.5000000000000004
100
AcDbArc
 50
89.99999999999086
 51
172.4999999999908
  0
LINE
  5
CC
330
1F
100
AcDbEntity
  8
0
  6
CONTINUOUS
 62
     7
100
AcDbLine
 10
162.1969273824082
 20
376.50025
 30
0.0
 11
148.5413788018643
 21
376.50025
 31
0.0
  0
LINE
  5
CD
330
1F
100
AcDbEntity
  8
0
  6
CONTINUOUS
 62
     7
100
AcDbLine
 10
147.9259701735026
 20
373.8112151480753
 30
0.0
 11
148.0420640344869
 21
376.0264179781215
 31
0.0
  0
LINE
  5
CE
330
1F
100
AcDbEntity
  8
0
  6
CONTINUOUS
 62
     7
100
AcDbLine
 10
162.4734607615776
 20
376.5247033373683
 30
0.0
 11
162.4179330664143
 21
376.51971102259
 31
0.0
  0
LINE
  5
CF
330
1F
100
AcDbEntity
  8
0
  6
CONTINUOUS
 62
     7
100
AcDbLine
 10
162.4179330664143
 20
376.51971102259
 30
0.0
 11
162.1968367566137
 21
376.4997988715997
 31
0.0
  0
LINE
  5
D0
330
1F
100
AcDbEntity
  8
0
  6
CONTINUOUS
 62
     7
100
AcDbLine
 10
162.4180839117204
 20
376.519373483851
 30
0.0
 11
162.1982170565561
 21
376.4952783250917
 31
0.0
  0
LINE
  5
D1
330
1F
100
AcDbEntity
  8
0
  6
CONTINUOUS
 62
     7
100
AcDbLine
 10
171.8549121531298
 20
377.4660484770721
 30
0.0
 11
162.3469906307204
 21
376.5152563248312
 31
0.0
  0
LINE
  5
D2
330
1F
100
AcDbEntity
  8
0
  6
CONTINUOUS
 62
     7
100
AcDbLine
 10
185.1512667463119
 20
378.7956839363903
 30
0.0
 11
171.8549121531298
 21
377.4660484770721
 31
0.0
  0
LINE
  5
D3
330
1F
100
AcDbEntity
  8
0
  6
CONTINUOUS
 62
     7
100
AcDbLine
 10
147.1969273824082
 20
359.90025
 30
0.0
 11
147.5287416515461
 21
366.2316434243581
 31
0.0
  0
LINE
  5
D4
330
1F
100
AcDbEntity
  8
0
  6
CONTINUOUS
 62
     7
100
AcDbLine
 10
197.1969273824082
 20
367.0582700572718
 30
0.0
 11
162.1969273824082
 21
366.30025
 31
0.0
  0
LINE
  5
D5
330
1F
100
AcDbEntity
  8
0
  6
CONTINUOUS
 62
     7
100
AcDbLine
 10
162.3469906307204
 20
376.5152563248312
 30
0.0
 11
162.1969273824082
 21
376.50025
 31
0.0
  0
LINE
  5
D6
330
1F
100
AcDbEntity
  8
0
  6
CONTINUOUS
 62
     7
100
AcDbLine
 10
197.1969273824082
 20
380.00025
 30
0.0
 11
185.1512667463119
 21
378.7956839363903
 31
0.0
  0
LINE
  5
D7
330
1F
100
AcDbEntity
  8
0
  6
CONTINUOUS
 62
     7
100
AcDbLine
 10
197.1969273824082
 20
377.4606254216512
 30
0.0
 11
197.1969273824082
 21
380.00025
 31
0.0
  0
LINE
  5
D8
330
1F
100
AcDbEntity
  8
0
  6
CONTINUOUS
 62
     7
100
AcDbLine
 10
197.1969273824082
 20
367.0582700572718
 30
0.0
 11
197.1969273824082
 21
359.9287560051515
 31
0.0
  0
LINE
  5
D9
330
1F
100
AcDbEntity
  8
0
  6
CONTINUOUS
 62
     7
100
AcDbLine
 10
162.1969273824082
 20
376.50025
 30
0.0
 11
162.4428976166577
 21
376.5247362309102
 31
0.0
  0
ARC
  5
DA
330
1F
100
AcDbEntity
  8
0
  6
CONTINUOUS
 62
     7
100
AcDbCircle
 10
148.5413788018642
 20
376.00025
 30
0.0
 40
0.4999999999999977
100
AcDbArc
 50
172.4999999999908
 51
176.9999999999998
  0
LINE
  5
DB
330
1F
100
AcDbEntity
  8
0
  6
CONTINUOUS
 62
     7
100
AcDbLine
 10
147.6973848862341
 20
359.90025
 30
0.0
 11
147.1969273824082
 21
359.90025
 31
0.0
  0
LINE
  5
DC
330
1F
100
AcDbEntity
  8
0
  6
CONTINUOUS
 62
     7
100
AcDbLine
 10
162.4761182433362
 20
376.5249421759131
 30
0.0
 11
162.4180839117204
 21
376.519373483851
 31
0.0
  0
LINE
  5
DD
330
1F
100
AcDbEntity
  8
0
  6
CONTINUOUS
 62
     7
100
AcDbLine
 10
148.0236444049138
 20
366.3004731786237
 30
0.0
 11
147.5287416515461
 21
366.2316434243581
 31
0.0
  0
ENDSEC
  0
SECTION
  2
OBJECTS
  0
DICTIONARY
  5
C
330
0
100
AcDbDictionary
  3
ACAD_GROUP
350
D
  3
ACAD_LAYOUT
350
1A
  3
ACAD_MATERIAL
350
43
  3
ACAD_MLEADERSTYLE
350
6B
  3
ACAD_MLINESTYLE
350
17
  3
ACAD_PLOTSETTINGS
350
19
  3
ACAD_SCALELIST
350
47
  3
ACAD_VISUALSTYLE
350
2A
  3
ACDBHEADERROUNDTRIPXREC
350
DE
  3
ACDBVARIABLEDICTIONARY
350
FF
  0
DICTIONARY
  5
106
330
8
100
AcDbDictionary
280
     1
  3
ACAD_XREC_ROUNDTRIP
360
107
  0
DICTIONARY
  5
D
102
{ACAD_REACTORS
330
C
102
}
330
C
100
AcDbDictionary
  0
DICTIONARY
  5
1A
102
{ACAD_REACTORS
330
C
102
}
330
C
100
AcDbDictionary
  0
DICTIONARY
  5
43
102
{ACAD_REACTORS
330
C
102
}
330
C
100
AcDbDictionary
  3
BYBLOCK
350
45
  3
BYLAYER
350
44
  3
GLOBAL
350
46
  0
DICTIONARY
  5
6B
102
{ACAD_REACTORS
330
C
102
}
330
C
100
AcDbDictionary
  3
STANDARD
350
6C
  0
DICTIONARY
  5
17
102
{ACAD_REACTORS
330
C
102
}
330
C
100
AcDbDictionary
  3
STANDARD
350
18
  0
DICTIONARY
  5
19
102
{ACAD_REACTORS
330
C
102
}
330
C
100
AcDbDictionary
  0
DICTIONARY
  5
47
102
{ACAD_REACTORS
330
C
102
}
330
C
100
AcDbDictionary
  3
A0
350
48
  3
A1
350
49
  3
A2
350
4A
  3
A3
350
4B
  3
A4
350
4C
  3
A5
350
4D
  3
A6
350
4E
  3
A7
350
4F
  3
A8
350
50
  3
A9
350
51
  3
B0
350
52
  3
B1
350
53
  3
B2
350
54
  3
B3
350
55
  3
B4
350
56
  3
B5
350
57
  3
B6
350
58
  3
B7
350
59
  3
B8
350
5A
  3
B9
350
5B
  3
C0
350
5C
  3
C1
350
5D
  3
C2
350
5E
  3
C3
350
5F
  3
C4
350
60
  3
C5
350
61
  3
C6
350
62
  3
C7
350
63
  3
C8
350
64
  3
C9
350
65
  3
D0
350
66
  3
D1
350
67
  3
D2
350
68
  0
DICTIONARY
  5
2A
102
{ACAD_REACTORS
330
C
102
}
330
C
100
AcDbDictionary
  3
2DWIREFRAME
350
2F
  3
BASIC
350
32
  3
BRIGHTEN
350
36
  3
COLORCHANGE
350
3A
  3
CONCEPTUAL
350
34
  3
DIM
350
35
  3
EDGECOLOROFF
350
3D
  3
FACEPATTERN
350
39
  3
FLAT
350
2B
  3
FLATWITHEDGES
350
2C
  3
GOURAUD
350
2D
  3
GOURAUDWITHEDGES
350
2E
  3
HIDDEN
350
31
  3
JITTEROFF
350
3B
  3
LINEPATTERN
350
38
  3
OVERHANGOFF
350
3C
  3
REALISTIC
350
33
  3
SHADED
350
42
  3
SHADED_WITH_EDGES
350
41
  3
SHADES_OF_GRAY
350
3E
  3
SKETCHY
350
3F
  3
THICKEN
350
37
  3
WIREFRAME
350
30
  3
X-RAY
350
40
  0
DICTIONARY
  5
DE
102
{ACAD_REACTORS
330
C
102
}
330
C
100
AcDbDictionary
  3
CEPSNID
350
E8
  3
CEPSNTYPE
350
E7
  3
DIMSTYLEDATA
350
FE
  3
FINGERPRINTGUID
350
E9
  3
HYPERLINKBASE
350
E1
  3
INSUNITS
350
E6
  3
LAYOUTDICT
350
E3
  3
LWETCUNION
350
E5
  3
PLOTSETDICT
350
E4
  3
PSVPSCALE
350
EB
  3
PUCSBASE
350
EE
  3
PUCSORGBACK
350
F4
  3
PUCSORGBOTTOM
350
F0
  3
PUCSORGFRONT
350
F3
  3
PUCSORGLEFT
350
F1
  3
PUCSORGRIGHT
350
F2
  3
PUCSORGTOP
350
EF
  3
PUCSORTHOREF
350
EC
  3
PUCSORTHOVIEW
350
ED
  3
STYLESHEET
350
E2
  3
TSTACKALIGN
350
DF
  3
TSTACKSIZE
350
E0
  3
UCSBASE
350
F7
  3
UCSORGBACK
350
FD
  3
UCSORGBOTTOM
350
F9
  3
UCSORGFRONT
350
FC
  3
UCSORGLEFT
350
FA
  3
UCSORGRIGHT
350
FB
  3
UCSORGTOP
350
F8
  3
UCSORTHOREF
350
F5
  3
UCSORTHOVIEW
350
F6
  3
VERSIONGUID
350
EA
  0
DICTIONARY
  5
FF
102
{ACAD_REACTORS
330
C
102
}
330
C
100
AcDbDictionary
  3
CANNOSCALE
350
108
  3
CMLEADERSTYLE
350
101
  3
CTABLESTYLE
350
100
  3
DIMASSOC
350
104
  3
HIDETEXT
350
105
  3
MSLTSCALE
350
109
  0
XRECORD
  5
107
102
{ACAD_REACTORS
330
106
102
}
330
106
100
AcDbXrecord
102
VTR_0.000_0.000_1.000_1.000_VISUALSTYLE
340
2F
102
VTR_0.000_0.000_1.000_1.000_GRIDDISPLAY
 70
     3
102
VTR_0.000_0.000_1.000_1.000_GRIDMAJOR
 70
     5
102
VTR_0.000_0.000_1.000_1.000_DEFAULTLIGHTING
280
     1
102
VTR_0.000_0.000_1.000_1.000_DEFAULTLIGHTINGTYPE
 70
     1
102
VTR_0.000_0.000_1.000_1.000_BRIGHTNESS
141
0.0
102
VTR_0.000_0.000_1.000_1.000_CONTRAST
142
0.0
  0
MATERIAL
  5
45
102
{ACAD_REACTORS
330
43
102
}
102
{ACAD_XDICTIONARY
360
10C
102
}
330
43
100
AcDbMaterial
  1
BYBLOCK
  0
MATERIAL
  5
44
102
{ACAD_REACTORS
330
43
102
}
102
{ACAD_XDICTIONARY
360
10A
102
}
330
43
100
AcDbMaterial
  1
BYLAYER
  0
MATERIAL
  5
46
102
{ACAD_REACTORS
330
43
102
}
102
{ACAD_XDICTIONARY
360
10E
102
}
330
43
100
AcDbMaterial
  1
GLOBAL
  0
ACAD_PROXY_OBJECT
  5
6C
102
{ACAD_REACTORS
330
6B
102
}
330
6B
100
AcDbProxyObject
 90
      499
 91
      505
 93
      610
310
40901902A4063FBFFFFFE056BD1B81E855B9FC0AD7A3703D0AD73F4214DD185B99185C9900AD7A3703D0AC73F90141901A02B5E8DC0F42B1CFC02B5E8DC0F42B1CFE5764000000000000300FC0
340
14
340
0
340
11
340
0
 94
        0
1001
ACAD_MLEADERVER
1070
     2
  0
MLINESTYLE
  5
18
102
{ACAD_REACTORS
330
17
102
}
330
17
100
AcDbMlineStyle
  2
Standard
 70
     0
  3

 62
   256
 51
90.0
 52
90.0
 71
     2
 49
0.5
 62
   256
  6
BYLAYER
 49
-0.5
 62
   256
  6
BYLAYER
  0
ACAD_PROXY_OBJECT
  5
48
102
{ACAD_REACTORS
330
47
102
}
330
47
100
AcDbProxyObject
 90
      499
 91
      503
 93
       41
310
903313A31580
  0
ACAD_PROXY_OBJECT
  5
49
102
{ACAD_REACTORS
330
47
102
}
330
47
100
AcDbProxyObject
 90
      499
 91
      503
 93
      105
310
903313A324000000000000004000
  0
ACAD_PROXY_OBJECT
  5
4A
102
{ACAD_REACTORS
330
47
102
}
330
47
100
AcDbProxyObject
 90
      499
 91
      503
 93
      105
310
903313A344000000000000104000
  0
ACAD_PROXY_OBJECT
  5
4B
102
{ACAD_REACTORS
330
47
102
}
330
47
100
AcDbProxyObject
 90
      499
 91
      503
 93
      105
310
903313A354000000000000144000
  0
ACAD_PROXY_OBJECT
  5
4C
102
{ACAD_REACTORS
330
47
102
}
330
47
100
AcDbProxyObject
 90
      499
 91
      503
 93
      105
310
903313A384000000000000204000
  0
ACAD_PROXY_OBJECT
  5
4D
102
{ACAD_REACTORS
330
47
102
}
330
47
100
AcDbProxyObject
 90
      499
 91
      503
 93
      113
310
904313A31304000000000000244000
  0
ACAD_PROXY_OBJECT
  5
4E
102
{ACAD_REACTORS
330
47
102
}
330
47
100
AcDbProxyObject
 90
      499
 91
      503
 93
      113
310
904313A31364000000000000304000
  0
ACAD_PROXY_OBJECT
  5
4F
102
{ACAD_REACTORS
330
47
102
}
330
47
100
AcDbProxyObject
 90
      499
 91
      503
 93
      113
310
904313A32304000000000000344000
  0
ACAD_PROXY_OBJECT
  5
50
102
{ACAD_REACTORS
330
47
102
}
330
47
100
AcDbProxyObject
 90
      499
 91
      503
 93
      113
310
904313A333040000000000003E4000
  0
ACAD_PROXY_OBJECT
  5
51
102
{ACAD_REACTORS
330
47
102
}
330
47
100
AcDbProxyObject
 90
      499
 91
      503
 93
      113
310
904313A34304000000000000444000
  0
ACAD_PROXY_OBJECT
  5
52
102
{ACAD_REACTORS
330
47
102
}
330
47
100
AcDbProxyObject
 90
      499
 91
      503
 93
      113
310
904313A35304000000000000494000
  0
ACAD_PROXY_OBJECT
  5
53
102
{ACAD_REACTORS
330
47
102
}
330
47
100
AcDbProxyObject
 90
      499
 91
      503
 93
      121
310
905313A3130304000000000000594000
  0
ACAD_PROXY_OBJECT
  5
54
102
{ACAD_REACTORS
330
47
102
}
330
47
100
AcDbProxyObject
 90
      499
 91
      503
 93
      105
310
903323A310000000000000010100
  0
ACAD_PROXY_OBJECT
  5
55
102
{ACAD_REACTORS
330
47
102
}
330
47
100
AcDbProxyObject
 90
      499
 91
      503
 93
      105
310
903343A310000000000000410100
  0
ACAD_PROXY_OBJECT
  5
56
102
{ACAD_REACTORS
330
47
102
}
330
47
100
AcDbProxyObject
 90
      499
 91
      503
 93
      105
310
903383A310000000000000810100
  0
ACAD_PROXY_OBJECT
  5
57
102
{ACAD_REACTORS
330
47
102
}
330
47
100
AcDbProxyObject
 90
      499
 91
      503
 93
      113
310
90431303A310000000000000910100
  0
ACAD_PROXY_OBJECT
  5
58
102
{ACAD_REACTORS
330
47
102
}
330
47
100
AcDbProxyObject
 90
      499
 91
      503
 93
      121
310
9053130303A310000000000001650100
  0
ACAD_PROXY_OBJECT
  5
59
102
{ACAD_REACTORS
330
47
102
}
330
47
100
AcDbProxyObject
 90
      499
 91
      503
 93
      257
310
90E312F31323822203D2031272D3022000000000000200FC000000000000284000
  0
ACAD_PROXY_OBJECT
  5
5A
102
{ACAD_REACTORS
330
47
102
}
330
47
100
AcDbProxyObject
 90
      499
 91
      503
 93
      249
310
90D312F363422203D2031272D3022000000000000240FC000000000000284000
  0
ACAD_PROXY_OBJECT
  5
5B
102
{ACAD_REACTORS
330
47
102
}
330
47
100
AcDbProxyObject
 90
      499
 91
      503
 93
      249
310
90D312F333222203D2031272D3022000000000000280FC000000000000284000
  0
ACAD_PROXY_OBJECT
  5
5C
102
{ACAD_REACTORS
330
47
102
}
330
47
100
AcDbProxyObject
 90
      499
 91
      503
 93
      249
310
90D312F313622203D2031272D30220000000000002C0FC000000000000284000
  0
ACAD_PROXY_OBJECT
  5
5D
102
{ACAD_REACTORS
330
47
102
}
330
47
100
AcDbProxyObject
 90
      499
 91
      503
 93
      249
310
90D332F333222203D2031272D30220000000000002E0FC000000000000284000
  0
ACAD_PROXY_OBJECT
  5
5E
102
{ACAD_REACTORS
330
47
102
}
330
47
100
AcDbProxyObject
 90
      499
 91
      503
 93
      241
310
90C312F3822203D2031272D3022000000000000300FC000000000000284000
  0
ACAD_PROXY_OBJECT
  5
5F
102
{ACAD_REACTORS
330
47
102
}
330
47
100
AcDbProxyObject
 90
      499
 91
      503
 93
      249
310
90D332F313622203D2031272D3022000000000000320FC000000000000284000
  0
ACAD_PROXY_OBJECT
  5
60
102
{ACAD_REACTORS
330
47
102
}
330
47
100
AcDbProxyObject
 90
      499
 91
      503
 93
      241
310
90C312F3422203D2031272D3022000000000000340FC000000000000284000
  0
ACAD_PROXY_OBJECT
  5
61
102
{ACAD_REACTORS
330
47
102
}
330
47
100
AcDbProxyObject
 90
      499
 91
      503
 93
      241
310
90C332F3822203D2031272D3022000000000000360FC000000000000284000
  0
ACAD_PROXY_OBJECT
  5
62
102
{ACAD_REACTORS
330
47
102
}
330
47
100
AcDbProxyObject
 90
      499
 91
      503
 93
      241
310
90C312F3222203D2031272D3022000000000000380FC000000000000284000
  0
ACAD_PROXY_OBJECT
  5
63
102
{ACAD_REACTORS
330
47
102
}
330
47
100
AcDbProxyObject
 90
      499
 91
      503
 93
      241
310
90C332F3422203D2031272D30220000000000003A0FC000000000000284000
  0
ACAD_PROXY_OBJECT
  5
64
102
{ACAD_REACTORS
330
47
102
}
330
47
100
AcDbProxyObject
 90
      499
 91
      503
 93
      161
310
90A3122203D2031272D30224000000000000284000
  0
ACAD_PROXY_OBJECT
  5
65
102
{ACAD_REACTORS
330
47
102
}
330
47
100
AcDbProxyObject
 90
      499
 91
      503
 93
      257
310
90E312D312F3222203D2031272D30220000000000003E0FC000000000000284000
  0
ACAD_PROXY_OBJECT
  5
66
102
{ACAD_REACTORS
330
47
102
}
330
47
100
AcDbProxyObject
 90
      499
 91
      503
 93
      225
310
90A3322203D2031272D302200000000000002100000000000000284000
  0
ACAD_PROXY_OBJECT
  5
67
102
{ACAD_REACTORS
330
47
102
}
330
47
100
AcDbProxyObject
 90
      499
 91
      503
 93
      225
310
90A3622203D2031272D302200000000000006100000000000000284000
  0
ACAD_PROXY_OBJECT
  5
68
102
{ACAD_REACTORS
330
47
102
}
330
47
100
AcDbProxyObject
 90
      499
 91
      503
 93
      249
310
90D31272D3022203D2031272D30220000000000000A100000000000000284000
  0
ACAD_PROXY_OBJECT
  5
2F
102
{ACAD_REACTORS
330
2A
102
}
330
2A
100
AcDbProxyObject
 90
      499
 91
      501
 93
      436
310
42CC9915DA5C99599C985B595049028333333333333E33F0000000000000F90107901411070040501600405405064090741402480A0340
1001
ACAD
1000
AcDbSavedByObjectVersion
1070
     0
  0
ACAD_PROXY_OBJECT
  5
32
102
{ACAD_REACTORS
330
2A
102
}
330
2A
100
AcDbProxyObject
 90
      499
 91
      501
 93
      388
310
4150985CDA58D07406404333333333333E33F0000000000000F90107A41107004050150841D405064090741402480A0350
1001
ACAD
1000
AcDbSavedByObjectVersion
1070
     0
  0
ACAD_PROXY_OBJECT
  5
36
102
{ACAD_REACTORS
330
2A
102
}
330
2A
100
AcDbProxyObject
 90
      499
 91
      501
 93
      428
310
42109C9A59DA1D195B90C409028333333333333E33F0000000000000F9010790141107004050150841D405064090741402480A029950
1001
ACAD
1000
AcDbSavedByObjectVersion
1070
     0
  0
ACAD_PROXY_OBJECT
  5
3A
102
{ACAD_REACTORS
330
2A
102
}
330
2A
100
AcDbProxyObject
 90
      499
 91
      501
 93
      452
310
42D0DBDB1BDC90DA185B99D95104090240C333333333333E33F0000000000000F90108901411070040501508421405064090741402480A0350
1001
ACAD
1000
AcDbSavedByObjectVersion
1070
     0
  0
ACAD_PROXY_OBJECT
  5
34
102
{ACAD_REACTORS
330
2A
102
}
330
2A
100
AcDbProxyObject
 90
      499
 91
      501
 93
      500
310
4290DBDB98D95C1D1D585B10940D028333333333333E33F0000000000000F90107902409070040501000000000018199010841D405064090740C02480A0340
1001
ACAD
1000
AcDbSavedByObjectVersion
1070
     0
  0
ACAD_PROXY_OBJECT
  5
35
102
{ACAD_REACTORS
330
2A
102
}
330
2A
100
AcDbProxyObject
 90
      499
 91
      501
 93
      412
310
40D11A5B50B409028333333333333E33F0000000000000F9010790141107004050150841D405064090741402480A02677FFFFFD0
1001
ACAD
1000
AcDbSavedByObjectVersion
1070
     0
  0
ACAD_PROXY_OBJECT
  5
3D
102
{ACAD_REACTORS
330
2A
102
}
330
2A
100
AcDbProxyObject
 90
      499
 91
      501
 93
      452
310
43115919D950DBDB1BDC93D999916409028333333333333E33F0000000000000F9010790141107004050150841D405064090741402480A0350
1001
ACAD
1000
AcDbSavedByObjectVersion
1070
     0
  0
ACAD_PROXY_OBJECT
  5
39
102
{ACAD_REACTORS
330
2A
102
}
330
2A
100
AcDbProxyObject
 90
      499
 91
      501
 93
      444
310
42D19858D95C185D1D195C9B90F409028333333333333E33F0000000000000F9010790141107004050150841D405064090741402480A0350
1001
ACAD
1000
AcDbSavedByObjectVersion
1070
     0
  0
ACAD_PROXY_OBJECT
  5
2B
102
{ACAD_REACTORS
330
2A
102
}
330
2A
100
AcDbProxyObject
 90
      499
 91
      501
 93
      380
310
41119B185D240901404333333333333E33F0000000000000F9010740A907004050150841D405064090741402480A1B50
1001
ACAD
1000
AcDbSavedByObjectVersion
1070
     0
  0
ACAD_PROXY_OBJECT
  5
2C
102
{ACAD_REACTORS
330
2A
102
}
330
2A
100
AcDbProxyObject
 90
      499
 91
      501
 93
      468
310
43519B185D15DA5D1A115919D95CD0140901404333333333333E33F0000000000000F90107409019070040501600405405064090741402480A1B50
1001
ACAD
1000
AcDbSavedByObjectVersion
1070
     0
  0
ACAD_PROXY_OBJECT
  5
2D
102
{ACAD_REACTORS
330
2A
102
}
330
2A
100
AcDbProxyObject
 90
      499
 91
      501
 93
      404
310
41D1DBDD5C985D5910240902404333333333333E33F0000000000000F9010740A9070040501641D405064090741402480A1B50
1001
ACAD
1000
AcDbSavedByObjectVersion
1070
     0
  0
ACAD_PROXY_OBJECT
  5
2E
102
{ACAD_REACTORS
330
2A
102
}
330
2A
100
AcDbProxyObject
 90
      499
 91
      501
 93
      492
310
4411DBDD5C985D5915DA5D1A115919D95CD0340902404333333333333E33F0000000000000F90107409019070040501600405405064090741402480A1B50
1001
ACAD
1000
AcDbSavedByObjectVersion
1070
     0
  0
ACAD_PROXY_OBJECT
  5
31
102
{ACAD_REACTORS
330
2A
102
}
330
2A
100
AcDbProxyObject
 90
      499
 91
      501
 93
      476
310
41921A5919195B90640502408333333333333E33F0000000000000F901079024090700405020000000000001110200405405064090740C02480A0340
1001
ACAD
1000
AcDbSavedByObjectVersion
1070
     0
  0
ACAD_PROXY_OBJECT
  5
3B
102
{ACAD_REACTORS
330
2A
102
}
330
2A
100
AcDbProxyObject
 90
      499
 91
      501
 93
      428
310
42529A5D1D195C93D999914409028333333333333E33F0000000000000F9010790141107004050150A41D405064090741402480A0350
1001
ACAD
1000
AcDbSavedByObjectVersion
1070
     0
  0
ACAD_PROXY_OBJECT
  5
38
102
{ACAD_REACTORS
330
2A
102
}
330
2A
100
AcDbProxyObject
 90
      499
 91
      501
 93
      444
310
42D31A5B995C185D1D195C9B90E409028333333333333E33F0000000000000F9010790141107004050750841D405064090741402483A0350
1001
ACAD
1000
AcDbSavedByObjectVersion
1070
     0
  0
ACAD_PROXY_OBJECT
  5
3C
102
{ACAD_REACTORS
330
2A
102
}
330
2A
100
AcDbProxyObject
 90
      499
 91
      501
 93
      444
310
42D3DD995C9A185B99D3D999915409028333333333333E33F0000000000000F9010790141107004050150941D405064090741402480A0350
1001
ACAD
1000
AcDbSavedByObjectVersion
1070
     0
  0
ACAD_PROXY_OBJECT
  5
33
102
{ACAD_REACTORS
330
2A
102
}
330
2A
100
AcDbProxyObject
 90
      499
 91
      501
 93
      428
310
425499585B1A5CDD1A58D08409038333333333333E33F0000000000000F9010740A907004050150800405405064090740C02480A1B40
1001
ACAD
1000
AcDbSavedByObjectVersion
1070
     0
  0
ACAD_PROXY_OBJECT
  5
42
102
{ACAD_REACTORS
330
2A
102
}
330
2A
100
AcDbProxyObject
 90
      499
 91
      501
 93
      420
310
4194DA1859195911B40902404333333333333E33F0000000000000F9010740A41107004050150800405405064090840C02480A0B40
1001
ACAD
1000
AcDbSavedByObjectVersion
1070
     0
  0
ACAD_PROXY_OBJECT
  5
41
102
{ACAD_REACTORS
330
2A
102
}
330
2A
100
AcDbProxyObject
 90
      499
 91
      501
 93
      516
310
4454DA18591959081DDA5D1A08195919D95CD1A40902404333333333333E33F0000000000000F901074090142907004050250800405405064090740C02480A0B40
1001
ACAD
1000
AcDbSavedByObjectVersion
1070
     0
  0
ACAD_PROXY_OBJECT
  5
3E
102
{ACAD_REACTORS
330
2A
102
}
330
2A
100
AcDbProxyObject
 90
      499
 91
      501
 93
      532
310
4394DA1859195CC81BD98811DC985E5174090240C333333333333E33F0000000000000F901079024090741D01000000000000111010841D405064090740C02480A0340
1001
ACAD
1000
AcDbSavedByObjectVersion
1070
     0
  0
ACAD_PROXY_OBJECT
  5
3F
102
{ACAD_REACTORS
330
2A
102
}
330
2A
100
AcDbProxyObject
 90
      499
 91
      501
 93
      476
310
41D4DAD95D18DA1E51840502408333333333333E33F0000000000000F901079024090741D01000000000000111010B41D405064090741802480A0340
1001
ACAD
1000
AcDbSavedByObjectVersion
1070
     0
  0
ACAD_PROXY_OBJECT
  5
37
102
{ACAD_REACTORS
330
2A
102
}
330
2A
100
AcDbProxyObject
 90
      499
 91
      501
 93
      412
310
41D51A1A58DAD95B90D409028333333333333E33F0000000000000F9010790141107004050150C41D405064090741402480A0350
1001
ACAD
1000
AcDbSavedByObjectVersion
1070
     0
  0
ACAD_PROXY_OBJECT
  5
30
102
{ACAD_REACTORS
330
2A
102
}
330
2A
100
AcDbProxyObject
 90
      499
 91
      501
 93
      420
310
4255DA5C99599C985B595059028333333333333E33F0000000000000F90107901411070040501600405405064090740C02480A0340
1001
ACAD
1000
AcDbSavedByObjectVersion
1070
     0
  0
ACAD_PROXY_OBJECT
  5
40
102
{ACAD_REACTORS
330
2A
102
}
330
2A
100
AcDbProxyObject
 90
      499
 91
      501
 93
      404
310
41560B54985E51940902404000000000000E03F0000000000000F9010740501907004050150841D405064090740C02480A1B40
1001
ACAD
1000
AcDbSavedByObjectVersion
1070
     0
  0
XRECORD
  5
E8
102
{ACAD_REACTORS
330
DE
102
}
330
DE
100
AcDbXrecord
340
0
  0
XRECORD
  5
E7
102
{ACAD_REACTORS
330
DE
102
}
330
DE
100
AcDbXrecord
 90
        0
  0
XRECORD
  5
FE
102
{ACAD_REACTORS
330
DE
102
}
330
DE
100
AcDbXrecord
1000
DSTYLE
1002
{
1070
   179
 70
     2
1070
   171
 70
     2
1070
   143
 40
25.4
1070
   274
 70
     2
1070
    41
 40
3.0
1070
   141
 40
0.09
1070
    43
 40
0.38
1070
   278
 70
    46
1070
    44
 40
1.5
1070
    42
 40
0.0625
1070
   147
 40
1.5
1070
   272
 70
     4
1070
    73
 70
     1
1070
   172
 70
     0
1070
    74
 70
     1
1070
   283
 70
     1
1070
   340
340
6E
1070
   140
 40
3.0
1070
   284
 70
     0
1070
    78
 70
     0
1002
}
  0
XRECORD
  5
E9
102
{ACAD_REACTORS
330
DE
102
}
330
DE
100
AcDbXrecord
  1
{2E7AA836-DAC6-4630-B258-B7C29A248B59}
  0
XRECORD
  5
E1
102
{ACAD_REACTORS
330
DE
102
}
330
DE
100
AcDbXrecord
  1

  0
XRECORD
  5
E6
102
{ACAD_REACTORS
330
DE
102
}
330
DE
100
AcDbXrecord
 90
        4
  0
XRECORD
  5
E3
102
{ACAD_REACTORS
330
DE
102
}
330
DE
100
AcDbXrecord
340
1A
  0
XRECORD
  5
E5
102
{ACAD_REACTORS
330
DE
102
}
330
DE
100
AcDbXrecord
 90
    10269
  0
XRECORD
  5
E4
102
{ACAD_REACTORS
330
DE
102
}
330
DE
100
AcDbXrecord
340
19
  0
XRECORD
  5
EB
102
{ACAD_REACTORS
330
DE
102
}
330
DE
100
AcDbXrecord
 40
0.0
  0
XRECORD
  5
EE
102
{ACAD_REACTORS
330
DE
102
}
330
DE
100
AcDbXrecord
340
0
  0
XRECORD
  5
F4
102
{ACAD_REACTORS
330
DE
102
}
330
DE
100
AcDbXrecord
 10
0.0
 20
0.0
 30
0.0
  0
XRECORD
  5
F0
102
{ACAD_REACTORS
330
DE
102
}
330
DE
100
AcDbXrecord
 10
0.0
 20
0.0
 30
0.0
  0
XRECORD
  5
F3
102
{ACAD_REACTORS
330
DE
102
}
330
DE
100
AcDbXrecord
 10
0.0
 20
0.0
 30
0.0
  0
XRECORD
  5
F1
102
{ACAD_REACTORS
330
DE
102
}
330
DE
100
AcDbXrecord
 10
0.0
 20
0.0
 30
0.0
  0
XRECORD
  5
F2
102
{ACAD_REACTORS
330
DE
102
}
330
DE
100
AcDbXrecord
 10
0.0
 20
0.0
 30
0.0
  0
XRECORD
  5
EF
102
{ACAD_REACTORS
330
DE
102
}
330
DE
100
AcDbXrecord
 10
0.0
 20
0.0
 30
0.0
  0
XRECORD
  5
EC
102
{ACAD_REACTORS
330
DE
102
}
330
DE
100
AcDbXrecord
340
0
  0
XRECORD
  5
ED
102
{ACAD_REACTORS
330
DE
102
}
330
DE
100
AcDbXrecord
 70
     0
  0
XRECORD
  5
E2
102
{ACAD_REACTORS
330
DE
102
}
330
DE
100
AcDbXrecord
  1

  0
XRECORD
  5
DF
102
{ACAD_REACTORS
330
DE
102
}
330
DE
100
AcDbXrecord
 90
        1
  0
XRECORD
  5
E0
102
{ACAD_REACTORS
330
DE
102
}
330
DE
100
AcDbXrecord
 90
       70
  0
XRECORD
  5
F7
102
{ACAD_REACTORS
330
DE
102
}
330
DE
100
AcDbXrecord
340
0
  0
XRECORD
  5
FD
102
{ACAD_REACTORS
330
DE
102
}
330
DE
100
AcDbXrecord
 10
0.0
 20
0.0
 30
0.0
  0
XRECORD
  5
F9
102
{ACAD_REACTORS
330
DE
102
}
330
DE
100
AcDbXrecord
 10
0.0
 20
0.0
 30
0.0
  0
XRECORD
  5
FC
102
{ACAD_REACTORS
330
DE
102
}
330
DE
100
AcDbXrecord
 10
0.0
 20
0.0
 30
0.0
  0
XRECORD
  5
FA
102
{ACAD_REACTORS
330
DE
102
}
330
DE
100
AcDbXrecord
 10
0.0
 20
0.0
 30
0.0
  0
XRECORD
  5
FB
102
{ACAD_REACTORS
330
DE
102
}
330
DE
100
AcDbXrecord
 10
0.0
 20
0.0
 30
0.0
  0
XRECORD
  5
F8
102
{ACAD_REACTORS
330
DE
102
}
330
DE
100
AcDbXrecord
 10
0.0
 20
0.0
 30
0.0
  0
XRECORD
  5
F5
102
{ACAD_REACTORS
330
DE
102
}
330
DE
100
AcDbXrecord
340
0
  0
XRECORD
  5
F6
102
{ACAD_REACTORS
330
DE
102
}
330
DE
100
AcDbXrecord
 70
     0
  0
XRECORD
  5
EA
102
{ACAD_REACTORS
330
DE
102
}
330
DE
100
AcDbXrecord
  1
{FAEB1C32-E019-11D5-929B-00C0DF256EC4}
  0
DICTIONARYVAR
  5
108
102
{ACAD_REACTORS
330
FF
102
}
330
FF
100
DictionaryVariables
280
     0
  1
1:1
  0
DICTIONARYVAR
  5
101
102
{ACAD_REACTORS
330
FF
102
}
330
FF
100
DictionaryVariables
280
     0
  1
Standard
  0
DICTIONARYVAR
  5
100
102
{ACAD_REACTORS
330
FF
102
}
330
FF
100
DictionaryVariables
280
     0
  1
Standard
  0
DICTIONARYVAR
  5
104
102
{ACAD_REACTORS
330
FF
102
}
330
FF
100
DictionaryVariables
280
     0
  1
2
  0
DICTIONARYVAR
  5
105
102
{ACAD_REACTORS
330
FF
102
}
330
FF
100
DictionaryVariables
280
     0
  1
1
  0
DICTIONARYVAR
  5
109
102
{ACAD_REACTORS
330
FF
102
}
330
FF
100
DictionaryVariables
280
     0
  1
1
  0
DICTIONARY
  5
10C
330
45
100
AcDbDictionary
280
     1
  3
ACAD_XREC_ROUNDTRIP
360
10D
  0
DICTIONARY
  5
10A
330
44
100
AcDbDictionary
280
     1
  3
ACAD_XREC_ROUNDTRIP
360
10B
  0
DICTIONARY
  5
10E
330
46
100
AcDbDictionary
280
     1
  3
ACAD_XREC_ROUNDTRIP
360
10F
  0
XRECORD
  5
10D
102
{ACAD_REACTORS
330
10C
102
}
330
10C
100
AcDbXrecord
102
MATERIAL
148
0.0
149
0.0
149
0.0
 93
        0
 94
      127
282
     0
 72
     1
 77
     1
171
     1
175
     1
179
     1
273
     0
  0
XRECORD
  5
10B
102
{ACAD_REACTORS
330
10A
102
}
330
10A
100
AcDbXrecord
102
MATERIAL
148
0.0
149
0.0
149
0.0
 93
        0
 94
      127
282
     0
 72
     1
 77
     1
171
     1
175
     1
179
     1
273
     0
  0
XRECORD
  5
10F
102
{ACAD_REACTORS
330
10E
102
}
330
10E
100
AcDbXrecord
102
MATERIAL
148
0.0
149
0.0
149
0.0
 93
        0
 94
      127
282
     0
 72
     1
 77
     1
171
     1
175
     1
179
     1
273
     0
  0
ENDSEC
  0
EOF
