  0
SECTION
  2
HEADER
  9
$ACADVER
  1
AC1006
  9
$DWGCODEPAGE
  3
ansi_932
  9
$INSBASE
 10
0.0
 20
0.0
 30
0.0
  9
$EXTMIN
 10
-252.5249875
 20
557.5272727272727
  9
$EXTMAX
 10
672.4750125
 20
814.9999999999999
  9
$LIMMIN
 10
0.0
 20
0.0
  9
$LIMMAX
 10
12.0
 20
9.0
  9
$ORTHOMODE
 70
     0
  9
$REGENMODE
 70
     1
  9
$FILLMODE
 70
     1
  9
$QTEXTMODE
 70
     0
  9
$MIRRTEXT
 70
     1
  9
$DRAGMODE
 70
     2
  9
$LTSCALE
 40
1.0
  9
$OSMODE
 70
    37
  9
$ATTMODE
 70
     1
  9
$TEXTSIZE
 40
0.2
  9
$TRACEWID
 40
0.05
  9
$TEXTSTYLE
  7
STANDARD
  9
$CLAYER
  8
0
  9
$CELTYPE
  6
BYLAYER
  9
$CECOLOR
 62
   256
  9
$DIMSCALE
 40
1.0
  9
$DIMASZ
 40
3.0
  9
$DIMEXO
 40
0.0625
  9
$DIMDLI
 40
0.38
  9
$DIMRND
 40
0.0
  9
$DIMDLE
 40
0.0
  9
$DIMEXE
 40
1.5
  9
$DIMTP
 40
0.0
  9
$DIMTM
 40
0.0
  9
$DIMTXT
 40
3.0
  9
$DIMCEN
 40
0.09
  9
$DIMTSZ
 40
0.0
  9
$DIMTOL
 70
     0
  9
$DIMLIM
 70
     0
  9
$DIMTIH
 70
     1
  9
$DIMTOH
 70
     1
  9
$DIMSE1
 70
     0
  9
$DIMSE2
 70
     0
  9
$DIMTAD
 70
     1
  9
$DIMZIN
 70
     0
  9
$DIMBLK
  1

  9
$DIMASO
 70
     1
  9
$DIMSHO
 70
     1
  9
$DIMPOST
  1

  9
$DIMAPOST
  1

  9
$DIMALT
 70
     0
  9
$DIMALTD
 70
     2
  9
$DIMALTF
 40
25.4
  9
$DIMLFAC
 40
1.0
  9
$DIMTOFL
 70
     0
  9
$DIMTVP
 40
0.0
  9
$DIMTIX
 70
     0
  9
$DIMSOXD
 70
     0
  9
$DIMSAH
 70
     0
  9
$DIMBLK1
  1

  9
$DIMBLK2
  1

  9
$LUNITS
 70
     2
  9
$LUPREC
 70
     4
  9
$SKETCHINC
 40
0.1
  9
$FILLETRAD
 40
0.5
  9
$AUNITS
 70
     0
  9
$AUPREC
 70
     0
  9
$MENU
  1
.
  9
$ELEVATION
 40
0.0
  9
$THICKNESS
 40
0.0
  9
$LIMCHECK
 70
     0
  9
$CHAMFERA
 40
0.0
  9
$CHAMFERB
 40
0.0
  9
$SKPOLY
 70
     0
  9
$TDCREATE
 40
2459004.660836447
  9
$TDUPDATE
 40
2459004.66083662
  9
$TDINDWG
 40
0.0000000116
  9
$TDUSRTIMER
 40
0.0000000116
  9
$USRTIMER
 70
     1
  9
$ANGBASE
 50
0.0
  9
$ANGDIR
 70
     0
  9
$PDMODE
 70
     0
  9
$PDSIZE
 40
0.0
  9
$PLINEWID
 40
0.0
  9
$COORDS
 70
     1
  9
$SPLFRAME
 70
     0
  9
$SPLINETYPE
 70
     6
  9
$SPLINESEGS
 70
     8
  9
$ATTDIA
 70
     0
  9
$ATTREQ
 70
     1
  9
$HANDLING
 70
     1
  9
$HANDSEED
  5
18B
  9
$SURFTAB1
 70
     6
  9
$SURFTAB2
 70
     6
  9
$SURFTYPE
 70
     6
  9
$SURFU
 70
     6
  9
$SURFV
 70
     6
  9
$UCSNAME
  2

  9
$UCSORG
 10
0.0
 20
0.0
 30
0.0
  9
$UCSXDIR
 10
1.0
 20
0.0
 30
0.0
  9
$UCSYDIR
 10
0.0
 20
1.0
 30
0.0
  9
$USERI1
 70
     0
  9
$USERI2
 70
     0
  9
$USERI3
 70
     0
  9
$USERI4
 70
     0
  9
$USERI5
 70
     0
  9
$USERR1
 40
0.0
  9
$USERR2
 40
0.0
  9
$USERR3
 40
0.0
  9
$USERR4
 40
0.0
  9
$USERR5
 40
0.0
  9
$WORLDVIEW
 70
     1
  0
ENDSEC
  0
SECTION
  2
TABLES
  0
TABLE
  2
VPORT
 70
     1
  0
VPORT
  2
*ACTIVE
 70
     0
 10
0.0
 20
0.0
 11
1.0
 21
1.0
 12
209.9750125
 22
686.2636363636364
 13
0.0
 23
0.0
 14
0.5
 24
0.5
 15
0.5
 25
0.5
 16
0.0
 26
0.0
 36
1.0
 17
0.0
 27
0.0
 37
0.0
 40
257.4727272727272
 41
1.6
 42
50.0
 43
0.0
 44
0.0
 50
0.0
 51
0.0
 71
     0
 72
   100
 73
     1
 74
     3
 75
     0
 76
     0
 77
     0
 78
     0
  0
ENDTAB
  0
TABLE
  2
LTYPE
 70
     1
  0
LTYPE
  2
CONTINUOUS
 70
     0
  3
Solid line
 72
    65
 73
     0
 40
0.0
  0
ENDTAB
  0
TABLE
  2
LAYER
 70
     1
  0
LAYER
  2
0
 70
     0
 62
     7
  6
CONTINUOUS
  0
ENDTAB
  0
TABLE
  2
STYLE
 70
     2
  0
STYLE
  2
STANDARD
 70
     0
 40
0.0
 41
1.0
 50
0.0
 71
     0
 42
0.2
  3
txt
  4

  0
STYLE
  2
ＭＳ_ゴシック
 70
     0
 40
0.0
 41
1.0
 50
0.0
 71
     0
 42
0.2
  3
ＭＳ ゴシック.shx
  4

  0
ENDTAB
  0
TABLE
  2
VIEW
 70
     0
  0
ENDTAB
  0
TABLE
  2
UCS
 70
     0
  0
ENDTAB
  0
ENDSEC
  0
SECTION
  2
BLOCKS
  0
BLOCK
  8
0
  2
D_FRAME_VIEW_1300
 70
     0
 10
0.0
 20
0.0
 30
0.0
  0
ARC
  5
70
  8
0
  6
CONTINUOUS
 62
     7
 10
659.9750125000002
 20
745.0
 30
0.0
 40
4.000000000000004
 50
180.0
 51
0.0
  0
ARC
  5
71
  8
0
  6
CONTINUOUS
 62
     7
 10
659.9750125000002
 20
745.0
 30
0.0
 40
4.000000000000004
 50
0.0
 51
180.0
  0
CIRCLE
  5
72
  8
0
  6
CONTINUOUS
 62
     9
 10
659.9750125000002
 20
745.0
 30
0.0
 40
3.624999999999989
  0
ARC
  5
73
  8
0
  6
CONTINUOUS
 62
     7
 10
659.9750125000002
 20
684.9999999999999
 30
0.0
 40
4.000000000000004
 50
180.0
 51
0.0
  0
ARC
  5
74
  8
0
  6
CONTINUOUS
 62
     7
 10
659.9750125000002
 20
684.9999999999999
 30
0.0
 40
4.000000000000004
 50
0.0
 51
180.0
  0
CIRCLE
  5
75
  8
0
  6
CONTINUOUS
 62
     9
 10
659.9750125000002
 20
684.9999999999999
 30
0.0
 40
3.624999999999989
  0
CIRCLE
  5
76
  8
0
  6
CONTINUOUS
 62
     7
 10
659.9750125000002
 20
684.9999999999999
 30
0.0
 40
3.249999999999975
  0
CIRCLE
  5
77
  8
0
  6
CONTINUOUS
 62
     7
 10
659.9750125000002
 20
745.0
 30
0.0
 40
3.249999999999975
  0
CIRCLE
  5
78
  8
0
  6
CONTINUOUS
 62
     7
 10
-240.0249875000001
 20
684.9999999999999
 30
0.0
 40
3.249999999999975
  0
CIRCLE
  5
79
  8
0
  6
CONTINUOUS
 62
     9
 10
-240.0249875000001
 20
684.9999999999999
 30
0.0
 40
3.624999999999989
  0
ARC
  5
7A
  8
0
  6
CONTINUOUS
 62
     7
 10
-240.0249875000001
 20
684.9999999999999
 30
0.0
 40
4.000000000000004
 50
180.0
 51
0.0
  0
ARC
  5
7B
  8
0
  6
CONTINUOUS
 62
     7
 10
-240.0249875000001
 20
684.9999999999999
 30
0.0
 40
4.000000000000004
 50
0.0
 51
180.0
  0
ARC
  5
7C
  8
0
  6
CONTINUOUS
 62
     7
 10
-240.0249875000001
 20
745.0
 30
0.0
 40
4.000000000000004
 50
180.0
 51
0.0
  0
CIRCLE
  5
7D
  8
0
  6
CONTINUOUS
 62
     9
 10
-240.0249875000001
 20
745.0
 30
0.0
 40
3.624999999999989
  0
ARC
  5
7E
  8
0
  6
CONTINUOUS
 62
     7
 10
-240.0249875000001
 20
745.0
 30
0.0
 40
4.000000000000004
 50
0.0
 51
180.0
  0
CIRCLE
  5
7F
  8
0
  6
CONTINUOUS
 62
     7
 10
-240.0249875000001
 20
745.0
 30
0.0
 40
3.249999999999975
  0
CIRCLE
  5
80
  8
0
  6
CONTINUOUS
 62
     7
 10
659.9750125000002
 20
745.0
 30
0.0
 40
6.000000000000005
  0
CIRCLE
  5
81
  8
0
  6
CONTINUOUS
 62
     7
 10
659.9750125000002
 20
684.9999999999999
 30
0.0
 40
6.000000000000005
  0
LINE
  5
82
  8
0
  6
CONTINUOUS
 62
     7
 10
-252.5249875
 20
806.5
 30
0.0
 11
-252.5249875
 21
814.9999999999999
 31
0.0
  0
LINE
  5
83
  8
0
  6
CONTINUOUS
 62
     7
 10
-252.5249875
 20
814.9999999999999
 30
0.0
 11
647.4750124999999
 21
814.9999999999999
 31
0.0
  0
LINE
  5
84
  8
0
  6
CONTINUOUS
 62
     7
 10
647.4750124999999
 20
814.9999999999999
 30
0.0
 11
647.4750124999999
 21
806.5
 31
0.0
  0
LINE
  5
85
  8
0
  6
CONTINUOUS
 62
     7
 10
647.4750124999999
 20
806.5
 30
0.0
 11
-252.5249875
 21
806.5
 31
0.0
  0
LINE
  5
86
  8
0
  6
CONTINUOUS
 62
     7
 10
647.4750124999999
 20
798.5
 30
0.0
 11
647.4750124999999
 21
790.0
 31
0.0
  0
LINE
  5
87
  8
0
  6
CONTINUOUS
 62
     7
 10
-252.5249874999999
 20
790.0
 30
0.0
 11
-252.5249875
 21
798.5
 31
0.0
  0
LINE
  5
88
  8
0
  6
CONTINUOUS
 62
     7
 10
647.4750124999999
 20
790.0
 30
0.0
 11
-252.5249875
 21
790.0
 31
0.0
  0
LINE
  5
89
  8
0
  6
CONTINUOUS
 62
     7
 10
-252.5249875
 20
798.5
 30
0.0
 11
647.4750124999999
 21
798.5
 31
0.0
  0
LINE
  5
8A
  8
0
  6
CONTINUOUS
 62
     7
 10
672.4750125
 20
798.5
 30
0.0
 11
672.4750125
 21
615.0
 31
0.0
  0
LINE
  5
8B
  8
0
  6
CONTINUOUS
 62
     7
 10
672.4750125
 20
615.0
 30
0.0
 11
647.4750124999999
 21
615.0
 31
0.0
  0
LINE
  5
8C
  8
0
  6
CONTINUOUS
 62
     7
 10
647.4750124999999
 20
615.0
 30
0.0
 11
647.4750124999999
 21
790.0
 31
0.0
  0
LINE
  5
8D
  8
0
  6
CONTINUOUS
 62
     7
 10
647.4750124999999
 20
798.5
 30
0.0
 11
672.4750125
 21
798.5
 31
0.0
  0
LINE
  5
8E
  8
0
  6
CONTINUOUS
 62
     7
 10
672.4750125
 20
814.9999999999999
 30
0.0
 11
672.4750125
 21
806.5
 31
0.0
  0
LINE
  5
8F
  8
0
  6
CONTINUOUS
 62
     7
 10
647.4750124999999
 20
814.9999999999999
 30
0.0
 11
672.4750125
 21
814.9999999999999
 31
0.0
  0
LINE
  5
90
  8
0
  6
CONTINUOUS
 62
     7
 10
672.4750125
 20
806.5
 30
0.0
 11
647.4750124999999
 21
806.5
 31
0.0
  0
LINE
  5
91
  8
0
  6
CONTINUOUS
 62
     9
 10
144.2250125
 20
799.25
 30
0.0
 11
144.2250125
 21
805.75
 31
0.0
  0
LINE
  5
92
  8
0
  6
CONTINUOUS
 62
     9
 10
150.7250125
 20
799.25
 30
0.0
 11
144.2250125
 21
799.25
 31
0.0
  0
LINE
  5
93
  8
0
  6
CONTINUOUS
 62
     9
 10
150.7250125
 20
805.75
 30
0.0
 11
150.7250125
 21
799.25
 31
0.0
  0
LINE
  5
94
  8
0
  6
CONTINUOUS
 62
     9
 10
131.2250125
 20
799.25
 30
0.0
 11
131.2250125
 21
805.75
 31
0.0
  0
LINE
  5
95
  8
0
  6
CONTINUOUS
 62
     9
 10
137.7250125
 20
799.25
 30
0.0
 11
131.2250125
 21
799.25
 31
0.0
  0
LINE
  5
96
  8
0
  6
CONTINUOUS
 62
     9
 10
137.7250125
 20
805.75
 30
0.0
 11
137.7250125
 21
799.25
 31
0.0
  0
LINE
  5
97
  8
0
  6
CONTINUOUS
 62
     9
 10
118.2250125
 20
799.25
 30
0.0
 11
118.2250125
 21
805.75
 31
0.0
  0
LINE
  5
98
  8
0
  6
CONTINUOUS
 62
     9
 10
124.7250124999999
 20
799.25
 30
0.0
 11
118.2250125
 21
799.25
 31
0.0
  0
LINE
  5
99
  8
0
  6
CONTINUOUS
 62
     9
 10
124.7250124999999
 20
805.75
 30
0.0
 11
124.7250124999999
 21
799.25
 31
0.0
  0
LINE
  5
9A
  8
0
  6
CONTINUOUS
 62
     9
 10
105.2250125
 20
799.25
 30
0.0
 11
105.2250125
 21
805.75
 31
0.0
  0
LINE
  5
9B
  8
0
  6
CONTINUOUS
 62
     9
 10
111.7250124999999
 20
799.25
 30
0.0
 11
105.2250125
 21
799.25
 31
0.0
  0
LINE
  5
9C
  8
0
  6
CONTINUOUS
 62
     9
 10
111.7250124999999
 20
805.75
 30
0.0
 11
111.7250124999999
 21
799.25
 31
0.0
  0
LINE
  5
9D
  8
0
  6
CONTINUOUS
 62
     9
 10
92.22501249999998
 20
799.25
 30
0.0
 11
92.22501249999998
 21
805.75
 31
0.0
  0
LINE
  5
9E
  8
0
  6
CONTINUOUS
 62
     9
 10
98.72501249999993
 20
799.25
 30
0.0
 11
92.22501249999998
 21
799.25
 31
0.0
  0
LINE
  5
9F
  8
0
  6
CONTINUOUS
 62
     9
 10
98.72501249999999
 20
805.75
 30
0.0
 11
98.72501249999999
 21
799.25
 31
0.0
  0
LINE
  5
A0
  8
0
  6
CONTINUOUS
 62
     9
 10
79.22501249999996
 20
799.25
 30
0.0
 11
79.22501249999996
 21
805.75
 31
0.0
  0
LINE
  5
A1
  8
0
  6
CONTINUOUS
 62
     9
 10
85.72501249999992
 20
799.25
 30
0.0
 11
79.22501249999996
 21
799.25
 31
0.0
  0
LINE
  5
A2
  8
0
  6
CONTINUOUS
 62
     9
 10
85.72501249999998
 20
805.75
 30
0.0
 11
85.72501249999998
 21
799.25
 31
0.0
  0
LINE
  5
A3
  8
0
  6
CONTINUOUS
 62
     9
 10
66.22501249999996
 20
799.25
 30
0.0
 11
66.22501249999996
 21
805.75
 31
0.0
  0
LINE
  5
A4
  8
0
  6
CONTINUOUS
 62
     9
 10
72.72501250000002
 20
799.25
 30
0.0
 11
66.22501250000006
 21
799.25
 31
0.0
  0
LINE
  5
A5
  8
0
  6
CONTINUOUS
 62
     9
 10
72.72501249999996
 20
805.75
 30
0.0
 11
72.72501249999996
 21
799.25
 31
0.0
  0
LINE
  5
A6
  8
0
  6
CONTINUOUS
 62
     9
 10
53.2250125
 20
799.25
 30
0.0
 11
53.2250125
 21
805.75
 31
0.0
  0
LINE
  5
A7
  8
0
  6
CONTINUOUS
 62
     9
 10
59.72501250000001
 20
799.25
 30
0.0
 11
53.22501250000006
 21
799.25
 31
0.0
  0
LINE
  5
A8
  8
0
  6
CONTINUOUS
 62
     9
 10
59.72501249999995
 20
805.75
 30
0.0
 11
59.72501249999995
 21
799.25
 31
0.0
  0
LINE
  5
A9
  8
0
  6
CONTINUOUS
 62
     9
 10
40.22501249999999
 20
799.25
 30
0.0
 11
40.22501249999999
 21
805.75
 31
0.0
  0
LINE
  5
AA
  8
0
  6
CONTINUOUS
 62
     9
 10
46.7250125
 20
799.25
 30
0.0
 11
40.22501250000005
 21
799.25
 31
0.0
  0
LINE
  5
AB
  8
0
  6
CONTINUOUS
 62
     9
 10
46.7250125
 20
805.75
 30
0.0
 11
46.7250125
 21
799.25
 31
0.0
  0
LINE
  5
AC
  8
0
  6
CONTINUOUS
 62
     9
 10
27.22501249999998
 20
799.25
 30
0.0
 11
27.22501249999998
 21
805.75
 31
0.0
  0
LINE
  5
AD
  8
0
  6
CONTINUOUS
 62
     9
 10
33.72501249999998
 20
799.25
 30
0.0
 11
27.22501250000003
 21
799.25
 31
0.0
  0
LINE
  5
AE
  8
0
  6
CONTINUOUS
 62
     9
 10
33.72501249999998
 20
805.75
 30
0.0
 11
33.72501249999998
 21
799.25
 31
0.0
  0
LINE
  5
AF
  8
0
  6
CONTINUOUS
 62
     9
 10
14.22501249999997
 20
799.25
 30
0.0
 11
14.22501249999997
 21
805.75
 31
0.0
  0
LINE
  5
B0
  8
0
  6
CONTINUOUS
 62
     9
 10
20.72501249999997
 20
799.25
 30
0.0
 11
14.22501250000002
 21
799.25
 31
0.0
  0
LINE
  5
B1
  8
0
  6
CONTINUOUS
 62
     9
 10
20.72501249999997
 20
805.75
 30
0.0
 11
20.72501249999997
 21
799.25
 31
0.0
  0
LINE
  5
B2
  8
0
  6
CONTINUOUS
 62
     9
 10
1.225012499999956
 20
799.25
 30
0.0
 11
1.225012499999956
 21
805.75
 31
0.0
  0
LINE
  5
B3
  8
0
  6
CONTINUOUS
 62
     9
 10
7.725012499999961
 20
799.25
 30
0.0
 11
1.225012500000011
 21
799.25
 31
0.0
  0
LINE
  5
B4
  8
0
  6
CONTINUOUS
 62
     9
 10
7.725012499999961
 20
805.75
 30
0.0
 11
7.725012499999961
 21
799.25
 31
0.0
  0
LINE
  5
B5
  8
0
  6
CONTINUOUS
 62
     9
 10
-11.77498750000006
 20
799.25
 30
0.0
 11
-11.77498750000006
 21
805.75
 31
0.0
  0
LINE
  5
B6
  8
0
  6
CONTINUOUS
 62
     9
 10
-5.27498750000005
 20
799.25
 30
0.0
 11
-11.7749875
 21
799.25
 31
0.0
  0
LINE
  5
B7
  8
0
  6
CONTINUOUS
 62
     9
 10
-5.27498750000005
 20
805.75
 30
0.0
 11
-5.27498750000005
 21
799.25
 31
0.0
  0
LINE
  5
B8
  8
0
  6
CONTINUOUS
 62
     9
 10
-24.77498750000004
 20
799.25
 30
0.0
 11
-24.77498750000004
 21
805.75
 31
0.0
  0
LINE
  5
B9
  8
0
  6
CONTINUOUS
 62
     9
 10
-18.27498750000006
 20
799.25
 30
0.0
 11
-24.77498750000001
 21
799.25
 31
0.0
  0
LINE
  5
BA
  8
0
  6
CONTINUOUS
 62
     9
 10
-18.27498750000003
 20
805.75
 30
0.0
 11
-18.27498750000003
 21
799.25
 31
0.0
  0
LINE
  5
BB
  8
0
  6
CONTINUOUS
 62
     9
 10
-37.77498750000005
 20
799.25
 30
0.0
 11
-37.77498750000005
 21
805.75
 31
0.0
  0
LINE
  5
BC
  8
0
  6
CONTINUOUS
 62
     9
 10
-31.27498750000007
 20
799.25
 30
0.0
 11
-37.77498750000002
 21
799.25
 31
0.0
  0
LINE
  5
BD
  8
0
  6
CONTINUOUS
 62
     9
 10
-31.27498750000004
 20
805.75
 30
0.0
 11
-31.27498750000004
 21
799.25
 31
0.0
  0
LINE
  5
BE
  8
0
  6
CONTINUOUS
 62
     9
 10
-50.77498750000004
 20
799.25
 30
0.0
 11
-50.77498750000004
 21
805.75
 31
0.0
  0
LINE
  5
BF
  8
0
  6
CONTINUOUS
 62
     9
 10
-44.27498750000003
 20
799.25
 30
0.0
 11
-50.77498749999998
 21
799.25
 31
0.0
  0
LINE
  5
C0
  8
0
  6
CONTINUOUS
 62
     9
 10
-44.27498750000003
 20
805.75
 30
0.0
 11
-44.27498750000003
 21
799.25
 31
0.0
  0
LINE
  5
C1
  8
0
  6
CONTINUOUS
 62
     9
 10
-63.77498750000004
 20
799.25
 30
0.0
 11
-63.77498750000004
 21
805.75
 31
0.0
  0
LINE
  5
C2
  8
0
  6
CONTINUOUS
 62
     9
 10
-57.27498750000004
 20
799.25
 30
0.0
 11
-63.77498749999999
 21
799.25
 31
0.0
  0
LINE
  5
C3
  8
0
  6
CONTINUOUS
 62
     9
 10
-57.27498750000004
 20
805.75
 30
0.0
 11
-57.27498750000004
 21
799.25
 31
0.0
  0
LINE
  5
C4
  8
0
  6
CONTINUOUS
 62
     9
 10
-76.77498750000005
 20
799.25
 30
0.0
 11
-76.77498750000005
 21
805.75
 31
0.0
  0
LINE
  5
C5
  8
0
  6
CONTINUOUS
 62
     9
 10
-70.27498750000005
 20
799.25
 30
0.0
 11
-76.7749875
 21
799.25
 31
0.0
  0
LINE
  5
C6
  8
0
  6
CONTINUOUS
 62
     9
 10
-70.27498750000005
 20
805.75
 30
0.0
 11
-70.27498750000005
 21
799.25
 31
0.0
  0
LINE
  5
C7
  8
0
  6
CONTINUOUS
 62
     9
 10
-89.77498750000004
 20
799.25
 30
0.0
 11
-89.77498750000004
 21
805.75
 31
0.0
  0
LINE
  5
C8
  8
0
  6
CONTINUOUS
 62
     9
 10
-83.27498750000001
 20
799.25
 30
0.0
 11
-89.77498749999995
 21
799.25
 31
0.0
  0
LINE
  5
C9
  8
0
  6
CONTINUOUS
 62
     9
 10
-83.27498750000004
 20
805.75
 30
0.0
 11
-83.27498750000004
 21
799.25
 31
0.0
  0
LINE
  5
CA
  8
0
  6
CONTINUOUS
 62
     9
 10
-102.7749875
 20
799.25
 30
0.0
 11
-102.7749875
 21
805.75
 31
0.0
  0
LINE
  5
CB
  8
0
  6
CONTINUOUS
 62
     9
 10
-96.27498750000002
 20
799.25
 30
0.0
 11
-102.7749875
 21
799.25
 31
0.0
  0
LINE
  5
CC
  8
0
  6
CONTINUOUS
 62
     9
 10
-96.27498750000005
 20
805.75
 30
0.0
 11
-96.27498750000005
 21
799.25
 31
0.0
  0
LINE
  5
CD
  8
0
  6
CONTINUOUS
 62
     9
 10
-115.7749875
 20
799.25
 30
0.0
 11
-115.7749875
 21
805.75
 31
0.0
  0
LINE
  5
CE
  8
0
  6
CONTINUOUS
 62
     9
 10
-109.2749875
 20
799.25
 30
0.0
 11
-115.7749875
 21
799.25
 31
0.0
  0
LINE
  5
CF
  8
0
  6
CONTINUOUS
 62
     9
 10
-109.2749875
 20
805.75
 30
0.0
 11
-109.2749875
 21
799.25
 31
0.0
  0
LINE
  5
D0
  8
0
  6
CONTINUOUS
 62
     9
 10
-128.7749875
 20
799.25
 30
0.0
 11
-128.7749875
 21
805.75
 31
0.0
  0
LINE
  5
D1
  8
0
  6
CONTINUOUS
 62
     9
 10
-122.2749875
 20
799.25
 30
0.0
 11
-128.7749875
 21
799.25
 31
0.0
  0
LINE
  5
D2
  8
0
  6
CONTINUOUS
 62
     9
 10
-122.2749875
 20
805.75
 30
0.0
 11
-122.2749875
 21
799.25
 31
0.0
  0
LINE
  5
D3
  8
0
  6
CONTINUOUS
 62
     9
 10
-141.7749875
 20
799.25
 30
0.0
 11
-141.7749875
 21
805.75
 31
0.0
  0
LINE
  5
D4
  8
0
  6
CONTINUOUS
 62
     9
 10
-135.2749875000001
 20
799.25
 30
0.0
 11
-141.7749875
 21
799.25
 31
0.0
  0
LINE
  5
D5
  8
0
  6
CONTINUOUS
 62
     9
 10
-135.2749875000001
 20
805.75
 30
0.0
 11
-135.2749875000001
 21
799.25
 31
0.0
  0
LINE
  5
D6
  8
0
  6
CONTINUOUS
 62
     9
 10
-154.7749875
 20
799.25
 30
0.0
 11
-154.7749875
 21
805.75
 31
0.0
  0
LINE
  5
D7
  8
0
  6
CONTINUOUS
 62
     9
 10
-148.2749875000001
 20
799.25
 30
0.0
 11
-154.7749875
 21
799.25
 31
0.0
  0
LINE
  5
D8
  8
0
  6
CONTINUOUS
 62
     9
 10
-148.2749875000001
 20
805.75
 30
0.0
 11
-148.2749875000001
 21
799.25
 31
0.0
  0
LINE
  5
D9
  8
0
  6
CONTINUOUS
 62
     9
 10
-167.7749875
 20
799.25
 30
0.0
 11
-167.7749875
 21
805.75
 31
0.0
  0
LINE
  5
DA
  8
0
  6
CONTINUOUS
 62
     9
 10
-161.2749875000001
 20
799.25
 30
0.0
 11
-167.7749875
 21
799.25
 31
0.0
  0
LINE
  5
DB
  8
0
  6
CONTINUOUS
 62
     9
 10
-161.2749875000001
 20
805.75
 30
0.0
 11
-161.2749875000001
 21
799.25
 31
0.0
  0
LINE
  5
DC
  8
0
  6
CONTINUOUS
 62
     9
 10
-180.7749875
 20
799.25
 30
0.0
 11
-180.7749875
 21
805.75
 31
0.0
  0
LINE
  5
DD
  8
0
  6
CONTINUOUS
 62
     9
 10
-174.2749875
 20
799.25
 30
0.0
 11
-180.7749875
 21
799.25
 31
0.0
  0
LINE
  5
DE
  8
0
  6
CONTINUOUS
 62
     9
 10
-174.2749875
 20
805.75
 30
0.0
 11
-174.2749875
 21
799.25
 31
0.0
  0
LINE
  5
DF
  8
0
  6
CONTINUOUS
 62
     9
 10
-193.7749875
 20
799.25
 30
0.0
 11
-193.7749875
 21
805.75
 31
0.0
  0
LINE
  5
E0
  8
0
  6
CONTINUOUS
 62
     9
 10
-187.2749875
 20
799.25
 30
0.0
 11
-193.7749875
 21
799.25
 31
0.0
  0
LINE
  5
E1
  8
0
  6
CONTINUOUS
 62
     9
 10
-187.2749875
 20
805.75
 30
0.0
 11
-187.2749875
 21
799.25
 31
0.0
  0
LINE
  5
E2
  8
0
  6
CONTINUOUS
 62
     9
 10
-206.7749875
 20
799.25
 30
0.0
 11
-206.7749875
 21
805.75
 31
0.0
  0
LINE
  5
E3
  8
0
  6
CONTINUOUS
 62
     9
 10
-200.2749875000001
 20
799.25
 30
0.0
 11
-206.7749875
 21
799.25
 31
0.0
  0
LINE
  5
E4
  8
0
  6
CONTINUOUS
 62
     9
 10
-200.2749875000001
 20
805.75
 30
0.0
 11
-200.2749875000001
 21
799.25
 31
0.0
  0
LINE
  5
E5
  8
0
  6
CONTINUOUS
 62
     9
 10
-219.7749875
 20
799.25
 30
0.0
 11
-219.7749875
 21
805.75
 31
0.0
  0
LINE
  5
E6
  8
0
  6
CONTINUOUS
 62
     9
 10
-213.2749875000001
 20
799.25
 30
0.0
 11
-219.7749875
 21
799.25
 31
0.0
  0
LINE
  5
E7
  8
0
  6
CONTINUOUS
 62
     9
 10
-213.2749875000001
 20
805.75
 30
0.0
 11
-213.2749875000001
 21
799.25
 31
0.0
  0
LINE
  5
E8
  8
0
  6
CONTINUOUS
 62
     9
 10
157.2250125
 20
799.25
 30
0.0
 11
157.2250125
 21
805.75
 31
0.0
  0
LINE
  5
E9
  8
0
  6
CONTINUOUS
 62
     9
 10
163.7250125
 20
799.25
 30
0.0
 11
157.2250125
 21
799.25
 31
0.0
  0
LINE
  5
EA
  8
0
  6
CONTINUOUS
 62
     9
 10
163.7250125
 20
805.75
 30
0.0
 11
163.7250125
 21
799.25
 31
0.0
  0
LINE
  5
EB
  8
0
  6
CONTINUOUS
 62
     9
 10
170.2250125
 20
799.25
 30
0.0
 11
170.2250125
 21
805.75
 31
0.0
  0
LINE
  5
EC
  8
0
  6
CONTINUOUS
 62
     9
 10
176.7250125
 20
799.25
 30
0.0
 11
170.2250125
 21
799.25
 31
0.0
  0
LINE
  5
ED
  8
0
  6
CONTINUOUS
 62
     9
 10
176.7250125
 20
805.75
 30
0.0
 11
176.7250125
 21
799.25
 31
0.0
  0
LINE
  5
EE
  8
0
  6
CONTINUOUS
 62
     9
 10
183.2250125
 20
799.25
 30
0.0
 11
183.2250125
 21
805.75
 31
0.0
  0
LINE
  5
EF
  8
0
  6
CONTINUOUS
 62
     9
 10
189.7250125
 20
799.25
 30
0.0
 11
183.2250125
 21
799.25
 31
0.0
  0
LINE
  5
F0
  8
0
  6
CONTINUOUS
 62
     9
 10
189.7250125
 20
805.75
 30
0.0
 11
189.7250125
 21
799.25
 31
0.0
  0
LINE
  5
F1
  8
0
  6
CONTINUOUS
 62
     9
 10
196.2250125
 20
799.25
 30
0.0
 11
196.2250125
 21
805.75
 31
0.0
  0
LINE
  5
F2
  8
0
  6
CONTINUOUS
 62
     9
 10
202.7250125
 20
799.25
 30
0.0
 11
196.2250125000001
 21
799.25
 31
0.0
  0
LINE
  5
F3
  8
0
  6
CONTINUOUS
 62
     9
 10
202.7250125
 20
805.75
 30
0.0
 11
202.7250125
 21
799.25
 31
0.0
  0
LINE
  5
F4
  8
0
  6
CONTINUOUS
 62
     9
 10
209.2250125
 20
799.25
 30
0.0
 11
209.2250125
 21
805.75
 31
0.0
  0
LINE
  5
F5
  8
0
  6
CONTINUOUS
 62
     9
 10
215.7250125
 20
799.25
 30
0.0
 11
209.2250125000001
 21
799.25
 31
0.0
  0
LINE
  5
F6
  8
0
  6
CONTINUOUS
 62
     9
 10
215.7250125
 20
805.75
 30
0.0
 11
215.7250125
 21
799.25
 31
0.0
  0
LINE
  5
F7
  8
0
  6
CONTINUOUS
 62
     9
 10
222.2250125
 20
799.25
 30
0.0
 11
222.2250125
 21
805.75
 31
0.0
  0
LINE
  5
F8
  8
0
  6
CONTINUOUS
 62
     9
 10
228.7250124999999
 20
799.25
 30
0.0
 11
222.2250125
 21
799.25
 31
0.0
  0
LINE
  5
F9
  8
0
  6
CONTINUOUS
 62
     9
 10
228.7250125
 20
805.75
 30
0.0
 11
228.7250125
 21
799.25
 31
0.0
  0
LINE
  5
FA
  8
0
  6
CONTINUOUS
 62
     9
 10
235.2250125
 20
799.25
 30
0.0
 11
235.2250125
 21
805.75
 31
0.0
  0
LINE
  5
FB
  8
0
  6
CONTINUOUS
 62
     9
 10
241.7250124999999
 20
799.25
 30
0.0
 11
235.2250125
 21
799.25
 31
0.0
  0
LINE
  5
FC
  8
0
  6
CONTINUOUS
 62
     9
 10
241.7250125
 20
805.75
 30
0.0
 11
241.7250125
 21
799.25
 31
0.0
  0
LINE
  5
FD
  8
0
  6
CONTINUOUS
 62
     9
 10
248.2250125
 20
799.25
 30
0.0
 11
248.2250125
 21
805.75
 31
0.0
  0
LINE
  5
FE
  8
0
  6
CONTINUOUS
 62
     9
 10
254.7250125
 20
799.25
 30
0.0
 11
248.2250125
 21
799.25
 31
0.0
  0
LINE
  5
FF
  8
0
  6
CONTINUOUS
 62
     9
 10
254.7250125
 20
805.75
 30
0.0
 11
254.7250125
 21
799.25
 31
0.0
  0
LINE
  5
100
  8
0
  6
CONTINUOUS
 62
     9
 10
261.2250125
 20
799.25
 30
0.0
 11
261.2250125
 21
805.75
 31
0.0
  0
LINE
  5
101
  8
0
  6
CONTINUOUS
 62
     9
 10
267.7250125
 20
799.25
 30
0.0
 11
261.2250125
 21
799.25
 31
0.0
  0
LINE
  5
102
  8
0
  6
CONTINUOUS
 62
     9
 10
267.7250125
 20
805.75
 30
0.0
 11
267.7250125
 21
799.25
 31
0.0
  0
LINE
  5
103
  8
0
  6
CONTINUOUS
 62
     9
 10
274.2250125
 20
799.25
 30
0.0
 11
274.2250125
 21
805.75
 31
0.0
  0
LINE
  5
104
  8
0
  6
CONTINUOUS
 62
     9
 10
280.7250125
 20
799.25
 30
0.0
 11
274.2250125
 21
799.25
 31
0.0
  0
LINE
  5
105
  8
0
  6
CONTINUOUS
 62
     9
 10
280.7250125
 20
805.75
 30
0.0
 11
280.7250125
 21
799.25
 31
0.0
  0
LINE
  5
106
  8
0
  6
CONTINUOUS
 62
     9
 10
287.2250124999999
 20
799.25
 30
0.0
 11
287.2250124999999
 21
805.75
 31
0.0
  0
LINE
  5
107
  8
0
  6
CONTINUOUS
 62
     9
 10
293.7250125
 20
799.25
 30
0.0
 11
287.2250125
 21
799.25
 31
0.0
  0
LINE
  5
108
  8
0
  6
CONTINUOUS
 62
     9
 10
293.7250125
 20
805.75
 30
0.0
 11
293.7250125
 21
799.25
 31
0.0
  0
LINE
  5
109
  8
0
  6
CONTINUOUS
 62
     9
 10
300.2250125
 20
799.25
 30
0.0
 11
300.2250125
 21
805.75
 31
0.0
  0
LINE
  5
10A
  8
0
  6
CONTINUOUS
 62
     9
 10
306.7250125
 20
799.25
 30
0.0
 11
300.2250125
 21
799.25
 31
0.0
  0
LINE
  5
10B
  8
0
  6
CONTINUOUS
 62
     9
 10
306.7250125
 20
805.75
 30
0.0
 11
306.7250125
 21
799.25
 31
0.0
  0
LINE
  5
10C
  8
0
  6
CONTINUOUS
 62
     9
 10
313.2250124999999
 20
799.25
 30
0.0
 11
313.2250124999999
 21
805.75
 31
0.0
  0
LINE
  5
10D
  8
0
  6
CONTINUOUS
 62
     9
 10
319.7250125
 20
799.25
 30
0.0
 11
313.2250125
 21
799.25
 31
0.0
  0
LINE
  5
10E
  8
0
  6
CONTINUOUS
 62
     9
 10
319.7250125
 20
805.75
 30
0.0
 11
319.7250125
 21
799.25
 31
0.0
  0
LINE
  5
10F
  8
0
  6
CONTINUOUS
 62
     9
 10
326.2250124999999
 20
799.25
 30
0.0
 11
326.2250124999999
 21
805.75
 31
0.0
  0
LINE
  5
110
  8
0
  6
CONTINUOUS
 62
     9
 10
332.7250125
 20
799.25
 30
0.0
 11
326.2250125
 21
799.25
 31
0.0
  0
LINE
  5
111
  8
0
  6
CONTINUOUS
 62
     9
 10
332.7250125
 20
805.75
 30
0.0
 11
332.7250125
 21
799.25
 31
0.0
  0
LINE
  5
112
  8
0
  6
CONTINUOUS
 62
     9
 10
339.2250125
 20
799.25
 30
0.0
 11
339.2250125
 21
805.75
 31
0.0
  0
LINE
  5
113
  8
0
  6
CONTINUOUS
 62
     9
 10
345.7250124999999
 20
799.25
 30
0.0
 11
339.2250125
 21
799.25
 31
0.0
  0
LINE
  5
114
  8
0
  6
CONTINUOUS
 62
     9
 10
345.7250124999999
 20
805.75
 30
0.0
 11
345.7250124999999
 21
799.25
 31
0.0
  0
LINE
  5
115
  8
0
  6
CONTINUOUS
 62
     9
 10
352.2250125
 20
799.25
 30
0.0
 11
352.2250125
 21
805.75
 31
0.0
  0
LINE
  5
116
  8
0
  6
CONTINUOUS
 62
     9
 10
358.7250125
 20
799.25
 30
0.0
 11
352.2250125000001
 21
799.25
 31
0.0
  0
LINE
  5
117
  8
0
  6
CONTINUOUS
 62
     9
 10
358.7250125
 20
805.75
 30
0.0
 11
358.7250125
 21
799.25
 31
0.0
  0
LINE
  5
118
  8
0
  6
CONTINUOUS
 62
     9
 10
365.2250125
 20
799.25
 30
0.0
 11
365.2250125
 21
805.75
 31
0.0
  0
LINE
  5
119
  8
0
  6
CONTINUOUS
 62
     9
 10
371.7250124999999
 20
799.25
 30
0.0
 11
365.2250125
 21
799.25
 31
0.0
  0
LINE
  5
11A
  8
0
  6
CONTINUOUS
 62
     9
 10
371.7250124999999
 20
805.75
 30
0.0
 11
371.7250124999999
 21
799.25
 31
0.0
  0
LINE
  5
11B
  8
0
  6
CONTINUOUS
 62
     9
 10
378.2250125
 20
799.25
 30
0.0
 11
378.2250125
 21
805.75
 31
0.0
  0
LINE
  5
11C
  8
0
  6
CONTINUOUS
 62
     9
 10
384.7250124999999
 20
799.25
 30
0.0
 11
378.2250125
 21
799.25
 31
0.0
  0
LINE
  5
11D
  8
0
  6
CONTINUOUS
 62
     9
 10
384.7250124999999
 20
805.75
 30
0.0
 11
384.7250124999999
 21
799.25
 31
0.0
  0
LINE
  5
11E
  8
0
  6
CONTINUOUS
 62
     9
 10
391.2250125
 20
799.25
 30
0.0
 11
391.2250125
 21
805.75
 31
0.0
  0
LINE
  5
11F
  8
0
  6
CONTINUOUS
 62
     9
 10
397.7250125
 20
799.25
 30
0.0
 11
391.2250125
 21
799.25
 31
0.0
  0
LINE
  5
120
  8
0
  6
CONTINUOUS
 62
     9
 10
397.7250125
 20
805.75
 30
0.0
 11
397.7250125
 21
799.25
 31
0.0
  0
LINE
  5
121
  8
0
  6
CONTINUOUS
 62
     9
 10
404.2250125
 20
799.25
 30
0.0
 11
404.2250125
 21
805.75
 31
0.0
  0
LINE
  5
122
  8
0
  6
CONTINUOUS
 62
     9
 10
410.7250125
 20
799.25
 30
0.0
 11
404.2250125
 21
799.25
 31
0.0
  0
LINE
  5
123
  8
0
  6
CONTINUOUS
 62
     9
 10
410.7250125
 20
805.75
 30
0.0
 11
410.7250125
 21
799.25
 31
0.0
  0
LINE
  5
124
  8
0
  6
CONTINUOUS
 62
     9
 10
417.2250125
 20
799.25
 30
0.0
 11
417.2250125
 21
805.75
 31
0.0
  0
LINE
  5
125
  8
0
  6
CONTINUOUS
 62
     9
 10
423.7250125
 20
799.25
 30
0.0
 11
417.2250125
 21
799.25
 31
0.0
  0
LINE
  5
126
  8
0
  6
CONTINUOUS
 62
     9
 10
423.7250125
 20
805.75
 30
0.0
 11
423.7250125
 21
799.25
 31
0.0
  0
LINE
  5
127
  8
0
  6
CONTINUOUS
 62
     9
 10
430.2250125
 20
799.25
 30
0.0
 11
430.2250125
 21
805.75
 31
0.0
  0
LINE
  5
128
  8
0
  6
CONTINUOUS
 62
     9
 10
436.7250125
 20
799.25
 30
0.0
 11
430.2250125
 21
799.25
 31
0.0
  0
LINE
  5
129
  8
0
  6
CONTINUOUS
 62
     9
 10
436.7250125
 20
805.75
 30
0.0
 11
436.7250125
 21
799.25
 31
0.0
  0
LINE
  5
12A
  8
0
  6
CONTINUOUS
 62
     9
 10
443.2250125
 20
799.25
 30
0.0
 11
443.2250125
 21
805.75
 31
0.0
  0
LINE
  5
12B
  8
0
  6
CONTINUOUS
 62
     9
 10
449.7250125
 20
799.25
 30
0.0
 11
443.2250125
 21
799.25
 31
0.0
  0
LINE
  5
12C
  8
0
  6
CONTINUOUS
 62
     9
 10
449.7250125
 20
805.75
 30
0.0
 11
449.7250125
 21
799.25
 31
0.0
  0
LINE
  5
12D
  8
0
  6
CONTINUOUS
 62
     9
 10
456.2250125
 20
799.25
 30
0.0
 11
456.2250125
 21
805.75
 31
0.0
  0
LINE
  5
12E
  8
0
  6
CONTINUOUS
 62
     9
 10
462.7250125
 20
799.25
 30
0.0
 11
456.2250125
 21
799.25
 31
0.0
  0
LINE
  5
12F
  8
0
  6
CONTINUOUS
 62
     9
 10
462.7250125
 20
805.75
 30
0.0
 11
462.7250125
 21
799.25
 31
0.0
  0
LINE
  5
130
  8
0
  6
CONTINUOUS
 62
     9
 10
469.2250125000001
 20
799.25
 30
0.0
 11
469.2250125000001
 21
805.75
 31
0.0
  0
LINE
  5
131
  8
0
  6
CONTINUOUS
 62
     9
 10
475.7250125
 20
799.25
 30
0.0
 11
469.2250125000001
 21
799.25
 31
0.0
  0
LINE
  5
132
  8
0
  6
CONTINUOUS
 62
     9
 10
475.7250125
 20
805.75
 30
0.0
 11
475.7250125
 21
799.25
 31
0.0
  0
LINE
  5
133
  8
0
  6
CONTINUOUS
 62
     9
 10
482.2250125
 20
799.25
 30
0.0
 11
482.2250125
 21
805.75
 31
0.0
  0
LINE
  5
134
  8
0
  6
CONTINUOUS
 62
     9
 10
488.7250124999999
 20
799.25
 30
0.0
 11
482.2250125
 21
799.25
 31
0.0
  0
LINE
  5
135
  8
0
  6
CONTINUOUS
 62
     9
 10
488.7250124999999
 20
805.75
 30
0.0
 11
488.7250124999999
 21
799.25
 31
0.0
  0
LINE
  5
136
  8
0
  6
CONTINUOUS
 62
     9
 10
495.2250125000001
 20
799.25
 30
0.0
 11
495.2250125000001
 21
805.75
 31
0.0
  0
LINE
  5
137
  8
0
  6
CONTINUOUS
 62
     9
 10
501.7250125000001
 20
799.25
 30
0.0
 11
495.2250125000001
 21
799.25
 31
0.0
  0
LINE
  5
138
  8
0
  6
CONTINUOUS
 62
     9
 10
501.7250125000001
 20
805.75
 30
0.0
 11
501.7250125000001
 21
799.25
 31
0.0
  0
LINE
  5
139
  8
0
  6
CONTINUOUS
 62
     9
 10
508.2250125
 20
799.25
 30
0.0
 11
508.2250125
 21
805.75
 31
0.0
  0
LINE
  5
13A
  8
0
  6
CONTINUOUS
 62
     9
 10
514.7250125
 20
799.25
 30
0.0
 11
508.2250125
 21
799.25
 31
0.0
  0
LINE
  5
13B
  8
0
  6
CONTINUOUS
 62
     9
 10
514.7250125
 20
805.75
 30
0.0
 11
514.7250125
 21
799.25
 31
0.0
  0
LINE
  5
13C
  8
0
  6
CONTINUOUS
 62
     9
 10
521.2250125000002
 20
799.25
 30
0.0
 11
521.2250125000002
 21
805.75
 31
0.0
  0
LINE
  5
13D
  8
0
  6
CONTINUOUS
 62
     9
 10
527.7250125000002
 20
799.25
 30
0.0
 11
521.2250125000002
 21
799.25
 31
0.0
  0
LINE
  5
13E
  8
0
  6
CONTINUOUS
 62
     9
 10
527.7250125000002
 20
805.75
 30
0.0
 11
527.7250125000002
 21
799.25
 31
0.0
  0
LINE
  5
13F
  8
0
  6
CONTINUOUS
 62
     9
 10
534.2250125
 20
799.25
 30
0.0
 11
534.2250125
 21
805.75
 31
0.0
  0
LINE
  5
140
  8
0
  6
CONTINUOUS
 62
     9
 10
540.7250125
 20
799.25
 30
0.0
 11
534.2250125
 21
799.25
 31
0.0
  0
LINE
  5
141
  8
0
  6
CONTINUOUS
 62
     9
 10
540.7250125
 20
805.75
 30
0.0
 11
540.7250125
 21
799.25
 31
0.0
  0
LINE
  5
142
  8
0
  6
CONTINUOUS
 62
     9
 10
547.2250124999999
 20
799.25
 30
0.0
 11
547.2250124999999
 21
805.75
 31
0.0
  0
LINE
  5
143
  8
0
  6
CONTINUOUS
 62
     9
 10
553.7250125000002
 20
799.25
 30
0.0
 11
547.2250125000002
 21
799.25
 31
0.0
  0
LINE
  5
144
  8
0
  6
CONTINUOUS
 62
     9
 10
553.7250124999999
 20
805.75
 30
0.0
 11
553.7250124999999
 21
799.25
 31
0.0
  0
LINE
  5
145
  8
0
  6
CONTINUOUS
 62
     9
 10
560.2250125000002
 20
799.25
 30
0.0
 11
560.2250125000002
 21
805.75
 31
0.0
  0
LINE
  5
146
  8
0
  6
CONTINUOUS
 62
     9
 10
566.7250125
 20
799.25
 30
0.0
 11
560.2250125000002
 21
799.25
 31
0.0
  0
LINE
  5
147
  8
0
  6
CONTINUOUS
 62
     9
 10
566.7250125
 20
805.75
 30
0.0
 11
566.7250125
 21
799.25
 31
0.0
  0
LINE
  5
148
  8
0
  6
CONTINUOUS
 62
     9
 10
573.2250125
 20
799.25
 30
0.0
 11
573.2250125
 21
805.75
 31
0.0
  0
LINE
  5
149
  8
0
  6
CONTINUOUS
 62
     9
 10
579.7250124999999
 20
799.25
 30
0.0
 11
573.2250125
 21
799.25
 31
0.0
  0
LINE
  5
14A
  8
0
  6
CONTINUOUS
 62
     9
 10
579.7250124999999
 20
805.75
 30
0.0
 11
579.7250124999999
 21
799.25
 31
0.0
  0
LINE
  5
14B
  8
0
  6
CONTINUOUS
 62
     9
 10
586.2250125000002
 20
799.25
 30
0.0
 11
586.2250125000002
 21
805.75
 31
0.0
  0
LINE
  5
14C
  8
0
  6
CONTINUOUS
 62
     9
 10
592.7250125
 20
799.25
 30
0.0
 11
586.2250125000002
 21
799.25
 31
0.0
  0
LINE
  5
14D
  8
0
  6
CONTINUOUS
 62
     9
 10
592.7250125
 20
805.75
 30
0.0
 11
592.7250125
 21
799.25
 31
0.0
  0
LINE
  5
14E
  8
0
  6
CONTINUOUS
 62
     9
 10
599.2250125
 20
799.25
 30
0.0
 11
599.2250125
 21
805.75
 31
0.0
  0
LINE
  5
14F
  8
0
  6
CONTINUOUS
 62
     9
 10
605.7250124999999
 20
799.25
 30
0.0
 11
599.2250125
 21
799.25
 31
0.0
  0
LINE
  5
150
  8
0
  6
CONTINUOUS
 62
     9
 10
605.7250124999999
 20
805.75
 30
0.0
 11
605.7250124999999
 21
799.25
 31
0.0
  0
LINE
  5
151
  8
0
  6
CONTINUOUS
 62
     9
 10
612.2250125000002
 20
799.25
 30
0.0
 11
612.2250125000002
 21
805.75
 31
0.0
  0
LINE
  5
152
  8
0
  6
CONTINUOUS
 62
     9
 10
618.7250125
 20
799.25
 30
0.0
 11
612.2250125000002
 21
799.25
 31
0.0
  0
LINE
  5
153
  8
0
  6
CONTINUOUS
 62
     9
 10
618.7250125
 20
805.75
 30
0.0
 11
618.7250125
 21
799.25
 31
0.0
  0
LINE
  5
154
  8
0
  6
CONTINUOUS
 62
     9
 10
625.2250125
 20
799.25
 30
0.0
 11
625.2250125
 21
805.75
 31
0.0
  0
LINE
  5
155
  8
0
  6
CONTINUOUS
 62
     9
 10
631.7250125
 20
799.25
 30
0.0
 11
625.2250125
 21
799.25
 31
0.0
  0
LINE
  5
156
  8
0
  6
CONTINUOUS
 62
     9
 10
631.7250125
 20
805.75
 30
0.0
 11
631.7250125
 21
799.25
 31
0.0
  0
LINE
  5
157
  8
0
  6
CONTINUOUS
 62
     7
 10
672.4750125
 20
798.5
 30
0.0
 11
672.4750125
 21
806.5
 31
0.0
  0
LINE
  5
158
  8
0
  6
CONTINUOUS
 62
     7
 10
-252.5249875
 20
806.5
 30
0.0
 11
-252.5249875
 21
798.5
 31
0.0
  0
CIRCLE
  5
159
  8
0
  6
CONTINUOUS
 62
     7
 10
-240.0249875000001
 20
684.9999999999999
 30
0.0
 40
6.000000000000005
  0
CIRCLE
  5
15A
  8
0
  6
CONTINUOUS
 62
     7
 10
-240.0249875000001
 20
745.0
 30
0.0
 40
6.000000000000005
  0
LINE
  5
15B
  8
0
  6
CONTINUOUS
 62
     7
 10
522.9750125
 20
615.0
 30
0.0
 11
521.9750124999999
 21
615.0
 31
0.0
  0
LINE
  5
15C
  8
0
  6
CONTINUOUS
 62
     9
 10
521.9750124999999
 20
615.0
 30
0.0
 11
222.9750125
 21
615.0
 31
0.0
  0
LINE
  5
15D
  8
0
  6
CONTINUOUS
 62
     7
 10
222.9750125
 20
615.0
 30
0.0
 11
221.9750125
 21
615.0
 31
0.0
  0
LINE
  5
15E
  8
0
  6
CONTINUOUS
 62
     9
 10
221.9750125
 20
615.0
 30
0.0
 11
72.97501249999993
 21
615.0
 31
0.0
  0
LINE
  5
15F
  8
0
  6
CONTINUOUS
 62
     7
 10
72.97501249999999
 20
615.0
 30
0.0
 11
71.97501249999999
 21
615.0
 31
0.0
  0
LINE
  5
160
  8
0
  6
CONTINUOUS
 62
     9
 10
71.97501249999999
 20
615.0
 30
0.0
 11
-227.5249875
 21
615.0
 31
0.0
  0
LINE
  5
161
  8
0
  6
CONTINUOUS
 62
     9
 10
647.4750124999999
 20
615.0
 30
0.0
 11
522.9750125
 21
615.0
 31
0.0
  0
LINE
  5
162
  8
0
  6
CONTINUOUS
 62
     7
 10
-227.5249875
 20
615.0
 30
0.0
 11
-252.5249875
 21
615.0
 31
0.0
  0
LINE
  5
163
  8
0
  6
CONTINUOUS
 62
     7
 10
-252.5249875
 20
615.0
 30
0.0
 11
-252.5249874999999
 21
790.0
 31
0.0
  0
LINE
  5
164
  8
0
  6
CONTINUOUS
 62
     7
 10
71.97501249999999
 20
580.0
 30
0.0
 11
-227.5249875
 21
580.0
 31
0.0
  0
LINE
  5
165
  8
0
  6
CONTINUOUS
 62
     7
 10
-227.5249875
 20
580.0
 30
0.0
 11
-227.5249875
 21
615.0
 31
0.0
  0
LINE
  5
166
  8
0
  6
CONTINUOUS
 62
     7
 10
71.97501249999999
 20
615.0
 30
0.0
 11
71.97501249999999
 21
580.0
 31
0.0
  0
LINE
  5
167
  8
0
  6
CONTINUOUS
 62
     9
 10
67.47501250000003
 20
610.0
 30
0.0
 11
-222.524987
 21
610.0
 31
0.0
  0
LINE
  5
168
  8
0
  6
CONTINUOUS
 62
     9
 10
-222.5249874999999
 20
610.0
 30
0.0
 11
-222.5249874999999
 21
585.0000004999999
 31
0.0
  0
LINE
  5
169
  8
0
  6
CONTINUOUS
 62
     9
 10
-222.5249874999999
 20
585.0
 30
0.0
 11
67.47501250000003
 21
585.0
 31
0.0
  0
LINE
  5
16A
  8
0
  6
CONTINUOUS
 62
     9
 10
67.47501250000003
 20
585.0
 30
0.0
 11
67.47501250000003
 21
609.9999995
 31
0.0
  0
LINE
  5
16B
  8
0
  6
CONTINUOUS
 62
     7
 10
221.9750125
 20
580.0
 30
0.0
 11
72.97501249999999
 21
580.0
 31
0.0
  0
LINE
  5
16C
  8
0
  6
CONTINUOUS
 62
     7
 10
221.9750125
 20
615.0
 30
0.0
 11
221.9750125
 21
580.0
 31
0.0
  0
LINE
  5
16D
  8
0
  6
CONTINUOUS
 62
     9
 10
217.4750125
 20
610.0
 30
0.0
 11
77.47501300000003
 21
610.0
 31
0.0
  0
LINE
  5
16E
  8
0
  6
CONTINUOUS
 62
     9
 10
77.47501250000005
 20
610.0
 30
0.0
 11
77.47501250000005
 21
585.0000004999999
 31
0.0
  0
LINE
  5
16F
  8
0
  6
CONTINUOUS
 62
     9
 10
77.47501250000005
 20
585.0
 30
0.0
 11
217.4750125
 21
585.0
 31
0.0
  0
LINE
  5
170
  8
0
  6
CONTINUOUS
 62
     9
 10
217.4750125
 20
585.0
 30
0.0
 11
217.4750125
 21
609.9999995
 31
0.0
  0
LINE
  5
171
  8
0
  6
CONTINUOUS
 62
     7
 10
72.97501249999999
 20
580.0
 30
0.0
 11
72.97501249999999
 21
615.0
 31
0.0
  0
LINE
  5
172
  8
0
  6
CONTINUOUS
 62
     7
 10
521.9750124999999
 20
580.0
 30
0.0
 11
222.9750125
 21
580.0
 31
0.0
  0
LINE
  5
173
  8
0
  6
CONTINUOUS
 62
     7
 10
521.9750124999999
 20
615.0
 30
0.0
 11
521.9750124999999
 21
580.0
 31
0.0
  0
LINE
  5
174
  8
0
  6
CONTINUOUS
 62
     9
 10
517.4750125
 20
610.0
 30
0.0
 11
227.475013
 21
610.0
 31
0.0
  0
LINE
  5
175
  8
0
  6
CONTINUOUS
 62
     9
 10
227.4750125
 20
610.0
 30
0.0
 11
227.4750125
 21
585.0000004999999
 31
0.0
  0
LINE
  5
176
  8
0
  6
CONTINUOUS
 62
     9
 10
227.4750125
 20
585.0
 30
0.0
 11
517.4750125
 21
585.0
 31
0.0
  0
LINE
  5
177
  8
0
  6
CONTINUOUS
 62
     9
 10
517.4750125
 20
585.0
 30
0.0
 11
517.4750125
 21
609.9999995
 31
0.0
  0
LINE
  5
178
  8
0
  6
CONTINUOUS
 62
     7
 10
222.9750125
 20
580.0
 30
0.0
 11
222.9750125
 21
615.0
 31
0.0
  0
LINE
  5
179
  8
0
  6
CONTINUOUS
 62
     7
 10
672.4750125
 20
580.0
 30
0.0
 11
522.9750125
 21
580.0
 31
0.0
  0
LINE
  5
17A
  8
0
  6
CONTINUOUS
 62
     7
 10
522.9750125
 20
580.0
 30
0.0
 11
522.9750125
 21
615.0
 31
0.0
  0
LINE
  5
17B
  8
0
  6
CONTINUOUS
 62
     9
 10
667.4750124999999
 20
610.0
 30
0.0
 11
527.4750130000001
 21
610.0
 31
0.0
  0
LINE
  5
17C
  8
0
  6
CONTINUOUS
 62
     9
 10
527.4750125
 20
610.0
 30
0.0
 11
527.4750125
 21
585.0000004999999
 31
0.0
  0
LINE
  5
17D
  8
0
  6
CONTINUOUS
 62
     9
 10
527.4750125
 20
585.0
 30
0.0
 11
667.4750124999999
 21
585.0
 31
0.0
  0
LINE
  5
17E
  8
0
  6
CONTINUOUS
 62
     9
 10
667.4750124999999
 20
585.0
 30
0.0
 11
667.4750124999999
 21
609.9999995
 31
0.0
  0
LINE
  5
17F
  8
0
  6
CONTINUOUS
 62
     7
 10
672.4750125
 20
615.0
 30
0.0
 11
672.4750125
 21
580.0
 31
0.0
  0
ENDBLK
  8
0
  0
ENDSEC
  0
SECTION
  2
ENTITIES
  0
INSERT
  5
180
  8
0
  6
CONTINUOUS
 62
     7
  2
D_FRAME_VIEW_1300
 10
0.0
 20
0.0
 30
0.0
  0
TEXT
  5
181
  8
0
  6
CONTINUOUS
 62
     7
 10
655.0514880580217
 20
557.1852382143303
 30
0.0
 40
3.0
  1
MMH-NSBH
  0
ENDSEC
  0
EOF
